  0
SECTION
  2
HEADER
  9
$ACADVER
  1
AC1032
  9
$ACADMAINTVER
 90
      233
  9
$DWGCODEPAGE
  3
ANSI_932
  9
$LASTSAVEDBY
  1
taketo.kashima
  9
$REQUIREDVERSIONS
160
                 0
  9
$INSBASE
 10
268.4340021441085
 20
176.78614296069
 30
0.0
  9
$EXTMIN
 10
0.0000015302645124
 20
-385.8333637365054
 30
0.0
  9
$EXTMAX
 10
729.5737236911236
 20
296.9999993951912
 30
0.0
  9
$LIMMIN
 10
0.0
 20
0.0
  9
$LIMMAX
 10
554.0
 20
395.0
  9
$ORTHOMODE
 70
     1
  9
$REGENMODE
 70
     1
  9
$FILLMODE
 70
     1
  9
$QTEXTMODE
 70
     0
  9
$MIRRTEXT
 70
     1
  9
$LTSCALE
 40
2.0
  9
$ATTMODE
 70
     1
  9
$TEXTSIZE
 40
21.0
  9
$TRACEWID
 40
0.1
  9
$TEXTSTYLE
  7
STYLE1
  9
$CLAYER
  8
SUNPOU
  9
$CELTYPE
  6
BYLAYER
  9
$CECOLOR
 62
   256
  9
$CELTSCALE
 40
2.0
  9
$DISPSILH
 70
     0
  9
$DIMSCALE
 40
1.0
  9
$DIMASZ
 40
1.0
  9
$DIMEXO
 40
1.0
  9
$DIMDLI
 40
6.0
  9
$DIMRND
 40
0.0
  9
$DIMDLE
 40
0.0
  9
$DIMEXE
 40
1.0
  9
$DIMTP
 40
0.0
  9
$DIMTM
 40
0.0
  9
$DIMTXT
 40
4.0
  9
$DIMCEN
 40
0.0
  9
$DIMTSZ
 40
0.0
  9
$DIMTOL
 70
     0
  9
$DIMLIM
 70
     0
  9
$DIMTIH
 70
     0
  9
$DIMTOH
 70
     0
  9
$DIMSE1
 70
     0
  9
$DIMSE2
 70
     0
  9
$DIMTAD
 70
     2
  9
$DIMZIN
 70
     8
  9
$DIMBLK
  1

  9
$DIMASO
 70
     1
  9
$DIMSHO
 70
     1
  9
$DIMPOST
  1

  9
$DIMAPOST
  1

  9
$DIMALT
 70
     0
  9
$DIMALTD
 70
     2
  9
$DIMALTF
 40
25.4
  9
$DIMLFAC
 40
1.0
  9
$DIMTOFL
 70
     1
  9
$DIMTVP
 40
0.0
  9
$DIMTIX
 70
     0
  9
$DIMSOXD
 70
     0
  9
$DIMSAH
 70
     1
  9
$DIMBLK1
  1
Y1
  9
$DIMBLK2
  1
Y1
  9
$DIMSTYLE
  2
STANDARD1
  9
$DIMCLRD
 70
     0
  9
$DIMCLRE
 70
     0
  9
$DIMCLRT
 70
     1
  9
$DIMTFAC
 40
1.0
  9
$DIMGAP
 40
0.5
  9
$DIMJUST
 70
     0
  9
$DIMSD1
 70
     0
  9
$DIMSD2
 70
     0
  9
$DIMTOLJ
 70
     1
  9
$DIMTZIN
 70
     8
  9
$DIMALTZ
 70
     8
  9
$DIMALTTZ
 70
     8
  9
$DIMUPT
 70
     0
  9
$DIMDEC
 70
     4
  9
$DIMTDEC
 70
     4
  9
$DIMALTU
 70
     2
  9
$DIMALTTD
 70
     2
  9
$DIMTXSTY
  7
KANJI
  9
$DIMAUNIT
 70
     0
  9
$DIMADEC
 70
     0
  9
$DIMALTRND
 40
0.0
  9
$DIMAZIN
 70
     0
  9
$DIMDSEP
 70
    46
  9
$DIMATFIT
 70
     3
  9
$DIMFRAC
 70
     0
  9
$DIMLDRBLK
  1
Y1
  9
$DIMLUNIT
 70
     2
  9
$DIMLWD
 70
    -2
  9
$DIMLWE
 70
    -2
  9
$DIMTMOVE
 70
     0
  9
$DIMFXL
 40
1.0
  9
$DIMFXLON
 70
     0
  9
$DIMJOGANG
 40
0.7853981633974483
  9
$DIMTFILL
 70
     0
  9
$DIMTFILLCLR
 70
     0
  9
$DIMARCSYM
 70
     0
  9
$DIMLTYPE
  6

  9
$DIMLTEX1
  6

  9
$DIMLTEX2
  6

  9
$DIMTXTDIRECTION
 70
     0
  9
$LUNITS
 70
     2
  9
$LUPREC
 70
     4
  9
$SKETCHINC
 40
0.1
  9
$FILLETRAD
 40
0.1
  9
$AUNITS
 70
     0
  9
$AUPREC
 70
     0
  9
$MENU
  1
tcad-s
  9
$ELEVATION
 40
0.0
  9
$PELEVATION
 40
0.0
  9
$THICKNESS
 40
0.0
  9
$LIMCHECK
 70
     0
  9
$CHAMFERA
 40
0.0
  9
$CHAMFERB
 40
0.0
  9
$CHAMFERC
 40
0.0
  9
$CHAMFERD
 40
0.0
  9
$SKPOLY
 70
     0
  9
$TDCREATE
 40
2451123.360000000
  9
$TDUCREATE
 40
2451122.985008739
  9
$TDUPDATE
 40
2460357.629467593
  9
$TDUUPDATE
 40
2460357.254467593
  9
$TDINDWG
 40
0.5964376620
  9
$TDUSRTIMER
 40
0.5964376620
  9
$USRTIMER
 70
     1
  9
$ANGBASE
 50
0.0
  9
$ANGDIR
 70
     0
  9
$PDMODE
 70
     0
  9
$PDSIZE
 40
2.399999999999999
  9
$PLINEWID
 40
0.0
  9
$SPLFRAME
 70
     0
  9
$SPLINETYPE
 70
     6
  9
$SPLINESEGS
 70
     8
  9
$HANDSEED
  5
73EF
  9
$SURFTAB1
 70
     6
  9
$SURFTAB2
 70
     6
  9
$SURFTYPE
 70
     6
  9
$SURFU
 70
     6
  9
$SURFV
 70
     6
  9
$UCSBASE
  2

  9
$UCSNAME
  2

  9
$UCSORG
 10
0.0
 20
0.0
 30
0.0
  9
$UCSXDIR
 10
1.0
 20
0.0
 30
0.0
  9
$UCSYDIR
 10
0.0
 20
1.0
 30
0.0
  9
$UCSORTHOREF
  2

  9
$UCSORTHOVIEW
 70
     0
  9
$UCSORGTOP
 10
0.0
 20
0.0
 30
0.0
  9
$UCSORGBOTTOM
 10
0.0
 20
0.0
 30
0.0
  9
$UCSORGLEFT
 10
0.0
 20
0.0
 30
0.0
  9
$UCSORGRIGHT
 10
0.0
 20
0.0
 30
0.0
  9
$UCSORGFRONT
 10
0.0
 20
0.0
 30
0.0
  9
$UCSORGBACK
 10
0.0
 20
0.0
 30
0.0
  9
$PUCSBASE
  2

  9
$PUCSNAME
  2

  9
$PUCSORG
 10
0.0
 20
0.0
 30
0.0
  9
$PUCSXDIR
 10
1.0
 20
0.0
 30
0.0
  9
$PUCSYDIR
 10
0.0
 20
1.0
 30
0.0
  9
$PUCSORTHOREF
  2

  9
$PUCSORTHOVIEW
 70
     0
  9
$PUCSORGTOP
 10
0.0
 20
0.0
 30
0.0
  9
$PUCSORGBOTTOM
 10
0.0
 20
0.0
 30
0.0
  9
$PUCSORGLEFT
 10
0.0
 20
0.0
 30
0.0
  9
$PUCSORGRIGHT
 10
0.0
 20
0.0
 30
0.0
  9
$PUCSORGFRONT
 10
0.0
 20
0.0
 30
0.0
  9
$PUCSORGBACK
 10
0.0
 20
0.0
 30
0.0
  9
$USERI1
 70
     0
  9
$USERI2
 70
     0
  9
$USERI3
 70
     0
  9
$USERI4
 70
     0
  9
$USERI5
 70
     0
  9
$USERR1
 40
0.0
  9
$USERR2
 40
0.0
  9
$USERR3
 40
0.0
  9
$USERR4
 40
0.0
  9
$USERR5
 40
0.0
  9
$WORLDVIEW
 70
     1
  9
$SHADEDGE
 70
     3
  9
$SHADEDIF
 70
    70
  9
$TILEMODE
 70
     1
  9
$MAXACTVP
 70
    16
  9
$PINSBASE
 10
0.0
 20
0.0
 30
0.0
  9
$PLIMCHECK
 70
     0
  9
$PEXTMIN
 10
1.000000000000000E+20
 20
1.000000000000000E+20
 30
1.000000000000000E+20
  9
$PEXTMAX
 10
-1.000000000000000E+20
 20
-1.000000000000000E+20
 30
-1.000000000000000E+20
  9
$PLIMMIN
 10
0.0
 20
0.0
  9
$PLIMMAX
 10
12.0
 20
9.0
  9
$UNITMODE
 70
     0
  9
$VISRETAIN
 70
     0
  9
$PLINEGEN
 70
     0
  9
$PSLTSCALE
 70
     0
  9
$TREEDEPTH
 70
  3020
  9
$CMLSTYLE
  2
STANDARD
  9
$CMLJUST
 70
     0
  9
$CMLSCALE
 40
1.0
  9
$PROXYGRAPHICS
 70
     1
  9
$MEASUREMENT
 70
     0
  9
$CELWEIGHT
370
    -1
  9
$ENDCAPS
280
     0
  9
$JOINSTYLE
280
     0
  9
$LWDISPLAY
290
     0
  9
$INSUNITS
 70
     0
  9
$HYPERLINKBASE
  1

  9
$STYLESHEET
  1
INABA-CAD(IKEBE).ctb
  9
$XEDIT
290
     1
  9
$CEPSNTYPE
380
     0
  9
$PSTYLEMODE
290
     1
  9
$FINGERPRINTGUID
  2
{B6AE1D1E-7BDF-405E-A7D1-2061AEF0A45E}
  9
$VERSIONGUID
  2
{583AA9A3-915F-574A-9726-0536AE8E149D}
  9
$EXTNAMES
290
     1
  9
$PSVPSCALE
 40
0.0
  9
$OLESTARTUP
290
     0
  9
$SORTENTS
280
   127
  9
$INDEXCTL
280
     0
  9
$HIDETEXT
280
     0
  9
$XCLIPFRAME
280
     2
  9
$HALOGAP
280
     0
  9
$OBSCOLOR
 70
   257
  9
$OBSLTYPE
280
     0
  9
$INTERSECTIONDISPLAY
280
     0
  9
$INTERSECTIONCOLOR
 70
   257
  9
$DIMASSOC
280
     1
  9
$PROJECTNAME
  1

  9
$CAMERADISPLAY
290
     0
  9
$LENSLENGTH
 40
50.0
  9
$CAMERAHEIGHT
 40
0.0
  9
$STEPSPERSEC
 40
2.0
  9
$STEPSIZE
 40
6.0
  9
$3DDWFPREC
 40
2.0
  9
$PSOLWIDTH
 40
0.25
  9
$PSOLHEIGHT
 40
4.0
  9
$LOFTANG1
 40
1.570796326794896
  9
$LOFTANG2
 40
1.570796326794896
  9
$LOFTMAG1
 40
0.0
  9
$LOFTMAG2
 40
0.0
  9
$LOFTPARAM
 70
     7
  9
$LOFTNORMALS
280
     1
  9
$LATITUDE
 40
37.795
  9
$LONGITUDE
 40
-122.394
  9
$NORTHDIRECTION
 40
0.0
  9
$TIMEZONE
 70
 -8000
  9
$LIGHTGLYPHDISPLAY
280
     1
  9
$TILEMODELIGHTSYNCH
280
     1
  9
$CMATERIAL
347
59E7
  9
$SOLIDHIST
280
     0
  9
$SHOWHIST
280
     1
  9
$DWFFRAME
280
     2
  9
$DGNFRAME
280
     0
  9
$REALWORLDSCALE
290
     1
  9
$INTERFERECOLOR
 62
     1
  9
$INTERFEREOBJVS
345
5A09
  9
$INTERFEREVPVS
346
5A06
  9
$CSHADOW
280
     0
  9
$SHADOWPLANELOCATION
 40
0.0
  0
ENDSEC
  0
SECTION
  2
CLASSES
  0
CLASS
  1
DICTIONARYVAR
  2
AcDbDictionaryVar
  3
ObjectDBX Classes
 90
        0
 91
       13
280
     0
281
     0
  0
CLASS
  1
SORTENTSTABLE
  2
AcDbSortentsTable
  3
ObjectDBX Classes
 90
        0
 91
        1
280
     0
281
     0
  0
CLASS
  1
ACDBDICTIONARYWDFLT
  2
AcDbDictionaryWithDefault
  3
ObjectDBX Classes
 90
        0
 91
        1
280
     0
281
     0
  0
CLASS
  1
MATERIAL
  2
AcDbMaterial
  3
ObjectDBX Classes
 90
     1153
 91
        3
280
     0
281
     0
  0
CLASS
  1
VISUALSTYLE
  2
AcDbVisualStyle
  3
ObjectDBX Classes
 90
     4095
 91
       24
280
     0
281
     0
  0
CLASS
  1
TABLESTYLE
  2
AcDbTableStyle
  3
ObjectDBX Classes
 90
     4095
 91
        1
280
     0
281
     0
  0
CLASS
  1
SCALE
  2
AcDbScale
  3
ObjectDBX Classes
 90
     1153
 91
       17
280
     0
281
     0
  0
CLASS
  1
MLEADERSTYLE
  2
AcDbMLeaderStyle
  3
ACDB_MLEADERSTYLE_CLASS
 90
     4095
 91
        1
280
     0
281
     0
  0
CLASS
  1
ACDBSECTIONVIEWSTYLE
  2
AcDbSectionViewStyle
  3
ObjectDBX Classes
 90
     1025
 91
        2
280
     0
281
     0
  0
CLASS
  1
ACDBDETAILVIEWSTYLE
  2
AcDbDetailViewStyle
  3
ObjectDBX Classes
 90
     1025
 91
        2
280
     0
281
     0
  0
CLASS
  1
CELLSTYLEMAP
  2
AcDbCellStyleMap
  3
ObjectDBX Classes
 90
     1152
 91
        1
280
     0
281
     0
  0
ENDSEC
  0
SECTION
  2
TABLES
  0
TABLE
  2
VPORT
  5
8
330
0
100
AcDbSymbolTable
 70
     1
  0
VPORT
  5
59E4
330
8
100
AcDbSymbolTableRecord
100
AcDbViewportTableRecord
  2
*Active
 70
     0
 10
0.0
 20
0.0
 11
1.0
 21
1.0
 12
685.0245838364335
 22
-23.52495190671743
 13
0.0
 23
0.0
 14
1.0
 24
1.0
 15
0.0
 25
0.0
 16
0.0
 26
0.0
 36
1.0
 17
0.0
 27
0.0
 37
0.0
 40
248.6959944880309
 41
2.213333333333333
 42
50.0
 43
0.0
 44
0.0
 50
0.0
 51
0.0
 71
     0
 72
  1000
 73
     1
 74
     1
 75
     0
 76
     0
 77
     0
 78
     1
281
     0
 65
     1
110
0.0
120
0.0
130
0.0
111
1.0
121
0.0
131
0.0
112
0.0
122
1.0
132
0.0
 79
     0
146
0.0
348
5A05
 60
     3
 61
     5
292
     1
282
     1
141
0.0
142
0.0
 63
   250
421
  3355443
1001
ACAD_NAV_VCDISPLAY
1070
     3
  0
ENDTAB
  0
TABLE
  2
LTYPE
  5
5
330
0
100
AcDbSymbolTable
 70
     4
  0
LTYPE
  5
11
330
5
100
AcDbSymbolTableRecord
100
AcDbLinetypeTableRecord
  2
BYBLOCK
 70
     0
  3

 72
    65
 73
     0
 40
0.0
  0
LTYPE
  5
12
330
5
100
AcDbSymbolTableRecord
100
AcDbLinetypeTableRecord
  2
BYLAYER
 70
     0
  3

 72
    65
 73
     0
 40
0.0
  0
LTYPE
  5
13
330
5
100
AcDbSymbolTableRecord
100
AcDbLinetypeTableRecord
  2
CONTINUOUS
 70
     0
  3
Solid line
 72
    65
 73
     0
 40
0.0
  0
LTYPE
  5
3C
330
5
100
AcDbSymbolTableRecord
100
AcDbLinetypeTableRecord
  2
CENTER
 70
     0
  3
____ _ ____ _ ____ _ ____ _ ____ _ ____ _ ____ 
 72
    65
 73
     4
 40
2.0
 49
1.25
 74
     0
 49
-0.25
 74
     0
 49
0.25
 74
     0
 49
-0.25
 74
     0
  0
LTYPE
  5
529B
330
5
100
AcDbSymbolTableRecord
100
AcDbLinetypeTableRecord
  2
HIDDEN
 70
     0
  3
__ __ __ __ __ __ __ __ __ __ __ __ __ __ __ __
 72
    65
 73
     2
 40
0.375
 49
0.25
 74
     0
 49
-0.125
 74
     0
  0
LTYPE
  5
634B
330
5
100
AcDbSymbolTableRecord
100
AcDbLinetypeTableRecord
  2
PHANTOM
 70
     0
  3
______  __  __  ______  __  __  ______  __  __ 
 72
    65
 73
     6
 40
2.5
 49
1.25
 74
     0
 49
-0.25
 74
     0
 49
0.25
 74
     0
 49
-0.25
 74
     0
 49
0.25
 74
     0
 49
-0.25
 74
     0
  0
ENDTAB
  0
TABLE
  2
LAYER
  5
2
102
{ACAD_XDICTIONARY
360
6357
102
}
330
0
100
AcDbSymbolTable
 70
    10
  0
LAYER
  5
E
102
{ACAD_XDICTIONARY
360
5A3A
102
}
330
2
100
AcDbSymbolTableRecord
100
AcDbLayerTableRecord
  2
0
 70
     0
 62
     7
  6
CONTINUOUS
370
    -3
390
58D3
347
59F7
348
0
  0
LAYER
  5
43
102
{ACAD_XDICTIONARY
360
5A3C
102
}
330
2
100
AcDbSymbolTableRecord
100
AcDbLayerTableRecord
  2
C4
 70
     0
 62
     3
  6
CONTINUOUS
370
    -3
390
58D3
347
59F7
348
0
  0
LAYER
  5
49
102
{ACAD_XDICTIONARY
360
5A3E
102
}
330
2
100
AcDbSymbolTableRecord
100
AcDbLayerTableRecord
  2
SUNPOU
 70
     0
 62
     2
  6
CONTINUOUS
370
    -3
390
58D3
347
59F7
348
0
  0
LAYER
  5
4C
102
{ACAD_XDICTIONARY
360
5A40
102
}
330
2
100
AcDbSymbolTableRecord
100
AcDbLayerTableRecord
  2
WAKU
 70
     0
 62
     7
  6
CONTINUOUS
370
    -3
390
58D3
347
59F7
348
0
  0
LAYER
  5
E1F
330
2
100
AcDbSymbolTableRecord
100
AcDbLayerTableRecord
  2
DEFPOINTS
 70
     0
 62
     7
  6
CONTINUOUS
290
     0
370
    -3
390
58D3
347
59F7
348
0
  0
LAYER
  5
634C
102
{ACAD_XDICTIONARY
360
634D
102
}
330
2
100
AcDbSymbolTableRecord
100
AcDbLayerTableRecord
  2
C6
 70
     0
 62
     2
  6
CONTINUOUS
370
    -3
390
58D3
347
59F7
348
0
  0
LAYER
  5
634E
102
{ACAD_XDICTIONARY
360
634F
102
}
330
2
100
AcDbSymbolTableRecord
100
AcDbLayerTableRecord
  2
SUNPOUN
 70
     0
 62
     2
  6
CONTINUOUS
370
    -3
390
58D3
347
59F7
348
0
  0
LAYER
  5
6350
102
{ACAD_XDICTIONARY
360
6351
102
}
330
2
100
AcDbSymbolTableRecord
100
AcDbLayerTableRecord
  2
SUNPOUA
 70
     0
 62
     2
  6
CONTINUOUS
370
    -3
390
58D3
347
59F7
348
0
  0
LAYER
  5
6352
102
{ACAD_XDICTIONARY
360
6353
102
}
330
2
100
AcDbSymbolTableRecord
100
AcDbLayerTableRecord
  2
2寸法線
 70
     0
 62
     2
  6
CONTINUOUS
370
    -3
390
58D3
347
59F7
348
0
  0
LAYER
  5
6354
102
{ACAD_XDICTIONARY
360
6355
102
}
330
2
100
AcDbSymbolTableRecord
100
AcDbLayerTableRecord
  2
6図枠
 70
     0
 62
     7
  6
CONTINUOUS
370
    -3
390
58D3
347
59F7
348
0
  0
ENDTAB
  0
TABLE
  2
STYLE
  5
3
330
0
100
AcDbSymbolTable
 70
     4
  0
STYLE
  5
F
330
3
100
AcDbSymbolTableRecord
100
AcDbTextStyleTableRecord
  2
STANDARD
 70
     0
 40
0.0
 41
1.0
 50
0.0
 71
     0
 42
0.2
  3
txt
  4

  0
STYLE
  5
3B
330
3
100
AcDbSymbolTableRecord
100
AcDbTextStyleTableRecord
  2
KANJI
 70
     0
 40
0.0
 41
1.0
 50
0.0
 71
     0
 42
21.0
  3
simplex
  4
bigfont
  0
STYLE
  5
3D39
330
3
100
AcDbSymbolTableRecord
100
AcDbTextStyleTableRecord
  2
ｺﾞｼｯｸ
 70
     0
 40
0.0
 41
1.0
 50
0.0
 71
     0
 42
2.5
  3
MS PGothic.ttf
  4

1001
ACAD
1000
MS PGothic
1071
    32818
  0
STYLE
  5
5443
330
3
100
AcDbSymbolTableRecord
100
AcDbTextStyleTableRecord
  2
STYLE1
 70
     0
 40
0.0
 41
1.0
 50
0.0
 71
     0
 42
21.0
  3
simplex.shx
  4
bigfont.shx
  0
ENDTAB
  0
TABLE
  2
VIEW
  5
6
330
0
100
AcDbSymbolTable
 70
     0
  0
ENDTAB
  0
TABLE
  2
UCS
  5
7
330
0
100
AcDbSymbolTable
 70
     0
  0
ENDTAB
  0
TABLE
  2
APPID
  5
9
330
0
100
AcDbSymbolTable
 70
     4
  0
APPID
  5
10
330
9
100
AcDbSymbolTableRecord
100
AcDbRegAppTableRecord
  2
ACAD
 70
     0
  0
APPID
  5
5A42
330
9
100
AcDbSymbolTableRecord
100
AcDbRegAppTableRecord
  2
ACAD_NAV_VCDISPLAY
 70
     0
  0
APPID
  5
6356
330
9
100
AcDbSymbolTableRecord
100
AcDbRegAppTableRecord
  2
ACAD_PSEXT
 70
     0
  0
APPID
  5
6F38
330
9
100
AcDbSymbolTableRecord
100
AcDbRegAppTableRecord
  2
ACAD_EXEMPT_FROM_CAD_STANDARDS
 70
     0
  0
ENDTAB
  0
TABLE
  2
DIMSTYLE
  5
A
330
0
100
AcDbSymbolTable
 70
     2
100
AcDbDimStyleTable
 71
     2
340
3BD6
340
E11
  0
DIMSTYLE
105
E11
102
{ACAD_REACTORS
330
5605
102
}
330
A
100
AcDbSymbolTableRecord
100
AcDbDimStyleTableRecord
  2
STANDARD
 70
     0
 41
1.0
 42
1.0
 43
6.0
 44
1.0
 73
     0
 74
     0
 77
     1
 78
     8
140
2.5
141
0.0
147
0.5
172
     1
173
     1
178
   256
284
     8
285
     8
286
     8
340
3B
341
39F6
343
39F6
344
39F6
  0
DIMSTYLE
105
3BD6
330
A
100
AcDbSymbolTableRecord
100
AcDbDimStyleTableRecord
  2
STANDARD1
 70
     0
 41
1.0
 42
1.0
 43
6.0
 44
1.0
 73
     0
 74
     0
 77
     1
 78
     8
140
4.0
141
0.0
147
0.5
172
     1
173
     1
178
     1
284
     8
285
     8
286
     8
340
3B
341
FB2
343
FB2
344
FB2
  0
ENDTAB
  0
TABLE
  2
BLOCK_RECORD
  5
1
330
0
100
AcDbSymbolTable
 70
   117
  0
BLOCK_RECORD
  5
17
102
{ACAD_XDICTIONARY
360
3F09
102
}
330
1
100
AcDbSymbolTableRecord
100
AcDbBlockTableRecord
  2
*MODEL_SPACE
340
58D6
 70
     0
280
     1
281
     0
  0
BLOCK_RECORD
  5
14
330
1
100
AcDbSymbolTableRecord
100
AcDbBlockTableRecord
  2
*PAPER_SPACE
340
58D7
 70
     0
280
     1
281
     0
  0
BLOCK_RECORD
  5
FB2
330
1
100
AcDbSymbolTableRecord
100
AcDbBlockTableRecord
  2
Y1
340
0
102
{BLKREFS
331
61F4
331
61F5
331
6206
331
6207
331
5DE6
331
5DE7
331
5E01
331
5E02
331
5DDD
331
5DDE
331
5909
331
590A
331
5912
331
5913
331
591B
331
591C
331
5924
331
5925
331
5936
331
5937
331
59D1
331
59D2
331
59DA
331
59DB
331
705D
331
705E
331
7156
331
7157
331
6F4A
331
6F4B
331
6F57
331
6F58
331
6F6E
331
6F6F
331
706F
331
7070
331
7078
331
7079
331
70C4
331
70C5
331
70CD
331
70CE
331
70DB
331
70DC
102
}
 70
     0
280
     1
281
     0
  0
BLOCK_RECORD
  5
39F6
330
1
100
AcDbSymbolTableRecord
100
AcDbBlockTableRecord
  2
Y2
340
0
102
{BLKREFS
331
5E13
331
59CB
331
715F
102
}
 70
     0
280
     1
281
     0
  0
BLOCK_RECORD
  5
3F0D
330
1
100
AcDbSymbolTableRecord
100
AcDbBlockTableRecord
  2
A$C23AC5EC5
340
0
 70
     0
280
     1
281
     0
  0
BLOCK_RECORD
  5
41C0
330
1
100
AcDbSymbolTableRecord
100
AcDbBlockTableRecord
  2
A$C128E6753
340
0
 70
     0
280
     1
281
     0
  0
BLOCK_RECORD
  5
5297
330
1
100
AcDbSymbolTableRecord
100
AcDbBlockTableRecord
  2
YAN2
340
0
 70
     0
280
     1
281
     0
  0
BLOCK_RECORD
  5
55F9
330
1
100
AcDbSymbolTableRecord
100
AcDbBlockTableRecord
  2
*D5
340
0
 70
     0
280
     1
281
     0
  0
BLOCK_RECORD
  5
5624
330
1
100
AcDbSymbolTableRecord
100
AcDbBlockTableRecord
  2
*D6
340
0
 70
     0
280
     1
281
     0
  0
BLOCK_RECORD
  5
5668
330
1
100
AcDbSymbolTableRecord
100
AcDbBlockTableRecord
  2
*D7
340
0
 70
     0
280
     1
281
     0
  0
BLOCK_RECORD
  5
56AE
330
1
100
AcDbSymbolTableRecord
100
AcDbBlockTableRecord
  2
*D8
340
0
 70
     0
280
     1
281
     0
  0
BLOCK_RECORD
  5
56DC
330
1
100
AcDbSymbolTableRecord
100
AcDbBlockTableRecord
  2
*D9
340
0
 70
     0
280
     1
281
     0
  0
BLOCK_RECORD
  5
5819
330
1
100
AcDbSymbolTableRecord
100
AcDbBlockTableRecord
  2
*D10
340
0
 70
     0
280
     1
281
     0
  0
BLOCK_RECORD
  5
593D
330
1
100
AcDbSymbolTableRecord
100
AcDbBlockTableRecord
  2
*D11
340
0
 70
     0
280
     1
281
     0
  0
BLOCK_RECORD
  5
5992
330
1
100
AcDbSymbolTableRecord
100
AcDbBlockTableRecord
  2
*D12
340
0
 70
     0
280
     1
281
     0
  0
BLOCK_RECORD
  5
5D74
330
1
100
AcDbSymbolTableRecord
100
AcDbBlockTableRecord
  2
*D13
340
0
 70
     0
280
     1
281
     0
  0
BLOCK_RECORD
  5
5D80
330
1
100
AcDbSymbolTableRecord
100
AcDbBlockTableRecord
  2
*D14
340
0
 70
     0
280
     1
281
     0
  0
BLOCK_RECORD
  5
5D8C
330
1
100
AcDbSymbolTableRecord
100
AcDbBlockTableRecord
  2
*D15
340
0
 70
     0
280
     1
281
     0
  0
BLOCK_RECORD
  5
5D98
330
1
100
AcDbSymbolTableRecord
100
AcDbBlockTableRecord
  2
*D16
340
0
 70
     0
280
     1
281
     0
  0
BLOCK_RECORD
  5
5DB0
330
1
100
AcDbSymbolTableRecord
100
AcDbBlockTableRecord
  2
*D18
340
0
 70
     0
280
     1
281
     0
  0
BLOCK_RECORD
  5
5DBC
330
1
100
AcDbSymbolTableRecord
100
AcDbBlockTableRecord
  2
*D19
340
0
 70
     0
280
     1
281
     0
  0
BLOCK_RECORD
  5
5DC8
330
1
100
AcDbSymbolTableRecord
100
AcDbBlockTableRecord
  2
*D20
340
0
 70
     0
280
     1
281
     0
  0
BLOCK_RECORD
  5
620C
330
1
100
AcDbSymbolTableRecord
100
AcDbBlockTableRecord
  2
1
340
0
102
{BLKREFS
331
6E52
331
6E58
331
6E59
331
6E61
331
6E67
331
6E68
331
6E70
331
6E71
331
6E79
331
6E7A
331
6E82
331
6E88
331
6E8F
331
6E90
331
6E99
331
6E9A
331
6EA3
331
6EA4
331
6EAD
331
6EAE
331
6EB5
331
6EBE
331
6EBF
331
6EC7
331
6EC8
331
6ED0
331
6ED1
331
6ED9
331
6EDA
331
6EE2
331
6EE3
331
6EEB
331
6EF1
331
6EF7
331
6EF8
331
6F00
331
6F01
331
6F09
331
6F0F
331
6F10
331
6F18
331
6F19
331
6F21
331
6F22
331
6E43
331
6E44
331
6E4C
102
}
 70
     0
280
     1
281
     0
  0
BLOCK_RECORD
  5
6D05
330
1
100
AcDbSymbolTableRecord
100
AcDbBlockTableRecord
  2
*D58
340
0
 70
     0
280
     1
281
     0
  0
BLOCK_RECORD
  5
6D11
330
1
100
AcDbSymbolTableRecord
100
AcDbBlockTableRecord
  2
*D59
340
0
 70
     0
280
     1
281
     0
  0
BLOCK_RECORD
  5
6D1A
330
1
100
AcDbSymbolTableRecord
100
AcDbBlockTableRecord
  2
*D60
340
0
 70
     0
280
     1
281
     0
  0
BLOCK_RECORD
  5
6D23
330
1
100
AcDbSymbolTableRecord
100
AcDbBlockTableRecord
  2
*D61
340
0
 70
     0
280
     1
281
     0
  0
BLOCK_RECORD
  5
6D2F
330
1
100
AcDbSymbolTableRecord
100
AcDbBlockTableRecord
  2
*D62
340
0
 70
     0
280
     1
281
     0
  0
BLOCK_RECORD
  5
6D38
330
1
100
AcDbSymbolTableRecord
100
AcDbBlockTableRecord
  2
*D63
340
0
 70
     0
280
     1
281
     0
  0
BLOCK_RECORD
  5
6D44
330
1
100
AcDbSymbolTableRecord
100
AcDbBlockTableRecord
  2
*D64
340
0
 70
     0
280
     1
281
     0
  0
BLOCK_RECORD
  5
6D50
330
1
100
AcDbSymbolTableRecord
100
AcDbBlockTableRecord
  2
*D65
340
0
 70
     0
280
     1
281
     0
  0
BLOCK_RECORD
  5
6D5C
330
1
100
AcDbSymbolTableRecord
100
AcDbBlockTableRecord
  2
*D66
340
0
 70
     0
280
     1
281
     0
  0
BLOCK_RECORD
  5
6D65
330
1
100
AcDbSymbolTableRecord
100
AcDbBlockTableRecord
  2
*D67
340
0
 70
     0
280
     1
281
     0
  0
BLOCK_RECORD
  5
6D6E
330
1
100
AcDbSymbolTableRecord
100
AcDbBlockTableRecord
  2
*D68
340
0
 70
     0
280
     1
281
     0
  0
BLOCK_RECORD
  5
6D7B
330
1
100
AcDbSymbolTableRecord
100
AcDbBlockTableRecord
  2
*D69
340
0
 70
     0
280
     1
281
     0
  0
BLOCK_RECORD
  5
6D88
330
1
100
AcDbSymbolTableRecord
100
AcDbBlockTableRecord
  2
*D70
340
0
 70
     0
280
     1
281
     0
  0
BLOCK_RECORD
  5
6D95
330
1
100
AcDbSymbolTableRecord
100
AcDbBlockTableRecord
  2
*D71
340
0
 70
     0
280
     1
281
     0
  0
BLOCK_RECORD
  5
6DA2
330
1
100
AcDbSymbolTableRecord
100
AcDbBlockTableRecord
  2
*D72
340
0
 70
     0
280
     1
281
     0
  0
BLOCK_RECORD
  5
6DAC
330
1
100
AcDbSymbolTableRecord
100
AcDbBlockTableRecord
  2
*D73
340
0
 70
     0
280
     1
281
     0
  0
BLOCK_RECORD
  5
6DB9
330
1
100
AcDbSymbolTableRecord
100
AcDbBlockTableRecord
  2
*D74
340
0
 70
     0
280
     1
281
     0
  0
BLOCK_RECORD
  5
6DC5
330
1
100
AcDbSymbolTableRecord
100
AcDbBlockTableRecord
  2
*D75
340
0
 70
     0
280
     1
281
     0
  0
BLOCK_RECORD
  5
6DD1
330
1
100
AcDbSymbolTableRecord
100
AcDbBlockTableRecord
  2
*D76
340
0
 70
     0
280
     1
281
     0
  0
BLOCK_RECORD
  5
6DDD
330
1
100
AcDbSymbolTableRecord
100
AcDbBlockTableRecord
  2
*D77
340
0
 70
     0
280
     1
281
     0
  0
BLOCK_RECORD
  5
6DE9
330
1
100
AcDbSymbolTableRecord
100
AcDbBlockTableRecord
  2
*D78
340
0
 70
     0
280
     1
281
     0
  0
BLOCK_RECORD
  5
6DF2
330
1
100
AcDbSymbolTableRecord
100
AcDbBlockTableRecord
  2
*D79
340
0
 70
     0
280
     1
281
     0
  0
BLOCK_RECORD
  5
6DFB
330
1
100
AcDbSymbolTableRecord
100
AcDbBlockTableRecord
  2
*D80
340
0
 70
     0
280
     1
281
     0
  0
BLOCK_RECORD
  5
6E07
330
1
100
AcDbSymbolTableRecord
100
AcDbBlockTableRecord
  2
*D81
340
0
 70
     0
280
     1
281
     0
  0
BLOCK_RECORD
  5
6E13
330
1
100
AcDbSymbolTableRecord
100
AcDbBlockTableRecord
  2
*D82
340
0
 70
     0
280
     1
281
     0
  0
BLOCK_RECORD
  5
6E1C
330
1
100
AcDbSymbolTableRecord
100
AcDbBlockTableRecord
  2
*D83
340
0
 70
     0
280
     1
281
     0
  0
BLOCK_RECORD
  5
6E28
330
1
100
AcDbSymbolTableRecord
100
AcDbBlockTableRecord
  2
*D84
340
0
 70
     0
280
     1
281
     0
  0
BLOCK_RECORD
  5
6E34
330
1
100
AcDbSymbolTableRecord
100
AcDbBlockTableRecord
  2
*D85
340
0
 70
     0
280
     1
281
     0
  0
BLOCK_RECORD
  5
6F43
330
1
100
AcDbSymbolTableRecord
100
AcDbBlockTableRecord
  2
*D86
340
0
 70
     0
280
     1
281
     0
  0
BLOCK_RECORD
  5
6F68
330
1
100
AcDbSymbolTableRecord
100
AcDbBlockTableRecord
  2
*D87
340
0
 70
     0
280
     1
281
     0
  0
BLOCK_RECORD
  5
6FF2
330
1
100
AcDbSymbolTableRecord
100
AcDbBlockTableRecord
  2
*D89
340
0
 70
     0
280
     1
281
     0
  0
BLOCK_RECORD
  5
6FFF
330
1
100
AcDbSymbolTableRecord
100
AcDbBlockTableRecord
  2
*D90
340
0
 70
     0
280
     1
281
     0
  0
BLOCK_RECORD
  5
700B
330
1
100
AcDbSymbolTableRecord
100
AcDbBlockTableRecord
  2
*D91
340
0
 70
     0
280
     1
281
     0
  0
BLOCK_RECORD
  5
7017
330
1
100
AcDbSymbolTableRecord
100
AcDbBlockTableRecord
  2
*D92
340
0
 70
     0
280
     1
281
     0
  0
BLOCK_RECORD
  5
702F
330
1
100
AcDbSymbolTableRecord
100
AcDbBlockTableRecord
  2
*D94
340
0
 70
     0
280
     1
281
     0
  0
BLOCK_RECORD
  5
70D4
330
1
100
AcDbSymbolTableRecord
100
AcDbBlockTableRecord
  2
*D97
340
0
 70
     0
280
     1
281
     0
  0
BLOCK_RECORD
  5
713E
330
1
100
AcDbSymbolTableRecord
100
AcDbBlockTableRecord
  2
*D98
340
0
 70
     0
280
     1
281
     0
  0
BLOCK_RECORD
  5
714A
330
1
100
AcDbSymbolTableRecord
100
AcDbBlockTableRecord
  2
*D99
340
0
 70
     0
280
     1
281
     0
  0
ENDTAB
  0
ENDSEC
  0
SECTION
  2
BLOCKS
  0
BLOCK
  5
4F
330
17
100
AcDbEntity
  8
0
100
AcDbBlockBegin
  2
*MODEL_SPACE
 70
     0
 10
0.0
 20
0.0
 30
0.0
  3
*MODEL_SPACE
  1

  0
ENDBLK
  5
50
330
17
100
AcDbEntity
  8
0
100
AcDbBlockEnd
  0
BLOCK
  5
4D
330
14
100
AcDbEntity
 67
     1
  8
0
100
AcDbBlockBegin
  2
*PAPER_SPACE
 70
     0
 10
0.0
 20
0.0
 30
0.0
  3
*PAPER_SPACE
  1

  0
ENDBLK
  5
4E
330
14
100
AcDbEntity
 67
     1
  8
0
100
AcDbBlockEnd
  0
BLOCK
  5
1487
330
FB2
100
AcDbEntity
  8
0
 48
2.0
100
AcDbBlockBegin
  2
Y1
 70
     0
 10
0.0
 20
0.0
 30
0.0
  3
Y1
  1

  0
LINE
  5
1488
330
FB2
100
AcDbEntity
  8
0
  6
ByBlock
 62
     0
 48
2.0
100
AcDbLine
 10
-4.000000000000056
 20
-0.0000000000000142
 30
0.0
 11
-0.0000000000000568
 21
0.0
 31
0.0
  0
SOLID
  5
1489
330
FB2
100
AcDbEntity
  8
0
  6
ByBlock
 62
     0
100
AcDbTrace
 10
-1.811110924292108
 20
0.485285709567151
 30
0.0
 11
-1.811110924292108
 21
-0.4852857095673784
 31
0.0
 12
-0.0000000000000568
 22
-0.0000000000000142
 32
0.0
 13
-0.0000000000000568
 23
-0.0000000000000142
 33
0.0
  0
ENDBLK
  5
148A
330
FB2
100
AcDbEntity
  8
0
 48
2.0
100
AcDbBlockEnd
  0
BLOCK
  5
39F7
330
39F6
100
AcDbEntity
  8
0
 48
2.0
100
AcDbBlockBegin
  2
Y2
 70
     0
 10
0.0
 20
0.0
 30
0.0
  3
Y2
  1

  0
SOLID
  5
39F8
330
39F6
100
AcDbEntity
  8
0
  6
ByBlock
 62
     0
100
AcDbTrace
 10
-1.811110924292108
 20
0.485285709567151
 30
0.0
 11
-1.811110924292108
 21
-0.4852857095673784
 31
0.0
 12
-0.0000000000000568
 22
-0.0000000000000142
 32
0.0
 13
-0.0000000000000568
 23
-0.0000000000000142
 33
0.0
  0
ENDBLK
  5
39F9
330
39F6
100
AcDbEntity
  8
0
 48
2.0
100
AcDbBlockEnd
  0
BLOCK
  5
3F17
330
3F0D
100
AcDbEntity
  8
0
 48
2.0
100
AcDbBlockBegin
  2
A$C23AC5EC5
 70
     0
 10
0.0
 20
0.0
 30
0.0
  3
A$C23AC5EC5
  1

  0
LINE
  5
3F0E
330
3F0D
100
AcDbEntity
  8
WAKU
  6
CENTER
 62
     2
100
AcDbLine
 10
3.99999933591232
 20
1.99999997127486
 30
0.0
 11
-0.0000006640876791
 21
1.99999997127486
 31
0.0
  0
LINE
  5
3F0F
330
3F0D
100
AcDbEntity
  8
WAKU
  6
CENTER
 62
     2
100
AcDbLine
 10
1.99999933591232
 20
3.99999997127486
 30
0.0
 11
1.99999933591232
 21
-0.0000000287251396
 31
0.0
  0
CIRCLE
  5
3F10
330
3F0D
100
AcDbEntity
  8
WAKU
 62
     2
 48
2.0
100
AcDbCircle
 10
1.99999933591232
 20
1.99999997127486
 30
0.0
 40
1.5
  0
LINE
  5
3F11
330
3F0D
100
AcDbEntity
  8
WAKU
  6
CENTER
 62
     2
100
AcDbLine
 10
10.75363507944882
 20
1.99999997127486
 30
0.0
 11
4.753635079448827
 21
1.99999997127486
 31
0.0
  0
LINE
  5
3F12
330
3F0D
100
AcDbEntity
  8
WAKU
 62
     2
 48
2.0
100
AcDbLine
 10
5.234421709965204
 20
2.99999997127486
 30
0.0
 11
5.234421709965147
 21
0.9999999712748603
 31
0.0
  0
LINE
  5
3F13
330
3F0D
100
AcDbEntity
  8
WAKU
 62
     2
 48
2.0
100
AcDbLine
 10
10.2344217099652
 20
3.49999997127486
 30
0.0
 11
10.23442170996514
 21
0.4999999712748604
 31
0.0
  0
LINE
  5
3F14
330
3F0D
100
AcDbEntity
  8
WAKU
 62
     2
 48
2.0
100
AcDbLine
 10
10.2344217099652
 20
3.49999997127486
 30
0.0
 11
5.234421709965204
 21
2.99999997127486
 31
0.0
  0
CIRCLE
  5
3F15
330
3F0D
100
AcDbEntity
  8
WAKU
 62
     2
 48
2.0
100
AcDbCircle
 10
1.99999933591232
 20
1.99999997127486
 30
0.0
 40
1.0
  0
LINE
  5
3F16
330
3F0D
100
AcDbEntity
  8
WAKU
 62
     2
 48
2.0
100
AcDbLine
 10
10.23442170996514
 20
0.4999999712748604
 30
0.0
 11
5.234421709965147
 21
0.9999999712748603
 31
0.0
  0
ENDBLK
  5
3F18
330
3F0D
100
AcDbEntity
  8
0
 48
2.0
100
AcDbBlockEnd
  0
BLOCK
  5
42BC
330
41C0
100
AcDbEntity
  8
0
 48
2.0
100
AcDbBlockBegin
  2
A$C128E6753
 70
     0
 10
0.0
 20
0.0
 30
0.0
  3
A$C128E6753
  1

  0
HATCH
  5
41C1
330
41C0
100
AcDbEntity
  8
WAKU
 48
2.0
100
AcDbHatch
 10
0.0
 20
0.0
 30
0.0
210
0.0
220
0.0
230
1.0
  2
SOLID
 70
     1
 71
     0
 91
        2
 92
        7
 72
     0
 73
     1
 93
       59
 10
16.16390526232573
 20
1.387863879078281
 10
17.7832881719508
 20
1.387863879078395
 10
17.7832881719508
 20
1.613099020403296
 10
16.16390526232595
 20
1.613099020403183
 10
16.16390526232595
 20
1.934939643537745
 10
17.85742023442236
 20
1.934939643537973
 10
17.85742023442236
 20
2.127709306108954
 10
16.80860395802762
 20
2.127709306108954
 10
17.13886008365836
 20
2.491766570122763
 10
17.83380809897738
 20
2.491766570122535
 10
17.8338080989775
 20
2.756618405090648
 10
17.31738914699673
 20
2.756618405090648
 10
17.61935945639601
 20
3.08949484892139
 10
17.04821889760905
 20
3.08949484892139
 10
16.76346898034075
 20
2.756618405090648
 10
16.61224696764071
 20
2.756618405090648
 10
16.61224696764071
 20
3.08949484892139
 10
16.10342918350494
 20
3.08949484892139
 10
16.10342918350494
 20
2.756618405090534
 10
15.62118631497145
 20
2.756618405090648
 10
15.62118631497156
 20
3.08949484892139
 10
15.12569263535403
 20
3.08949484892139
 10
15.12569263535403
 20
2.756618405090648
 10
14.94520663102452
 20
2.756618405090648
 10
14.66089077375449
 20
3.08949484892139
 10
14.11405486042878
 20
3.08949484892139
 10
14.11405486042889
 20
3.047303731442298
 10
14.36917906164848
 20
2.756618405090648
 10
13.96856664537011
 20
2.756618405090648
 10
13.96856664537
 20
2.491766570122649
 10
14.59134157954548
 20
2.491766570122649
 10
14.9108617281725
 20
2.127709306108954
 10
13.90531767650083
 20
2.127709306108954
 10
13.90531767650094
 20
1.934939643537973
 10
15.56585572983971
 20
1.934939643537859
 10
15.56585572983982
 20
1.613099020403296
 10
13.99184696523906
 20
1.61309902040341
 10
13.99184696523895
 20
1.387863879078281
 10
15.56585572983982
 20
1.387863879078281
 10
15.56585572983982
 20
1.115430757834474
 10
13.93407347331441
 20
1.115430757834474
 10
13.93407347331441
 20
0.8557199604838388
 10
14.57190257773783
 20
0.8557199604838388
 10
13.98881233800847
 20
0.2428001209661943
 10
13.98881233800858
 20
0.1010431900605226
 10
14.64220576000099
 20
0.101043190060409
 10
15.36445852267462
 20
0.8557199604839524
 10
15.56585572983971
 20
0.8557199604838388
 10
15.56585572983982
 20
0.1046689638886846
 10
16.16390526232595
 20
0.1046689638886846
 10
16.16390526232595
 20
0.8557199604838388
 10
16.37843116176958
 20
0.8557199604839524
 10
17.14385781395884
 20
0.1010431900605226
 10
17.77392451259737
 20
0.101043190060409
 10
17.77392451259749
 20
0.1851751212828958
 10
17.12786640961775
 20
0.8557199604838388
 10
17.84350357390684
 20
0.8557199604838388
 10
17.84350357390696
 20
1.115430757834474
 10
16.16390526232595
 20
1.115430757834474
 97
        0
 92
       23
 72
     0
 73
     1
 93
        4
 10
15.49780195160309
 20
2.12770930610884
 10
16.23063073689564
 20
2.127709306109068
 10
16.5420534215886
 20
2.491766570122535
 10
15.18685398567839
 20
2.491766570122763
 97
        0
 75
     0
 76
     1
 47
0.0291765355850579
 98
        2
 10
15.86922149621176
 20
1.406311922475879
 10
15.86922149621176
 20
1.406311922475879
450
        0
451
        0
460
0.0
461
0.0
452
        0
462
0.0
453
        0
470

  0
LINE
  5
41C2
330
41C0
100
AcDbEntity
  8
WAKU
 48
2.0
100
AcDbLine
 10
17.85742023442236
 20
1.934939643537859
 30
0.0
 11
16.16390526232595
 21
1.934939643537745
 31
0.0
  0
LINE
  5
41C3
330
41C0
100
AcDbEntity
  8
WAKU
 48
2.0
100
AcDbLine
 10
16.16390526232595
 20
1.613099020403296
 30
0.0
 11
17.7832881719508
 21
1.613099020403296
 31
0.0
  0
LINE
  5
41C4
330
41C0
100
AcDbEntity
  8
WAKU
 48
2.0
100
AcDbLine
 10
17.7832881719508
 20
1.387863879078395
 30
0.0
 11
16.16390526232595
 21
1.387863879078281
 31
0.0
  0
LINE
  5
41C5
330
41C0
100
AcDbEntity
  8
WAKU
 48
2.0
100
AcDbLine
 10
16.10342918350494
 20
3.08949484892139
 30
0.0
 11
16.61224696764071
 21
3.08949484892139
 31
0.0
  0
LINE
  5
41C6
330
41C0
100
AcDbEntity
  8
WAKU
 48
2.0
100
AcDbLine
 10
16.37843116176958
 20
0.8557199604838388
 30
0.0
 11
16.16390526232595
 21
0.8557199604838388
 31
0.0
  0
LINE
  5
41C7
330
41C0
100
AcDbEntity
  8
WAKU
 48
2.0
100
AcDbLine
 10
16.16390526232595
 20
1.115430757834474
 30
0.0
 11
17.84350357390696
 21
1.115430757834474
 31
0.0
  0
LINE
  5
41C8
330
41C0
100
AcDbEntity
  8
WAKU
 48
2.0
100
AcDbLine
 10
15.49780195160309
 20
2.127709306108954
 30
0.0
 11
16.23063073689553
 21
2.127709306108954
 31
0.0
  0
LINE
  5
41C9
330
41C0
100
AcDbEntity
  8
WAKU
 48
2.0
100
AcDbLine
 10
16.5420534215886
 20
2.491766570122649
 30
0.0
 11
15.18685398567839
 21
2.491766570122649
 31
0.0
  0
HATCH
  5
41CA
330
41C0
100
AcDbEntity
  8
WAKU
 48
2.0
100
AcDbHatch
 10
0.0
 20
0.0
 30
0.0
210
0.0
220
0.0
230
1.0
  2
SOLID
 70
     1
 71
     1
 91
        5
 92
        7
 72
     0
 73
     1
 93
       36
 10
11.72362614000173
 20
1.844138695839548
 10
13.2167123719019
 20
1.844138695839433
 10
13.2167123719019
 20
2.41934809626889
 10
11.72362614000161
 20
2.419348096268889
 10
11.72362614000167
 20
2.740985540018529
 10
13.36030069912664
 20
2.740985540018529
 10
13.36030069912664
 20
2.979102787090708
 10
11.72362614000161
 20
2.97910278709071
 10
11.72362614000173
 20
3.182001940965164
 10
11.15076558700411
 20
3.182001940965164
 10
11.15076558700423
 20
2.97910278709071
 10
9.494399050546292
 20
2.979102787090708
 10
9.494399050546292
 20
2.740985540018527
 10
11.15076558700417
 20
2.740985540018527
 10
11.15076558700406
 20
2.41934809626889
 10
9.713174685571573
 20
2.419348096268892
 10
9.713174685571459
 20
1.844138695839435
 10
11.15076558700423
 20
1.844138695839317
 10
11.15076558700417
 20
1.535623176881474
 10
9.524461098565836
 20
1.535623176881472
 10
9.524461098565836
 20
1.369945033685894
 10
11.15076558700417
 20
1.369945033685896
 10
11.15076558700417
 20
1.069479974553134
 10
9.524461098565836
 20
1.069479974553132
 10
9.524461098565836
 20
0.9048980659824792
 10
11.15076558700417
 20
0.9048980659825893
 10
11.15076558700417
 20
0.6033870995053139
 10
9.52446109856578
 20
0.6033870995053139
 10
9.524461098565893
 20
0.4283917772780815
 10
11.15076558700423
 20
0.4283917772780797
 10
11.15076558700428
 20
0.0306634320410257
 10
11.72362614000173
 20
0.0306634320410257
 10
11.72362614000184
 20
0.4283917772780797
 10
13.36559529183091
 20
0.4283917772780797
 10
13.36559529183091
 20
1.53562317688147
 10
11.72362614000155
 20
1.535623176881472
 97
       36
330
41DE
330
4212
330
4221
330
4222
330
4217
330
421B
330
4218
330
4211
330
41D6
330
41DC
330
41D2
330
4210
330
41CB
330
41DB
330
41CE
330
420E
330
41D4
330
41D7
330
41CD
330
420B
330
41D0
330
41D8
330
41CF
330
420A
330
41D3
330
41D9
330
41D1
330
4219
330
421A
330
4209
330
421D
330
421E
330
4215
330
4208
330
41E4
330
4220
 92
       22
 72
     0
 73
     1
 93
        4
 10
11.72362614000173
 20
1.992841807510894
 10
11.72362614000173
 20
2.26805990796106
 10
12.63176987750768
 20
2.26805990796106
 10
12.63176987750768
 20
1.992841807510899
 97
        4
330
4213
330
4216
330
421F
330
41E0
 92
       22
 72
     0
 73
     1
 93
        4
 10
11.150765587004
 20
1.992841807510901
 10
10.33093820241816
 20
1.992841807510899
 10
10.33093820241811
 20
2.26805990796106
 10
11.15076558700411
 20
2.26805990796106
 97
        4
330
41CC
330
41DA
330
41D5
330
420F
 92
       22
 72
     0
 73
     1
 93
        4
 10
11.72362614000161
 20
1.369945033685782
 10
12.76245145537211
 20
1.369945033685784
 10
12.76245145537223
 20
1.069479974553132
 10
11.72362614000195
 20
1.069479974553134
 97
        4
330
41E1
330
421C
330
41E6
330
420D
 92
       22
 72
     0
 73
     1
 93
        4
 10
11.72362614000195
 20
0.9048980659827048
 10
12.76245145537206
 20
0.9048980659825911
 10
12.762451455372
 20
0.6033870995053121
 10
11.72362614000173
 20
0.6033870995053121
 97
        4
330
41E5
330
41E3
330
4214
330
420C
 75
     0
 76
     1
 47
0.0291765355850579
 98
        5
 10
11.46120034077165
 20
1.931489358996032
 10
11.46120034077165
 20
1.931489358996032
 10
11.46120034077165
 20
1.931489358996032
 10
11.46120034077165
 20
1.931489358996032
 10
11.46120034077165
 20
1.931489358996032
450
        0
451
        0
460
0.0
461
0.0
452
        0
462
0.0
453
        0
470

  0
LINE
  5
41CB
102
{ACAD_REACTORS
330
41CA
102
}
330
41C0
100
AcDbEntity
  8
WAKU
 48
2.0
100
AcDbLine
 10
9.713174685571573
 20
2.41934809626889
 30
0.0
 11
11.15076558700406
 21
2.41934809626889
 31
0.0
  0
LINE
  5
41CC
102
{ACAD_REACTORS
330
41CA
102
}
330
41C0
100
AcDbEntity
  8
WAKU
 48
2.0
100
AcDbLine
 10
11.15076558700394
 20
1.992841807510899
 30
0.0
 11
10.33093820241816
 21
1.992841807510899
 31
0.0
  0
LINE
  5
41CD
102
{ACAD_REACTORS
330
41CA
102
}
330
41C0
100
AcDbEntity
  8
WAKU
 48
2.0
100
AcDbLine
 10
11.15076558700417
 20
1.369945033685894
 30
0.0
 11
9.524461098565836
 21
1.369945033685894
 31
0.0
  0
LINE
  5
41CE
102
{ACAD_REACTORS
330
41CA
102
}
330
41C0
100
AcDbEntity
  8
WAKU
 48
2.0
100
AcDbLine
 10
11.15076558700417
 20
1.844138695839319
 30
0.0
 11
9.713174685571459
 21
1.844138695839433
 31
0.0
  0
LINE
  5
41CF
102
{ACAD_REACTORS
330
41CA
102
}
330
41C0
100
AcDbEntity
  8
WAKU
 48
2.0
100
AcDbLine
 10
11.15076558700417
 20
0.9048980659825929
 30
0.0
 11
9.524461098565836
 21
0.9048980659824792
 31
0.0
  0
LINE
  5
41D0
102
{ACAD_REACTORS
330
41CA
102
}
330
41C0
100
AcDbEntity
  8
WAKU
 48
2.0
100
AcDbLine
 10
9.524461098565836
 20
1.069479974553132
 30
0.0
 11
11.15076558700417
 21
1.069479974553132
 31
0.0
  0
LINE
  5
41D1
102
{ACAD_REACTORS
330
41CA
102
}
330
41C0
100
AcDbEntity
  8
WAKU
 48
2.0
100
AcDbLine
 10
11.15076558700428
 20
0.4283917772780797
 30
0.0
 11
9.524461098565836
 21
0.4283917772780797
 31
0.0
  0
LINE
  5
41D2
102
{ACAD_REACTORS
330
41CA
102
}
330
41C0
100
AcDbEntity
  8
WAKU
 48
2.0
100
AcDbLine
 10
11.15076558700417
 20
2.740985540018527
 30
0.0
 11
9.494399050546292
 21
2.740985540018527
 31
0.0
  0
LINE
  5
41D3
102
{ACAD_REACTORS
330
41CA
102
}
330
41C0
100
AcDbEntity
  8
WAKU
 48
2.0
100
AcDbLine
 10
9.524461098565836
 20
0.6033870995053121
 30
0.0
 11
11.15076558700417
 21
0.6033870995053121
 31
0.0
  0
LINE
  5
41D4
102
{ACAD_REACTORS
330
41CA
102
}
330
41C0
100
AcDbEntity
  8
WAKU
 48
2.0
100
AcDbLine
 10
9.524461098565836
 20
1.535623176881472
 30
0.0
 11
11.15076558700406
 21
1.535623176881472
 31
0.0
  0
LINE
  5
41D5
102
{ACAD_REACTORS
330
41CA
102
}
330
41C0
100
AcDbEntity
  8
WAKU
 48
2.0
100
AcDbLine
 10
10.33093820241816
 20
2.26805990796106
 30
0.0
 11
11.15076558700406
 21
2.26805990796106
 31
0.0
  0
LINE
  5
41D6
102
{ACAD_REACTORS
330
41CA
102
}
330
41C0
100
AcDbEntity
  8
WAKU
 48
2.0
100
AcDbLine
 10
9.494399050546292
 20
2.97910278709071
 30
0.0
 11
11.15076558700417
 21
2.97910278709071
 31
0.0
  0
LINE
  5
41D7
102
{ACAD_REACTORS
330
41CA
102
}
330
41C0
100
AcDbEntity
  8
WAKU
 48
2.0
100
AcDbLine
 10
9.524461098565836
 20
1.369945033685894
 30
0.0
 11
9.524461098565836
 21
1.535623176881472
 31
0.0
  0
LINE
  5
41D8
102
{ACAD_REACTORS
330
41CA
102
}
330
41C0
100
AcDbEntity
  8
WAKU
 48
2.0
100
AcDbLine
 10
9.524461098565836
 20
0.9048980659824792
 30
0.0
 11
9.524461098565836
 21
1.069479974553132
 31
0.0
  0
LINE
  5
41D9
102
{ACAD_REACTORS
330
41CA
102
}
330
41C0
100
AcDbEntity
  8
WAKU
 48
2.0
100
AcDbLine
 10
9.524461098565836
 20
0.4283917772780797
 30
0.0
 11
9.524461098565836
 21
0.6033870995053121
 31
0.0
  0
LINE
  5
41DA
102
{ACAD_REACTORS
330
41CA
102
}
330
41C0
100
AcDbEntity
  8
WAKU
 48
2.0
100
AcDbLine
 10
10.33093820241816
 20
1.992841807510899
 30
0.0
 11
10.33093820241816
 21
2.26805990796106
 31
0.0
  0
LINE
  5
41DB
102
{ACAD_REACTORS
330
41CA
102
}
330
41C0
100
AcDbEntity
  8
WAKU
 48
2.0
100
AcDbLine
 10
9.713174685571459
 20
1.844138695839433
 30
0.0
 11
9.713174685571573
 21
2.41934809626889
 31
0.0
  0
LINE
  5
41DC
102
{ACAD_REACTORS
330
41CA
102
}
330
41C0
100
AcDbEntity
  8
WAKU
 48
2.0
100
AcDbLine
 10
9.494399050546292
 20
2.740985540018527
 30
0.0
 11
9.494399050546292
 21
2.97910278709071
 31
0.0
  0
LINE
  5
41DD
330
41C0
100
AcDbEntity
  8
WAKU
 48
2.0
100
AcDbLine
 10
15.56585572983971
 20
1.934939643537859
 30
0.0
 11
13.90531767650083
 21
1.934939643537859
 31
0.0
  0
LINE
  5
41DE
102
{ACAD_REACTORS
330
41CA
102
}
330
41C0
100
AcDbEntity
  8
WAKU
 48
2.0
100
AcDbLine
 10
11.72362614000161
 20
2.41934809626889
 30
0.0
 11
13.2167123719019
 21
2.41934809626889
 31
0.0
  0
LINE
  5
41DF
330
41C0
100
AcDbEntity
  8
WAKU
 48
2.0
100
AcDbLine
 10
13.99184696523906
 20
1.61309902040341
 30
0.0
 11
15.56585572983982
 21
1.613099020403296
 31
0.0
  0
LINE
  5
41E0
102
{ACAD_REACTORS
330
41CA
102
}
330
41C0
100
AcDbEntity
  8
WAKU
 48
2.0
100
AcDbLine
 10
12.63176987750768
 20
1.992841807510899
 30
0.0
 11
11.72362614000173
 21
1.992841807510899
 31
0.0
  0
LINE
  5
41E1
102
{ACAD_REACTORS
330
41CA
102
}
330
41C0
100
AcDbEntity
  8
WAKU
 48
2.0
100
AcDbLine
 10
12.76245145537206
 20
1.36994503368578
 30
0.0
 11
11.72362614000161
 21
1.36994503368578
 31
0.0
  0
LINE
  5
41E2
330
41C0
100
AcDbEntity
  8
WAKU
 48
2.0
100
AcDbLine
 10
15.56585572983982
 20
1.387863879078281
 30
0.0
 11
13.99184696523895
 21
1.387863879078281
 31
0.0
  0
LINE
  5
41E3
102
{ACAD_REACTORS
330
41CA
102
}
330
41C0
100
AcDbEntity
  8
WAKU
 48
2.0
100
AcDbLine
 10
12.76245145537206
 20
0.9048980659825929
 30
0.0
 11
12.76245145537206
 21
0.6033870995053121
 31
0.0
  0
LINE
  5
41E4
102
{ACAD_REACTORS
330
41CA
102
}
330
41C0
100
AcDbEntity
  8
WAKU
 48
2.0
100
AcDbLine
 10
13.2167123719019
 20
1.844138695839433
 30
0.0
 11
11.72362614000173
 21
1.844138695839546
 31
0.0
  0
LINE
  5
41E5
102
{ACAD_REACTORS
330
41CA
102
}
330
41C0
100
AcDbEntity
  8
WAKU
 48
2.0
100
AcDbLine
 10
12.76245145537206
 20
0.9048980659825929
 30
0.0
 11
11.72362614000195
 21
0.9048980659827066
 31
0.0
  0
LINE
  5
41E6
102
{ACAD_REACTORS
330
41CA
102
}
330
41C0
100
AcDbEntity
  8
WAKU
 48
2.0
100
AcDbLine
 10
11.72362614000195
 20
1.069479974553132
 30
0.0
 11
12.76245145537229
 21
1.069479974553132
 31
0.0
  0
LINE
  5
41E7
330
41C0
100
AcDbEntity
  8
WAKU
 48
2.0
100
AcDbLine
 10
15.12569263535403
 20
3.08949484892139
 30
0.0
 11
15.62118631497156
 21
3.08949484892139
 31
0.0
  0
LINE
  5
41E8
330
41C0
100
AcDbEntity
  8
WAKU
 48
2.0
100
AcDbLine
 10
14.57190257773794
 20
0.8557199604838388
 30
0.0
 11
13.93407347331441
 21
0.8557199604838388
 31
0.0
  0
LINE
  5
41E9
330
41C0
100
AcDbEntity
  8
WAKU
 48
2.0
100
AcDbLine
 10
13.98881233800858
 20
0.242800120966308
 30
0.0
 11
13.98881233800858
 21
0.1010431900605226
 31
0.0
  0
LINE
  5
41EA
330
41C0
100
AcDbEntity
  8
WAKU
 48
2.0
100
AcDbLine
 10
13.98881233800858
 20
0.242800120966308
 30
0.0
 11
14.57190257773794
 21
0.8557199604838388
 31
0.0
  0
LINE
  5
41EB
330
41C0
100
AcDbEntity
  8
WAKU
 48
2.0
100
AcDbLine
 10
13.98881233800858
 20
0.1010431900605226
 30
0.0
 11
14.64220576000099
 21
0.1010431900605226
 31
0.0
  0
LINE
  5
41EC
330
41C0
100
AcDbEntity
  8
WAKU
 48
2.0
100
AcDbLine
 10
15.36445852267451
 20
0.8557199604838388
 30
0.0
 11
14.64220576000099
 21
0.1010431900605226
 31
0.0
  0
LINE
  5
41ED
330
41C0
100
AcDbEntity
  8
WAKU
 48
2.0
100
AcDbLine
 10
16.16390526232595
 20
1.387863879078281
 30
0.0
 11
16.16390526232595
 21
1.115430757834474
 31
0.0
  0
LINE
  5
41EE
330
41C0
100
AcDbEntity
  8
WAKU
 48
2.0
100
AcDbLine
 10
15.56585572983982
 20
1.613099020403296
 30
0.0
 11
15.56585572983971
 21
1.934939643537859
 31
0.0
  0
LINE
  5
41EF
330
41C0
100
AcDbEntity
  8
WAKU
 48
2.0
100
AcDbLine
 10
15.56585572983982
 20
1.115430757834474
 30
0.0
 11
15.56585572983982
 21
1.387863879078281
 31
0.0
  0
LINE
  5
41F0
330
41C0
100
AcDbEntity
  8
WAKU
 48
2.0
100
AcDbLine
 10
16.16390526232595
 20
0.8557199604838388
 30
0.0
 11
16.16390526232595
 21
0.1046689638886846
 31
0.0
  0
LINE
  5
41F1
330
41C0
100
AcDbEntity
  8
WAKU
 48
2.0
100
AcDbLine
 10
15.56585572983982
 20
0.8557199604838388
 30
0.0
 11
15.36445852267451
 21
0.8557199604838388
 31
0.0
  0
LINE
  5
41F2
330
41C0
100
AcDbEntity
  8
WAKU
 48
2.0
100
AcDbLine
 10
15.56585572983982
 20
0.1046689638886846
 30
0.0
 11
15.56585572983982
 21
0.8557199604838388
 31
0.0
  0
LINE
  5
41F3
330
41C0
100
AcDbEntity
  8
WAKU
 48
2.0
100
AcDbLine
 10
16.16390526232595
 20
0.1046689638886846
 30
0.0
 11
15.56585572983982
 21
0.1046689638886846
 31
0.0
  0
LINE
  5
41F4
330
41C0
100
AcDbEntity
  8
WAKU
 48
2.0
100
AcDbLine
 10
16.16390526232595
 20
1.934939643537745
 30
0.0
 11
16.16390526232595
 21
1.613099020403296
 31
0.0
  0
LINE
  5
41F5
330
41C0
100
AcDbEntity
  8
WAKU
 48
2.0
100
AcDbLine
 10
13.93407347331441
 20
0.8557199604838388
 30
0.0
 11
13.93407347331441
 21
1.115430757834474
 31
0.0
  0
LINE
  5
41F6
330
41C0
100
AcDbEntity
  8
WAKU
 48
2.0
100
AcDbLine
 10
13.93407347331441
 20
1.115430757834474
 30
0.0
 11
15.56585572983982
 21
1.115430757834474
 31
0.0
  0
LINE
  5
41F7
330
41C0
100
AcDbEntity
  8
WAKU
 48
2.0
100
AcDbLine
 10
13.99184696523895
 20
1.387863879078281
 30
0.0
 11
13.99184696523906
 21
1.61309902040341
 31
0.0
  0
LINE
  5
41F8
330
41C0
100
AcDbEntity
  8
WAKU
 48
2.0
100
AcDbLine
 10
15.62118631497145
 20
2.756618405090648
 30
0.0
 11
16.10342918350494
 21
2.756618405090648
 31
0.0
  0
LINE
  5
41F9
330
41C0
100
AcDbEntity
  8
WAKU
 48
2.0
100
AcDbLine
 10
16.10342918350494
 20
3.08949484892139
 30
0.0
 11
16.10342918350494
 21
2.756618405090648
 31
0.0
  0
LINE
  5
41FA
330
41C0
100
AcDbEntity
  8
WAKU
 48
2.0
100
AcDbLine
 10
15.12569263535403
 20
3.08949484892139
 30
0.0
 11
15.12569263535403
 21
2.756618405090648
 31
0.0
  0
LINE
  5
41FB
330
41C0
100
AcDbEntity
  8
WAKU
 48
2.0
100
AcDbLine
 10
15.62118631497156
 20
3.08949484892139
 30
0.0
 11
15.62118631497145
 21
2.756618405090648
 31
0.0
  0
LINE
  5
41FC
330
41C0
100
AcDbEntity
  8
WAKU
 48
2.0
100
AcDbLine
 10
14.36917906164825
 20
2.756618405090648
 30
0.0
 11
14.11405486042878
 21
3.047303731442411
 31
0.0
  0
LINE
  5
41FD
330
41C0
100
AcDbEntity
  8
WAKU
 48
2.0
100
AcDbLine
 10
15.18685398567839
 20
2.491766570122649
 30
0.0
 11
15.49780195160309
 21
2.127709306108954
 31
0.0
  0
LINE
  5
41FE
330
41C0
100
AcDbEntity
  8
WAKU
 48
2.0
100
AcDbLine
 10
14.59134157954548
 20
2.491766570122649
 30
0.0
 11
13.96856664537
 21
2.491766570122649
 31
0.0
  0
LINE
  5
41FF
330
41C0
100
AcDbEntity
  8
WAKU
 48
2.0
100
AcDbLine
 10
14.94520663102452
 20
2.756618405090648
 30
0.0
 11
15.12569263535403
 21
2.756618405090648
 31
0.0
  0
LINE
  5
4200
330
41C0
100
AcDbEntity
  8
WAKU
 48
2.0
100
AcDbLine
 10
14.11405486042878
 20
3.08949484892139
 30
0.0
 11
14.66089077375449
 21
3.08949484892139
 31
0.0
  0
LINE
  5
4201
330
41C0
100
AcDbEntity
  8
WAKU
 48
2.0
100
AcDbLine
 10
13.90531767650083
 20
1.934939643537859
 30
0.0
 11
13.90531767650083
 21
2.127709306108954
 31
0.0
  0
LINE
  5
4202
330
41C0
100
AcDbEntity
  8
WAKU
 48
2.0
100
AcDbLine
 10
13.90531767650083
 20
2.127709306108954
 30
0.0
 11
14.9108617281725
 21
2.127709306108954
 31
0.0
  0
LINE
  5
4203
330
41C0
100
AcDbEntity
  8
WAKU
 48
2.0
100
AcDbLine
 10
14.11405486042878
 20
3.047303731442411
 30
0.0
 11
14.11405486042878
 21
3.08949484892139
 31
0.0
  0
LINE
  5
4204
330
41C0
100
AcDbEntity
  8
WAKU
 48
2.0
100
AcDbLine
 10
14.9108617281725
 20
2.127709306108954
 30
0.0
 11
14.59134157954548
 21
2.491766570122649
 31
0.0
  0
LINE
  5
4205
330
41C0
100
AcDbEntity
  8
WAKU
 48
2.0
100
AcDbLine
 10
14.66089077375449
 20
3.08949484892139
 30
0.0
 11
14.94520663102452
 21
2.756618405090648
 31
0.0
  0
LINE
  5
4206
330
41C0
100
AcDbEntity
  8
WAKU
 48
2.0
100
AcDbLine
 10
13.96856664537
 20
2.491766570122649
 30
0.0
 11
13.96856664537011
 21
2.756618405090648
 31
0.0
  0
LINE
  5
4207
330
41C0
100
AcDbEntity
  8
WAKU
 48
2.0
100
AcDbLine
 10
13.96856664537011
 20
2.756618405090648
 30
0.0
 11
14.36917906164825
 21
2.756618405090648
 31
0.0
  0
LINE
  5
4208
102
{ACAD_REACTORS
330
41CA
102
}
330
41C0
100
AcDbEntity
  8
WAKU
 48
2.0
100
AcDbLine
 10
11.72362614000173
 20
1.844138695839546
 30
0.0
 11
11.72362614000161
 21
1.535623176881472
 31
0.0
  0
LINE
  5
4209
102
{ACAD_REACTORS
330
41CA
102
}
330
41C0
100
AcDbEntity
  8
WAKU
 48
2.0
100
AcDbLine
 10
11.72362614000184
 20
0.4283917772780797
 30
0.0
 11
11.72362614000173
 21
0.030663432041024
 31
0.0
  0
LINE
  5
420A
102
{ACAD_REACTORS
330
41CA
102
}
330
41C0
100
AcDbEntity
  8
WAKU
 48
2.0
100
AcDbLine
 10
11.15076558700417
 20
0.6033870995053121
 30
0.0
 11
11.15076558700417
 21
0.9048980659825929
 31
0.0
  0
LINE
  5
420B
102
{ACAD_REACTORS
330
41CA
102
}
330
41C0
100
AcDbEntity
  8
WAKU
 48
2.0
100
AcDbLine
 10
11.15076558700417
 20
1.069479974553132
 30
0.0
 11
11.15076558700417
 21
1.369945033685894
 31
0.0
  0
LINE
  5
420C
102
{ACAD_REACTORS
330
41CA
102
}
330
41C0
100
AcDbEntity
  8
WAKU
 48
2.0
100
AcDbLine
 10
11.72362614000195
 20
0.9048980659827066
 30
0.0
 11
11.72362614000173
 21
0.6033870995053121
 31
0.0
  0
LINE
  5
420D
102
{ACAD_REACTORS
330
41CA
102
}
330
41C0
100
AcDbEntity
  8
WAKU
 48
2.0
100
AcDbLine
 10
11.72362614000161
 20
1.36994503368578
 30
0.0
 11
11.72362614000195
 21
1.069479974553132
 31
0.0
  0
LINE
  5
420E
102
{ACAD_REACTORS
330
41CA
102
}
330
41C0
100
AcDbEntity
  8
WAKU
 48
2.0
100
AcDbLine
 10
11.15076558700406
 20
1.535623176881472
 30
0.0
 11
11.15076558700417
 21
1.844138695839319
 31
0.0
  0
LINE
  5
420F
102
{ACAD_REACTORS
330
41CA
102
}
330
41C0
100
AcDbEntity
  8
WAKU
 48
2.0
100
AcDbLine
 10
11.15076558700394
 20
1.992841807510899
 30
0.0
 11
11.15076558700406
 21
2.26805990796106
 31
0.0
  0
LINE
  5
4210
102
{ACAD_REACTORS
330
41CA
102
}
330
41C0
100
AcDbEntity
  8
WAKU
 48
2.0
100
AcDbLine
 10
11.15076558700406
 20
2.41934809626889
 30
0.0
 11
11.15076558700417
 21
2.740985540018527
 31
0.0
  0
LINE
  5
4211
102
{ACAD_REACTORS
330
41CA
102
}
330
41C0
100
AcDbEntity
  8
WAKU
 48
2.0
100
AcDbLine
 10
11.15076558700417
 20
2.97910278709071
 30
0.0
 11
11.15076558700417
 21
3.182001940965164
 31
0.0
  0
LINE
  5
4212
102
{ACAD_REACTORS
330
41CA
102
}
330
41C0
100
AcDbEntity
  8
WAKU
 48
2.0
100
AcDbLine
 10
11.72362614000161
 20
2.740985540018527
 30
0.0
 11
11.72362614000161
 21
2.41934809626889
 31
0.0
  0
LINE
  5
4213
102
{ACAD_REACTORS
330
41CA
102
}
330
41C0
100
AcDbEntity
  8
WAKU
 48
2.0
100
AcDbLine
 10
11.72362614000173
 20
2.26805990796106
 30
0.0
 11
11.72362614000173
 21
1.992841807510899
 31
0.0
  0
LINE
  5
4214
102
{ACAD_REACTORS
330
41CA
102
}
330
41C0
100
AcDbEntity
  8
WAKU
 48
2.0
100
AcDbLine
 10
11.72362614000173
 20
0.6033870995053121
 30
0.0
 11
12.76245145537206
 21
0.6033870995053121
 31
0.0
  0
LINE
  5
4215
102
{ACAD_REACTORS
330
41CA
102
}
330
41C0
100
AcDbEntity
  8
WAKU
 48
2.0
100
AcDbLine
 10
11.72362614000161
 20
1.535623176881472
 30
0.0
 11
13.36559529183097
 21
1.535623176881472
 31
0.0
  0
LINE
  5
4216
102
{ACAD_REACTORS
330
41CA
102
}
330
41C0
100
AcDbEntity
  8
WAKU
 48
2.0
100
AcDbLine
 10
11.72362614000173
 20
2.26805990796106
 30
0.0
 11
12.63176987750768
 21
2.26805990796106
 31
0.0
  0
LINE
  5
4217
102
{ACAD_REACTORS
330
41CA
102
}
330
41C0
100
AcDbEntity
  8
WAKU
 48
2.0
100
AcDbLine
 10
11.72362614000161
 20
2.97910278709071
 30
0.0
 11
13.36030069912664
 21
2.97910278709071
 31
0.0
  0
LINE
  5
4218
102
{ACAD_REACTORS
330
41CA
102
}
330
41C0
100
AcDbEntity
  8
WAKU
 48
2.0
100
AcDbLine
 10
11.15076558700417
 20
3.182001940965164
 30
0.0
 11
11.72362614000173
 21
3.182001940965164
 31
0.0
  0
LINE
  5
4219
102
{ACAD_REACTORS
330
41CA
102
}
330
41C0
100
AcDbEntity
  8
WAKU
 48
2.0
100
AcDbLine
 10
11.15076558700428
 20
0.030663432041024
 30
0.0
 11
11.15076558700428
 21
0.4283917772780797
 31
0.0
  0
LINE
  5
421A
102
{ACAD_REACTORS
330
41CA
102
}
330
41C0
100
AcDbEntity
  8
WAKU
 48
2.0
100
AcDbLine
 10
11.72362614000173
 20
0.030663432041024
 30
0.0
 11
11.15076558700428
 21
0.030663432041024
 31
0.0
  0
LINE
  5
421B
102
{ACAD_REACTORS
330
41CA
102
}
330
41C0
100
AcDbEntity
  8
WAKU
 48
2.0
100
AcDbLine
 10
11.72362614000173
 20
3.182001940965164
 30
0.0
 11
11.72362614000161
 21
2.97910278709071
 31
0.0
  0
LINE
  5
421C
102
{ACAD_REACTORS
330
41CA
102
}
330
41C0
100
AcDbEntity
  8
WAKU
 48
2.0
100
AcDbLine
 10
12.76245145537229
 20
1.069479974553132
 30
0.0
 11
12.76245145537206
 21
1.36994503368578
 31
0.0
  0
LINE
  5
421D
102
{ACAD_REACTORS
330
41CA
102
}
330
41C0
100
AcDbEntity
  8
WAKU
 48
2.0
100
AcDbLine
 10
13.36559529183097
 20
0.4283917772780797
 30
0.0
 11
11.72362614000184
 21
0.4283917772780797
 31
0.0
  0
LINE
  5
421E
102
{ACAD_REACTORS
330
41CA
102
}
330
41C0
100
AcDbEntity
  8
WAKU
 48
2.0
100
AcDbLine
 10
13.36559529183097
 20
1.535623176881472
 30
0.0
 11
13.36559529183097
 21
0.4283917772780797
 31
0.0
  0
LINE
  5
421F
102
{ACAD_REACTORS
330
41CA
102
}
330
41C0
100
AcDbEntity
  8
WAKU
 48
2.0
100
AcDbLine
 10
12.63176987750768
 20
2.26805990796106
 30
0.0
 11
12.63176987750768
 21
1.992841807510899
 31
0.0
  0
LINE
  5
4220
102
{ACAD_REACTORS
330
41CA
102
}
330
41C0
100
AcDbEntity
  8
WAKU
 48
2.0
100
AcDbLine
 10
13.2167123719019
 20
2.41934809626889
 30
0.0
 11
13.2167123719019
 21
1.844138695839433
 31
0.0
  0
LINE
  5
4221
102
{ACAD_REACTORS
330
41CA
102
}
330
41C0
100
AcDbEntity
  8
WAKU
 48
2.0
100
AcDbLine
 10
13.36030069912664
 20
2.740985540018527
 30
0.0
 11
11.72362614000161
 21
2.740985540018527
 31
0.0
  0
LINE
  5
4222
102
{ACAD_REACTORS
330
41CA
102
}
330
41C0
100
AcDbEntity
  8
WAKU
 48
2.0
100
AcDbLine
 10
13.36030069912664
 20
2.97910278709071
 30
0.0
 11
13.36030069912664
 21
2.740985540018527
 31
0.0
  0
HATCH
  5
4223
330
41C0
100
AcDbEntity
  8
WAKU
 48
2.0
100
AcDbHatch
 10
0.0
 20
0.0
 30
0.0
210
0.0
220
0.0
230
1.0
  2
SOLID
 70
     1
 71
     1
 91
        5
 92
        7
 72
     0
 73
     1
 93
       16
 10
20.45776601204625
 20
1.577443611505374
 10
20.45776601204631
 20
1.852592786029049
 10
19.97963396762878
 20
1.852592786029047
 10
20.2527363118117
 20
2.613862408754698
 10
20.49404263728195
 20
2.6138624087547
 10
20.49404263728195
 20
2.880852936746805
 10
19.70692798201418
 20
2.880852936746803
 10
19.70692798201418
 20
3.158832862746178
 10
19.13857686814759
 20
3.15883286274618
 10
19.13857686814759
 20
2.880852936746805
 10
18.29806464917993
 20
2.880852936746805
 10
18.29806464917993
 20
2.6138624087547
 10
18.46479664435532
 20
2.613862408754695
 10
18.69337397624758
 20
1.852592786029049
 10
18.29099869674775
 20
1.852592786029049
 10
18.2909986967478
 20
1.577443611505374
 97
       16
330
4237
330
4248
330
424D
330
424E
330
424F
330
4250
330
4251
330
424A
330
424B
330
424C
330
4239
330
4246
330
4245
330
4242
330
4243
330
4244
 92
       23
 72
     0
 73
     1
 93
        4
 10
19.23434236407848
 20
1.852592786029049
 10
19.49215750748397
 20
1.852592786029049
 10
19.78773469236296
 20
2.6138624087547
 10
18.99381172734502
 20
2.613862408754696
 97
        4
330
4247
330
4236
330
4249
330
4238
 92
        7
 72
     0
 73
     1
 93
        4
 10
18.38569772790634
 20
1.288626999953862
 10
18.38569772790629
 20
0.122090636724236
 10
20.33181307724186
 20
0.1220906367242378
 10
20.33181307724181
 20
1.28862699995386
 97
        4
330
423E
330
4241
330
4240
330
423F
 92
       22
 72
     0
 73
     1
 93
        4
 10
19.82173168365153
 20
1.059781814838968
 10
19.82173168365153
 20
0.3388499090784762
 10
18.87363758207709
 20
0.3388499090784762
 10
18.87363758207698
 20
1.05978181483897
 97
        4
330
423B
330
423C
330
423D
330
423A
 92
        7
 72
     0
 73
     1
 93
       29
 10
21.21669214009108
 20
2.810740878952858
 10
21.58553400880788
 20
2.810740878952858
 10
21.67173353896123
 20
2.708434020686812
 10
21.40236000723149
 20
1.986900440961564
 10
21.40236000723144
 20
1.857670311308638
 10
21.54243424373095
 20
1.690748388216062
 10
21.65018365642283
 20
1.475365494212784
 10
21.69328342149981
 20
1.195367535383784
 10
21.69867195245115
 20
0.9422928479402905
 10
21.66095859769217
 20
0.7430633924348271
 10
21.5909214794425
 20
0.6353716177240063
 10
21.42390988976973
 20
0.5869106468132391
 10
21.29201144958182
 20
0.5457139315370921
 10
21.27056684643685
 20
0.4899880495736931
 10
21.29211672897537
 20
0.3822962748629557
 10
21.49272858670958
 20
0.2978739507163901
 10
21.96341932114666
 20
0.317681865454805
 10
22.15452891558635
 20
0.5214222797100554
 10
22.20585549970349
 20
0.8292161567845166
 10
22.16814320526129
 20
1.373058635946797
 10
22.04961885130001
 20
1.760748369487238
 10
21.93648196797363
 20
1.927670292579723
 10
22.15736826399188
 20
2.810740878952858
 10
22.10888102828068
 20
2.96150870812958
 10
22.02268149812699
 20
3.009969679040295
 10
21.76408290766665
 20
3.031508033982388
 10
20.64562025282396
 20
3.031508033982392
 10
20.64562025282402
 20
0.053837345122588
 10
21.21669214009114
 20
0.053837345122588
 97
       29
330
4232
330
4229
330
4228
330
4231
330
4230
330
4227
330
426F
330
426E
330
426D
330
4226
330
422F
330
422E
330
422D
330
422C
330
422B
330
4225
330
426C
330
426B
330
426A
330
4269
330
4268
330
4267
330
4266
330
4265
330
4264
330
4224
330
4235
330
4234
330
4233
 75
     0
 76
     1
 47
0.0291765355850579
 98
        5
 10
19.05117066965357
 20
1.756430824661038
 10
19.05117066965357
 20
1.756430824661038
 10
18.90521081217929
 20
1.143723204215802
 10
18.90521081217929
 20
1.143723204215802
 10
20.97785648180974
 20
1.377135194500851
450
        0
451
        0
460
0.0
461
0.0
452
        0
462
0.0
453
        0
470

  0
LINE
  5
4224
102
{ACAD_REACTORS
330
4223
102
}
330
41C0
100
AcDbEntity
  8
WAKU
 48
2.0
100
AcDbLine
 10
21.76408290766659
 20
3.03150803398239
 30
0.0
 11
20.6456202528239
 21
3.03150803398239
 31
0.0
  0
LINE
  5
4225
102
{ACAD_REACTORS
330
4223
102
}
330
41C0
100
AcDbEntity
  8
WAKU
 48
2.0
100
AcDbLine
 10
21.49272858670958
 20
0.2978739507163937
 30
0.0
 11
21.96341932114666
 21
0.3176818654548015
 31
0.0
  0
LINE
  5
4226
102
{ACAD_REACTORS
330
4223
102
}
330
41C0
100
AcDbEntity
  8
WAKU
 48
2.0
100
AcDbLine
 10
21.66095859769217
 20
0.7430633924346921
 30
0.0
 11
21.59092147944244
 21
0.6353716177239904
 31
0.0
  0
LINE
  5
4227
102
{ACAD_REACTORS
330
4223
102
}
330
41C0
100
AcDbEntity
  8
WAKU
 48
2.0
100
AcDbLine
 10
21.54243424373095
 20
1.690748388216093
 30
0.0
 11
21.65018365642283
 21
1.475365494212837
 31
0.0
  0
LINE
  5
4228
102
{ACAD_REACTORS
330
4223
102
}
330
41C0
100
AcDbEntity
  8
WAKU
 48
2.0
100
AcDbLine
 10
21.67173353896129
 20
2.708434020686809
 30
0.0
 11
21.40236000723149
 21
1.986900440961449
 31
0.0
  0
LINE
  5
4229
102
{ACAD_REACTORS
330
4223
102
}
330
41C0
100
AcDbEntity
  8
WAKU
 48
2.0
100
AcDbLine
 10
21.58553400880788
 20
2.810740878952856
 30
0.0
 11
21.67173353896129
 21
2.708434020686809
 31
0.0
  0
LINE
  5
422A
330
41C0
100
AcDbEntity
  8
WAKU
 48
2.0
100
AcDbLine
 10
17.04821889760905
 20
3.08949484892139
 30
0.0
 11
17.61935945639612
 21
3.08949484892139
 31
0.0
  0
LINE
  5
422B
102
{ACAD_REACTORS
330
4223
102
}
330
41C0
100
AcDbEntity
  8
WAKU
 48
2.0
100
AcDbLine
 10
21.29211672897537
 20
0.3822962748629379
 30
0.0
 11
21.49272858670958
 21
0.2978739507163937
 31
0.0
  0
LINE
  5
422C
102
{ACAD_REACTORS
330
4223
102
}
330
41C0
100
AcDbEntity
  8
WAKU
 48
2.0
100
AcDbLine
 10
21.27056684643691
 20
0.4899880495736398
 30
0.0
 11
21.29211672897537
 21
0.3822962748629379
 31
0.0
  0
LINE
  5
422D
102
{ACAD_REACTORS
330
4223
102
}
330
41C0
100
AcDbEntity
  8
WAKU
 48
2.0
100
AcDbLine
 10
21.29201144958182
 20
0.5457139315370796
 30
0.0
 11
21.27056684643691
 21
0.4899880495736398
 31
0.0
  0
LINE
  5
422E
102
{ACAD_REACTORS
330
4223
102
}
330
41C0
100
AcDbEntity
  8
WAKU
 48
2.0
100
AcDbLine
 10
21.42390988976996
 20
0.5869106468132941
 30
0.0
 11
21.29201144958182
 21
0.5457139315370796
 31
0.0
  0
LINE
  5
422F
102
{ACAD_REACTORS
330
4223
102
}
330
41C0
100
AcDbEntity
  8
WAKU
 48
2.0
100
AcDbLine
 10
21.59092147944244
 20
0.6353716177239904
 30
0.0
 11
21.42390988976996
 21
0.5869106468132941
 31
0.0
  0
LINE
  5
4230
102
{ACAD_REACTORS
330
4223
102
}
330
41C0
100
AcDbEntity
  8
WAKU
 48
2.0
100
AcDbLine
 10
21.40236000723149
 20
1.857670311308538
 30
0.0
 11
21.54243424373095
 21
1.690748388216093
 31
0.0
  0
LINE
  5
4231
102
{ACAD_REACTORS
330
4223
102
}
330
41C0
100
AcDbEntity
  8
WAKU
 48
2.0
100
AcDbLine
 10
21.40236000723149
 20
1.986900440961449
 30
0.0
 11
21.40236000723149
 21
1.857670311308538
 31
0.0
  0
LINE
  5
4232
102
{ACAD_REACTORS
330
4223
102
}
330
41C0
100
AcDbEntity
  8
WAKU
 48
2.0
100
AcDbLine
 10
21.21669214009108
 20
2.810740878952856
 30
0.0
 11
21.58553400880788
 21
2.810740878952856
 31
0.0
  0
LINE
  5
4233
102
{ACAD_REACTORS
330
4223
102
}
330
41C0
100
AcDbEntity
  8
WAKU
 48
2.0
100
AcDbLine
 10
21.21669214009108
 20
0.053837345122588
 30
0.0
 11
21.21669214009108
 21
2.810740878952856
 31
0.0
  0
LINE
  5
4234
102
{ACAD_REACTORS
330
4223
102
}
330
41C0
100
AcDbEntity
  8
WAKU
 48
2.0
100
AcDbLine
 10
20.6456202528239
 20
0.053837345122588
 30
0.0
 11
21.21669214009108
 21
0.053837345122588
 31
0.0
  0
LINE
  5
4235
102
{ACAD_REACTORS
330
4223
102
}
330
41C0
100
AcDbEntity
  8
WAKU
 48
2.0
100
AcDbLine
 10
20.6456202528239
 20
3.03150803398239
 30
0.0
 11
20.6456202528239
 21
0.053837345122588
 31
0.0
  0
LINE
  5
4236
102
{ACAD_REACTORS
330
4223
102
}
330
41C0
100
AcDbEntity
  8
WAKU
 48
2.0
100
AcDbLine
 10
19.78773469236301
 20
2.613862408754698
 30
0.0
 11
18.99381172734496
 21
2.613862408754698
 31
0.0
  0
LINE
  5
4237
102
{ACAD_REACTORS
330
4223
102
}
330
41C0
100
AcDbEntity
  8
WAKU
 48
2.0
100
AcDbLine
 10
19.97963396762878
 20
1.852592786029049
 30
0.0
 11
20.45776601204631
 21
1.852592786029049
 31
0.0
  0
LINE
  5
4238
102
{ACAD_REACTORS
330
4223
102
}
330
41C0
100
AcDbEntity
  8
WAKU
 48
2.0
100
AcDbLine
 10
19.23434236407848
 20
1.852592786029049
 30
0.0
 11
19.49215750748402
 21
1.852592786029049
 31
0.0
  0
LINE
  5
4239
102
{ACAD_REACTORS
330
4223
102
}
330
41C0
100
AcDbEntity
  8
WAKU
 48
2.0
100
AcDbLine
 10
18.46479664435532
 20
2.613862408754698
 30
0.0
 11
18.29806464917993
 21
2.613862408754698
 31
0.0
  0
LINE
  5
423A
102
{ACAD_REACTORS
330
4223
102
}
330
41C0
100
AcDbEntity
  8
WAKU
 48
2.0
100
AcDbLine
 10
19.82173168365153
 20
1.05978181483897
 30
0.0
 11
18.87363758207704
 21
1.05978181483897
 31
0.0
  0
LINE
  5
423B
102
{ACAD_REACTORS
330
4223
102
}
330
41C0
100
AcDbEntity
  8
WAKU
 48
2.0
100
AcDbLine
 10
19.82173168365153
 20
0.3388499090784762
 30
0.0
 11
19.82173168365153
 21
1.05978181483897
 31
0.0
  0
LINE
  5
423C
102
{ACAD_REACTORS
330
4223
102
}
330
41C0
100
AcDbEntity
  8
WAKU
 48
2.0
100
AcDbLine
 10
18.87363758207704
 20
0.3388499090784762
 30
0.0
 11
19.82173168365153
 21
0.3388499090784762
 31
0.0
  0
LINE
  5
423D
102
{ACAD_REACTORS
330
4223
102
}
330
41C0
100
AcDbEntity
  8
WAKU
 48
2.0
100
AcDbLine
 10
18.87363758207704
 20
1.05978181483897
 30
0.0
 11
18.87363758207704
 21
0.3388499090784762
 31
0.0
  0
LINE
  5
423E
102
{ACAD_REACTORS
330
4223
102
}
330
41C0
100
AcDbEntity
  8
WAKU
 48
2.0
100
AcDbLine
 10
20.33181307724186
 20
1.288626999953862
 30
0.0
 11
18.38569772790634
 21
1.288626999953862
 31
0.0
  0
LINE
  5
423F
102
{ACAD_REACTORS
330
4223
102
}
330
41C0
100
AcDbEntity
  8
WAKU
 48
2.0
100
AcDbLine
 10
20.33181307724186
 20
0.1220906367242378
 30
0.0
 11
20.33181307724186
 21
1.288626999953862
 31
0.0
  0
LINE
  5
4240
102
{ACAD_REACTORS
330
4223
102
}
330
41C0
100
AcDbEntity
  8
WAKU
 48
2.0
100
AcDbLine
 10
18.38569772790634
 20
0.1220906367242378
 30
0.0
 11
20.33181307724186
 21
0.1220906367242378
 31
0.0
  0
LINE
  5
4241
102
{ACAD_REACTORS
330
4223
102
}
330
41C0
100
AcDbEntity
  8
WAKU
 48
2.0
100
AcDbLine
 10
18.38569772790634
 20
1.288626999953862
 30
0.0
 11
18.38569772790634
 21
0.1220906367242378
 31
0.0
  0
LINE
  5
4242
102
{ACAD_REACTORS
330
4223
102
}
330
41C0
100
AcDbEntity
  8
WAKU
 48
2.0
100
AcDbLine
 10
18.29099869674775
 20
1.577443611505373
 30
0.0
 11
18.29099869674775
 21
1.852592786029049
 31
0.0
  0
LINE
  5
4243
102
{ACAD_REACTORS
330
4223
102
}
330
41C0
100
AcDbEntity
  8
WAKU
 48
2.0
100
AcDbLine
 10
20.45776601204631
 20
1.577443611505373
 30
0.0
 11
18.29099869674775
 21
1.577443611505373
 31
0.0
  0
LINE
  5
4244
102
{ACAD_REACTORS
330
4223
102
}
330
41C0
100
AcDbEntity
  8
WAKU
 48
2.0
100
AcDbLine
 10
20.45776601204631
 20
1.852592786029049
 30
0.0
 11
20.45776601204631
 21
1.577443611505373
 31
0.0
  0
LINE
  5
4245
102
{ACAD_REACTORS
330
4223
102
}
330
41C0
100
AcDbEntity
  8
WAKU
 48
2.0
100
AcDbLine
 10
18.29099869674775
 20
1.852592786029049
 30
0.0
 11
18.69337397624764
 21
1.852592786029049
 31
0.0
  0
LINE
  5
4246
102
{ACAD_REACTORS
330
4223
102
}
330
41C0
100
AcDbEntity
  8
WAKU
 48
2.0
100
AcDbLine
 10
18.46479664435532
 20
2.613862408754698
 30
0.0
 11
18.69337397624764
 21
1.852592786029049
 31
0.0
  0
LINE
  5
4247
102
{ACAD_REACTORS
330
4223
102
}
330
41C0
100
AcDbEntity
  8
WAKU
 48
2.0
100
AcDbLine
 10
18.99381172734496
 20
2.613862408754698
 30
0.0
 11
19.23434236407848
 21
1.852592786029049
 31
0.0
  0
LINE
  5
4248
102
{ACAD_REACTORS
330
4223
102
}
330
41C0
100
AcDbEntity
  8
WAKU
 48
2.0
100
AcDbLine
 10
20.2527363118117
 20
2.613862408754698
 30
0.0
 11
19.97963396762878
 21
1.852592786029049
 31
0.0
  0
LINE
  5
4249
102
{ACAD_REACTORS
330
4223
102
}
330
41C0
100
AcDbEntity
  8
WAKU
 48
2.0
100
AcDbLine
 10
19.78773469236301
 20
2.613862408754698
 30
0.0
 11
19.49215750748402
 21
1.852592786029049
 31
0.0
  0
LINE
  5
424A
102
{ACAD_REACTORS
330
4223
102
}
330
41C0
100
AcDbEntity
  8
WAKU
 48
2.0
100
AcDbLine
 10
19.13857686814759
 20
2.880852936746805
 30
0.0
 11
19.13857686814759
 21
3.15883286274618
 31
0.0
  0
LINE
  5
424B
102
{ACAD_REACTORS
330
4223
102
}
330
41C0
100
AcDbEntity
  8
WAKU
 48
2.0
100
AcDbLine
 10
18.29806464917993
 20
2.880852936746805
 30
0.0
 11
19.13857686814759
 21
2.880852936746805
 31
0.0
  0
LINE
  5
424C
102
{ACAD_REACTORS
330
4223
102
}
330
41C0
100
AcDbEntity
  8
WAKU
 48
2.0
100
AcDbLine
 10
18.29806464917993
 20
2.613862408754698
 30
0.0
 11
18.29806464917993
 21
2.880852936746805
 31
0.0
  0
LINE
  5
424D
102
{ACAD_REACTORS
330
4223
102
}
330
41C0
100
AcDbEntity
  8
WAKU
 48
2.0
100
AcDbLine
 10
20.49404263728189
 20
2.613862408754698
 30
0.0
 11
20.2527363118117
 21
2.613862408754698
 31
0.0
  0
LINE
  5
424E
102
{ACAD_REACTORS
330
4223
102
}
330
41C0
100
AcDbEntity
  8
WAKU
 48
2.0
100
AcDbLine
 10
20.49404263728189
 20
2.880852936746805
 30
0.0
 11
20.49404263728189
 21
2.613862408754698
 31
0.0
  0
LINE
  5
424F
102
{ACAD_REACTORS
330
4223
102
}
330
41C0
100
AcDbEntity
  8
WAKU
 48
2.0
100
AcDbLine
 10
19.70692798201418
 20
2.880852936746805
 30
0.0
 11
20.49404263728189
 21
2.880852936746805
 31
0.0
  0
LINE
  5
4250
102
{ACAD_REACTORS
330
4223
102
}
330
41C0
100
AcDbEntity
  8
WAKU
 48
2.0
100
AcDbLine
 10
19.70692798201418
 20
3.15883286274618
 30
0.0
 11
19.70692798201418
 21
2.880852936746805
 31
0.0
  0
LINE
  5
4251
102
{ACAD_REACTORS
330
4223
102
}
330
41C0
100
AcDbEntity
  8
WAKU
 48
2.0
100
AcDbLine
 10
19.13857686814759
 20
3.15883286274618
 30
0.0
 11
19.70692798201418
 21
3.15883286274618
 31
0.0
  0
LINE
  5
4252
330
41C0
100
AcDbEntity
  8
WAKU
 48
2.0
100
AcDbLine
 10
16.37843116176958
 20
0.8557199604838388
 30
0.0
 11
17.14385781395873
 21
0.1010431900605226
 31
0.0
  0
LINE
  5
4253
330
41C0
100
AcDbEntity
  8
WAKU
 48
2.0
100
AcDbLine
 10
17.14385781395873
 20
0.1010431900605226
 30
0.0
 11
17.77392451259749
 21
0.1010431900605226
 31
0.0
  0
LINE
  5
4254
330
41C0
100
AcDbEntity
  8
WAKU
 48
2.0
100
AcDbLine
 10
17.77392451259749
 20
0.1851751212827821
 30
0.0
 11
17.77392451259749
 21
0.1010431900605226
 31
0.0
  0
LINE
  5
4255
330
41C0
100
AcDbEntity
  8
WAKU
 48
2.0
100
AcDbLine
 10
17.12786640961775
 20
0.8557199604838388
 30
0.0
 11
17.77392451259749
 21
0.1851751212827821
 31
0.0
  0
LINE
  5
4256
330
41C0
100
AcDbEntity
  8
WAKU
 48
2.0
100
AcDbLine
 10
17.84350357390696
 20
0.8557199604838388
 30
0.0
 11
17.12786640961775
 21
0.8557199604838388
 31
0.0
  0
LINE
  5
4257
330
41C0
100
AcDbEntity
  8
WAKU
 48
2.0
100
AcDbLine
 10
17.84350357390696
 20
1.115430757834474
 30
0.0
 11
17.84350357390696
 21
0.8557199604838388
 31
0.0
  0
LINE
  5
4258
330
41C0
100
AcDbEntity
  8
WAKU
 48
2.0
100
AcDbLine
 10
17.7832881719508
 20
1.613099020403296
 30
0.0
 11
17.7832881719508
 21
1.387863879078395
 31
0.0
  0
LINE
  5
4259
330
41C0
100
AcDbEntity
  8
WAKU
 48
2.0
100
AcDbLine
 10
16.61224696764071
 20
2.756618405090648
 30
0.0
 11
16.76346898034075
 21
2.756618405090648
 31
0.0
  0
LINE
  5
425A
330
41C0
100
AcDbEntity
  8
WAKU
 48
2.0
100
AcDbLine
 10
16.61224696764071
 20
3.08949484892139
 30
0.0
 11
16.61224696764071
 21
2.756618405090648
 31
0.0
  0
LINE
  5
425B
330
41C0
100
AcDbEntity
  8
WAKU
 48
2.0
100
AcDbLine
 10
16.8086039580275
 20
2.127709306108954
 30
0.0
 11
17.85742023442236
 21
2.127709306108954
 31
0.0
  0
LINE
  5
425C
330
41C0
100
AcDbEntity
  8
WAKU
 48
2.0
100
AcDbLine
 10
16.5420534215886
 20
2.491766570122649
 30
0.0
 11
16.23063073689553
 21
2.127709306108954
 31
0.0
  0
LINE
  5
425D
330
41C0
100
AcDbEntity
  8
WAKU
 48
2.0
100
AcDbLine
 10
17.13886008365836
 20
2.491766570122649
 30
0.0
 11
16.8086039580275
 21
2.127709306108954
 31
0.0
  0
LINE
  5
425E
330
41C0
100
AcDbEntity
  8
WAKU
 48
2.0
100
AcDbLine
 10
17.31738914699673
 20
2.756618405090648
 30
0.0
 11
17.8338080989775
 21
2.756618405090648
 31
0.0
  0
LINE
  5
425F
330
41C0
100
AcDbEntity
  8
WAKU
 48
2.0
100
AcDbLine
 10
17.61935945639612
 20
3.08949484892139
 30
0.0
 11
17.31738914699673
 21
2.756618405090648
 31
0.0
  0
LINE
  5
4260
330
41C0
100
AcDbEntity
  8
WAKU
 48
2.0
100
AcDbLine
 10
17.04821889760905
 20
3.08949484892139
 30
0.0
 11
16.76346898034075
 21
2.756618405090648
 31
0.0
  0
LINE
  5
4261
330
41C0
100
AcDbEntity
  8
WAKU
 48
2.0
100
AcDbLine
 10
17.85742023442236
 20
2.127709306108954
 30
0.0
 11
17.85742023442236
 21
1.934939643537859
 31
0.0
  0
LINE
  5
4262
330
41C0
100
AcDbEntity
  8
WAKU
 48
2.0
100
AcDbLine
 10
17.8338080989775
 20
2.491766570122649
 30
0.0
 11
17.13886008365836
 21
2.491766570122649
 31
0.0
  0
LINE
  5
4263
330
41C0
100
AcDbEntity
  8
WAKU
 48
2.0
100
AcDbLine
 10
17.8338080989775
 20
2.756618405090648
 30
0.0
 11
17.8338080989775
 21
2.491766570122649
 31
0.0
  0
LINE
  5
4264
102
{ACAD_REACTORS
330
4223
102
}
330
41C0
100
AcDbEntity
  8
WAKU
 48
2.0
100
AcDbLine
 10
22.02268149812704
 20
3.009969679040295
 30
0.0
 11
21.76408290766659
 21
3.03150803398239
 31
0.0
  0
LINE
  5
4265
102
{ACAD_REACTORS
330
4223
102
}
330
41C0
100
AcDbEntity
  8
WAKU
 48
2.0
100
AcDbLine
 10
22.10888102828068
 20
2.961508708129599
 30
0.0
 11
22.02268149812704
 21
3.009969679040295
 31
0.0
  0
LINE
  5
4266
102
{ACAD_REACTORS
330
4223
102
}
330
41C0
100
AcDbEntity
  8
WAKU
 48
2.0
100
AcDbLine
 10
22.15736826399194
 20
2.810740878952856
 30
0.0
 11
22.10888102828068
 21
2.961508708129599
 31
0.0
  0
LINE
  5
4267
102
{ACAD_REACTORS
330
4223
102
}
330
41C0
100
AcDbEntity
  8
WAKU
 48
2.0
100
AcDbLine
 10
21.93648196797363
 20
1.927670292579705
 30
0.0
 11
22.15736826399194
 21
2.810740878952856
 31
0.0
  0
LINE
  5
4268
102
{ACAD_REACTORS
330
4223
102
}
330
41C0
100
AcDbEntity
  8
WAKU
 48
2.0
100
AcDbLine
 10
22.04961885130007
 20
1.760748369487146
 30
0.0
 11
21.93648196797363
 21
1.927670292579705
 31
0.0
  0
LINE
  5
4269
102
{ACAD_REACTORS
330
4223
102
}
330
41C0
100
AcDbEntity
  8
WAKU
 48
2.0
100
AcDbLine
 10
22.16814320526129
 20
1.37305863594679
 30
0.0
 11
22.04961885130007
 21
1.760748369487146
 31
0.0
  0
LINE
  5
426A
102
{ACAD_REACTORS
330
4223
102
}
330
41C0
100
AcDbEntity
  8
WAKU
 48
2.0
100
AcDbLine
 10
22.20585549970343
 20
0.8292161567848097
 30
0.0
 11
22.16814320526129
 21
1.37305863594679
 31
0.0
  0
LINE
  5
426B
102
{ACAD_REACTORS
330
4223
102
}
330
41C0
100
AcDbEntity
  8
WAKU
 48
2.0
100
AcDbLine
 10
22.15452891558635
 20
0.5214222797100092
 30
0.0
 11
22.20585549970343
 21
0.8292161567848097
 31
0.0
  0
LINE
  5
426C
102
{ACAD_REACTORS
330
4223
102
}
330
41C0
100
AcDbEntity
  8
WAKU
 48
2.0
100
AcDbLine
 10
21.96341932114666
 20
0.3176818654548015
 30
0.0
 11
22.15452891558635
 21
0.5214222797100092
 31
0.0
  0
LINE
  5
426D
102
{ACAD_REACTORS
330
4223
102
}
330
41C0
100
AcDbEntity
  8
WAKU
 48
2.0
100
AcDbLine
 10
21.69867195245121
 20
0.9422928479403935
 30
0.0
 11
21.66095859769217
 21
0.7430633924346921
 31
0.0
  0
LINE
  5
426E
102
{ACAD_REACTORS
330
4223
102
}
330
41C0
100
AcDbEntity
  8
WAKU
 48
2.0
100
AcDbLine
 10
21.69328342149976
 20
1.195367535383297
 30
0.0
 11
21.69867195245121
 21
0.9422928479403935
 31
0.0
  0
LINE
  5
426F
102
{ACAD_REACTORS
330
4223
102
}
330
41C0
100
AcDbEntity
  8
WAKU
 48
2.0
100
AcDbLine
 10
21.65018365642283
 20
1.475365494212837
 30
0.0
 11
21.69328342149976
 21
1.195367535383297
 31
0.0
  0
HATCH
  5
4270
330
41C0
100
AcDbEntity
  8
WAKU
 48
2.0
100
AcDbHatch
 10
0.0
 20
0.0
 30
0.0
210
0.0
220
0.0
230
1.0
  2
SOLID
 70
     1
 71
     1
 91
        3
 92
        7
 72
     0
 73
     1
 93
       18
 10
6.599169252445165
 20
2.978104279062563
 10
4.861815474328579
 20
2.978104279062563
 10
4.861815474328579
 20
2.725886878707116
 10
5.519817199266356
 20
2.725886878707118
 10
5.771599278801943
 20
2.318459224191654
 10
4.784168461029651
 20
2.318459224191656
 10
4.784168461029651
 20
-0.0000002966870625
 10
5.453874215811595
 20
-0.0000002966870625
 10
5.453874215811595
 20
2.066241823836207
 10
8.899464407136747
 20
2.066241823836206
 10
8.899464407136804
 20
2.318459224191656
 10
8.038551786085122
 20
2.318459224191657
 10
8.277316280569948
 20
2.725886878707115
 10
8.909170548878421
 20
2.725886878707115
 10
8.909170548878478
 20
2.978104279062565
 10
7.181522912503453
 20
2.978104279062565
 10
7.18152291250351
 20
3.240022525121164
 10
6.599169252445165
 20
3.240022525121162
 97
       18
330
4273
330
428B
330
428C
330
428D
330
428F
330
428E
330
4280
330
428A
330
4288
330
4285
330
4286
330
4287
330
4276
330
429C
330
4299
330
429D
330
429F
330
42A0
 92
       23
 72
     0
 73
     1
 93
        4
 10
7.726438777341513
 20
2.725886878707115
 10
6.099030281016439
 20
2.725886878707116
 10
6.350812360551969
 20
2.318459224191657
 10
7.487674282856573
 20
2.318459224191656
 97
        4
330
429E
330
4274
330
4289
330
4275
 92
        7
 72
     0
 73
     1
 93
       26
 10
7.763875512244851
 20
1.231984823398988
 10
8.880053183970687
 20
1.231984823398988
 10
8.880053183970687
 20
1.51330410544574
 10
7.763875512244851
 20
1.51330410544574
 10
7.763875512244851
 20
1.764944298685691
 10
7.171816770761836
 20
1.764944298685579
 10
7.171816770761893
 20
1.513304105445742
 10
6.385639435714722
 20
1.51330410544574
 10
6.385639435714722
 20
1.794046180376881
 10
5.842110342622675
 20
1.794046180376996
 10
5.842110342622618
 20
1.231984823398988
 10
7.171816770761836
 20
1.231984823398988
 10
7.171816770761893
 20
0.8924611225511398
 10
5.880933849272253
 20
0.8924611225511398
 10
5.880933849272309
 20
0.6402437221956934
 10
7.171816770761836
 20
0.6402437221956916
 10
7.171816770761836
 20
0.2425162579652333
 10
5.842110342622675
 20
0.2425162579652351
 10
5.842110342622675
 20
-0.0000002966870642
 10
8.880053183970687
 20
-0.0000002966870625
 10
8.880053183970687
 20
0.2425162579652351
 10
7.763875512244851
 20
0.2425162579652351
 10
7.763875512244851
 20
0.6402437221956934
 10
8.870347042229127
 20
0.6402437221956934
 10
8.87034704222907
 20
0.8924611225511398
 10
7.763875512244908
 20
0.8924611225511398
 97
       26
330
429A
330
429B
330
4294
330
4298
330
4271
330
427F
330
4284
330
4281
330
4282
330
4283
330
427A
330
4277
330
427E
330
427D
330
4279
330
4278
330
427C
330
427B
330
4272
330
4295
330
4292
330
4291
330
4296
330
4297
330
4293
330
4290
 75
     0
 76
     1
 47
0.0366028688351672
 98
        3
 10
6.864855714998782
 20
2.896491786289516
 10
6.864855714998782
 20
2.896491786289516
 10
7.670550811896362
 20
1.17615669408633
450
        0
451
        0
460
0.0
461
0.0
452
        0
462
0.0
453
        0
470

  0
LINE
  5
4271
102
{ACAD_REACTORS
330
4270
102
}
330
41C0
100
AcDbEntity
  8
WAKU
 48
2.0
100
AcDbLine
 10
7.171816770761836
 20
1.764944298685577
 30
0.0
 11
7.763875512244851
 21
1.764944298685691
 31
0.0
  0
LINE
  5
4272
102
{ACAD_REACTORS
330
4270
102
}
330
41C0
100
AcDbEntity
  8
WAKU
 48
2.0
100
AcDbLine
 10
8.880053183970687
 20
-0.0000002966870625
 30
0.0
 11
5.842110342622675
 21
-0.0000002966870625
 31
0.0
  0
LINE
  5
4273
102
{ACAD_REACTORS
330
4270
102
}
330
41C0
100
AcDbEntity
  8
WAKU
 48
2.0
100
AcDbLine
 10
7.181522912503453
 20
2.978104279062563
 30
0.0
 11
8.909170548878421
 21
2.978104279062563
 31
0.0
  0
LINE
  5
4274
102
{ACAD_REACTORS
330
4270
102
}
330
41C0
100
AcDbEntity
  8
WAKU
 48
2.0
100
AcDbLine
 10
6.350812360552083
 20
2.318459224191656
 30
0.0
 11
7.487674282856403
 21
2.318459224191656
 31
0.0
  0
LINE
  5
4275
102
{ACAD_REACTORS
330
4270
102
}
330
41C0
100
AcDbEntity
  8
WAKU
 48
2.0
100
AcDbLine
 10
7.726438777341343
 20
2.725886878707115
 30
0.0
 11
6.099030281016382
 21
2.725886878707115
 31
0.0
  0
LINE
  5
4276
102
{ACAD_REACTORS
330
4270
102
}
330
41C0
100
AcDbEntity
  8
WAKU
 48
2.0
100
AcDbLine
 10
8.899464407136804
 20
2.066241823836207
 30
0.0
 11
5.453874215811595
 21
2.066241823836207
 31
0.0
  0
LINE
  5
4277
102
{ACAD_REACTORS
330
4270
102
}
330
41C0
100
AcDbEntity
  8
WAKU
 48
2.0
100
AcDbLine
 10
7.171816770761836
 20
1.231984823398988
 30
0.0
 11
7.171816770761836
 21
0.8924611225511398
 31
0.0
  0
LINE
  5
4278
102
{ACAD_REACTORS
330
4270
102
}
330
41C0
100
AcDbEntity
  8
WAKU
 48
2.0
100
AcDbLine
 10
7.171816770761836
 20
0.6402437221956916
 30
0.0
 11
7.171816770761836
 21
0.2425162579652351
 31
0.0
  0
LINE
  5
4279
102
{ACAD_REACTORS
330
4270
102
}
330
41C0
100
AcDbEntity
  8
WAKU
 48
2.0
100
AcDbLine
 10
7.171816770761836
 20
0.6402437221956916
 30
0.0
 11
5.880933849272253
 21
0.6402437221956916
 31
0.0
  0
LINE
  5
427A
102
{ACAD_REACTORS
330
4270
102
}
330
41C0
100
AcDbEntity
  8
WAKU
 48
2.0
100
AcDbLine
 10
7.171816770761836
 20
1.231984823398988
 30
0.0
 11
5.842110342622675
 21
1.231984823398988
 31
0.0
  0
LINE
  5
427B
102
{ACAD_REACTORS
330
4270
102
}
330
41C0
100
AcDbEntity
  8
WAKU
 48
2.0
100
AcDbLine
 10
5.842110342622675
 20
-0.0000002966870625
 30
0.0
 11
5.842110342622675
 21
0.2425162579652351
 31
0.0
  0
LINE
  5
427C
102
{ACAD_REACTORS
330
4270
102
}
330
41C0
100
AcDbEntity
  8
WAKU
 48
2.0
100
AcDbLine
 10
5.842110342622675
 20
0.2425162579652351
 30
0.0
 11
7.171816770761836
 21
0.2425162579652351
 31
0.0
  0
LINE
  5
427D
102
{ACAD_REACTORS
330
4270
102
}
330
41C0
100
AcDbEntity
  8
WAKU
 48
2.0
100
AcDbLine
 10
5.880933849272253
 20
0.8924611225511398
 30
0.0
 11
5.880933849272253
 21
0.6402437221956916
 31
0.0
  0
LINE
  5
427E
102
{ACAD_REACTORS
330
4270
102
}
330
41C0
100
AcDbEntity
  8
WAKU
 48
2.0
100
AcDbLine
 10
5.880933849272253
 20
0.8924611225511398
 30
0.0
 11
7.171816770761836
 21
0.8924611225511398
 31
0.0
  0
LINE
  5
427F
102
{ACAD_REACTORS
330
4270
102
}
330
41C0
100
AcDbEntity
  8
WAKU
 48
2.0
100
AcDbLine
 10
7.171816770761836
 20
1.764944298685577
 30
0.0
 11
7.171816770761836
 21
1.51330410544574
 31
0.0
  0
LINE
  5
4280
102
{ACAD_REACTORS
330
4270
102
}
330
41C0
100
AcDbEntity
  8
WAKU
 48
2.0
100
AcDbLine
 10
5.519817199266356
 20
2.725886878707115
 30
0.0
 11
4.861815474328579
 21
2.725886878707115
 31
0.0
  0
LINE
  5
4281
102
{ACAD_REACTORS
330
4270
102
}
330
41C0
100
AcDbEntity
  8
WAKU
 48
2.0
100
AcDbLine
 10
6.385639435714722
 20
1.794046180376881
 30
0.0
 11
6.385639435714722
 21
1.51330410544574
 31
0.0
  0
LINE
  5
4282
102
{ACAD_REACTORS
330
4270
102
}
330
41C0
100
AcDbEntity
  8
WAKU
 48
2.0
100
AcDbLine
 10
5.842110342622675
 20
1.794046180376994
 30
0.0
 11
6.385639435714722
 21
1.794046180376881
 31
0.0
  0
LINE
  5
4283
102
{ACAD_REACTORS
330
4270
102
}
330
41C0
100
AcDbEntity
  8
WAKU
 48
2.0
100
AcDbLine
 10
5.842110342622675
 20
1.231984823398988
 30
0.0
 11
5.842110342622675
 21
1.794046180376994
 31
0.0
  0
LINE
  5
4284
102
{ACAD_REACTORS
330
4270
102
}
330
41C0
100
AcDbEntity
  8
WAKU
 48
2.0
100
AcDbLine
 10
6.385639435714722
 20
1.51330410544574
 30
0.0
 11
7.171816770761836
 21
1.51330410544574
 31
0.0
  0
LINE
  5
4285
102
{ACAD_REACTORS
330
4270
102
}
330
41C0
100
AcDbEntity
  8
WAKU
 48
2.0
100
AcDbLine
 10
4.784168461029651
 20
-0.0000002966870625
 30
0.0
 11
4.784168461029651
 21
2.318459224191656
 31
0.0
  0
LINE
  5
4286
102
{ACAD_REACTORS
330
4270
102
}
330
41C0
100
AcDbEntity
  8
WAKU
 48
2.0
100
AcDbLine
 10
5.453874215811595
 20
-0.0000002966870625
 30
0.0
 11
4.784168461029651
 21
-0.0000002966870625
 31
0.0
  0
LINE
  5
4287
102
{ACAD_REACTORS
330
4270
102
}
330
41C0
100
AcDbEntity
  8
WAKU
 48
2.0
100
AcDbLine
 10
5.453874215811595
 20
2.066241823836207
 30
0.0
 11
5.453874215811595
 21
-0.0000002966870625
 31
0.0
  0
LINE
  5
4288
102
{ACAD_REACTORS
330
4270
102
}
330
41C0
100
AcDbEntity
  8
WAKU
 48
2.0
100
AcDbLine
 10
4.784168461029651
 20
2.318459224191656
 30
0.0
 11
5.771599278801943
 21
2.318459224191656
 31
0.0
  0
LINE
  5
4289
102
{ACAD_REACTORS
330
4270
102
}
330
41C0
100
AcDbEntity
  8
WAKU
 48
2.0
100
AcDbLine
 10
6.099030281016382
 20
2.725886878707115
 30
0.0
 11
6.350812360551969
 21
2.318459224191656
 31
0.0
  0
LINE
  5
428A
102
{ACAD_REACTORS
330
4270
102
}
330
41C0
100
AcDbEntity
  8
WAKU
 48
2.0
100
AcDbLine
 10
5.519817199266356
 20
2.725886878707115
 30
0.0
 11
5.771599278801943
 21
2.318459224191656
 31
0.0
  0
LINE
  5
428B
102
{ACAD_REACTORS
330
4270
102
}
330
41C0
100
AcDbEntity
  8
WAKU
 48
2.0
100
AcDbLine
 10
7.181522912503453
 20
3.240022525121162
 30
0.0
 11
7.181522912503453
 21
2.978104279062563
 31
0.0
  0
LINE
  5
428C
102
{ACAD_REACTORS
330
4270
102
}
330
41C0
100
AcDbEntity
  8
WAKU
 48
2.0
100
AcDbLine
 10
6.599169252445165
 20
3.240022525121162
 30
0.0
 11
7.181522912503453
 21
3.240022525121162
 31
0.0
  0
LINE
  5
428D
102
{ACAD_REACTORS
330
4270
102
}
330
41C0
100
AcDbEntity
  8
WAKU
 48
2.0
100
AcDbLine
 10
6.599169252445165
 20
3.240022525121162
 30
0.0
 11
6.599169252445165
 21
2.978104279062563
 31
0.0
  0
LINE
  5
428E
102
{ACAD_REACTORS
330
4270
102
}
330
41C0
100
AcDbEntity
  8
WAKU
 48
2.0
100
AcDbLine
 10
4.861815474328579
 20
2.725886878707115
 30
0.0
 11
4.861815474328579
 21
2.978104279062563
 31
0.0
  0
LINE
  5
428F
102
{ACAD_REACTORS
330
4270
102
}
330
41C0
100
AcDbEntity
  8
WAKU
 48
2.0
100
AcDbLine
 10
4.861815474328579
 20
2.978104279062563
 30
0.0
 11
6.599169252445165
 21
2.978104279062563
 31
0.0
  0
LINE
  5
4290
102
{ACAD_REACTORS
330
4270
102
}
330
41C0
100
AcDbEntity
  8
WAKU
 48
2.0
100
AcDbLine
 10
7.763875512244851
 20
1.231984823398988
 30
0.0
 11
7.763875512244851
 21
0.8924611225511398
 31
0.0
  0
LINE
  5
4291
102
{ACAD_REACTORS
330
4270
102
}
330
41C0
100
AcDbEntity
  8
WAKU
 48
2.0
100
AcDbLine
 10
7.763875512244851
 20
0.6402437221956916
 30
0.0
 11
7.763875512244851
 21
0.2425162579652351
 31
0.0
  0
LINE
  5
4292
102
{ACAD_REACTORS
330
4270
102
}
330
41C0
100
AcDbEntity
  8
WAKU
 48
2.0
100
AcDbLine
 10
7.763875512244851
 20
0.2425162579652351
 30
0.0
 11
8.880053183970687
 21
0.2425162579652351
 31
0.0
  0
LINE
  5
4293
102
{ACAD_REACTORS
330
4270
102
}
330
41C0
100
AcDbEntity
  8
WAKU
 48
2.0
100
AcDbLine
 10
7.763875512244851
 20
0.8924611225511398
 30
0.0
 11
8.87034704222907
 21
0.8924611225511398
 31
0.0
  0
LINE
  5
4294
102
{ACAD_REACTORS
330
4270
102
}
330
41C0
100
AcDbEntity
  8
WAKU
 48
2.0
100
AcDbLine
 10
7.763875512244851
 20
1.51330410544574
 30
0.0
 11
8.880053183970687
 21
1.51330410544574
 31
0.0
  0
LINE
  5
4295
102
{ACAD_REACTORS
330
4270
102
}
330
41C0
100
AcDbEntity
  8
WAKU
 48
2.0
100
AcDbLine
 10
8.880053183970687
 20
0.2425162579652351
 30
0.0
 11
8.880053183970687
 21
-0.0000002966870625
 31
0.0
  0
LINE
  5
4296
102
{ACAD_REACTORS
330
4270
102
}
330
41C0
100
AcDbEntity
  8
WAKU
 48
2.0
100
AcDbLine
 10
8.87034704222907
 20
0.6402437221956916
 30
0.0
 11
7.763875512244851
 21
0.6402437221956916
 31
0.0
  0
LINE
  5
4297
102
{ACAD_REACTORS
330
4270
102
}
330
41C0
100
AcDbEntity
  8
WAKU
 48
2.0
100
AcDbLine
 10
8.87034704222907
 20
0.8924611225511398
 30
0.0
 11
8.87034704222907
 21
0.6402437221956916
 31
0.0
  0
LINE
  5
4298
102
{ACAD_REACTORS
330
4270
102
}
330
41C0
100
AcDbEntity
  8
WAKU
 48
2.0
100
AcDbLine
 10
7.763875512244851
 20
1.764944298685691
 30
0.0
 11
7.763875512244851
 21
1.51330410544574
 31
0.0
  0
LINE
  5
4299
102
{ACAD_REACTORS
330
4270
102
}
330
41C0
100
AcDbEntity
  8
WAKU
 48
2.0
100
AcDbLine
 10
8.038551786085065
 20
2.318459224191656
 30
0.0
 11
8.899464407136804
 21
2.318459224191656
 31
0.0
  0
LINE
  5
429A
102
{ACAD_REACTORS
330
4270
102
}
330
41C0
100
AcDbEntity
  8
WAKU
 48
2.0
100
AcDbLine
 10
8.880053183970687
 20
1.231984823398988
 30
0.0
 11
7.763875512244851
 21
1.231984823398988
 31
0.0
  0
LINE
  5
429B
102
{ACAD_REACTORS
330
4270
102
}
330
41C0
100
AcDbEntity
  8
WAKU
 48
2.0
100
AcDbLine
 10
8.880053183970687
 20
1.51330410544574
 30
0.0
 11
8.880053183970687
 21
1.231984823398988
 31
0.0
  0
LINE
  5
429C
102
{ACAD_REACTORS
330
4270
102
}
330
41C0
100
AcDbEntity
  8
WAKU
 48
2.0
100
AcDbLine
 10
8.899464407136804
 20
2.318459224191656
 30
0.0
 11
8.899464407136804
 21
2.066241823836207
 31
0.0
  0
LINE
  5
429D
102
{ACAD_REACTORS
330
4270
102
}
330
41C0
100
AcDbEntity
  8
WAKU
 48
2.0
100
AcDbLine
 10
8.277316280570005
 20
2.725886878707115
 30
0.0
 11
8.038551786085065
 21
2.318459224191656
 31
0.0
  0
LINE
  5
429E
102
{ACAD_REACTORS
330
4270
102
}
330
41C0
100
AcDbEntity
  8
WAKU
 48
2.0
100
AcDbLine
 10
7.726438777341456
 20
2.725886878707115
 30
0.0
 11
7.487674282856517
 21
2.318459224191656
 31
0.0
  0
LINE
  5
429F
102
{ACAD_REACTORS
330
4270
102
}
330
41C0
100
AcDbEntity
  8
WAKU
 48
2.0
100
AcDbLine
 10
8.909170548878421
 20
2.725886878707115
 30
0.0
 11
8.277316280570005
 21
2.725886878707115
 31
0.0
  0
LINE
  5
42A0
102
{ACAD_REACTORS
330
4270
102
}
330
41C0
100
AcDbEntity
  8
WAKU
 48
2.0
100
AcDbLine
 10
8.909170548878421
 20
2.978104279062563
 30
0.0
 11
8.909170548878421
 21
2.725886878707115
 31
0.0
  0
LINE
  5
42A1
102
{ACAD_REACTORS
330
42BB
102
}
330
41C0
100
AcDbEntity
  8
WAKU
 48
2.0
100
AcDbLine
 10
4.115397439683931
 20
-0.0000002966870625
 30
0.0
 11
-0.0000003248666758
 21
-0.0000002966870625
 31
0.0
  0
LINE
  5
42A2
102
{ACAD_REACTORS
330
42BB
102
}
330
41C0
100
AcDbEntity
  8
WAKU
 48
2.0
100
AcDbLine
 10
1.901307714044435
 20
2.406902349753202
 30
0.0
 11
1.901307714044321
 21
1.672880782032137
 31
0.0
  0
LINE
  5
42A3
102
{ACAD_REACTORS
330
42BB
102
}
330
41C0
100
AcDbEntity
  8
WAKU
 48
2.0
100
AcDbLine
 10
1.901307714044435
 20
1.280401336388351
 30
0.0
 11
1.901307714044435
 21
0.4354176349621853
 31
0.0
  0
LINE
  5
42A4
102
{ACAD_REACTORS
330
42BB
102
}
330
41C0
100
AcDbEntity
  8
WAKU
 48
2.0
100
AcDbLine
 10
1.901307714044435
 20
1.280401336388351
 30
0.0
 11
0.0525925581537763
 21
1.280401336388351
 31
0.0
  0
LINE
  5
42A5
102
{ACAD_REACTORS
330
42BB
102
}
330
41C0
100
AcDbEntity
  8
WAKU
 48
2.0
100
AcDbLine
 10
1.901307714044435
 20
2.406902349753202
 30
0.0
 11
-0.0000003248666758
 21
2.406902349753202
 31
0.0
  0
LINE
  5
42A6
102
{ACAD_REACTORS
330
42BB
102
}
330
41C0
100
AcDbEntity
  8
WAKU
 48
2.0
100
AcDbLine
 10
-0.0000003248666758
 20
-0.0000002966870625
 30
0.0
 11
-0.0000003248666758
 21
0.4354176349621924
 31
0.0
  0
LINE
  5
42A7
102
{ACAD_REACTORS
330
42BB
102
}
330
41C0
100
AcDbEntity
  8
WAKU
 48
2.0
100
AcDbLine
 10
-0.0000003248666758
 20
0.4354176349621924
 30
0.0
 11
1.901307714044435
 21
0.4354176349621853
 31
0.0
  0
LINE
  5
42A8
102
{ACAD_REACTORS
330
42BB
102
}
330
41C0
100
AcDbEntity
  8
WAKU
 48
2.0
100
AcDbLine
 10
0.0525925581537763
 20
1.672880782032137
 30
0.0
 11
0.0525925581537763
 21
1.280401336388351
 31
0.0
  0
LINE
  5
42A9
102
{ACAD_REACTORS
330
42BB
102
}
330
41C0
100
AcDbEntity
  8
WAKU
 48
2.0
100
AcDbLine
 10
0.0525925581537763
 20
1.672880782032137
 30
0.0
 11
1.901307714044321
 21
1.672880782032137
 31
0.0
  0
LINE
  5
42AA
102
{ACAD_REACTORS
330
42BB
102
}
330
41C0
100
AcDbEntity
  8
WAKU
 48
2.0
100
AcDbLine
 10
1.901307714044435
 20
3.238155914628123
 30
0.0
 11
1.901307714044435
 21
2.780207329342871
 31
0.0
  0
LINE
  5
42AB
102
{ACAD_REACTORS
330
42BB
102
}
330
41C0
100
AcDbEntity
  8
WAKU
 48
2.0
100
AcDbLine
 10
0.6363000374163335
 20
3.238155914628123
 30
0.0
 11
0.6363000374163335
 21
2.780207329342871
 31
0.0
  0
LINE
  5
42AC
102
{ACAD_REACTORS
330
42BB
102
}
330
41C0
100
AcDbEntity
  8
WAKU
 48
2.0
100
AcDbLine
 10
-0.0000003248666758
 20
2.406902349753202
 30
0.0
 11
-0.0000003248666758
 21
3.238155914628123
 31
0.0
  0
LINE
  5
42AD
102
{ACAD_REACTORS
330
42BB
102
}
330
41C0
100
AcDbEntity
  8
WAKU
 48
2.0
100
AcDbLine
 10
0.6363000374163335
 20
2.780207329342871
 30
0.0
 11
1.901307714044435
 21
2.780207329342871
 31
0.0
  0
LINE
  5
42AE
102
{ACAD_REACTORS
330
42BB
102
}
330
41C0
100
AcDbEntity
  8
WAKU
 48
2.0
100
AcDbLine
 10
2.503349539196335
 20
2.406902349753195
 30
0.0
 11
2.503349539196335
 21
1.672880782032137
 31
0.0
  0
LINE
  5
42AF
102
{ACAD_REACTORS
330
42BB
102
}
330
41C0
100
AcDbEntity
  8
WAKU
 48
2.0
100
AcDbLine
 10
2.503349539196221
 20
1.280401336388351
 30
0.0
 11
2.503349539196335
 21
0.4354176349621924
 31
0.0
  0
LINE
  5
42B0
102
{ACAD_REACTORS
330
42BB
102
}
330
41C0
100
AcDbEntity
  8
WAKU
 48
2.0
100
AcDbLine
 10
2.503349539196335
 20
0.4354176349621924
 30
0.0
 11
4.115397439683931
 21
0.4354176349621924
 31
0.0
  0
LINE
  5
42B1
102
{ACAD_REACTORS
330
42BB
102
}
330
41C0
100
AcDbEntity
  8
WAKU
 48
2.0
100
AcDbLine
 10
2.503349539196335
 20
1.672880782032137
 30
0.0
 11
4.102248859835128
 21
1.672880782032137
 31
0.0
  0
LINE
  5
42B2
102
{ACAD_REACTORS
330
42BB
102
}
330
41C0
100
AcDbEntity
  8
WAKU
 48
2.0
100
AcDbLine
 10
2.503349539196335
 20
2.780207329342871
 30
0.0
 11
4.115397439683931
 21
2.780207329342871
 31
0.0
  0
LINE
  5
42B3
102
{ACAD_REACTORS
330
42BB
102
}
330
41C0
100
AcDbEntity
  8
WAKU
 48
2.0
100
AcDbLine
 10
4.115397439683931
 20
0.4354176349621924
 30
0.0
 11
4.115397439683931
 21
-0.0000002966870625
 31
0.0
  0
LINE
  5
42B4
102
{ACAD_REACTORS
330
42BB
102
}
330
41C0
100
AcDbEntity
  8
WAKU
 48
2.0
100
AcDbLine
 10
4.102248859835128
 20
1.280401336388351
 30
0.0
 11
2.503349539196221
 21
1.280401336388351
 31
0.0
  0
LINE
  5
42B5
102
{ACAD_REACTORS
330
42BB
102
}
330
41C0
100
AcDbEntity
  8
WAKU
 48
2.0
100
AcDbLine
 10
4.102248859835128
 20
1.672880782032137
 30
0.0
 11
4.102248859835128
 21
1.280401336388351
 31
0.0
  0
LINE
  5
42B6
102
{ACAD_REACTORS
330
42BB
102
}
330
41C0
100
AcDbEntity
  8
WAKU
 48
2.0
100
AcDbLine
 10
2.503349539196335
 20
3.238155914628123
 30
0.0
 11
2.503349539196335
 21
2.780207329342871
 31
0.0
  0
LINE
  5
42B7
102
{ACAD_REACTORS
330
42BB
102
}
330
41C0
100
AcDbEntity
  8
WAKU
 48
2.0
100
AcDbLine
 10
4.115397439683931
 20
2.406902349753202
 30
0.0
 11
2.503349539196335
 21
2.406902349753195
 31
0.0
  0
LINE
  5
42B8
102
{ACAD_REACTORS
330
42BB
102
}
330
41C0
100
AcDbEntity
  8
WAKU
 48
2.0
100
AcDbLine
 10
4.115397439683931
 20
2.780207329342871
 30
0.0
 11
4.115397439683931
 21
2.406902349753202
 31
0.0
  0
LINE
  5
42B9
102
{ACAD_REACTORS
330
42BB
102
}
330
41C0
100
AcDbEntity
  8
WAKU
 48
2.0
100
AcDbLine
 10
-0.0000003248666758
 20
3.238155914628123
 30
0.0
 11
0.6363000374163335
 21
3.238155914628123
 31
0.0
  0
LINE
  5
42BA
102
{ACAD_REACTORS
330
42BB
102
}
330
41C0
100
AcDbEntity
  8
WAKU
 48
2.0
100
AcDbLine
 10
1.901307714044435
 20
3.238155914628123
 30
0.0
 11
2.503349539196335
 21
3.238155914628123
 31
0.0
  0
HATCH
  5
42BB
330
41C0
100
AcDbEntity
  8
WAKU
 48
2.0
100
AcDbHatch
 10
0.0
 20
0.0
 30
0.0
210
0.0
220
0.0
230
1.0
  2
SOLID
 70
     1
 71
     1
 91
        1
 92
        7
 72
     0
 73
     1
 93
       26
 10
2.503349539196335
 20
2.406902349753195
 10
4.115397439683931
 20
2.406902349753201
 10
4.115397439683874
 20
2.78020732934287
 10
2.503349539196392
 20
2.78020732934287
 10
2.503349539196335
 20
3.238155914628121
 10
1.901307714044378
 20
3.238155914628123
 10
1.901307714044435
 20
2.780207329342871
 10
0.6363000374163335
 20
2.780207329342871
 10
0.6363000374163335
 20
3.238155914628123
 10
-0.0000003248667326
 20
3.238155914628121
 10
-0.0000003248665621
 20
2.406902349753202
 10
1.901307714044492
 20
2.406902349753202
 10
1.901307714044321
 20
1.672880782032136
 10
0.0525925581537763
 20
1.672880782032136
 10
0.0525925581537763
 20
1.280401336388351
 10
1.901307714044378
 20
1.280401336388349
 10
1.901307714044492
 20
0.435417634962187
 10
-0.0000003248667326
 20
0.4354176349621959
 10
-0.0000003248666758
 20
-0.0000002966870625
 10
4.115397439683931
 20
-0.0000002966870625
 10
4.115397439683988
 20
0.4354176349621924
 10
2.503349539196392
 20
0.4354176349621906
 10
2.503349539196165
 20
1.280401336388351
 10
4.102248859835128
 20
1.280401336388351
 10
4.102248859835128
 20
1.672880782032136
 10
2.503349539196392
 20
1.672880782032139
 97
       26
330
42B7
330
42B8
330
42B2
330
42B6
330
42BA
330
42AA
330
42AD
330
42AB
330
42B9
330
42AC
330
42A5
330
42A2
330
42A9
330
42A8
330
42A4
330
42A3
330
42A7
330
42A6
330
42A1
330
42B3
330
42B0
330
42AF
330
42B4
330
42B5
330
42B1
330
42AE
 75
     0
 76
     1
 47
0.0150272706290981
 98
        1
 10
2.348301949750577
 20
2.17559421869339
450
        0
451
        0
460
0.0
461
0.0
452
        0
462
0.0
453
        0
470

  0
ENDBLK
  5
42BD
330
41C0
100
AcDbEntity
  8
0
 48
2.0
100
AcDbBlockEnd
  0
BLOCK
  5
5299
330
5297
100
AcDbEntity
  8
SUNPOU
100
AcDbBlockBegin
  2
YAN2
 70
     0
 10
0.0
 20
0.0
 30
0.0
  3
YAN2
  1

  0
SOLID
  5
5298
330
5297
100
AcDbEntity
  8
0
  6
ByBlock
 62
     0
100
AcDbTrace
 10
-0.4829629131445341
 20
0.1294095225512605
 30
0.0
 11
-0.4829629131445342
 21
-0.1294095225512604
 31
0.0
 12
0.0
 22
0.0
 32
0.0
 13
0.0
 23
0.0
 33
0.0
  0
ENDBLK
  5
529A
330
5297
100
AcDbEntity
  8
SUNPOU
100
AcDbBlockEnd
  0
BLOCK
  5
5781
330
55F9
100
AcDbEntity
  8
0
 48
2.0
100
AcDbBlockBegin
  2
*D5
 70
     1
 10
0.0
 20
0.0
 30
0.0
  3
*D5
  1

  0
LINE
  5
590F
330
55F9
100
AcDbEntity
  8
SUNPOU
 62
     0
440
 16777216
 48
2.0
370
    -2
100
AcDbLine
 10
118.5051351627344
 20
180.1754082048001
 30
0.0
 11
118.5051351627344
 21
168.6766828129337
 31
0.0
  0
LINE
  5
5910
330
55F9
100
AcDbEntity
  8
SUNPOU
 62
     0
440
 16777216
 48
2.0
370
    -2
100
AcDbLine
 10
137.0051351627344
 20
184.4254082048001
 30
0.0
 11
137.0051351627344
 21
168.6766828129337
 31
0.0
  0
LINE
  5
5911
330
55F9
100
AcDbEntity
  8
SUNPOU
 62
     0
440
 16777216
 48
2.0
370
    -2
100
AcDbLine
 10
119.5051351627344
 20
169.6766828129337
 30
0.0
 11
136.0051351627344
 21
169.6766828129337
 31
0.0
  0
INSERT
  5
5912
330
55F9
100
AcDbEntity
  8
SUNPOU
 62
     0
440
 16777216
 48
2.0
370
    -2
100
AcDbBlockReference
  2
Y1
 10
118.5051351627344
 20
169.6766828129337
 30
0.0
 50
180.0
  0
INSERT
  5
5913
330
55F9
100
AcDbEntity
  8
SUNPOU
 62
     0
440
 16777216
 48
2.0
370
    -2
100
AcDbBlockReference
  2
Y1
 10
137.0051351627344
 20
169.6766828129337
 30
0.0
  0
MTEXT
  5
5914
330
55F9
100
AcDbEntity
  8
SUNPOU
 62
     1
440
 16777216
 48
2.0
100
AcDbMText
 10
127.7551351627344
 20
172.1766828129337
 30
0.0
 40
4.0
 41
0.0
 46
0.0
 71
     5
 72
     1
  1
\A1;A
  7
KANJI
 73
     1
 44
1.0
  0
POINT
  5
5915
330
55F9
100
AcDbEntity
  8
DEFPOINTS
 62
     0
440
 16777216
 48
2.0
100
AcDbPoint
 10
118.5051351627344
 20
181.1754082048001
 30
0.0
  0
POINT
  5
5916
330
55F9
100
AcDbEntity
  8
DEFPOINTS
 62
     0
440
 16777216
 48
2.0
100
AcDbPoint
 10
137.0051351627344
 20
185.4254082048001
 30
0.0
  0
POINT
  5
5917
330
55F9
100
AcDbEntity
  8
DEFPOINTS
 62
     0
440
 16777216
 48
2.0
100
AcDbPoint
 10
137.0051351627344
 20
169.6766828129337
 30
0.0
  0
ENDBLK
  5
578B
330
55F9
100
AcDbEntity
  8
0
 48
2.0
100
AcDbBlockEnd
  0
BLOCK
  5
578C
330
5624
100
AcDbEntity
  8
0
 48
2.0
100
AcDbBlockBegin
  2
*D6
 70
     1
 10
0.0
 20
0.0
 30
0.0
  3
*D6
  1

  0
LINE
  5
59D7
330
5624
100
AcDbEntity
  8
SUNPOU
 62
     0
440
 16777216
 48
2.0
370
    -2
100
AcDbLine
 10
52.46485438577298
 20
184.4254082048001
 30
0.0
 11
52.46485438577298
 21
168.7201497715324
 31
0.0
  0
LINE
  5
59D8
330
5624
100
AcDbEntity
  8
SUNPOU
 62
     0
440
 16777216
 48
2.0
370
    -2
100
AcDbLine
 10
71.46485438577298
 20
184.4254082048001
 30
0.0
 11
71.46485438577298
 21
168.7201497715324
 31
0.0
  0
LINE
  5
59D9
330
5624
100
AcDbEntity
  8
SUNPOU
 62
     0
440
 16777216
 48
2.0
370
    -2
100
AcDbLine
 10
53.46485438577298
 20
169.7201497715324
 30
0.0
 11
70.46485438577298
 21
169.7201497715324
 31
0.0
  0
INSERT
  5
59DA
330
5624
100
AcDbEntity
  8
SUNPOU
 62
     0
440
 16777216
 48
2.0
370
    -2
100
AcDbBlockReference
  2
Y1
 10
52.46485438577298
 20
169.7201497715324
 30
0.0
 50
180.0
  0
INSERT
  5
59DB
330
5624
100
AcDbEntity
  8
SUNPOU
 62
     0
440
 16777216
 48
2.0
370
    -2
100
AcDbBlockReference
  2
Y1
 10
71.46485438577298
 20
169.7201497715324
 30
0.0
  0
MTEXT
  5
59DC
330
5624
100
AcDbEntity
  8
SUNPOU
 62
     1
440
 16777216
 48
2.0
100
AcDbMText
 10
61.96485438577298
 20
172.2201497715324
 30
0.0
 40
4.0
 41
0.0
 46
0.0
 71
     5
 72
     1
  1
\A1;17
  7
KANJI
 73
     1
 44
1.0
  0
POINT
  5
59DD
330
5624
100
AcDbEntity
  8
DEFPOINTS
 62
     0
440
 16777216
 48
2.0
100
AcDbPoint
 10
52.46485438577298
 20
185.4254082048001
 30
0.0
  0
POINT
  5
59DE
330
5624
100
AcDbEntity
  8
DEFPOINTS
 62
     0
440
 16777216
 48
2.0
100
AcDbPoint
 10
71.46485438577298
 20
185.4254082048001
 30
0.0
  0
POINT
  5
59DF
330
5624
100
AcDbEntity
  8
DEFPOINTS
 62
     0
440
 16777216
 48
2.0
100
AcDbPoint
 10
71.46485438577298
 20
169.7201497715324
 30
0.0
  0
ENDBLK
  5
5796
330
5624
100
AcDbEntity
  8
0
 48
2.0
100
AcDbBlockEnd
  0
BLOCK
  5
58B6
330
5668
100
AcDbEntity
  8
0
 48
2.0
100
AcDbBlockBegin
  2
*D7
 70
     1
 10
0.0
 20
0.0
 30
0.0
  3
*D7
  1

  0
LINE
  5
5906
330
5668
100
AcDbEntity
  8
SUNPOU
 62
     0
440
 16777216
 48
2.0
370
    -2
100
AcDbLine
 10
96.50513516273447
 20
184.4254082048001
 30
0.0
 11
96.50513516273447
 21
168.7201497715324
 31
0.0
  0
LINE
  5
5907
330
5668
100
AcDbEntity
  8
SUNPOU
 62
     0
440
 16777216
 48
2.0
370
    -2
100
AcDbLine
 10
118.5051351627344
 20
184.9254082048001
 30
0.0
 11
118.5051351627344
 21
168.7201497715324
 31
0.0
  0
LINE
  5
5908
330
5668
100
AcDbEntity
  8
SUNPOU
 62
     0
440
 16777216
 48
2.0
370
    -2
100
AcDbLine
 10
97.50513516273446
 20
169.7201497715324
 30
0.0
 11
117.5051351627344
 21
169.7201497715324
 31
0.0
  0
INSERT
  5
5909
330
5668
100
AcDbEntity
  8
SUNPOU
 62
     0
440
 16777216
 48
2.0
370
    -2
100
AcDbBlockReference
  2
Y1
 10
96.50513516273447
 20
169.7201497715324
 30
0.0
 50
180.0
  0
INSERT
  5
590A
330
5668
100
AcDbEntity
  8
SUNPOU
 62
     0
440
 16777216
 48
2.0
370
    -2
100
AcDbBlockReference
  2
Y1
 10
118.5051351627344
 20
169.7201497715324
 30
0.0
  0
MTEXT
  5
590B
330
5668
100
AcDbEntity
  8
SUNPOU
 62
     1
440
 16777216
 48
2.0
100
AcDbMText
 10
107.5051351627344
 20
172.2201497715324
 30
0.0
 40
4.0
 41
0.0
 46
0.0
 71
     5
 72
     1
  1
\A1;22
  7
KANJI
 73
     1
 44
1.0
  0
POINT
  5
590C
330
5668
100
AcDbEntity
  8
DEFPOINTS
 62
     0
440
 16777216
 48
2.0
100
AcDbPoint
 10
96.50513516273447
 20
185.4254082048001
 30
0.0
  0
POINT
  5
590D
330
5668
100
AcDbEntity
  8
DEFPOINTS
 62
     0
440
 16777216
 48
2.0
100
AcDbPoint
 10
118.5051351627344
 20
185.9254082048001
 30
0.0
  0
POINT
  5
590E
330
5668
100
AcDbEntity
  8
DEFPOINTS
 62
     0
440
 16777216
 48
2.0
100
AcDbPoint
 10
118.5051351627344
 20
169.7201497715324
 30
0.0
  0
ENDBLK
  5
58C0
330
5668
100
AcDbEntity
  8
0
 48
2.0
100
AcDbBlockEnd
  0
BLOCK
  5
57F8
330
56AE
100
AcDbEntity
  8
0
 48
2.0
100
AcDbBlockBegin
  2
*D8
 70
     1
 10
0.0
 20
0.0
 30
0.0
  3
*D8
  1

  0
LINE
  5
5921
330
56AE
100
AcDbEntity
  8
SUNPOU
 62
     0
440
 16777216
 48
2.0
370
    -2
100
AcDbLine
 10
128.7551351627344
 20
202.9254082048001
 30
0.0
 11
153.9826512402586
 21
202.9254082048001
 31
0.0
  0
LINE
  5
5922
330
56AE
100
AcDbEntity
  8
SUNPOU
 62
     0
440
 16777216
 48
2.0
370
    -2
100
AcDbLine
 10
143.3051351627344
 20
185.4254082048001
 30
0.0
 11
153.9826512402585
 21
185.4254082048001
 31
0.0
  0
LINE
  5
5923
330
56AE
100
AcDbEntity
  8
SUNPOU
 62
     0
440
 16777216
 48
2.0
370
    -2
100
AcDbLine
 10
152.9826512402586
 20
201.9254082048001
 30
0.0
 11
152.9826512402585
 21
186.4254082048001
 31
0.0
  0
INSERT
  5
5924
330
56AE
100
AcDbEntity
  8
SUNPOU
 62
     0
440
 16777216
 48
2.0
370
    -2
100
AcDbBlockReference
  2
Y1
 10
152.9826512402586
 20
202.9254082048001
 30
0.0
 50
90.0
  0
INSERT
  5
5925
330
56AE
100
AcDbEntity
  8
SUNPOU
 62
     0
440
 16777216
 48
2.0
370
    -2
100
AcDbBlockReference
  2
Y1
 10
152.9826512402585
 20
185.4254082048001
 30
0.0
 50
270.0
  0
MTEXT
  5
5926
330
56AE
100
AcDbEntity
  8
SUNPOU
 62
     1
440
 16777216
 48
2.0
100
AcDbMText
 10
150.4826512402585
 20
194.1754082048001
 30
0.0
 40
4.0
 41
0.0
 46
0.0
 71
     5
 72
     1
  1
\A1;C
  7
KANJI
 11
0.0000000000000001
 21
1.0
 31
0.0
 73
     1
 44
1.0
  0
POINT
  5
5927
330
56AE
100
AcDbEntity
  8
DEFPOINTS
 62
     0
440
 16777216
 48
2.0
100
AcDbPoint
 10
127.7551351627344
 20
202.9254082048001
 30
0.0
  0
POINT
  5
5928
330
56AE
100
AcDbEntity
  8
DEFPOINTS
 62
     0
440
 16777216
 48
2.0
100
AcDbPoint
 10
142.3051351627345
 20
185.4254082048001
 30
0.0
  0
POINT
  5
5929
330
56AE
100
AcDbEntity
  8
DEFPOINTS
 62
     0
440
 16777216
 48
2.0
100
AcDbPoint
 10
152.9826512402585
 20
185.4254082048001
 30
0.0
  0
ENDBLK
  5
5802
330
56AE
100
AcDbEntity
  8
0
 48
2.0
100
AcDbBlockEnd
  0
BLOCK
  5
580E
330
56DC
100
AcDbEntity
  8
0
 48
2.0
100
AcDbBlockBegin
  2
*D9
 70
     1
 10
0.0
 20
0.0
 30
0.0
  3
*D9
  1

  0
LINE
  5
5918
330
56DC
100
AcDbEntity
  8
SUNPOU
 62
     0
440
 16777216
 48
2.0
370
    -2
100
AcDbLine
 10
128.7551351627344
 20
208.2254082048001
 30
0.0
 11
164.6192438719099
 21
208.2254082048001
 31
0.0
  0
LINE
  5
5919
330
56DC
100
AcDbEntity
  8
SUNPOU
 62
     0
440
 16777216
 48
2.0
370
    -2
100
AcDbLine
 10
143.3051351627344
 20
185.4254082048001
 30
0.0
 11
164.6192438719099
 21
185.4254082048001
 31
0.0
  0
LINE
  5
591A
330
56DC
100
AcDbEntity
  8
SUNPOU
 62
     0
440
 16777216
 48
2.0
370
    -2
100
AcDbLine
 10
163.6192438719099
 20
207.2254082048001
 30
0.0
 11
163.6192438719099
 21
186.4254082048001
 31
0.0
  0
INSERT
  5
591B
330
56DC
100
AcDbEntity
  8
SUNPOU
 62
     0
440
 16777216
 48
2.0
370
    -2
100
AcDbBlockReference
  2
Y1
 10
163.6192438719099
 20
208.2254082048001
 30
0.0
 50
90.0
  0
INSERT
  5
591C
330
56DC
100
AcDbEntity
  8
SUNPOU
 62
     0
440
 16777216
 48
2.0
370
    -2
100
AcDbBlockReference
  2
Y1
 10
163.6192438719099
 20
185.4254082048001
 30
0.0
 50
270.0
  0
MTEXT
  5
591D
330
56DC
100
AcDbEntity
  8
SUNPOU
 62
     1
440
 16777216
 48
2.0
100
AcDbMText
 10
161.1192438719099
 20
196.8254082048001
 30
0.0
 40
4.0
 41
0.0
 46
0.0
 71
     5
 72
     1
  1
\A1;B
  7
KANJI
 11
0.0000000000000001
 21
1.0
 31
0.0
 73
     1
 44
1.0
  0
POINT
  5
591E
330
56DC
100
AcDbEntity
  8
DEFPOINTS
 62
     0
440
 16777216
 48
2.0
100
AcDbPoint
 10
127.7551351627344
 20
208.2254082048001
 30
0.0
  0
POINT
  5
591F
330
56DC
100
AcDbEntity
  8
DEFPOINTS
 62
     0
440
 16777216
 48
2.0
100
AcDbPoint
 10
142.3051351627345
 20
185.4254082048001
 30
0.0
  0
POINT
  5
5920
330
56DC
100
AcDbEntity
  8
DEFPOINTS
 62
     0
440
 16777216
 48
2.0
100
AcDbPoint
 10
163.6192438719099
 20
185.4254082048001
 30
0.0
  0
ENDBLK
  5
5818
330
56DC
100
AcDbEntity
  8
0
 48
2.0
100
AcDbBlockEnd
  0
BLOCK
  5
58AB
330
5819
100
AcDbEntity
  8
0
 48
2.0
100
AcDbBlockBegin
  2
*D10
 70
     1
 10
0.0
 20
0.0
 30
0.0
  3
*D10
  1

  0
LINE
  5
5933
330
5819
100
AcDbEntity
  8
SUNPOU
 62
     0
440
 16777216
 48
2.0
370
    -2
100
AcDbLine
 10
96.50513516273447
 20
179.1754082048001
 30
0.0
 11
96.50513516273447
 21
158.8569931701007
 31
0.0
  0
LINE
  5
5934
330
5819
100
AcDbEntity
  8
SUNPOU
 62
     0
440
 16777216
 48
2.0
370
    -2
100
AcDbLine
 10
142.3051351627345
 20
184.4254082048001
 30
0.0
 11
142.3051351627345
 21
158.8569931701007
 31
0.0
  0
LINE
  5
5935
330
5819
100
AcDbEntity
  8
SUNPOU
 62
     0
440
 16777216
 48
2.0
370
    -2
100
AcDbLine
 10
97.50513516273446
 20
159.8569931701007
 30
0.0
 11
141.3051351627345
 21
159.8569931701007
 31
0.0
  0
INSERT
  5
5936
330
5819
100
AcDbEntity
  8
SUNPOU
 62
     0
440
 16777216
 48
2.0
370
    -2
100
AcDbBlockReference
  2
Y1
 10
96.50513516273447
 20
159.8569931701007
 30
0.0
 50
180.0
  0
INSERT
  5
5937
330
5819
100
AcDbEntity
  8
SUNPOU
 62
     0
440
 16777216
 48
2.0
370
    -2
100
AcDbBlockReference
  2
Y1
 10
142.3051351627345
 20
159.8569931701007
 30
0.0
  0
MTEXT
  5
5938
330
5819
100
AcDbEntity
  8
SUNPOU
 62
     1
440
 16777216
 48
2.0
100
AcDbMText
 10
119.4051351627344
 20
162.3569931701007
 30
0.0
 40
4.0
 41
0.0
 46
0.0
 71
     5
 72
     1
  1
\A1;D
  7
KANJI
 73
     1
 44
1.0
  0
POINT
  5
5939
330
5819
100
AcDbEntity
  8
DEFPOINTS
 62
     0
440
 16777216
 48
2.0
100
AcDbPoint
 10
96.50513516273447
 20
180.1754082048001
 30
0.0
  0
POINT
  5
593A
330
5819
100
AcDbEntity
  8
DEFPOINTS
 62
     0
440
 16777216
 48
2.0
100
AcDbPoint
 10
142.3051351627345
 20
185.4254082048001
 30
0.0
  0
POINT
  5
593B
330
5819
100
AcDbEntity
  8
DEFPOINTS
 62
     0
440
 16777216
 48
2.0
100
AcDbPoint
 10
142.3051351627345
 20
159.8569931701007
 30
0.0
  0
ENDBLK
  5
58B5
330
5819
100
AcDbEntity
  8
0
 48
2.0
100
AcDbBlockEnd
  0
BLOCK
  5
5947
330
593D
100
AcDbEntity
  8
0
 48
2.0
100
AcDbBlockBegin
  2
*D11
 70
     1
 10
0.0
 20
0.0
 30
0.0
  3
*D11
  1

  0
LINE
  5
59CE
330
593D
100
AcDbEntity
  8
SUNPOU
 62
     0
440
 16777216
 48
2.0
370
    -2
100
AcDbLine
 10
96.50513516273447
 20
233.474907534426
 30
0.0
 11
96.50513516273447
 21
222.17542122194
 31
0.0
  0
LINE
  5
59CF
330
593D
100
AcDbEntity
  8
SUNPOU
 62
     0
440
 16777216
 48
2.0
370
    -2
100
AcDbLine
 10
104.5051351627344
 20
242.4512056339871
 30
0.0
 11
104.5051351627344
 21
222.17542122194
 31
0.0
  0
LINE
  5
59D0
330
593D
100
AcDbEntity
  8
SUNPOU
 62
     0
440
 16777216
 48
2.0
370
    -2
100
AcDbLine
 10
97.50513516273446
 20
223.1754212219399
 30
0.0
 11
103.5051351627344
 21
223.1754212219399
 31
0.0
  0
INSERT
  5
59D1
330
593D
100
AcDbEntity
  8
SUNPOU
 62
     0
440
 16777216
 48
2.0
370
    -2
100
AcDbBlockReference
  2
Y1
 10
96.50513516273447
 20
223.1754212219399
 30
0.0
 50
180.0
  0
INSERT
  5
59D2
330
593D
100
AcDbEntity
  8
SUNPOU
 62
     0
440
 16777216
 48
2.0
370
    -2
100
AcDbBlockReference
  2
Y1
 10
104.5051351627344
 20
223.1754212219399
 30
0.0
  0
MTEXT
  5
59D3
330
593D
100
AcDbEntity
  8
SUNPOU
 62
     1
440
 16777216
 48
2.0
100
AcDbMText
 10
101.0261505707803
 20
225.67542122194
 30
0.0
 40
4.0
 41
0.0
 46
0.0
 71
     5
 72
     1
  1
\A1;8
  7
KANJI
 73
     1
 44
1.0
  0
POINT
  5
59D4
330
593D
100
AcDbEntity
  8
DEFPOINTS
 62
     0
440
 16777216
 48
2.0
100
AcDbPoint
 10
96.50513516273447
 20
234.474907534426
 30
0.0
  0
POINT
  5
59D5
330
593D
100
AcDbEntity
  8
DEFPOINTS
 62
     0
440
 16777216
 48
2.0
100
AcDbPoint
 10
104.5051351627344
 20
243.4512056339871
 30
0.0
  0
POINT
  5
59D6
330
593D
100
AcDbEntity
  8
DEFPOINTS
 62
     0
440
 16777216
 48
2.0
100
AcDbPoint
 10
104.5051351627344
 20
223.1754212219399
 30
0.0
  0
ENDBLK
  5
5948
330
593D
100
AcDbEntity
  8
0
 48
2.0
100
AcDbBlockEnd
  0
BLOCK
  5
5999
330
5992
100
AcDbEntity
  8
0
 48
2.0
100
AcDbBlockBegin
  2
*D12
 70
     1
 10
0.0
 20
0.0
 30
0.0
  3
*D12
  1

  0
LINE
  5
59C8
330
5992
100
AcDbEntity
  8
SUNPOU
 62
     0
440
 16777216
 48
2.0
370
    -2
100
AcDbLine
 10
80.33380773402777
 20
257.1365671702156
 30
0.0
 11
87.97666487688486
 21
257.1365671702156
 31
0.0
  0
LINE
  5
59C9
330
5992
100
AcDbEntity
  8
SUNPOU
 62
     0
440
 16777216
 48
2.0
370
    -2
100
AcDbLine
 10
87.97666487688486
 20
257.1365671702156
 30
0.0
 11
102.1944073635746
 21
245.364458632989
 31
0.0
  0
MTEXT
  5
59CA
330
5992
100
AcDbEntity
  8
SUNPOU
440
 16777216
 48
2.0
100
AcDbMText
 10
83.57190297212301
 20
259.6365671702157
 30
0.0
 40
4.0
 41
0.0
 46
0.0
 71
     5
 72
     1
  1
\A1;%%c4
  7
KANJI
 73
     1
 44
1.0
  0
INSERT
  5
59CB
330
5992
100
AcDbEntity
  8
SUNPOU
 62
     0
440
 16777216
 48
2.0
370
    -2
100
AcDbBlockReference
  2
Y2
 10
102.9646499632945
 20
244.7267076333216
 30
0.0
 50
320.375679095418
  0
POINT
  5
59CC
330
5992
100
AcDbEntity
  8
DEFPOINTS
 62
     0
440
 16777216
 48
2.0
100
AcDbPoint
 10
102.9646499632945
 20
244.7267076333216
 30
0.0
  0
POINT
  5
59CD
330
5992
100
AcDbEntity
  8
DEFPOINTS
 62
     0
440
 16777216
 48
2.0
100
AcDbPoint
 10
104.5051351627345
 20
243.4512056339869
 30
0.0
  0
ENDBLK
  5
599A
330
5992
100
AcDbEntity
  8
0
 48
2.0
100
AcDbBlockEnd
  0
BLOCK
  5
5D75
330
5D74
100
AcDbEntity
  8
0
 48
2.0
100
AcDbBlockBegin
  2
*D13
 70
     1
 10
0.0
 20
0.0
 30
0.0
  3
*D13
  1

  0
LINE
  5
6203
330
5D74
100
AcDbEntity
  8
SUNPOU
 62
     0
440
 16777216
 48
2.0
370
    -2
100
AcDbLine
 10
477.884063739833
 20
180.1754082048001
 30
0.0
 11
477.884063739833
 21
168.6766828129337
 31
0.0
  0
LINE
  5
6204
330
5D74
100
AcDbEntity
  8
SUNPOU
 62
     0
440
 16777216
 48
2.0
370
    -2
100
AcDbLine
 10
496.1840637398331
 20
184.4254082048001
 30
0.0
 11
496.1840637398331
 21
168.6766828129337
 31
0.0
  0
LINE
  5
6205
330
5D74
100
AcDbEntity
  8
SUNPOU
 62
     0
440
 16777216
 48
2.0
370
    -2
100
AcDbLine
 10
478.884063739833
 20
169.6766828129337
 30
0.0
 11
495.184063739833
 21
169.6766828129337
 31
0.0
  0
INSERT
  5
6206
330
5D74
100
AcDbEntity
  8
SUNPOU
 62
     0
440
 16777216
 48
2.0
370
    -2
100
AcDbBlockReference
  2
Y1
 10
477.884063739833
 20
169.6766828129337
 30
0.0
 50
180.0
  0
INSERT
  5
6207
330
5D74
100
AcDbEntity
  8
SUNPOU
 62
     0
440
 16777216
 48
2.0
370
    -2
100
AcDbBlockReference
  2
Y1
 10
496.1840637398331
 20
169.6766828129337
 30
0.0
  0
MTEXT
  5
6208
330
5D74
100
AcDbEntity
  8
SUNPOU
 62
     1
440
 16777216
 48
2.0
100
AcDbMText
 10
487.034063739833
 20
172.1766828129337
 30
0.0
 40
4.0
 41
0.0
 46
0.0
 71
     5
 72
     1
  1
\A1;18.3
  7
KANJI
 73
     1
 44
1.0
  0
POINT
  5
6209
330
5D74
100
AcDbEntity
  8
DEFPOINTS
 62
     0
440
 16777216
 48
2.0
100
AcDbPoint
 10
477.884063739833
 20
181.1754082048001
 30
0.0
  0
POINT
  5
620A
330
5D74
100
AcDbEntity
  8
DEFPOINTS
 62
     0
440
 16777216
 48
2.0
100
AcDbPoint
 10
496.1840637398331
 20
185.4254082048001
 30
0.0
  0
POINT
  5
620B
330
5D74
100
AcDbEntity
  8
DEFPOINTS
 62
     0
440
 16777216
 48
2.0
100
AcDbPoint
 10
496.1840637398331
 20
169.6766828129337
 30
0.0
  0
ENDBLK
  5
5D76
330
5D74
100
AcDbEntity
  8
0
 48
2.0
100
AcDbBlockEnd
  0
BLOCK
  5
5D81
330
5D80
100
AcDbEntity
  8
0
 48
2.0
100
AcDbBlockBegin
  2
*D14
 70
     1
 10
0.0
 20
0.0
 30
0.0
  3
*D14
  1

  0
LINE
  5
5DDA
330
5D80
100
AcDbEntity
  8
SUNPOU
 62
     0
440
 16777216
 48
2.0
370
    -2
100
AcDbLine
 10
411.8437829628716
 20
184.4254082048001
 30
0.0
 11
411.8437829628716
 21
168.7201497715324
 31
0.0
  0
LINE
  5
5DDB
330
5D80
100
AcDbEntity
  8
SUNPOU
 62
     0
440
 16777216
 48
2.0
370
    -2
100
AcDbLine
 10
430.8437829628715
 20
184.4254082048001
 30
0.0
 11
430.8437829628715
 21
168.7201497715324
 31
0.0
  0
LINE
  5
5DDC
330
5D80
100
AcDbEntity
  8
SUNPOU
 62
     0
440
 16777216
 48
2.0
370
    -2
100
AcDbLine
 10
412.8437829628715
 20
169.7201497715324
 30
0.0
 11
429.8437829628715
 21
169.7201497715324
 31
0.0
  0
INSERT
  5
5DDD
330
5D80
100
AcDbEntity
  8
SUNPOU
 62
     0
440
 16777216
 48
2.0
370
    -2
100
AcDbBlockReference
  2
Y1
 10
411.8437829628716
 20
169.7201497715324
 30
0.0
 50
180.0
  0
INSERT
  5
5DDE
330
5D80
100
AcDbEntity
  8
SUNPOU
 62
     0
440
 16777216
 48
2.0
370
    -2
100
AcDbBlockReference
  2
Y1
 10
430.8437829628715
 20
169.7201497715324
 30
0.0
  0
MTEXT
  5
5DDF
330
5D80
100
AcDbEntity
  8
SUNPOU
 62
     1
440
 16777216
 48
2.0
100
AcDbMText
 10
421.3437829628715
 20
172.2201497715324
 30
0.0
 40
4.0
 41
0.0
 46
0.0
 71
     5
 72
     1
  1
\A1;17
  7
KANJI
 73
     1
 44
1.0
  0
POINT
  5
5DE0
330
5D80
100
AcDbEntity
  8
DEFPOINTS
 62
     0
440
 16777216
 48
2.0
100
AcDbPoint
 10
411.8437829628716
 20
185.4254082048001
 30
0.0
  0
POINT
  5
5DE1
330
5D80
100
AcDbEntity
  8
DEFPOINTS
 62
     0
440
 16777216
 48
2.0
100
AcDbPoint
 10
430.8437829628715
 20
185.4254082048001
 30
0.0
  0
POINT
  5
5DE2
330
5D80
100
AcDbEntity
  8
DEFPOINTS
 62
     0
440
 16777216
 48
2.0
100
AcDbPoint
 10
430.8437829628715
 20
169.7201497715324
 30
0.0
  0
ENDBLK
  5
5D82
330
5D80
100
AcDbEntity
  8
0
 48
2.0
100
AcDbBlockEnd
  0
BLOCK
  5
5D8D
330
5D8C
100
AcDbEntity
  8
0
 48
2.0
100
AcDbBlockBegin
  2
*D15
 70
     1
 10
0.0
 20
0.0
 30
0.0
  3
*D15
  1

  0
LINE
  5
5DE3
330
5D8C
100
AcDbEntity
  8
SUNPOU
 62
     0
440
 16777216
 48
2.0
370
    -2
100
AcDbLine
 10
455.884063739833
 20
184.4254082048001
 30
0.0
 11
455.884063739833
 21
168.7201497715324
 31
0.0
  0
LINE
  5
5DE4
330
5D8C
100
AcDbEntity
  8
SUNPOU
 62
     0
440
 16777216
 48
2.0
370
    -2
100
AcDbLine
 10
477.884063739833
 20
184.9254082048001
 30
0.0
 11
477.884063739833
 21
168.7201497715324
 31
0.0
  0
LINE
  5
5DE5
330
5D8C
100
AcDbEntity
  8
SUNPOU
 62
     0
440
 16777216
 48
2.0
370
    -2
100
AcDbLine
 10
456.884063739833
 20
169.7201497715324
 30
0.0
 11
476.884063739833
 21
169.7201497715324
 31
0.0
  0
INSERT
  5
5DE6
330
5D8C
100
AcDbEntity
  8
SUNPOU
 62
     0
440
 16777216
 48
2.0
370
    -2
100
AcDbBlockReference
  2
Y1
 10
455.884063739833
 20
169.7201497715324
 30
0.0
 50
180.0
  0
INSERT
  5
5DE7
330
5D8C
100
AcDbEntity
  8
SUNPOU
 62
     0
440
 16777216
 48
2.0
370
    -2
100
AcDbBlockReference
  2
Y1
 10
477.884063739833
 20
169.7201497715324
 30
0.0
  0
MTEXT
  5
5DE8
330
5D8C
100
AcDbEntity
  8
SUNPOU
 62
     1
440
 16777216
 48
2.0
100
AcDbMText
 10
466.884063739833
 20
172.2201497715324
 30
0.0
 40
4.0
 41
0.0
 46
0.0
 71
     5
 72
     1
  1
\A1;22
  7
KANJI
 73
     1
 44
1.0
  0
POINT
  5
5DE9
330
5D8C
100
AcDbEntity
  8
DEFPOINTS
 62
     0
440
 16777216
 48
2.0
100
AcDbPoint
 10
455.884063739833
 20
185.4254082048001
 30
0.0
  0
POINT
  5
5DEA
330
5D8C
100
AcDbEntity
  8
DEFPOINTS
 62
     0
440
 16777216
 48
2.0
100
AcDbPoint
 10
477.884063739833
 20
185.9254082048001
 30
0.0
  0
POINT
  5
5DEB
330
5D8C
100
AcDbEntity
  8
DEFPOINTS
 62
     0
440
 16777216
 48
2.0
100
AcDbPoint
 10
477.884063739833
 20
169.7201497715324
 30
0.0
  0
ENDBLK
  5
5D8E
330
5D8C
100
AcDbEntity
  8
0
 48
2.0
100
AcDbBlockEnd
  0
BLOCK
  5
5D99
330
5D98
100
AcDbEntity
  8
0
 48
2.0
100
AcDbBlockBegin
  2
*D16
 70
     1
 10
0.0
 20
0.0
 30
0.0
  3
*D16
  1

  0
LINE
  5
61F1
330
5D98
100
AcDbEntity
  8
SUNPOU
 62
     0
440
 16777216
 48
2.0
370
    -2
100
AcDbLine
 10
488.1340637398333
 20
202.9254082048002
 30
0.0
 11
513.3615798173572
 21
202.9254082048002
 31
0.0
  0
LINE
  5
61F2
330
5D98
100
AcDbEntity
  8
SUNPOU
 62
     0
440
 16777216
 48
2.0
370
    -2
100
AcDbLine
 10
502.6840637398333
 20
185.4254082048001
 30
0.0
 11
513.3615798173572
 21
185.4254082048001
 31
0.0
  0
LINE
  5
61F3
330
5D98
100
AcDbEntity
  8
SUNPOU
 62
     0
440
 16777216
 48
2.0
370
    -2
100
AcDbLine
 10
512.3615798173572
 20
201.9254082048003
 30
0.0
 11
512.3615798173572
 21
186.4254082048001
 31
0.0
  0
INSERT
  5
61F4
330
5D98
100
AcDbEntity
  8
SUNPOU
 62
     0
440
 16777216
 48
2.0
370
    -2
100
AcDbBlockReference
  2
Y1
 10
512.3615798173572
 20
202.9254082048002
 30
0.0
 50
90.0
  0
INSERT
  5
61F5
330
5D98
100
AcDbEntity
  8
SUNPOU
 62
     0
440
 16777216
 48
2.0
370
    -2
100
AcDbBlockReference
  2
Y1
 10
512.3615798173572
 20
185.4254082048001
 30
0.0
 50
270.0
  0
MTEXT
  5
61F6
330
5D98
100
AcDbEntity
  8
SUNPOU
 62
     1
440
 16777216
 48
2.0
100
AcDbMText
 10
509.8615798173571
 20
194.1754082048001
 30
0.0
 40
4.0
 41
0.0
 46
0.0
 71
     5
 72
     1
  1
\A1;17.5
  7
KANJI
 11
0.0000000000000001
 21
1.0
 31
0.0
 73
     1
 44
1.0
  0
POINT
  5
61F7
330
5D98
100
AcDbEntity
  8
DEFPOINTS
 62
     0
440
 16777216
 48
2.0
100
AcDbPoint
 10
487.1340637398332
 20
202.9254082048002
 30
0.0
  0
POINT
  5
61F8
330
5D98
100
AcDbEntity
  8
DEFPOINTS
 62
     0
440
 16777216
 48
2.0
100
AcDbPoint
 10
501.6840637398332
 20
185.4254082048001
 30
0.0
  0
POINT
  5
61F9
330
5D98
100
AcDbEntity
  8
DEFPOINTS
 62
     0
440
 16777216
 48
2.0
100
AcDbPoint
 10
512.3615798173572
 20
185.4254082048001
 30
0.0
  0
ENDBLK
  5
5D9A
330
5D98
100
AcDbEntity
  8
0
 48
2.0
100
AcDbBlockEnd
  0
BLOCK
  5
5DB1
330
5DB0
100
AcDbEntity
  8
0
 48
2.0
100
AcDbBlockBegin
  2
*D18
 70
     1
 10
0.0
 20
0.0
 30
0.0
  3
*D18
  1

  0
LINE
  5
5DFE
330
5DB0
100
AcDbEntity
  8
SUNPOU
 62
     0
440
 16777216
 48
2.0
370
    -2
100
AcDbLine
 10
455.884063739833
 20
233.474907534426
 30
0.0
 11
455.884063739833
 21
222.17542122194
 31
0.0
  0
LINE
  5
5DFF
330
5DB0
100
AcDbEntity
  8
SUNPOU
 62
     0
440
 16777216
 48
2.0
370
    -2
100
AcDbLine
 10
463.884063739833
 20
242.4512056339871
 30
0.0
 11
463.884063739833
 21
222.17542122194
 31
0.0
  0
LINE
  5
5E00
330
5DB0
100
AcDbEntity
  8
SUNPOU
 62
     0
440
 16777216
 48
2.0
370
    -2
100
AcDbLine
 10
456.884063739833
 20
223.1754212219399
 30
0.0
 11
462.884063739833
 21
223.1754212219399
 31
0.0
  0
INSERT
  5
5E01
330
5DB0
100
AcDbEntity
  8
SUNPOU
 62
     0
440
 16777216
 48
2.0
370
    -2
100
AcDbBlockReference
  2
Y1
 10
455.884063739833
 20
223.1754212219399
 30
0.0
 50
180.0
  0
INSERT
  5
5E02
330
5DB0
100
AcDbEntity
  8
SUNPOU
 62
     0
440
 16777216
 48
2.0
370
    -2
100
AcDbBlockReference
  2
Y1
 10
463.884063739833
 20
223.1754212219399
 30
0.0
  0
MTEXT
  5
5E03
330
5DB0
100
AcDbEntity
  8
SUNPOU
 62
     1
440
 16777216
 48
2.0
100
AcDbMText
 10
460.405079147879
 20
225.67542122194
 30
0.0
 40
4.0
 41
0.0
 46
0.0
 71
     5
 72
     1
  1
\A1;8
  7
KANJI
 73
     1
 44
1.0
  0
POINT
  5
5E04
330
5DB0
100
AcDbEntity
  8
DEFPOINTS
 62
     0
440
 16777216
 48
2.0
100
AcDbPoint
 10
455.884063739833
 20
234.474907534426
 30
0.0
  0
POINT
  5
5E05
330
5DB0
100
AcDbEntity
  8
DEFPOINTS
 62
     0
440
 16777216
 48
2.0
100
AcDbPoint
 10
463.884063739833
 20
243.4512056339871
 30
0.0
  0
POINT
  5
5E06
330
5DB0
100
AcDbEntity
  8
DEFPOINTS
 62
     0
440
 16777216
 48
2.0
100
AcDbPoint
 10
463.884063739833
 20
223.1754212219399
 30
0.0
  0
ENDBLK
  5
5DB2
330
5DB0
100
AcDbEntity
  8
0
 48
2.0
100
AcDbBlockEnd
  0
BLOCK
  5
5DBD
330
5DBC
100
AcDbEntity
  8
0
 48
2.0
100
AcDbBlockBegin
  2
*D19
 70
     1
 10
0.0
 20
0.0
 30
0.0
  3
*D19
  1

  0
LINE
  5
6F54
330
5DBC
100
AcDbEntity
  8
SUNPOU
 62
     0
440
 16777216
 48
2.0
370
    -2
100
AcDbLine
 10
455.884063739833
 20
179.1754082048001
 30
0.0
 11
455.884063739833
 21
158.8569931701007
 31
0.0
  0
LINE
  5
6F55
330
5DBC
100
AcDbEntity
  8
SUNPOU
 62
     0
440
 16777216
 48
2.0
370
    -2
100
AcDbLine
 10
500.8840637398332
 20
184.4254082048001
 30
0.0
 11
500.8840637398332
 21
158.8569931701007
 31
0.0
  0
LINE
  5
6F56
330
5DBC
100
AcDbEntity
  8
SUNPOU
 62
     0
440
 16777216
 48
2.0
370
    -2
100
AcDbLine
 10
456.884063739833
 20
159.8569931701007
 30
0.0
 11
499.8840637398332
 21
159.8569931701007
 31
0.0
  0
INSERT
  5
6F57
330
5DBC
100
AcDbEntity
  8
SUNPOU
 62
     0
440
 16777216
 48
2.0
370
    -2
100
AcDbBlockReference
  2
Y1
 10
455.884063739833
 20
159.8569931701007
 30
0.0
 50
180.0
  0
INSERT
  5
6F58
330
5DBC
100
AcDbEntity
  8
SUNPOU
 62
     0
440
 16777216
 48
2.0
370
    -2
100
AcDbBlockReference
  2
Y1
 10
500.8840637398332
 20
159.8569931701007
 30
0.0
  0
MTEXT
  5
6F59
330
5DBC
100
AcDbEntity
  8
SUNPOU
 62
     1
440
 16777216
 48
2.0
100
AcDbMText
 10
478.784063739833
 20
162.3569931701007
 30
0.0
 40
4.0
 41
0.0
 46
0.0
 71
     5
 72
     1
  1
\A1;45
  7
KANJI
 73
     1
 44
1.0
  0
POINT
  5
6F5A
330
5DBC
100
AcDbEntity
  8
DEFPOINTS
 62
     0
440
 16777216
 48
2.0
100
AcDbPoint
 10
455.884063739833
 20
180.1754082048001
 30
0.0
  0
POINT
  5
6F5B
330
5DBC
100
AcDbEntity
  8
DEFPOINTS
 62
     0
440
 16777216
 48
2.0
100
AcDbPoint
 10
500.8840637398332
 20
185.4254082048001
 30
0.0
  0
POINT
  5
6F5C
330
5DBC
100
AcDbEntity
  8
DEFPOINTS
 62
     0
440
 16777216
 48
2.0
100
AcDbPoint
 10
500.8840637398332
 20
159.8569931701007
 30
0.0
  0
ENDBLK
  5
5DBE
330
5DBC
100
AcDbEntity
  8
0
 48
2.0
100
AcDbBlockEnd
  0
BLOCK
  5
5DC9
330
5DC8
100
AcDbEntity
  8
0
 48
2.0
100
AcDbBlockBegin
  2
*D20
 70
     1
 10
0.0
 20
0.0
 30
0.0
  3
*D20
  1

  0
LINE
  5
5E10
330
5DC8
100
AcDbEntity
  8
SUNPOU
 62
     0
440
 16777216
 48
2.0
370
    -2
100
AcDbLine
 10
439.7127363111263
 20
257.1365671702157
 30
0.0
 11
447.3555934539835
 21
257.1365671702157
 31
0.0
  0
LINE
  5
5E11
330
5DC8
100
AcDbEntity
  8
SUNPOU
 62
     0
440
 16777216
 48
2.0
370
    -2
100
AcDbLine
 10
447.3555934539835
 20
257.1365671702157
 30
0.0
 11
461.5733359406731
 21
245.364458632989
 31
0.0
  0
MTEXT
  5
5E12
330
5DC8
100
AcDbEntity
  8
SUNPOU
440
 16777216
 48
2.0
100
AcDbMText
 10
442.9508315492215
 20
259.6365671702157
 30
0.0
 40
4.0
 41
0.0
 46
0.0
 71
     5
 72
     1
  1
\A1;%%c4
  7
KANJI
 73
     1
 44
1.0
  0
INSERT
  5
5E13
330
5DC8
100
AcDbEntity
  8
SUNPOU
 62
     0
440
 16777216
 48
2.0
370
    -2
100
AcDbBlockReference
  2
Y2
 10
462.343578540393
 20
244.7267076333217
 30
0.0
 50
320.3756790954177
  0
POINT
  5
5E14
330
5DC8
100
AcDbEntity
  8
DEFPOINTS
 62
     0
440
 16777216
 48
2.0
100
AcDbPoint
 10
462.343578540393
 20
244.7267076333217
 30
0.0
  0
POINT
  5
5E15
330
5DC8
100
AcDbEntity
  8
DEFPOINTS
 62
     0
440
 16777216
 48
2.0
100
AcDbPoint
 10
463.884063739833
 20
243.4512056339869
 30
0.0
  0
ENDBLK
  5
5DCA
330
5DC8
100
AcDbEntity
  8
0
 48
2.0
100
AcDbBlockEnd
  0
BLOCK
  5
620D
330
620C
100
AcDbEntity
  8
0
 48
2.0
100
AcDbBlockBegin
  2
1
 70
     0
 10
0.0
 20
0.0
 30
0.0
  3
1
  1

  0
SOLID
  5
620E
330
620C
100
AcDbEntity
  8
0
  6
ByBlock
 62
     0
100
AcDbTrace
 10
-1.811110924292052
 20
0.4852857095671653
 30
0.0
 11
-1.811110924292052
 21
-0.4852857095673642
 31
0.0
 12
0.0
 22
0.0
 32
0.0
 13
0.0
 23
0.0
 33
0.0
  0
ENDBLK
  5
620F
330
620C
100
AcDbEntity
  8
0
 48
2.0
100
AcDbBlockEnd
  0
BLOCK
  5
6D06
330
6D05
100
AcDbEntity
  8
0
 48
2.0
100
AcDbBlockBegin
  2
*D58
 70
     1
 10
0.0
 20
0.0
 30
0.0
  3
*D58
  1

  0
LINE
  5
6E40
330
6D05
100
AcDbEntity
  8
SUNPOU
 62
     0
440
 16777216
 48
2.0
370
    -2
100
AcDbLine
 10
77.06772498585189
 20
-148.1708046739592
 30
0.0
 11
77.06772498585189
 21
-155.8119674156065
 31
0.0
  0
LINE
  5
6E41
330
6D05
100
AcDbEntity
  8
SUNPOU
 62
     0
440
 16777216
 48
2.0
370
    -2
100
AcDbLine
 10
85.0677249858519
 20
-143.1708046739592
 30
0.0
 11
85.0677249858519
 21
-155.8119674156065
 31
0.0
  0
LINE
  5
6E42
330
6D05
100
AcDbEntity
  8
SUNPOU
 62
     0
440
 16777216
 48
2.0
370
    -2
100
AcDbLine
 10
78.06772498585189
 20
-154.8119674156065
 30
0.0
 11
84.06772498585189
 21
-154.8119674156065
 31
0.0
  0
INSERT
  5
6E43
330
6D05
100
AcDbEntity
  8
SUNPOU
 62
     0
440
 16777216
 48
2.0
370
    -2
100
AcDbBlockReference
  2
1
 10
77.06772498585189
 20
-154.8119674156065
 30
0.0
 50
180.0
  0
INSERT
  5
6E44
330
6D05
100
AcDbEntity
  8
SUNPOU
 62
     0
440
 16777216
 48
2.0
370
    -2
100
AcDbBlockReference
  2
1
 10
85.0677249858519
 20
-154.8119674156065
 30
0.0
  0
MTEXT
  5
6E45
330
6D05
100
AcDbEntity
  8
SUNPOU
440
 16777216
 48
2.0
100
AcDbMText
 10
81.0677249858519
 20
-153.0619674156065
 30
0.0
 40
2.5
 41
0.0
 46
0.0
 71
     5
 72
     1
  1
\A1;8
  7
KANJI
 73
     1
 44
1.0
  0
POINT
  5
6E46
330
6D05
100
AcDbEntity
  8
DEFPOINTS
 62
     0
440
 16777216
 48
2.0
100
AcDbPoint
 10
77.06772498585189
 20
-147.1708046739592
 30
0.0
  0
POINT
  5
6E47
330
6D05
100
AcDbEntity
  8
DEFPOINTS
 62
     0
440
 16777216
 48
2.0
100
AcDbPoint
 10
85.0677249858519
 20
-142.1708046739592
 30
0.0
  0
POINT
  5
6E48
330
6D05
100
AcDbEntity
  8
DEFPOINTS
 62
     0
440
 16777216
 48
2.0
100
AcDbPoint
 10
85.0677249858519
 20
-154.8119674156065
 30
0.0
  0
ENDBLK
  5
6D07
330
6D05
100
AcDbEntity
  8
0
 48
2.0
100
AcDbBlockEnd
  0
BLOCK
  5
6D12
330
6D11
100
AcDbEntity
  8
0
 48
2.0
100
AcDbBlockBegin
  2
*D59
 70
     1
 10
0.0
 20
0.0
 30
0.0
  3
*D59
  1

  0
LINE
  5
6E49
330
6D11
100
AcDbEntity
  8
SUNPOU
 62
     0
440
 16777216
 48
2.0
370
    -2
100
AcDbLine
 10
70.94663213338318
 20
-182.3698247450415
 30
0.0
 11
74.54187022862128
 21
-182.3698247450415
 31
0.0
  0
LINE
  5
6E4A
330
6D11
100
AcDbEntity
  8
SUNPOU
 62
     0
440
 16777216
 48
2.0
370
    -2
100
AcDbLine
 10
74.54187022862128
 20
-182.3698247450415
 30
0.0
 11
76.61031083676061
 21
-184.6080238671063
 31
0.0
  0
MTEXT
  5
6E4B
330
6D11
100
AcDbEntity
  8
SUNPOU
440
 16777216
 48
2.0
100
AcDbMText
 10
72.49425118100223
 20
-180.6198247450416
 30
0.0
 40
2.5
 41
0.0
 46
0.0
 71
     5
 72
     1
  1
\A1;R1
  7
KANJI
 73
     1
 44
1.0
  0
INSERT
  5
6E4C
330
6D11
100
AcDbEntity
  8
SUNPOU
 62
     0
440
 16777216
 48
2.0
370
    -2
100
AcDbBlockReference
  2
1
 10
77.28901791130629
 20
-185.3424329540338
 30
0.0
 50
312.7426917181622
  0
POINT
  5
6E4D
330
6D11
100
AcDbEntity
  8
DEFPOINTS
 62
     0
440
 16777216
 48
2.0
100
AcDbPoint
 10
77.28901791130629
 20
-185.3424329540338
 30
0.0
  0
POINT
  5
6E4E
330
6D11
100
AcDbEntity
  8
DEFPOINTS
 62
     0
440
 16777216
 48
2.0
100
AcDbPoint
 10
77.9677249858519
 20
-186.0768420409612
 30
0.0
  0
ENDBLK
  5
6D13
330
6D11
100
AcDbEntity
  8
0
 48
2.0
100
AcDbBlockEnd
  0
BLOCK
  5
6D1B
330
6D1A
100
AcDbEntity
  8
0
 48
2.0
100
AcDbBlockBegin
  2
*D60
 70
     1
 10
0.0
 20
0.0
 30
0.0
  3
*D60
  1

  0
LINE
  5
6E4F
330
6D1A
100
AcDbEntity
  8
SUNPOU
 62
     0
440
 16777216
 48
2.0
370
    -2
100
AcDbLine
 10
86.05582654023535
 20
-180.3297224330017
 30
0.0
 11
89.65106463547385
 21
-180.3297224330017
 31
0.0
  0
LINE
  5
6E50
330
6D1A
100
AcDbEntity
  8
SUNPOU
 62
     0
440
 16777216
 48
2.0
370
    -2
100
AcDbLine
 10
89.65106463547385
 20
-180.3297224330017
 30
0.0
 11
93.3677249858518
 21
-184.0768420409612
 31
0.0
  0
MTEXT
  5
6E51
330
6D1A
100
AcDbEntity
  8
SUNPOU
440
 16777216
 48
2.0
100
AcDbMText
 10
87.60344558785442
 20
-178.5797224330018
 30
0.0
 40
2.5
 41
0.0
 46
0.0
 71
     5
 72
     1
  1
\A1;R1
  7
KANJI
 73
     1
 44
1.0
  0
INSERT
  5
6E52
330
6D1A
100
AcDbEntity
  8
SUNPOU
 62
     0
440
 16777216
 48
2.0
370
    -2
100
AcDbBlockReference
  2
1
 10
94.07194024084438
 20
-184.7868285722671
 30
0.0
 50
314.7661805106537
  0
POINT
  5
6E53
330
6D1A
100
AcDbEntity
  8
DEFPOINTS
 62
     0
440
 16777216
 48
2.0
100
AcDbPoint
 10
94.07194024084438
 20
-184.7868285722671
 30
0.0
  0
POINT
  5
6E54
330
6D1A
100
AcDbEntity
  8
DEFPOINTS
 62
     0
440
 16777216
 48
2.0
100
AcDbPoint
 10
93.36772498585181
 20
-184.0768420409612
 30
0.0
  0
ENDBLK
  5
6D1C
330
6D1A
100
AcDbEntity
  8
0
 48
2.0
100
AcDbBlockEnd
  0
BLOCK
  5
6D24
330
6D23
100
AcDbEntity
  8
0
 48
2.0
100
AcDbBlockBegin
  2
*D61
 70
     1
 10
0.0
 20
0.0
 30
0.0
  3
*D61
  1

  0
LINE
  5
6E55
330
6D23
100
AcDbEntity
  8
SUNPOU
 62
     0
440
 16777216
 48
2.0
370
    -2
100
AcDbLine
 10
57.7177249858519
 20
-190.3768420409614
 30
0.0
 11
65.84255530265895
 21
-190.3768420409613
 31
0.0
  0
LINE
  5
6E56
330
6D23
100
AcDbEntity
  8
SUNPOU
 62
     0
440
 16777216
 48
2.0
370
    -2
100
AcDbLine
 10
54.2177249858519
 20
-169.1768420409614
 30
0.0
 11
65.84255530265895
 21
-169.1768420409613
 31
0.0
  0
LINE
  5
6E57
330
6D23
100
AcDbEntity
  8
SUNPOU
 62
     0
440
 16777216
 48
2.0
370
    -2
100
AcDbLine
 10
64.84255530265895
 20
-189.3768420409613
 30
0.0
 11
64.84255530265895
 21
-170.1768420409614
 31
0.0
  0
INSERT
  5
6E58
330
6D23
100
AcDbEntity
  8
SUNPOU
 62
     0
440
 16777216
 48
2.0
370
    -2
100
AcDbBlockReference
  2
1
 10
64.84255530265895
 20
-190.3768420409613
 30
0.0
 50
270.0
  0
INSERT
  5
6E59
330
6D23
100
AcDbEntity
  8
SUNPOU
 62
     0
440
 16777216
 48
2.0
370
    -2
100
AcDbBlockReference
  2
1
 10
64.84255530265895
 20
-169.1768420409613
 30
0.0
 50
90.0
  0
MTEXT
  5
6E5A
330
6D23
100
AcDbEntity
  8
SUNPOU
 62
     1
440
 16777216
 48
2.0
100
AcDbMText
 10
62.34255530265888
 20
-179.7768420409613
 30
0.0
 40
4.0
 41
0.0
 46
0.0
 71
     5
 72
     1
  1
\A1;B
  7
KANJI
 11
0.0000000000000001
 21
1.0
 31
0.0
 73
     1
 44
1.0
  0
POINT
  5
6E5B
330
6D23
100
AcDbEntity
  8
DEFPOINTS
 62
     0
440
 16777216
 48
2.0
100
AcDbPoint
 10
56.7177249858519
 20
-190.3768420409614
 30
0.0
  0
POINT
  5
6E5C
330
6D23
100
AcDbEntity
  8
DEFPOINTS
 62
     0
440
 16777216
 48
2.0
100
AcDbPoint
 10
53.2177249858519
 20
-169.1768420409614
 30
0.0
  0
POINT
  5
6E5D
330
6D23
100
AcDbEntity
  8
DEFPOINTS
 62
     0
440
 16777216
 48
2.0
100
AcDbPoint
 10
64.84255530265895
 20
-169.1768420409613
 30
0.0
  0
ENDBLK
  5
6D25
330
6D23
100
AcDbEntity
  8
0
 48
2.0
100
AcDbBlockEnd
  0
BLOCK
  5
6D30
330
6D2F
100
AcDbEntity
  8
0
 48
2.0
100
AcDbBlockBegin
  2
*D62
 70
     1
 10
0.0
 20
0.0
 30
0.0
  3
*D62
  1

  0
LINE
  5
6E5E
330
6D2F
100
AcDbEntity
  8
SUNPOU
 62
     0
440
 16777216
 48
2.0
370
    -2
100
AcDbLine
 10
116.3171507478268
 20
-202.3624285638278
 30
0.0
 11
108.0790555097299
 21
-202.3624285638277
 31
0.0
  0
LINE
  5
6E5F
330
6D2F
100
AcDbEntity
  8
SUNPOU
 62
     0
440
 16777216
 48
2.0
370
    -2
100
AcDbLine
 10
108.0790555097299
 20
-202.3624285638277
 30
0.0
 11
99.47669926918154
 21
-191.0700585981064
 31
0.0
  0
MTEXT
  5
6E60
330
6D2F
100
AcDbEntity
  8
SUNPOU
440
 16777216
 48
2.0
100
AcDbMText
 10
112.4481031287792
 20
-200.6124285638277
 30
0.0
 40
2.5
 41
0.0
 46
0.0
 71
     5
 72
     1
  1
\A1;R0.5
  7
KANJI
 73
     1
 44
1.0
  0
INSERT
  5
6E61
330
6D2F
100
AcDbEntity
  8
SUNPOU
 62
     0
440
 16777216
 48
2.0
370
    -2
100
AcDbBlockReference
  2
1
 10
98.87071641362847
 20
-190.2745808933429
 30
0.0
 50
127.2996006305697
  0
POINT
  5
6E62
330
6D2F
100
AcDbEntity
  8
DEFPOINTS
 62
     0
440
 16777216
 48
2.0
100
AcDbPoint
 10
98.87071641362847
 20
-190.2745808933429
 30
0.0
  0
POINT
  5
6E63
330
6D2F
100
AcDbEntity
  8
DEFPOINTS
 62
     0
440
 16777216
 48
2.0
100
AcDbPoint
 10
98.567724985852
 20
-189.8768420409613
 30
0.0
  0
ENDBLK
  5
6D31
330
6D2F
100
AcDbEntity
  8
0
 48
2.0
100
AcDbBlockEnd
  0
BLOCK
  5
6D39
330
6D38
100
AcDbEntity
  8
0
 48
2.0
100
AcDbBlockBegin
  2
*D63
 70
     1
 10
0.0
 20
0.0
 30
0.0
  3
*D63
  1

  0
LINE
  5
6E64
330
6D38
100
AcDbEntity
  8
SUNPOU
 62
     0
440
 16777216
 48
2.0
370
    -2
100
AcDbLine
 10
77.06772498585189
 20
-191.3768420409613
 30
0.0
 11
77.06772498585189
 21
-211.2178993969085
 31
0.0
  0
LINE
  5
6E65
330
6D38
100
AcDbEntity
  8
SUNPOU
 62
     0
440
 16777216
 48
2.0
370
    -2
100
AcDbLine
 10
99.06772498585183
 20
-190.8768420409613
 30
0.0
 11
99.06772498585183
 21
-211.2178993969085
 31
0.0
  0
LINE
  5
6E66
330
6D38
100
AcDbEntity
  8
SUNPOU
 62
     0
440
 16777216
 48
2.0
370
    -2
100
AcDbLine
 10
78.06772498585189
 20
-210.2178993969085
 30
0.0
 11
98.06772498585184
 21
-210.2178993969085
 31
0.0
  0
INSERT
  5
6E67
330
6D38
100
AcDbEntity
  8
SUNPOU
 62
     0
440
 16777216
 48
2.0
370
    -2
100
AcDbBlockReference
  2
1
 10
77.06772498585189
 20
-210.2178993969085
 30
0.0
 50
180.0
  0
INSERT
  5
6E68
330
6D38
100
AcDbEntity
  8
SUNPOU
 62
     0
440
 16777216
 48
2.0
370
    -2
100
AcDbBlockReference
  2
1
 10
99.06772498585183
 20
-210.2178993969085
 30
0.0
  0
MTEXT
  5
6E69
330
6D38
100
AcDbEntity
  8
SUNPOU
440
 16777216
 48
2.0
100
AcDbMText
 10
88.06772498585187
 20
-208.4678993969085
 30
0.0
 40
2.5
 41
0.0
 46
0.0
 71
     5
 72
     1
  1
\A1;22
  7
KANJI
 73
     1
 44
1.0
  0
POINT
  5
6E6A
330
6D38
100
AcDbEntity
  8
DEFPOINTS
 62
     0
440
 16777216
 48
2.0
100
AcDbPoint
 10
77.06772498585189
 20
-190.3768420409613
 30
0.0
  0
POINT
  5
6E6B
330
6D38
100
AcDbEntity
  8
DEFPOINTS
 62
     0
440
 16777216
 48
2.0
100
AcDbPoint
 10
99.06772498585183
 20
-189.8768420409613
 30
0.0
  0
POINT
  5
6E6C
330
6D38
100
AcDbEntity
  8
DEFPOINTS
 62
     0
440
 16777216
 48
2.0
100
AcDbPoint
 10
99.06772498585183
 20
-210.2178993969085
 30
0.0
  0
ENDBLK
  5
6D3A
330
6D38
100
AcDbEntity
  8
0
 48
2.0
100
AcDbBlockEnd
  0
BLOCK
  5
6D45
330
6D44
100
AcDbEntity
  8
0
 48
2.0
100
AcDbBlockBegin
  2
*D64
 70
     1
 10
0.0
 20
0.0
 30
0.0
  3
*D64
  1

  0
LINE
  5
6E6D
330
6D44
100
AcDbEntity
  8
SUNPOU
 62
     0
440
 16777216
 48
2.0
370
    -2
100
AcDbLine
 10
99.06772498585191
 20
-190.8768420409613
 30
0.0
 11
99.06772498585191
 21
-211.2178993969085
 31
0.0
  0
LINE
  5
6E6E
330
6D44
100
AcDbEntity
  8
SUNPOU
 62
     0
440
 16777216
 48
2.0
370
    -2
100
AcDbLine
 10
117.3677249858518
 20
-191.3768420409614
 30
0.0
 11
117.3677249858518
 21
-211.2178993969085
 31
0.0
  0
LINE
  5
6E6F
330
6D44
100
AcDbEntity
  8
SUNPOU
 62
     0
440
 16777216
 48
2.0
370
    -2
100
AcDbLine
 10
100.0677249858519
 20
-210.2178993969085
 30
0.0
 11
116.3677249858518
 21
-210.2178993969085
 31
0.0
  0
INSERT
  5
6E70
330
6D44
100
AcDbEntity
  8
SUNPOU
 62
     0
440
 16777216
 48
2.0
370
    -2
100
AcDbBlockReference
  2
1
 10
99.06772498585191
 20
-210.2178993969085
 30
0.0
 50
180.0
  0
INSERT
  5
6E71
330
6D44
100
AcDbEntity
  8
SUNPOU
 62
     0
440
 16777216
 48
2.0
370
    -2
100
AcDbBlockReference
  2
1
 10
117.3677249858518
 20
-210.2178993969085
 30
0.0
  0
MTEXT
  5
6E72
330
6D44
100
AcDbEntity
  8
SUNPOU
 62
     1
440
 16777216
 48
2.0
100
AcDbMText
 10
108.2177249858518
 20
-207.7178993969085
 30
0.0
 40
4.0
 41
0.0
 46
0.0
 71
     5
 72
     1
  1
\A1;A
  7
KANJI
 73
     1
 44
1.0
  0
POINT
  5
6E73
330
6D44
100
AcDbEntity
  8
DEFPOINTS
 62
     0
440
 16777216
 48
2.0
100
AcDbPoint
 10
99.06772498585191
 20
-189.8768420409613
 30
0.0
  0
POINT
  5
6E74
330
6D44
100
AcDbEntity
  8
DEFPOINTS
 62
     0
440
 16777216
 48
2.0
100
AcDbPoint
 10
117.3677249858518
 20
-190.3768420409614
 30
0.0
  0
POINT
  5
6E75
330
6D44
100
AcDbEntity
  8
DEFPOINTS
 62
     0
440
 16777216
 48
2.0
100
AcDbPoint
 10
117.3677249858518
 20
-210.2178993969085
 30
0.0
  0
ENDBLK
  5
6D46
330
6D44
100
AcDbEntity
  8
0
 48
2.0
100
AcDbBlockEnd
  0
BLOCK
  5
6D51
330
6D50
100
AcDbEntity
  8
0
 48
2.0
100
AcDbBlockBegin
  2
*D65
 70
     1
 10
0.0
 20
0.0
 30
0.0
  3
*D65
  1

  0
LINE
  5
6E76
330
6D50
100
AcDbEntity
  8
SUNPOU
 62
     0
440
 16777216
 48
2.0
370
    -2
100
AcDbLine
 10
123.0677249858519
 20
-190.3768420409614
 30
0.0
 11
135.3664494002941
 21
-190.3768420409614
 31
0.0
  0
LINE
  5
6E77
330
6D50
100
AcDbEntity
  8
SUNPOU
 62
     0
440
 16777216
 48
2.0
370
    -2
100
AcDbLine
 10
109.2177249858519
 20
-172.8768420409614
 30
0.0
 11
135.3664494002941
 21
-172.8768420409614
 31
0.0
  0
LINE
  5
6E78
330
6D50
100
AcDbEntity
  8
SUNPOU
 62
     0
440
 16777216
 48
2.0
370
    -2
100
AcDbLine
 10
134.3664494002941
 20
-189.3768420409614
 30
0.0
 11
134.3664494002941
 21
-173.8768420409614
 31
0.0
  0
INSERT
  5
6E79
330
6D50
100
AcDbEntity
  8
SUNPOU
 62
     0
440
 16777216
 48
2.0
370
    -2
100
AcDbBlockReference
  2
1
 10
134.3664494002941
 20
-190.3768420409614
 30
0.0
 50
270.0
  0
INSERT
  5
6E7A
330
6D50
100
AcDbEntity
  8
SUNPOU
 62
     0
440
 16777216
 48
2.0
370
    -2
100
AcDbBlockReference
  2
1
 10
134.3664494002941
 20
-172.8768420409614
 30
0.0
 50
90.0
  0
MTEXT
  5
6E7B
330
6D50
100
AcDbEntity
  8
SUNPOU
 62
     1
440
 16777216
 48
2.0
100
AcDbMText
 10
131.8664494002941
 20
-181.6268420409614
 30
0.0
 40
4.0
 41
0.0
 46
0.0
 71
     5
 72
     1
  1
\A1;C
  7
KANJI
 11
0.0000000000000001
 21
1.0
 31
0.0
 73
     1
 44
1.0
  0
POINT
  5
6E7C
330
6D50
100
AcDbEntity
  8
DEFPOINTS
 62
     0
440
 16777216
 48
2.0
100
AcDbPoint
 10
122.0677249858519
 20
-190.3768420409614
 30
0.0
  0
POINT
  5
6E7D
330
6D50
100
AcDbEntity
  8
DEFPOINTS
 62
     0
440
 16777216
 48
2.0
100
AcDbPoint
 10
108.2177249858519
 20
-172.8768420409614
 30
0.0
  0
POINT
  5
6E7E
330
6D50
100
AcDbEntity
  8
DEFPOINTS
 62
     0
440
 16777216
 48
2.0
100
AcDbPoint
 10
134.3664494002941
 20
-172.8768420409614
 30
0.0
  0
ENDBLK
  5
6D52
330
6D50
100
AcDbEntity
  8
0
 48
2.0
100
AcDbBlockEnd
  0
BLOCK
  5
6D5D
330
6D5C
100
AcDbEntity
  8
0
 48
2.0
100
AcDbBlockBegin
  2
*D66
 70
     1
 10
0.0
 20
0.0
 30
0.0
  3
*D66
  1

  0
LINE
  5
6E7F
330
6D5C
100
AcDbEntity
  8
SUNPOU
 62
     0
440
 16777216
 48
2.0
370
    -2
100
AcDbLine
 10
200.4542976346898
 20
-252.7243024523031
 30
0.0
 11
191.6519321214799
 21
-252.7243024523031
 31
0.0
  0
LINE
  5
6E80
330
6D5C
100
AcDbEntity
  8
SUNPOU
 62
     0
440
 16777216
 48
2.0
370
    -2
100
AcDbLine
 10
191.6519321214799
 20
-252.7243024523031
 30
0.0
 11
185.8985677533125
 21
-248.8232199768722
 31
0.0
  0
MTEXT
  5
6E81
330
6D5C
100
AcDbEntity
  8
SUNPOU
440
 16777216
 48
2.0
100
AcDbMText
 10
196.8233452537374
 20
-250.9743024523031
 30
0.0
 40
2.5
 41
0.0
 46
0.0
 71
     5
 72
     1
  1
\A1;R1.5
  7
KANJI
 73
     1
 44
1.0
  0
INSERT
  5
6E82
330
6D5C
100
AcDbEntity
  8
SUNPOU
 62
     0
440
 16777216
 48
2.0
370
    -2
100
AcDbBlockReference
  2
1
 10
185.0708924297965
 20
-248.2620127434525
 30
0.0
 50
145.8606728443708
  0
POINT
  5
6E83
330
6D5C
100
AcDbEntity
  8
DEFPOINTS
 62
     0
440
 16777216
 48
2.0
100
AcDbPoint
 10
185.0708924297965
 20
-248.2620127434525
 30
0.0
  0
POINT
  5
6E84
330
6D5C
100
AcDbEntity
  8
DEFPOINTS
 62
     0
440
 16777216
 48
2.0
100
AcDbPoint
 10
182.5878664592484
 20
-246.5783910431933
 30
0.0
  0
ENDBLK
  5
6D5E
330
6D5C
100
AcDbEntity
  8
0
 48
2.0
100
AcDbBlockEnd
  0
BLOCK
  5
6D66
330
6D65
100
AcDbEntity
  8
0
 48
2.0
100
AcDbBlockBegin
  2
*D67
 70
     1
 10
0.0
 20
0.0
 30
0.0
  3
*D67
  1

  0
LINE
  5
6E85
330
6D65
100
AcDbEntity
  8
SUNPOU
 62
     0
440
 16777216
 48
2.0
370
    -2
100
AcDbLine
 10
171.1457335550166
 20
-239.5272864041258
 30
0.0
 11
175.5157338300978
 21
-239.5272864041258
 31
0.0
  0
LINE
  5
6E86
330
6D65
100
AcDbEntity
  8
SUNPOU
 62
     0
440
 16777216
 48
2.0
370
    -2
100
AcDbLine
 10
175.5157338300978
 20
-239.5272864041258
 30
0.0
 11
179.9165634487813
 21
-243.66322729913
 31
0.0
  0
MTEXT
  5
6E87
330
6D65
100
AcDbEntity
  8
SUNPOU
440
 16777216
 48
2.0
100
AcDbMText
 10
172.6933526026357
 20
-237.7772864041258
 30
0.0
 40
2.5
 41
0.0
 46
0.0
 71
     5
 72
     1
  1
\A1;R1
  7
KANJI
 73
     1
 44
1.0
  0
INSERT
  5
6E88
330
6D65
100
AcDbEntity
  8
SUNPOU
 62
     0
440
 16777216
 48
2.0
370
    -2
100
AcDbBlockReference
  2
1
 10
180.6452604383142
 20
-244.3480635550669
 30
0.0
 50
316.7772690324754
  0
POINT
  5
6E89
330
6D65
100
AcDbEntity
  8
DEFPOINTS
 62
     0
440
 16777216
 48
2.0
100
AcDbPoint
 10
180.6452604383142
 20
-244.3480635550669
 30
0.0
  0
POINT
  5
6E8A
330
6D65
100
AcDbEntity
  8
DEFPOINTS
 62
     0
440
 16777216
 48
2.0
100
AcDbPoint
 10
179.1878664592484
 20
-242.9783910431931
 30
0.0
  0
ENDBLK
  5
6D67
330
6D65
100
AcDbEntity
  8
0
 48
2.0
100
AcDbBlockEnd
  0
BLOCK
  5
6D6F
330
6D6E
100
AcDbEntity
  8
0
 48
2.0
100
AcDbBlockBegin
  2
*D68
 70
     1
 10
0.0
 20
0.0
 30
0.0
  3
*D68
  1

  0
LINE
  5
6E8B
330
6D6E
100
AcDbEntity
  8
SUNPOU
 62
     0
440
 16777216
 48
2.0
370
    -2
100
AcDbLine
 10
181.1878664592484
 20
-225.2699630111056
 30
0.0
 11
181.1878664592484
 21
-217.1903489126313
 31
0.0
  0
LINE
  5
6E8C
330
6D6E
100
AcDbEntity
  8
SUNPOU
 62
     0
440
 16777216
 48
2.0
370
    -2
100
AcDbLine
 10
185.5878664592484
 20
-223.8063141770865
 30
0.0
 11
185.5878664592484
 21
-217.1903489126313
 31
0.0
  0
LINE
  5
6E8D
330
6D6E
100
AcDbEntity
  8
SUNPOU
 62
     0
440
 16777216
 48
2.0
370
    -2
100
AcDbLine
 10
182.1878664592484
 20
-218.1903489126313
 30
0.0
 11
184.5878664592484
 21
-218.1903489126313
 31
0.0
  0
LINE
  5
6E8E
330
6D6E
100
AcDbEntity
  8
SUNPOU
 62
     0
440
 16777216
 48
2.0
370
    -2
100
AcDbLine
 10
185.5878664592484
 20
-218.1903489126313
 30
0.0
 11
192.8259616973436
 21
-218.1903489126313
 31
0.0
  0
INSERT
  5
6E8F
330
6D6E
100
AcDbEntity
  8
SUNPOU
 62
     0
440
 16777216
 48
2.0
370
    -2
100
AcDbBlockReference
  2
1
 10
181.1878664592484
 20
-218.1903489126313
 30
0.0
 50
180.0
  0
INSERT
  5
6E90
330
6D6E
100
AcDbEntity
  8
SUNPOU
 62
     0
440
 16777216
 48
2.0
370
    -2
100
AcDbBlockReference
  2
1
 10
185.5878664592484
 20
-218.1903489126313
 30
0.0
  0
MTEXT
  5
6E91
330
6D6E
100
AcDbEntity
  8
SUNPOU
440
 16777216
 48
2.0
100
AcDbMText
 10
189.706914078296
 20
-216.4403489126313
 30
0.0
 40
2.5
 41
0.0
 46
0.0
 71
     5
 72
     1
  1
\A1;2.2
  7
KANJI
 73
     1
 44
1.0
  0
POINT
  5
6E92
330
6D6E
100
AcDbEntity
  8
DEFPOINTS
 62
     0
440
 16777216
 48
2.0
100
AcDbPoint
 10
181.1878664592484
 20
-226.2699630111056
 30
0.0
  0
POINT
  5
6E93
330
6D6E
100
AcDbEntity
  8
DEFPOINTS
 62
     0
440
 16777216
 48
2.0
100
AcDbPoint
 10
185.5878664592484
 20
-224.8063141770864
 30
0.0
  0
POINT
  5
6E94
330
6D6E
100
AcDbEntity
  8
DEFPOINTS
 62
     0
440
 16777216
 48
2.0
100
AcDbPoint
 10
185.5878664592484
 20
-218.1903489126313
 30
0.0
  0
ENDBLK
  5
6D70
330
6D6E
100
AcDbEntity
  8
0
 48
2.0
100
AcDbBlockEnd
  0
BLOCK
  5
6D7C
330
6D7B
100
AcDbEntity
  8
0
 48
2.0
100
AcDbBlockBegin
  2
*D69
 70
     1
 10
0.0
 20
0.0
 30
0.0
  3
*D69
  1

  0
LINE
  5
6E95
330
6D7B
100
AcDbEntity
  8
SUNPOU
 62
     0
440
 16777216
 48
2.0
370
    -2
100
AcDbLine
 10
153.5878664592485
 20
-253.9783910431933
 30
0.0
 11
135.2835278862803
 21
-253.9783910431933
 31
0.0
  0
LINE
  5
6E96
330
6D7B
100
AcDbEntity
  8
SUNPOU
 62
     0
440
 16777216
 48
2.0
370
    -2
100
AcDbLine
 10
136.2835278862803
 20
-252.5783910431933
 30
0.0
 11
136.2835278862803
 21
-251.5783910431934
 31
0.0
  0
LINE
  5
6E97
330
6D7B
100
AcDbEntity
  8
SUNPOU
 62
     0
440
 16777216
 48
2.0
370
    -2
100
AcDbLine
 10
136.2835278862803
 20
-254.9783910431933
 30
0.0
 11
136.2835278862803
 21
-262.7677649087039
 31
0.0
  0
LINE
  5
6E98
330
6D7B
100
AcDbEntity
  8
SUNPOU
 62
     0
440
 16777216
 48
2.0
370
    -2
100
AcDbLine
 10
136.2835278862803
 20
-253.5783910431934
 30
0.0
 11
136.2835278862803
 21
-253.9783910431933
 31
0.0
  0
INSERT
  5
6E99
330
6D7B
100
AcDbEntity
  8
SUNPOU
 62
     0
440
 16777216
 48
2.0
370
    -2
100
AcDbBlockReference
  2
1
 10
136.2835278862803
 20
-253.5783910431934
 30
0.0
 50
270.0
  0
INSERT
  5
6E9A
330
6D7B
100
AcDbEntity
  8
SUNPOU
 62
     0
440
 16777216
 48
2.0
370
    -2
100
AcDbBlockReference
  2
1
 10
136.2835278862803
 20
-253.9783910431933
 30
0.0
 50
90.0
  0
MTEXT
  5
6E9B
330
6D7B
100
AcDbEntity
  8
SUNPOU
440
 16777216
 48
2.0
100
AcDbMText
 10
134.5335278862802
 20
-261.4344315753704
 30
0.0
 40
2.5
 41
0.0
 46
0.0
 71
     5
 72
     1
  1
\A1;0
  7
KANJI
 11
0.0000000000000001
 21
1.0
 31
0.0
 73
     1
 44
1.0
  0
POINT
  5
6E9C
330
6D7B
100
AcDbEntity
  8
DEFPOINTS
 62
     0
440
 16777216
 48
2.0
100
AcDbPoint
 10
154.5878664592485
 20
-253.9783910431933
 30
0.0
  0
POINT
  5
6E9D
330
6D7B
100
AcDbEntity
  8
DEFPOINTS
 62
     0
440
 16777216
 48
2.0
100
AcDbPoint
 10
136.2835278862802
 20
-253.5783910431934
 30
0.0
  0
POINT
  5
6E9E
330
6D7B
100
AcDbEntity
  8
DEFPOINTS
 62
     0
440
 16777216
 48
2.0
100
AcDbPoint
 10
136.2835278862803
 20
-253.5783910431934
 30
0.0
  0
ENDBLK
  5
6D7D
330
6D7B
100
AcDbEntity
  8
0
 48
2.0
100
AcDbBlockEnd
  0
BLOCK
  5
6D89
330
6D88
100
AcDbEntity
  8
0
 48
2.0
100
AcDbBlockBegin
  2
*D70
 70
     1
 10
0.0
 20
0.0
 30
0.0
  3
*D70
  1

  0
LINE
  5
6E9F
330
6D88
100
AcDbEntity
  8
SUNPOU
 62
     0
440
 16777216
 48
2.0
370
    -2
100
AcDbLine
 10
153.5878664592484
 20
-243.9783910431934
 30
0.0
 11
139.8333256825748
 21
-243.9783910431934
 31
0.0
  0
LINE
  5
6EA0
330
6D88
100
AcDbEntity
  8
SUNPOU
 62
     0
440
 16777216
 48
2.0
370
    -2
100
AcDbLine
 10
140.8333256825748
 20
-245.9783910431935
 30
0.0
 11
140.8333256825748
 21
-246.9783910431935
 31
0.0
  0
LINE
  5
6EA1
330
6D88
100
AcDbEntity
  8
SUNPOU
 62
     0
440
 16777216
 48
2.0
370
    -2
100
AcDbLine
 10
140.8333256825748
 20
-242.9783910431934
 30
0.0
 11
140.8333256825748
 21
-235.7402958050981
 31
0.0
  0
LINE
  5
6EA2
330
6D88
100
AcDbEntity
  8
SUNPOU
 62
     0
440
 16777216
 48
2.0
370
    -2
100
AcDbLine
 10
140.8333256825748
 20
-244.9783910431936
 30
0.0
 11
140.8333256825748
 21
-243.9783910431934
 31
0.0
  0
INSERT
  5
6EA3
330
6D88
100
AcDbEntity
  8
SUNPOU
 62
     0
440
 16777216
 48
2.0
370
    -2
100
AcDbBlockReference
  2
1
 10
140.8333256825748
 20
-244.9783910431936
 30
0.0
 50
90.0
  0
INSERT
  5
6EA4
330
6D88
100
AcDbEntity
  8
SUNPOU
 62
     0
440
 16777216
 48
2.0
370
    -2
100
AcDbBlockReference
  2
1
 10
140.8333256825748
 20
-243.9783910431934
 30
0.0
 50
270.0
  0
MTEXT
  5
6EA5
330
6D88
100
AcDbEntity
  8
SUNPOU
440
 16777216
 48
2.0
100
AcDbMText
 10
139.0833256825747
 20
-238.8593434241457
 30
0.0
 40
2.5
 41
0.0
 46
0.0
 71
     5
 72
     1
  1
\A1;0.5
  7
KANJI
 11
0.0000000000000001
 21
1.0
 31
0.0
 73
     1
 44
1.0
  0
POINT
  5
6EA6
330
6D88
100
AcDbEntity
  8
DEFPOINTS
 62
     0
440
 16777216
 48
2.0
100
AcDbPoint
 10
140.8333256825748
 20
-244.9783910431936
 30
0.0
  0
POINT
  5
6EA7
330
6D88
100
AcDbEntity
  8
DEFPOINTS
 62
     0
440
 16777216
 48
2.0
100
AcDbPoint
 10
154.5878664592484
 20
-243.9783910431934
 30
0.0
  0
POINT
  5
6EA8
330
6D88
100
AcDbEntity
  8
DEFPOINTS
 62
     0
440
 16777216
 48
2.0
100
AcDbPoint
 10
140.8333256825748
 20
-243.9783910431934
 30
0.0
  0
ENDBLK
  5
6D8A
330
6D88
100
AcDbEntity
  8
0
 48
2.0
100
AcDbBlockEnd
  0
BLOCK
  5
6D96
330
6D95
100
AcDbEntity
  8
0
 48
2.0
100
AcDbBlockBegin
  2
*D71
 70
     1
 10
0.0
 20
0.0
 30
0.0
  3
*D71
  1

  0
LINE
  5
6EA9
330
6D95
100
AcDbEntity
  8
SUNPOU
 62
     0
440
 16777216
 48
2.0
370
    -2
100
AcDbLine
 10
77.06772498585187
 20
-185.0768420409615
 30
0.0
 11
70.31998268513937
 21
-185.0768420409615
 31
0.0
  0
LINE
  5
6EAA
330
6D95
100
AcDbEntity
  8
SUNPOU
 62
     0
440
 16777216
 48
2.0
370
    -2
100
AcDbLine
 10
76.06772498585192
 20
-190.3768420409614
 30
0.0
 11
70.31998268513937
 21
-190.3768420409614
 31
0.0
  0
LINE
  5
6EAB
330
6D95
100
AcDbEntity
  8
SUNPOU
 62
     0
440
 16777216
 48
2.0
370
    -2
100
AcDbLine
 10
71.31998268513936
 20
-186.0768420409615
 30
0.0
 11
71.31998268513936
 21
-189.3768420409614
 31
0.0
  0
LINE
  5
6EAC
330
6D95
100
AcDbEntity
  8
SUNPOU
 62
     0
440
 16777216
 48
2.0
370
    -2
100
AcDbLine
 10
71.31998268513936
 20
-190.3768420409614
 30
0.0
 11
71.31998268513936
 21
-197.6149372790566
 31
0.0
  0
INSERT
  5
6EAD
330
6D95
100
AcDbEntity
  8
SUNPOU
 62
     0
440
 16777216
 48
2.0
370
    -2
100
AcDbBlockReference
  2
1
 10
71.31998268513936
 20
-185.0768420409615
 30
0.0
 50
90.0
  0
INSERT
  5
6EAE
330
6D95
100
AcDbEntity
  8
SUNPOU
 62
     0
440
 16777216
 48
2.0
370
    -2
100
AcDbBlockReference
  2
1
 10
71.31998268513936
 20
-190.3768420409614
 30
0.0
 50
270.0
  0
MTEXT
  5
6EAF
330
6D95
100
AcDbEntity
  8
SUNPOU
440
 16777216
 48
2.0
100
AcDbMText
 10
69.56998268513929
 20
-194.495889660009
 30
0.0
 40
2.5
 41
0.0
 46
0.0
 71
     5
 72
     1
  1
\A1;5.3
  7
KANJI
 11
0.0000000000000001
 21
1.0
 31
0.0
 73
     1
 44
1.0
  0
POINT
  5
6EB0
330
6D95
100
AcDbEntity
  8
DEFPOINTS
 62
     0
440
 16777216
 48
2.0
100
AcDbPoint
 10
78.06772498585186
 20
-185.0768420409615
 30
0.0
  0
POINT
  5
6EB1
330
6D95
100
AcDbEntity
  8
DEFPOINTS
 62
     0
440
 16777216
 48
2.0
100
AcDbPoint
 10
77.06772498585192
 20
-190.3768420409614
 30
0.0
  0
POINT
  5
6EB2
330
6D95
100
AcDbEntity
  8
DEFPOINTS
 62
     0
440
 16777216
 48
2.0
100
AcDbPoint
 10
71.31998268513936
 20
-190.3768420409614
 30
0.0
  0
ENDBLK
  5
6D97
330
6D95
100
AcDbEntity
  8
0
 48
2.0
100
AcDbBlockEnd
  0
BLOCK
  5
6DA3
330
6DA2
100
AcDbEntity
  8
0
 48
2.0
100
AcDbBlockBegin
  2
*D72
 70
     1
 10
0.0
 20
0.0
 30
0.0
  3
*D72
  1

  0
LINE
  5
6EB3
330
6DA2
100
AcDbEntity
  8
SUNPOU
 62
     0
440
 16777216
 48
2.0
370
    -2
100
AcDbLine
 10
41.06830305034004
 20
-279.2046945401564
 30
0.0
 11
36.05789507114409
 21
-279.2046945401564
 31
0.0
  0
LINE
  5
6EB4
330
6DA2
100
AcDbEntity
  8
SUNPOU
 62
     0
440
 16777216
 48
2.0
370
    -2
100
AcDbLine
 10
37.05789507114409
 20
-280.2046945401563
 30
0.0
 11
37.05789507114409
 21
-286.9665993020611
 31
0.0
  0
INSERT
  5
6EB5
330
6DA2
100
AcDbEntity
  8
SUNPOU
 62
     0
440
 16777216
 48
2.0
370
    -2
100
AcDbBlockReference
  2
1
 10
37.05789507114409
 20
-279.2046945401564
 30
0.0
 50
90.0
  0
MTEXT
  5
6EB6
330
6DA2
100
AcDbEntity
  8
SUNPOU
440
 16777216
 48
2.0
100
AcDbMText
 10
35.30789507114401
 20
-284.0856469211087
 30
0.0
 40
2.5
 41
0.0
 46
0.0
 71
     5
 72
     1
  1
\A1;1.5
  7
KANJI
 11
0.0000000000000001
 21
1.0
 31
0.0
 73
     1
 44
1.0
  0
POINT
  5
6EB7
330
6DA2
100
AcDbEntity
  8
DEFPOINTS
 62
     0
440
 16777216
 48
2.0
100
AcDbPoint
 10
47.06830305034005
 20
-276.2046945401564
 30
0.0
  0
POINT
  5
6EB8
330
6DA2
100
AcDbEntity
  8
DEFPOINTS
 62
     0
440
 16777216
 48
2.0
100
AcDbPoint
 10
42.06830305034005
 20
-279.2046945401564
 30
0.0
  0
POINT
  5
6EB9
330
6DA2
100
AcDbEntity
  8
DEFPOINTS
 62
     0
440
 16777216
 48
2.0
100
AcDbPoint
 10
37.05789507114409
 20
-279.2046945401564
 30
0.0
  0
ENDBLK
  5
6DA4
330
6DA2
100
AcDbEntity
  8
0
 48
2.0
100
AcDbBlockEnd
  0
BLOCK
  5
6DAD
330
6DAC
100
AcDbEntity
  8
0
 48
2.0
100
AcDbBlockBegin
  2
*D73
 70
     1
 10
0.0
 20
0.0
 30
0.0
  3
*D73
  1

  0
LINE
  5
6EBA
330
6DAC
100
AcDbEntity
  8
SUNPOU
 62
     0
440
 16777216
 48
2.0
370
    -2
100
AcDbLine
 10
46.06830305034004
 20
-276.2046945401564
 30
0.0
 11
36.05789507114437
 21
-276.2046945401564
 31
0.0
  0
LINE
  5
6EBB
330
6DAC
100
AcDbEntity
  8
SUNPOU
 62
     0
440
 16777216
 48
2.0
370
    -2
100
AcDbLine
 10
46.06830305034016
 20
-271.8046945401564
 30
0.0
 11
36.05789507114436
 21
-271.8046945401564
 31
0.0
  0
LINE
  5
6EBC
330
6DAC
100
AcDbEntity
  8
SUNPOU
 62
     0
440
 16777216
 48
2.0
370
    -2
100
AcDbLine
 10
37.05789507114437
 20
-275.2046945401564
 30
0.0
 11
37.05789507114437
 21
-272.8046945401565
 31
0.0
  0
LINE
  5
6EBD
330
6DAC
100
AcDbEntity
  8
SUNPOU
 62
     0
440
 16777216
 48
2.0
370
    -2
100
AcDbLine
 10
37.05789507114436
 20
-271.8046945401564
 30
0.0
 11
37.05789507114436
 21
-264.5665993020612
 31
0.0
  0
INSERT
  5
6EBE
330
6DAC
100
AcDbEntity
  8
SUNPOU
 62
     0
440
 16777216
 48
2.0
370
    -2
100
AcDbBlockReference
  2
1
 10
37.05789507114437
 20
-276.2046945401564
 30
0.0
 50
270.0
  0
INSERT
  5
6EBF
330
6DAC
100
AcDbEntity
  8
SUNPOU
 62
     0
440
 16777216
 48
2.0
370
    -2
100
AcDbBlockReference
  2
1
 10
37.05789507114436
 20
-271.8046945401564
 30
0.0
 50
90.0
  0
MTEXT
  5
6EC0
330
6DAC
100
AcDbEntity
  8
SUNPOU
440
 16777216
 48
2.0
100
AcDbMText
 10
35.30789507114428
 20
-267.6856469211088
 30
0.0
 40
2.5
 41
0.0
 46
0.0
 71
     5
 72
     1
  1
\A1;2.2
  7
KANJI
 11
0.0000000000000001
 21
1.0
 31
0.0
 73
     1
 44
1.0
  0
POINT
  5
6EC1
330
6DAC
100
AcDbEntity
  8
DEFPOINTS
 62
     0
440
 16777216
 48
2.0
100
AcDbPoint
 10
47.06830305034005
 20
-276.2046945401564
 30
0.0
  0
POINT
  5
6EC2
330
6DAC
100
AcDbEntity
  8
DEFPOINTS
 62
     0
440
 16777216
 48
2.0
100
AcDbPoint
 10
47.06830305034016
 20
-271.8046945401564
 30
0.0
  0
POINT
  5
6EC3
330
6DAC
100
AcDbEntity
  8
DEFPOINTS
 62
     0
440
 16777216
 48
2.0
100
AcDbPoint
 10
37.05789507114436
 20
-271.8046945401564
 30
0.0
  0
ENDBLK
  5
6DAE
330
6DAC
100
AcDbEntity
  8
0
 48
2.0
100
AcDbBlockEnd
  0
BLOCK
  5
6DBA
330
6DB9
100
AcDbEntity
  8
0
 48
2.0
100
AcDbBlockBegin
  2
*D74
 70
     1
 10
0.0
 20
0.0
 30
0.0
  3
*D74
  1

  0
LINE
  5
6EC4
330
6DB9
100
AcDbEntity
  8
SUNPOU
 62
     0
440
 16777216
 48
2.0
370
    -2
100
AcDbLine
 10
47.06830305034015
 20
-280.2046945401563
 30
0.0
 11
47.06830305034015
 21
-293.1505730145866
 31
0.0
  0
LINE
  5
6EC5
330
6DB9
100
AcDbEntity
  8
SUNPOU
 62
     0
440
 16777216
 48
2.0
370
    -2
100
AcDbLine
 10
71.06830305034015
 20
-280.2046945401563
 30
0.0
 11
71.06830305034015
 21
-293.1505730145866
 31
0.0
  0
LINE
  5
6EC6
330
6DB9
100
AcDbEntity
  8
SUNPOU
 62
     0
440
 16777216
 48
2.0
370
    -2
100
AcDbLine
 10
48.06830305034015
 20
-292.1505730145866
 30
0.0
 11
70.06830305034014
 21
-292.1505730145866
 31
0.0
  0
INSERT
  5
6EC7
330
6DB9
100
AcDbEntity
  8
SUNPOU
 62
     0
440
 16777216
 48
2.0
370
    -2
100
AcDbBlockReference
  2
1
 10
47.06830305034015
 20
-292.1505730145866
 30
0.0
 50
180.0
  0
INSERT
  5
6EC8
330
6DB9
100
AcDbEntity
  8
SUNPOU
 62
     0
440
 16777216
 48
2.0
370
    -2
100
AcDbBlockReference
  2
1
 10
71.06830305034015
 20
-292.1505730145866
 30
0.0
  0
MTEXT
  5
6EC9
330
6DB9
100
AcDbEntity
  8
SUNPOU
440
 16777216
 48
2.0
100
AcDbMText
 10
59.06830305034015
 20
-290.4005730145866
 30
0.0
 40
2.5
 41
0.0
 46
0.0
 71
     5
 72
     1
  1
\A1;12
  7
KANJI
 73
     1
 44
1.0
  0
POINT
  5
6ECA
330
6DB9
100
AcDbEntity
  8
DEFPOINTS
 62
     0
440
 16777216
 48
2.0
100
AcDbPoint
 10
47.06830305034015
 20
-279.2046945401562
 30
0.0
  0
POINT
  5
6ECB
330
6DB9
100
AcDbEntity
  8
DEFPOINTS
 62
     0
440
 16777216
 48
2.0
100
AcDbPoint
 10
71.06830305034015
 20
-279.2046945401562
 30
0.0
  0
POINT
  5
6ECC
330
6DB9
100
AcDbEntity
  8
DEFPOINTS
 62
     0
440
 16777216
 48
2.0
100
AcDbPoint
 10
71.06830305034015
 20
-292.1505730145866
 30
0.0
  0
ENDBLK
  5
6DBB
330
6DB9
100
AcDbEntity
  8
0
 48
2.0
100
AcDbBlockEnd
  0
BLOCK
  5
6DC6
330
6DC5
100
AcDbEntity
  8
0
 48
2.0
100
AcDbBlockBegin
  2
*D75
 70
     1
 10
0.0
 20
0.0
 30
0.0
  3
*D75
  1

  0
LINE
  5
6ECD
330
6DC5
100
AcDbEntity
  8
SUNPOU
 62
     0
440
 16777216
 48
2.0
370
    -2
100
AcDbLine
 10
42.06830305034015
 20
-280.2046945401563
 30
0.0
 11
42.06830305034015
 21
-298.3966029345447
 31
0.0
  0
LINE
  5
6ECE
330
6DC5
100
AcDbEntity
  8
SUNPOU
 62
     0
440
 16777216
 48
2.0
370
    -2
100
AcDbLine
 10
76.06830305034015
 20
-280.2046945401563
 30
0.0
 11
76.06830305034015
 21
-298.3966029345447
 31
0.0
  0
LINE
  5
6ECF
330
6DC5
100
AcDbEntity
  8
SUNPOU
 62
     0
440
 16777216
 48
2.0
370
    -2
100
AcDbLine
 10
43.06830305034014
 20
-297.3966029345447
 30
0.0
 11
75.06830305034014
 21
-297.3966029345447
 31
0.0
  0
INSERT
  5
6ED0
330
6DC5
100
AcDbEntity
  8
SUNPOU
 62
     0
440
 16777216
 48
2.0
370
    -2
100
AcDbBlockReference
  2
1
 10
42.06830305034015
 20
-297.3966029345447
 30
0.0
 50
180.0
  0
INSERT
  5
6ED1
330
6DC5
100
AcDbEntity
  8
SUNPOU
 62
     0
440
 16777216
 48
2.0
370
    -2
100
AcDbBlockReference
  2
1
 10
76.06830305034015
 20
-297.3966029345447
 30
0.0
  0
MTEXT
  5
6ED2
330
6DC5
100
AcDbEntity
  8
SUNPOU
440
 16777216
 48
2.0
100
AcDbMText
 10
59.06830305034015
 20
-295.6466029345447
 30
0.0
 40
2.5
 41
0.0
 46
0.0
 71
     5
 72
     1
  1
\A1;17
  7
KANJI
 73
     1
 44
1.0
  0
POINT
  5
6ED3
330
6DC5
100
AcDbEntity
  8
DEFPOINTS
 62
     0
440
 16777216
 48
2.0
100
AcDbPoint
 10
42.06830305034015
 20
-279.2046945401562
 30
0.0
  0
POINT
  5
6ED4
330
6DC5
100
AcDbEntity
  8
DEFPOINTS
 62
     0
440
 16777216
 48
2.0
100
AcDbPoint
 10
76.06830305034015
 20
-279.2046945401562
 30
0.0
  0
POINT
  5
6ED5
330
6DC5
100
AcDbEntity
  8
DEFPOINTS
 62
     0
440
 16777216
 48
2.0
100
AcDbPoint
 10
76.06830305034015
 20
-297.3966029345447
 30
0.0
  0
ENDBLK
  5
6DC7
330
6DC5
100
AcDbEntity
  8
0
 48
2.0
100
AcDbBlockEnd
  0
BLOCK
  5
6DD2
330
6DD1
100
AcDbEntity
  8
0
 48
2.0
100
AcDbBlockBegin
  2
*D76
 70
     1
 10
0.0
 20
0.0
 30
0.0
  3
*D76
  1

  0
LINE
  5
6ED6
330
6DD1
100
AcDbEntity
  8
SUNPOU
 62
     0
440
 16777216
 48
2.0
370
    -2
100
AcDbLine
 10
56.0683030503402
 20
-269.2046945401563
 30
0.0
 11
56.0683030503402
 21
-259.3419053842867
 31
0.0
  0
LINE
  5
6ED7
330
6DD1
100
AcDbEntity
  8
SUNPOU
 62
     0
440
 16777216
 48
2.0
370
    -2
100
AcDbLine
 10
62.06830305034021
 20
-269.2046945401563
 30
0.0
 11
62.06830305034021
 21
-259.3419053842867
 31
0.0
  0
LINE
  5
6ED8
330
6DD1
100
AcDbEntity
  8
SUNPOU
 62
     0
440
 16777216
 48
2.0
370
    -2
100
AcDbLine
 10
57.06830305034021
 20
-260.3419053842868
 30
0.0
 11
61.0683030503402
 21
-260.3419053842868
 31
0.0
  0
INSERT
  5
6ED9
330
6DD1
100
AcDbEntity
  8
SUNPOU
 62
     0
440
 16777216
 48
2.0
370
    -2
100
AcDbBlockReference
  2
1
 10
56.0683030503402
 20
-260.3419053842868
 30
0.0
 50
180.0
  0
INSERT
  5
6EDA
330
6DD1
100
AcDbEntity
  8
SUNPOU
 62
     0
440
 16777216
 48
2.0
370
    -2
100
AcDbBlockReference
  2
1
 10
62.06830305034021
 20
-260.3419053842868
 30
0.0
  0
MTEXT
  5
6EDB
330
6DD1
100
AcDbEntity
  8
SUNPOU
440
 16777216
 48
2.0
100
AcDbMText
 10
59.0683030503402
 20
-258.5919053842868
 30
0.0
 40
2.5
 41
0.0
 46
0.0
 71
     5
 72
     1
  1
\A1;3
  7
KANJI
 73
     1
 44
1.0
  0
POINT
  5
6EDC
330
6DD1
100
AcDbEntity
  8
DEFPOINTS
 62
     0
440
 16777216
 48
2.0
100
AcDbPoint
 10
56.0683030503402
 20
-270.2046945401563
 30
0.0
  0
POINT
  5
6EDD
330
6DD1
100
AcDbEntity
  8
DEFPOINTS
 62
     0
440
 16777216
 48
2.0
100
AcDbPoint
 10
62.06830305034021
 20
-270.2046945401563
 30
0.0
  0
POINT
  5
6EDE
330
6DD1
100
AcDbEntity
  8
DEFPOINTS
 62
     0
440
 16777216
 48
2.0
100
AcDbPoint
 10
62.06830305034021
 20
-260.3419053842868
 30
0.0
  0
ENDBLK
  5
6DD3
330
6DD1
100
AcDbEntity
  8
0
 48
2.0
100
AcDbBlockEnd
  0
BLOCK
  5
6DDE
330
6DDD
100
AcDbEntity
  8
0
 48
2.0
100
AcDbBlockBegin
  2
*D77
 70
     1
 10
0.0
 20
0.0
 30
0.0
  3
*D77
  1

  0
LINE
  5
6EDF
330
6DDD
100
AcDbEntity
  8
SUNPOU
 62
     0
440
 16777216
 48
2.0
370
    -2
100
AcDbLine
 10
75.06830305034014
 20
-268.8046945401563
 30
0.0
 11
75.06830305034014
 21
-254.1847009486842
 31
0.0
  0
LINE
  5
6EE0
330
6DDD
100
AcDbEntity
  8
SUNPOU
 62
     0
440
 16777216
 48
2.0
370
    -2
100
AcDbLine
 10
43.06830305034014
 20
-268.8046945401563
 30
0.0
 11
43.06830305034014
 21
-254.1847009486842
 31
0.0
  0
LINE
  5
6EE1
330
6DDD
100
AcDbEntity
  8
SUNPOU
 62
     0
440
 16777216
 48
2.0
370
    -2
100
AcDbLine
 10
74.06830305034015
 20
-255.1847009486841
 30
0.0
 11
44.06830305034015
 21
-255.1847009486841
 31
0.0
  0
INSERT
  5
6EE2
330
6DDD
100
AcDbEntity
  8
SUNPOU
 62
     0
440
 16777216
 48
2.0
370
    -2
100
AcDbBlockReference
  2
1
 10
75.06830305034014
 20
-255.1847009486841
 30
0.0
  0
INSERT
  5
6EE3
330
6DDD
100
AcDbEntity
  8
SUNPOU
 62
     0
440
 16777216
 48
2.0
370
    -2
100
AcDbBlockReference
  2
1
 10
43.06830305034014
 20
-255.1847009486841
 30
0.0
 50
180.0
  0
MTEXT
  5
6EE4
330
6DDD
100
AcDbEntity
  8
SUNPOU
440
 16777216
 48
2.0
100
AcDbMText
 10
59.06830305034015
 20
-253.4347009486842
 30
0.0
 40
2.5
 41
0.0
 46
0.0
 71
     5
 72
     1
  1
\A1;16
  7
KANJI
 73
     1
 44
1.0
  0
POINT
  5
6EE5
330
6DDD
100
AcDbEntity
  8
DEFPOINTS
 62
     0
440
 16777216
 48
2.0
100
AcDbPoint
 10
75.06830305034014
 20
-269.8046945401563
 30
0.0
  0
POINT
  5
6EE6
330
6DDD
100
AcDbEntity
  8
DEFPOINTS
 62
     0
440
 16777216
 48
2.0
100
AcDbPoint
 10
43.06830305034014
 20
-269.8046945401563
 30
0.0
  0
POINT
  5
6EE7
330
6DDD
100
AcDbEntity
  8
DEFPOINTS
 62
     0
440
 16777216
 48
2.0
100
AcDbPoint
 10
43.06830305034014
 20
-255.1847009486841
 30
0.0
  0
ENDBLK
  5
6DDF
330
6DDD
100
AcDbEntity
  8
0
 48
2.0
100
AcDbBlockEnd
  0
BLOCK
  5
6DEA
330
6DE9
100
AcDbEntity
  8
0
 48
2.0
100
AcDbBlockBegin
  2
*D78
 70
     1
 10
0.0
 20
0.0
 30
0.0
  3
*D78
  1

  0
LINE
  5
6EE8
330
6DE9
100
AcDbEntity
  8
SUNPOU
 62
     0
440
 16777216
 48
2.0
370
    -2
100
AcDbLine
 10
185.1563299357994
 20
-163.4917888307016
 30
0.0
 11
171.4420442215127
 21
-163.4917888307016
 31
0.0
  0
LINE
  5
6EE9
330
6DE9
100
AcDbEntity
  8
SUNPOU
 62
     0
440
 16777216
 48
2.0
370
    -2
100
AcDbLine
 10
171.4420442215127
 20
-163.4917888307016
 30
0.0
 11
167.8524474223424
 21
-167.4844655212184
 31
0.0
  0
MTEXT
  5
6EEA
330
6DE9
100
AcDbEntity
  8
SUNPOU
440
 16777216
 48
2.0
100
AcDbMText
 10
178.5491870786565
 20
-161.7417888307016
 30
0.0
 40
2.5
 41
0.0
 46
0.0
 71
     5
 72
     1
  1
\A1;2-R0.2
  7
KANJI
 73
     1
 44
1.0
  0
INSERT
  5
6EEB
330
6DE9
100
AcDbEntity
  8
SUNPOU
 62
     0
440
 16777216
 48
2.0
370
    -2
100
AcDbBlockReference
  2
1
 10
167.1838750695037
 20
-168.2281126210041
 30
0.0
 50
228.0430262884213
  0
POINT
  5
6EEC
330
6DE9
100
AcDbEntity
  8
DEFPOINTS
 62
     0
440
 16777216
 48
2.0
100
AcDbPoint
 10
167.1838750695037
 20
-168.2281126210041
 30
0.0
  0
POINT
  5
6EED
330
6DE9
100
AcDbEntity
  8
DEFPOINTS
 62
     0
440
 16777216
 48
2.0
100
AcDbPoint
 10
167.0501605989359
 20
-168.3768420409613
 30
0.0
  0
ENDBLK
  5
6DEB
330
6DE9
100
AcDbEntity
  8
0
 48
2.0
100
AcDbBlockEnd
  0
BLOCK
  5
6DF3
330
6DF2
100
AcDbEntity
  8
0
 48
2.0
100
AcDbBlockBegin
  2
*D79
 70
     1
 10
0.0
 20
0.0
 30
0.0
  3
*D79
  1

  0
LINE
  5
6EEE
330
6DF2
100
AcDbEntity
  8
SUNPOU
 62
     0
440
 16777216
 48
2.0
370
    -2
100
AcDbLine
 10
137.6293581184393
 20
-163.6962515594482
 30
0.0
 11
151.3436438327285
 21
-163.6962515594482
 31
0.0
  0
LINE
  5
6EEF
330
6DF2
100
AcDbEntity
  8
SUNPOU
 62
     0
440
 16777216
 48
2.0
370
    -2
100
AcDbLine
 10
151.3436438327285
 20
-163.6962515594482
 30
0.0
 11
155.1108352457518
 21
-167.521815726107
 31
0.0
  0
MTEXT
  5
6EF0
330
6DF2
100
AcDbEntity
  8
SUNPOU
440
 16777216
 48
2.0
100
AcDbMText
 10
144.2365009755821
 20
-161.9462515594481
 30
0.0
 40
2.5
 41
0.0
 46
0.0
 71
     5
 72
     1
  1
\A1;2-R0.2
  7
KANJI
 73
     1
 44
1.0
  0
INSERT
  5
6EF1
330
6DF2
100
AcDbEntity
  8
SUNPOU
 62
     0
440
 16777216
 48
2.0
370
    -2
100
AcDbBlockReference
  2
1
 10
155.8124850876456
 20
-168.2343376551523
 30
0.0
 50
314.5595213757311
  0
POINT
  5
6EF2
330
6DF2
100
AcDbEntity
  8
DEFPOINTS
 62
     0
440
 16777216
 48
2.0
100
AcDbPoint
 10
155.8124850876456
 20
-168.2343376551523
 30
0.0
  0
POINT
  5
6EF3
330
6DF2
100
AcDbEntity
  8
DEFPOINTS
 62
     0
440
 16777216
 48
2.0
100
AcDbPoint
 10
155.9528150560243
 20
-168.3768420409613
 30
0.0
  0
ENDBLK
  5
6DF4
330
6DF2
100
AcDbEntity
  8
0
 48
2.0
100
AcDbBlockEnd
  0
BLOCK
  5
6DFC
330
6DFB
100
AcDbEntity
  8
0
 48
2.0
100
AcDbBlockBegin
  2
*D80
 70
     1
 10
0.0
 20
0.0
 30
0.0
  3
*D80
  1

  0
LINE
  5
6EF4
330
6DFB
100
AcDbEntity
  8
SUNPOU
 62
     0
440
 16777216
 48
2.0
370
    -2
100
AcDbLine
 10
157.5878664592484
 20
-243.1121717095507
 30
0.0
 11
157.5878664592484
 21
-235.6915896089902
 31
0.0
  0
LINE
  5
6EF5
330
6DFB
100
AcDbEntity
  8
SUNPOU
 62
     0
440
 16777216
 48
2.0
370
    -2
100
AcDbLine
 10
165.5878664592484
 20
-243.1121717095508
 30
0.0
 11
165.5878664592484
 21
-235.6915896089902
 31
0.0
  0
LINE
  5
6EF6
330
6DFB
100
AcDbEntity
  8
SUNPOU
 62
     0
440
 16777216
 48
2.0
370
    -2
100
AcDbLine
 10
158.5878664592484
 20
-236.6915896089902
 30
0.0
 11
164.5878664592484
 21
-236.6915896089902
 31
0.0
  0
INSERT
  5
6EF7
330
6DFB
100
AcDbEntity
  8
SUNPOU
 62
     0
440
 16777216
 48
2.0
370
    -2
100
AcDbBlockReference
  2
1
 10
157.5878664592484
 20
-236.6915896089902
 30
0.0
 50
180.0
  0
INSERT
  5
6EF8
330
6DFB
100
AcDbEntity
  8
SUNPOU
 62
     0
440
 16777216
 48
2.0
370
    -2
100
AcDbBlockReference
  2
1
 10
165.5878664592484
 20
-236.6915896089902
 30
0.0
  0
MTEXT
  5
6EF9
330
6DFB
100
AcDbEntity
  8
SUNPOU
440
 16777216
 48
2.0
100
AcDbMText
 10
161.5878664592484
 20
-234.9415896089902
 30
0.0
 40
2.5
 41
0.0
 46
0.0
 71
     5
 72
     1
  1
\A1;%%c4
  7
KANJI
 73
     1
 44
1.0
  0
POINT
  5
6EFA
330
6DFB
100
AcDbEntity
  8
DEFPOINTS
 62
     0
440
 16777216
 48
2.0
100
AcDbPoint
 10
157.5878664592484
 20
-244.1121717095508
 30
0.0
  0
POINT
  5
6EFB
330
6DFB
100
AcDbEntity
  8
DEFPOINTS
 62
     0
440
 16777216
 48
2.0
100
AcDbPoint
 10
165.5878664592484
 20
-244.1121717095508
 30
0.0
  0
POINT
  5
6EFC
330
6DFB
100
AcDbEntity
  8
DEFPOINTS
 62
     0
440
 16777216
 48
2.0
100
AcDbPoint
 10
165.5878664592484
 20
-236.6915896089902
 30
0.0
  0
ENDBLK
  5
6DFD
330
6DFB
100
AcDbEntity
  8
0
 48
2.0
100
AcDbBlockEnd
  0
BLOCK
  5
6E08
330
6E07
100
AcDbEntity
  8
0
 48
2.0
100
AcDbBlockBegin
  2
*D81
 70
     1
 10
0.0
 20
0.0
 30
0.0
  3
*D81
  1

  0
LINE
  5
6EFD
330
6E07
100
AcDbEntity
  8
SUNPOU
 62
     0
440
 16777216
 48
2.0
370
    -2
100
AcDbLine
 10
154.5878664592484
 20
-242.9783910431933
 30
0.0
 11
154.5878664592484
 21
-230.3271881575243
 31
0.0
  0
LINE
  5
6EFE
330
6E07
100
AcDbEntity
  8
SUNPOU
 62
     0
440
 16777216
 48
2.0
370
    -2
100
AcDbLine
 10
168.5878664592484
 20
-242.9783910431932
 30
0.0
 11
168.5878664592484
 21
-230.3271881575243
 31
0.0
  0
LINE
  5
6EFF
330
6E07
100
AcDbEntity
  8
SUNPOU
 62
     0
440
 16777216
 48
2.0
370
    -2
100
AcDbLine
 10
155.5878664592484
 20
-231.3271881575243
 30
0.0
 11
167.5878664592484
 21
-231.3271881575243
 31
0.0
  0
INSERT
  5
6F00
330
6E07
100
AcDbEntity
  8
SUNPOU
 62
     0
440
 16777216
 48
2.0
370
    -2
100
AcDbBlockReference
  2
1
 10
154.5878664592484
 20
-231.3271881575243
 30
0.0
 50
180.0
  0
INSERT
  5
6F01
330
6E07
100
AcDbEntity
  8
SUNPOU
 62
     0
440
 16777216
 48
2.0
370
    -2
100
AcDbBlockReference
  2
1
 10
168.5878664592484
 20
-231.3271881575243
 30
0.0
  0
MTEXT
  5
6F02
330
6E07
100
AcDbEntity
  8
SUNPOU
440
 16777216
 48
2.0
100
AcDbMText
 10
161.5878664592484
 20
-229.5771881575244
 30
0.0
 40
2.5
 41
0.0
 46
0.0
 71
     5
 72
     1
  1
\A1;%%c7
  7
KANJI
 73
     1
 44
1.0
  0
POINT
  5
6F03
330
6E07
100
AcDbEntity
  8
DEFPOINTS
 62
     0
440
 16777216
 48
2.0
100
AcDbPoint
 10
154.5878664592484
 20
-243.9783910431933
 30
0.0
  0
POINT
  5
6F04
330
6E07
100
AcDbEntity
  8
DEFPOINTS
 62
     0
440
 16777216
 48
2.0
100
AcDbPoint
 10
168.5878664592484
 20
-243.9783910431931
 30
0.0
  0
POINT
  5
6F05
330
6E07
100
AcDbEntity
  8
DEFPOINTS
 62
     0
440
 16777216
 48
2.0
100
AcDbPoint
 10
168.5878664592484
 20
-231.3271881575243
 30
0.0
  0
ENDBLK
  5
6E09
330
6E07
100
AcDbEntity
  8
0
 48
2.0
100
AcDbBlockEnd
  0
BLOCK
  5
6E14
330
6E13
100
AcDbEntity
  8
0
 48
2.0
100
AcDbBlockBegin
  2
*D82
 70
     1
 10
0.0
 20
0.0
 30
0.0
  3
*D82
  1

  0
LINE
  5
6F06
330
6E13
100
AcDbEntity
  8
SUNPOU
 62
     0
440
 16777216
 48
2.0
370
    -2
100
AcDbLine
 10
91.92689890336305
 20
-168.0249602621367
 30
0.0
 11
95.09356557002977
 21
-168.0249602621366
 31
0.0
  0
LINE
  5
6F07
330
6E13
100
AcDbEntity
  8
SUNPOU
 62
     0
440
 16777216
 48
2.0
370
    -2
100
AcDbLine
 10
95.09356557002977
 20
-168.0249602621366
 30
0.0
 11
101.2764557721639
 21
-174.6213520704659
 31
0.0
  0
MTEXT
  5
6F08
330
6E13
100
AcDbEntity
  8
SUNPOU
 62
     1
440
 16777216
 48
2.0
100
AcDbMText
 10
93.2602322366964
 20
-165.5249602621367
 30
0.0
 40
4.0
 41
0.0
 46
0.0
 71
     5
 72
     1
  1
\A1;D
  7
KANJI
 73
     1
 44
1.0
  0
INSERT
  5
6F09
330
6E13
100
AcDbEntity
  8
SUNPOU
 62
     0
440
 16777216
 48
2.0
370
    -2
100
AcDbBlockReference
  2
1
 10
101.960324660212
 20
-175.3509569936674
 30
0.0
 50
313.146716407503
  0
POINT
  5
6F0A
330
6E13
100
AcDbEntity
  8
DEFPOINTS
 62
     0
440
 16777216
 48
2.0
100
AcDbPoint
 10
101.960324660212
 20
-175.3509569936674
 30
0.0
  0
POINT
  5
6F0B
330
6E13
100
AcDbEntity
  8
DEFPOINTS
 62
     0
440
 16777216
 48
2.0
100
AcDbPoint
 10
108.2177249858518
 20
-182.0268420409614
 30
0.0
  0
ENDBLK
  5
6E15
330
6E13
100
AcDbEntity
  8
0
 48
2.0
100
AcDbBlockEnd
  0
BLOCK
  5
6E1D
330
6E1C
100
AcDbEntity
  8
0
 48
2.0
100
AcDbBlockBegin
  2
*D83
 70
     1
 10
0.0
 20
0.0
 30
0.0
  3
*D83
  1

  0
LINE
  5
6F0C
330
6E1C
100
AcDbEntity
  8
SUNPOU
 62
     0
440
 16777216
 48
2.0
370
    -2
100
AcDbLine
 10
109.2177249858519
 20
-168.1768420409614
 30
0.0
 11
135.3664494002941
 21
-168.1768420409614
 31
0.0
  0
LINE
  5
6F0D
330
6E1C
100
AcDbEntity
  8
SUNPOU
 62
     0
440
 16777216
 48
2.0
370
    -2
100
AcDbLine
 10
134.3664494002941
 20
-171.8768420409614
 30
0.0
 11
134.3664494002941
 21
-169.1768420409614
 31
0.0
  0
LINE
  5
6F0E
330
6E1C
100
AcDbEntity
  8
SUNPOU
 62
     0
440
 16777216
 48
2.0
370
    -2
100
AcDbLine
 10
134.3664494002941
 20
-168.1768420409614
 30
0.0
 11
134.3664494002941
 21
-160.9387468028661
 31
0.0
  0
INSERT
  5
6F0F
330
6E1C
100
AcDbEntity
  8
SUNPOU
 62
     0
440
 16777216
 48
2.0
370
    -2
100
AcDbBlockReference
  2
1
 10
134.3664494002941
 20
-172.8768420409614
 30
0.0
 50
270.0
  0
INSERT
  5
6F10
330
6E1C
100
AcDbEntity
  8
SUNPOU
 62
     0
440
 16777216
 48
2.0
370
    -2
100
AcDbBlockReference
  2
1
 10
134.3664494002941
 20
-168.1768420409614
 30
0.0
 50
90.0
  0
MTEXT
  5
6F11
330
6E1C
100
AcDbEntity
  8
SUNPOU
440
 16777216
 48
2.0
100
AcDbMText
 10
132.616449400294
 20
-164.0577944219137
 30
0.0
 40
2.5
 41
0.0
 46
0.0
 71
     5
 72
     1
  1
\A1;4.7
  7
KANJI
 11
0.0000000000000001
 21
1.0
 31
0.0
 73
     1
 44
1.0
  0
POINT
  5
6F12
330
6E1C
100
AcDbEntity
  8
DEFPOINTS
 62
     0
440
 16777216
 48
2.0
100
AcDbPoint
 10
134.3664494002938
 20
-172.8768420409614
 30
0.0
  0
POINT
  5
6F13
330
6E1C
100
AcDbEntity
  8
DEFPOINTS
 62
     0
440
 16777216
 48
2.0
100
AcDbPoint
 10
108.2177249858519
 20
-168.1768420409614
 30
0.0
  0
POINT
  5
6F14
330
6E1C
100
AcDbEntity
  8
DEFPOINTS
 62
     0
440
 16777216
 48
2.0
100
AcDbPoint
 10
134.3664494002941
 20
-168.1768420409614
 30
0.0
  0
ENDBLK
  5
6E1E
330
6E1C
100
AcDbEntity
  8
0
 48
2.0
100
AcDbBlockEnd
  0
BLOCK
  5
6E29
330
6E28
100
AcDbEntity
  8
0
 48
2.0
100
AcDbBlockBegin
  2
*D84
 70
     1
 10
0.0
 20
0.0
 30
0.0
  3
*D84
  1

  0
LINE
  5
6F15
330
6E28
100
AcDbEntity
  8
SUNPOU
 62
     0
440
 16777216
 48
2.0
370
    -2
100
AcDbLine
 10
145.5878664592484
 20
-254.5783910431933
 30
0.0
 11
145.5878664592484
 21
-260.23170621106
 31
0.0
  0
LINE
  5
6F16
330
6E28
100
AcDbEntity
  8
SUNPOU
 62
     0
440
 16777216
 48
2.0
370
    -2
100
AcDbLine
 10
161.5878664592484
 20
-256.9783910431933
 30
0.0
 11
161.5878664592484
 21
-260.23170621106
 31
0.0
  0
LINE
  5
6F17
330
6E28
100
AcDbEntity
  8
SUNPOU
 62
     0
440
 16777216
 48
2.0
370
    -2
100
AcDbLine
 10
146.5878664592484
 20
-259.23170621106
 30
0.0
 11
160.5878664592484
 21
-259.23170621106
 31
0.0
  0
INSERT
  5
6F18
330
6E28
100
AcDbEntity
  8
SUNPOU
 62
     0
440
 16777216
 48
2.0
370
    -2
100
AcDbBlockReference
  2
1
 10
145.5878664592484
 20
-259.23170621106
 30
0.0
 50
180.0
  0
INSERT
  5
6F19
330
6E28
100
AcDbEntity
  8
SUNPOU
 62
     0
440
 16777216
 48
2.0
370
    -2
100
AcDbBlockReference
  2
1
 10
161.5878664592484
 20
-259.23170621106
 30
0.0
  0
MTEXT
  5
6F1A
330
6E28
100
AcDbEntity
  8
SUNPOU
440
 16777216
 48
2.0
100
AcDbMText
 10
153.5878664592484
 20
-257.48170621106
 30
0.0
 40
2.5
 41
0.0
 46
0.0
 71
     5
 72
     1
  1
\A1;8
  7
KANJI
 73
     1
 44
1.0
  0
POINT
  5
6F1B
330
6E28
100
AcDbEntity
  8
DEFPOINTS
 62
     0
440
 16777216
 48
2.0
100
AcDbPoint
 10
145.5878664592484
 20
-253.5783910431933
 30
0.0
  0
POINT
  5
6F1C
330
6E28
100
AcDbEntity
  8
DEFPOINTS
 62
     0
440
 16777216
 48
2.0
100
AcDbPoint
 10
161.5878664592484
 20
-255.9783910431932
 30
0.0
  0
POINT
  5
6F1D
330
6E28
100
AcDbEntity
  8
DEFPOINTS
 62
     0
440
 16777216
 48
2.0
100
AcDbPoint
 10
161.5878664592484
 20
-259.23170621106
 30
0.0
  0
ENDBLK
  5
6E2A
330
6E28
100
AcDbEntity
  8
0
 48
2.0
100
AcDbBlockEnd
  0
BLOCK
  5
6E35
330
6E34
100
AcDbEntity
  8
0
 48
2.0
100
AcDbBlockBegin
  2
*D85
 70
     1
 10
0.0
 20
0.0
 30
0.0
  3
*D85
  1

  0
LINE
  5
6F1E
330
6E34
100
AcDbEntity
  8
SUNPOU
 62
     0
440
 16777216
 48
2.0
370
    -2
100
AcDbLine
 10
144.5878664592484
 20
-253.5783910431934
 30
0.0
 11
128.1853580706053
 21
-253.5783910431934
 31
0.0
  0
LINE
  5
6F1F
330
6E34
100
AcDbEntity
  8
SUNPOU
 62
     0
440
 16777216
 48
2.0
370
    -2
100
AcDbLine
 10
144.5878664592484
 20
-244.9783910431936
 30
0.0
 11
128.1853580706053
 21
-244.9783910431936
 31
0.0
  0
LINE
  5
6F20
330
6E34
100
AcDbEntity
  8
SUNPOU
 62
     0
440
 16777216
 48
2.0
370
    -2
100
AcDbLine
 10
129.1853580706053
 20
-252.5783910431934
 30
0.0
 11
129.1853580706053
 21
-245.9783910431935
 31
0.0
  0
INSERT
  5
6F21
330
6E34
100
AcDbEntity
  8
SUNPOU
 62
     0
440
 16777216
 48
2.0
370
    -2
100
AcDbBlockReference
  2
1
 10
129.1853580706053
 20
-253.5783910431934
 30
0.0
 50
270.0
  0
INSERT
  5
6F22
330
6E34
100
AcDbEntity
  8
SUNPOU
 62
     0
440
 16777216
 48
2.0
370
    -2
100
AcDbBlockReference
  2
1
 10
129.1853580706053
 20
-244.9783910431936
 30
0.0
 50
90.0
  0
MTEXT
  5
6F23
330
6E34
100
AcDbEntity
  8
SUNPOU
440
 16777216
 48
2.0
100
AcDbMText
 10
127.4353580706052
 20
-249.2783910431934
 30
0.0
 40
2.5
 41
0.0
 46
0.0
 71
     5
 72
     1
  1
\A1;4.3
  7
KANJI
 11
0.0000000000000001
 21
1.0
 31
0.0
 73
     1
 44
1.0
  0
POINT
  5
6F24
330
6E34
100
AcDbEntity
  8
DEFPOINTS
 62
     0
440
 16777216
 48
2.0
100
AcDbPoint
 10
145.5878664592484
 20
-253.5783910431934
 30
0.0
  0
POINT
  5
6F25
330
6E34
100
AcDbEntity
  8
DEFPOINTS
 62
     0
440
 16777216
 48
2.0
100
AcDbPoint
 10
145.5878664592484
 20
-244.9783910431936
 30
0.0
  0
POINT
  5
6F26
330
6E34
100
AcDbEntity
  8
DEFPOINTS
 62
     0
440
 16777216
 48
2.0
100
AcDbPoint
 10
129.1853580706053
 20
-244.9783910431936
 30
0.0
  0
ENDBLK
  5
6E36
330
6E34
100
AcDbEntity
  8
0
 48
2.0
100
AcDbBlockEnd
  0
BLOCK
  5
6F44
330
6F43
100
AcDbEntity
  8
0
 48
2.0
100
AcDbBlockBegin
  2
*D86
 70
     1
 10
0.0
 20
0.0
 30
0.0
  3
*D86
  1

  0
LINE
  5
6F46
330
6F43
100
AcDbEntity
  8
SUNPOU
 62
     0
440
 16777216
 48
2.0
370
    -2
100
AcDbLine
 10
454.8840637398332
 20
185.4254082048002
 30
0.0
 11
448.5005809295264
 21
185.4254082048002
 31
0.0
  0
LINE
  5
6F47
330
6F43
100
AcDbEntity
  8
SUNPOU
 62
     0
440
 16777216
 48
2.0
370
    -2
100
AcDbLine
 10
455.8840637398332
 20
190.7254082048001
 30
0.0
 11
448.5005809295264
 21
190.7254082048001
 31
0.0
  0
LINE
  5
6F48
330
6F43
100
AcDbEntity
  8
SUNPOU
 62
     0
440
 16777216
 48
2.0
370
    -2
100
AcDbLine
 10
449.5005809295264
 20
186.4254082048002
 30
0.0
 11
449.5005809295264
 21
189.7254082048002
 31
0.0
  0
LINE
  5
6F49
330
6F43
100
AcDbEntity
  8
SUNPOU
 62
     0
440
 16777216
 48
2.0
370
    -2
100
AcDbLine
 10
449.5005809295264
 20
190.7254082048001
 30
0.0
 11
449.5005809295264
 21
201.1063605857526
 31
0.0
  0
INSERT
  5
6F4A
330
6F43
100
AcDbEntity
  8
SUNPOU
 62
     0
440
 16777216
 48
2.0
370
    -2
100
AcDbBlockReference
  2
Y1
 10
449.5005809295264
 20
185.4254082048002
 30
0.0
 50
270.0
  0
INSERT
  5
6F4B
330
6F43
100
AcDbEntity
  8
SUNPOU
 62
     0
440
 16777216
 48
2.0
370
    -2
100
AcDbBlockReference
  2
Y1
 10
449.5005809295264
 20
190.7254082048001
 30
0.0
 50
90.0
  0
MTEXT
  5
6F4C
330
6F43
100
AcDbEntity
  8
SUNPOU
 62
     1
440
 16777216
 48
2.0
100
AcDbMText
 10
447.0005809295264
 20
196.4158843952762
 30
0.0
 40
4.0
 41
0.0
 46
0.0
 71
     5
 72
     1
  1
\A1;5.3
  7
KANJI
 11
0.0000000000000001
 21
1.0
 31
0.0
 73
     1
 44
1.0
  0
POINT
  5
6F4D
330
6F43
100
AcDbEntity
  8
DEFPOINTS
 62
     0
440
 16777216
 48
2.0
100
AcDbPoint
 10
455.8840637398332
 20
185.4254082048002
 30
0.0
  0
POINT
  5
6F4E
330
6F43
100
AcDbEntity
  8
DEFPOINTS
 62
     0
440
 16777216
 48
2.0
100
AcDbPoint
 10
456.8840637398333
 20
190.7254082048001
 30
0.0
  0
POINT
  5
6F4F
330
6F43
100
AcDbEntity
  8
DEFPOINTS
 62
     0
440
 16777216
 48
2.0
100
AcDbPoint
 10
449.5005809295264
 20
190.7254082048001
 30
0.0
  0
ENDBLK
  5
6F45
330
6F43
100
AcDbEntity
  8
0
 48
2.0
100
AcDbBlockEnd
  0
BLOCK
  5
6F69
330
6F68
100
AcDbEntity
  8
0
 48
2.0
100
AcDbBlockBegin
  2
*D87
 70
     1
 10
0.0
 20
0.0
 30
0.0
  3
*D87
  1

  0
LINE
  5
6F6B
330
6F68
100
AcDbEntity
  8
SUNPOU
 62
     0
440
 16777216
 48
2.0
370
    -2
100
AcDbLine
 10
488.0340637398333
 20
207.6254082048003
 30
0.0
 11
520.0632987531892
 21
207.6254082048003
 31
0.0
  0
LINE
  5
6F6C
330
6F68
100
AcDbEntity
  8
SUNPOU
 62
     0
440
 16777216
 48
2.0
370
    -2
100
AcDbLine
 10
501.8840637398334
 20
185.4254082048001
 30
0.0
 11
520.0632987531892
 21
185.4254082048001
 31
0.0
  0
LINE
  5
6F6D
330
6F68
100
AcDbEntity
  8
SUNPOU
 62
     0
440
 16777216
 48
2.0
370
    -2
100
AcDbLine
 10
519.0632987531891
 20
206.6254082048003
 30
0.0
 11
519.0632987531891
 21
186.4254082048001
 31
0.0
  0
INSERT
  5
6F6E
330
6F68
100
AcDbEntity
  8
SUNPOU
 62
     0
440
 16777216
 48
2.0
370
    -2
100
AcDbBlockReference
  2
Y1
 10
519.0632987531891
 20
207.6254082048003
 30
0.0
 50
90.0
  0
INSERT
  5
6F6F
330
6F68
100
AcDbEntity
  8
SUNPOU
 62
     0
440
 16777216
 48
2.0
370
    -2
100
AcDbBlockReference
  2
Y1
 10
519.0632987531891
 20
185.4254082048001
 30
0.0
 50
270.0
  0
MTEXT
  5
6F70
330
6F68
100
AcDbEntity
  8
SUNPOU
 62
     1
440
 16777216
 48
2.0
100
AcDbMText
 10
521.5632987531891
 20
196.5254082048
 30
0.0
 40
4.0
 41
0.0
 46
0.0
 71
     5
 72
     1
  1
\A1;22.2
  7
KANJI
 11
0.0000000000000001
 21
1.0
 31
0.0
 73
     1
 44
1.0
  0
POINT
  5
6F71
330
6F68
100
AcDbEntity
  8
DEFPOINTS
 62
     0
440
 16777216
 48
2.0
100
AcDbPoint
 10
487.0340637398333
 20
207.6254082048003
 30
0.0
  0
POINT
  5
6F72
330
6F68
100
AcDbEntity
  8
DEFPOINTS
 62
     0
440
 16777216
 48
2.0
100
AcDbPoint
 10
500.8840637398335
 20
185.4254082048001
 30
0.0
  0
POINT
  5
6F73
330
6F68
100
AcDbEntity
  8
DEFPOINTS
 62
     0
440
 16777216
 48
2.0
100
AcDbPoint
 10
519.0632987531891
 20
185.4254082048001
 30
0.0
  0
ENDBLK
  5
6F6A
330
6F68
100
AcDbEntity
  8
0
 48
2.0
100
AcDbBlockEnd
  0
BLOCK
  5
6FF3
330
6FF2
100
AcDbEntity
  8
0
 48
2.0
100
AcDbBlockBegin
  2
*D89
 70
     1
 10
0.0
 20
0.0
 30
0.0
  3
*D89
  1

  0
LINE
  5
7059
330
6FF2
100
AcDbEntity
  8
SUNPOU
 62
     0
440
 16777216
 48
2.0
370
    -2
100
AcDbLine
 10
661.8692872546451
 20
185.4254082048002
 30
0.0
 11
655.4858044443387
 21
185.4254082048002
 31
0.0
  0
LINE
  5
705A
330
6FF2
100
AcDbEntity
  8
SUNPOU
 62
     0
440
 16777216
 48
2.0
370
    -2
100
AcDbLine
 10
662.8692872546451
 20
190.7254082048001
 30
0.0
 11
655.4858044443387
 21
190.7254082048001
 31
0.0
  0
LINE
  5
705B
330
6FF2
100
AcDbEntity
  8
SUNPOU
 62
     0
440
 16777216
 48
2.0
370
    -2
100
AcDbLine
 10
656.4858044443387
 20
186.4254082048002
 30
0.0
 11
656.4858044443387
 21
189.7254082048002
 31
0.0
  0
LINE
  5
705C
330
6FF2
100
AcDbEntity
  8
SUNPOU
 62
     0
440
 16777216
 48
2.0
370
    -2
100
AcDbLine
 10
656.4858044443387
 20
190.7254082048001
 30
0.0
 11
656.4858044443387
 21
201.1063605857525
 31
0.0
  0
INSERT
  5
705D
330
6FF2
100
AcDbEntity
  8
SUNPOU
 62
     0
440
 16777216
 48
2.0
370
    -2
100
AcDbBlockReference
  2
Y1
 10
656.4858044443387
 20
185.4254082048002
 30
0.0
 50
270.0
  0
INSERT
  5
705E
330
6FF2
100
AcDbEntity
  8
SUNPOU
 62
     0
440
 16777216
 48
2.0
370
    -2
100
AcDbBlockReference
  2
Y1
 10
656.4858044443387
 20
190.7254082048001
 30
0.0
 50
90.0
  0
MTEXT
  5
705F
330
6FF2
100
AcDbEntity
  8
SUNPOU
 62
     1
440
 16777216
 48
2.0
100
AcDbMText
 10
653.9858044443386
 20
196.4158843952761
 30
0.0
 40
4.0
 41
0.0
 46
0.0
 71
     5
 72
     1
  1
\A1;5.3
  7
KANJI
 11
0.0000000000000001
 21
1.0
 31
0.0
 73
     1
 44
1.0
  0
POINT
  5
7060
330
6FF2
100
AcDbEntity
  8
DEFPOINTS
 62
     0
440
 16777216
 48
2.0
100
AcDbPoint
 10
662.8692872546451
 20
185.4254082048002
 30
0.0
  0
POINT
  5
7061
330
6FF2
100
AcDbEntity
  8
DEFPOINTS
 62
     0
440
 16777216
 48
2.0
100
AcDbPoint
 10
663.869287254645
 20
190.7254082048001
 30
0.0
  0
POINT
  5
7062
330
6FF2
100
AcDbEntity
  8
DEFPOINTS
 62
     0
440
 16777216
 48
2.0
100
AcDbPoint
 10
656.4858044443387
 20
190.7254082048001
 30
0.0
  0
ENDBLK
  5
6FF4
330
6FF2
100
AcDbEntity
  8
0
 48
2.0
100
AcDbBlockEnd
  0
BLOCK
  5
7000
330
6FFF
100
AcDbEntity
  8
0
 48
2.0
100
AcDbBlockBegin
  2
*D90
 70
     1
 10
0.0
 20
0.0
 30
0.0
  3
*D90
  1

  0
LINE
  5
70CA
330
6FFF
100
AcDbEntity
  8
SUNPOU
 62
     0
440
 16777216
 48
2.0
370
    -2
100
AcDbLine
 10
684.8692872546449
 20
180.1754082048001
 30
0.0
 11
684.8692872546449
 21
168.6766828129337
 31
0.0
  0
LINE
  5
70CB
330
6FFF
100
AcDbEntity
  8
SUNPOU
 62
     0
440
 16777216
 48
2.0
370
    -2
100
AcDbLine
 10
707.1692872546449
 20
184.4254082048001
 30
0.0
 11
707.1692872546449
 21
168.6766828129337
 31
0.0
  0
LINE
  5
70CC
330
6FFF
100
AcDbEntity
  8
SUNPOU
 62
     0
440
 16777216
 48
2.0
370
    -2
100
AcDbLine
 10
685.8692872546448
 20
169.6766828129337
 30
0.0
 11
706.1692872546449
 21
169.6766828129337
 31
0.0
  0
INSERT
  5
70CD
330
6FFF
100
AcDbEntity
  8
SUNPOU
 62
     0
440
 16777216
 48
2.0
370
    -2
100
AcDbBlockReference
  2
Y1
 10
684.8692872546449
 20
169.6766828129337
 30
0.0
 50
180.0
  0
INSERT
  5
70CE
330
6FFF
100
AcDbEntity
  8
SUNPOU
 62
     0
440
 16777216
 48
2.0
370
    -2
100
AcDbBlockReference
  2
Y1
 10
707.1692872546449
 20
169.6766828129337
 30
0.0
  0
MTEXT
  5
70CF
330
6FFF
100
AcDbEntity
  8
SUNPOU
 62
     1
440
 16777216
 48
2.0
100
AcDbMText
 10
696.0192872546449
 20
172.1766828129337
 30
0.0
 40
4.0
 41
0.0
 46
0.0
 71
     5
 72
     1
  1
\A1;22.3
  7
KANJI
 73
     1
 44
1.0
  0
POINT
  5
70D0
330
6FFF
100
AcDbEntity
  8
DEFPOINTS
 62
     0
440
 16777216
 48
2.0
100
AcDbPoint
 10
684.8692872546449
 20
181.1754082048001
 30
0.0
  0
POINT
  5
70D1
330
6FFF
100
AcDbEntity
  8
DEFPOINTS
 62
     0
440
 16777216
 48
2.0
100
AcDbPoint
 10
707.1692872546449
 20
185.4254082048001
 30
0.0
  0
POINT
  5
70D2
330
6FFF
100
AcDbEntity
  8
DEFPOINTS
 62
     0
440
 16777216
 48
2.0
100
AcDbPoint
 10
707.1692872546449
 20
169.6766828129337
 30
0.0
  0
ENDBLK
  5
7001
330
6FFF
100
AcDbEntity
  8
0
 48
2.0
100
AcDbBlockEnd
  0
BLOCK
  5
700C
330
700B
100
AcDbEntity
  8
0
 48
2.0
100
AcDbBlockBegin
  2
*D91
 70
     1
 10
0.0
 20
0.0
 30
0.0
  3
*D91
  1

  0
LINE
  5
706C
330
700B
100
AcDbEntity
  8
SUNPOU
 62
     0
440
 16777216
 48
2.0
370
    -2
100
AcDbLine
 10
618.8290064776833
 20
184.4254082048001
 30
0.0
 11
618.8290064776833
 21
168.7201497715324
 31
0.0
  0
LINE
  5
706D
330
700B
100
AcDbEntity
  8
SUNPOU
 62
     0
440
 16777216
 48
2.0
370
    -2
100
AcDbLine
 10
637.8290064776834
 20
184.4254082048001
 30
0.0
 11
637.8290064776834
 21
168.7201497715324
 31
0.0
  0
LINE
  5
706E
330
700B
100
AcDbEntity
  8
SUNPOU
 62
     0
440
 16777216
 48
2.0
370
    -2
100
AcDbLine
 10
619.8290064776833
 20
169.7201497715324
 30
0.0
 11
636.8290064776833
 21
169.7201497715324
 31
0.0
  0
INSERT
  5
706F
330
700B
100
AcDbEntity
  8
SUNPOU
 62
     0
440
 16777216
 48
2.0
370
    -2
100
AcDbBlockReference
  2
Y1
 10
618.8290064776833
 20
169.7201497715324
 30
0.0
 50
180.0
  0
INSERT
  5
7070
330
700B
100
AcDbEntity
  8
SUNPOU
 62
     0
440
 16777216
 48
2.0
370
    -2
100
AcDbBlockReference
  2
Y1
 10
637.8290064776834
 20
169.7201497715324
 30
0.0
  0
MTEXT
  5
7071
330
700B
100
AcDbEntity
  8
SUNPOU
 62
     1
440
 16777216
 48
2.0
100
AcDbMText
 10
628.3290064776833
 20
172.2201497715324
 30
0.0
 40
4.0
 41
0.0
 46
0.0
 71
     5
 72
     1
  1
\A1;17
  7
KANJI
 73
     1
 44
1.0
  0
POINT
  5
7072
330
700B
100
AcDbEntity
  8
DEFPOINTS
 62
     0
440
 16777216
 48
2.0
100
AcDbPoint
 10
618.8290064776833
 20
185.4254082048001
 30
0.0
  0
POINT
  5
7073
330
700B
100
AcDbEntity
  8
DEFPOINTS
 62
     0
440
 16777216
 48
2.0
100
AcDbPoint
 10
637.8290064776834
 20
185.4254082048001
 30
0.0
  0
POINT
  5
7074
330
700B
100
AcDbEntity
  8
DEFPOINTS
 62
     0
440
 16777216
 48
2.0
100
AcDbPoint
 10
637.8290064776834
 20
169.7201497715324
 30
0.0
  0
ENDBLK
  5
700D
330
700B
100
AcDbEntity
  8
0
 48
2.0
100
AcDbBlockEnd
  0
BLOCK
  5
7018
330
7017
100
AcDbEntity
  8
0
 48
2.0
100
AcDbBlockBegin
  2
*D92
 70
     1
 10
0.0
 20
0.0
 30
0.0
  3
*D92
  1

  0
LINE
  5
7075
330
7017
100
AcDbEntity
  8
SUNPOU
 62
     0
440
 16777216
 48
2.0
370
    -2
100
AcDbLine
 10
662.8692872546448
 20
184.4254082048001
 30
0.0
 11
662.8692872546448
 21
168.7201497715324
 31
0.0
  0
LINE
  5
7076
330
7017
100
AcDbEntity
  8
SUNPOU
 62
     0
440
 16777216
 48
2.0
370
    -2
100
AcDbLine
 10
684.8692872546449
 20
184.9254082048001
 30
0.0
 11
684.8692872546449
 21
168.7201497715324
 31
0.0
  0
LINE
  5
7077
330
7017
100
AcDbEntity
  8
SUNPOU
 62
     0
440
 16777216
 48
2.0
370
    -2
100
AcDbLine
 10
663.8692872546449
 20
169.7201497715324
 30
0.0
 11
683.8692872546448
 21
169.7201497715324
 31
0.0
  0
INSERT
  5
7078
330
7017
100
AcDbEntity
  8
SUNPOU
 62
     0
440
 16777216
 48
2.0
370
    -2
100
AcDbBlockReference
  2
Y1
 10
662.8692872546448
 20
169.7201497715324
 30
0.0
 50
180.0
  0
INSERT
  5
7079
330
7017
100
AcDbEntity
  8
SUNPOU
 62
     0
440
 16777216
 48
2.0
370
    -2
100
AcDbBlockReference
  2
Y1
 10
684.8692872546449
 20
169.7201497715324
 30
0.0
  0
MTEXT
  5
707A
330
7017
100
AcDbEntity
  8
SUNPOU
 62
     1
440
 16777216
 48
2.0
100
AcDbMText
 10
673.8692872546448
 20
172.2201497715324
 30
0.0
 40
4.0
 41
0.0
 46
0.0
 71
     5
 72
     1
  1
\A1;22
  7
KANJI
 73
     1
 44
1.0
  0
POINT
  5
707B
330
7017
100
AcDbEntity
  8
DEFPOINTS
 62
     0
440
 16777216
 48
2.0
100
AcDbPoint
 10
662.8692872546448
 20
185.4254082048001
 30
0.0
  0
POINT
  5
707C
330
7017
100
AcDbEntity
  8
DEFPOINTS
 62
     0
440
 16777216
 48
2.0
100
AcDbPoint
 10
684.8692872546449
 20
185.9254082048001
 30
0.0
  0
POINT
  5
707D
330
7017
100
AcDbEntity
  8
DEFPOINTS
 62
     0
440
 16777216
 48
2.0
100
AcDbPoint
 10
684.8692872546449
 20
169.7201497715324
 30
0.0
  0
ENDBLK
  5
7019
330
7017
100
AcDbEntity
  8
0
 48
2.0
100
AcDbBlockEnd
  0
BLOCK
  5
7030
330
702F
100
AcDbEntity
  8
0
 48
2.0
100
AcDbBlockBegin
  2
*D94
 70
     1
 10
0.0
 20
0.0
 30
0.0
  3
*D94
  1

  0
LINE
  5
70C1
330
702F
100
AcDbEntity
  8
SUNPOU
 62
     0
440
 16777216
 48
2.0
370
    -2
100
AcDbLine
 10
662.8692872546448
 20
179.1754082048001
 30
0.0
 11
662.8692872546448
 21
158.8569931701007
 31
0.0
  0
LINE
  5
70C2
330
702F
100
AcDbEntity
  8
SUNPOU
 62
     0
440
 16777216
 48
2.0
370
    -2
100
AcDbLine
 10
711.8692872546451
 20
184.4254082048001
 30
0.0
 11
711.8692872546451
 21
158.8569931701007
 31
0.0
  0
LINE
  5
70C3
330
702F
100
AcDbEntity
  8
SUNPOU
 62
     0
440
 16777216
 48
2.0
370
    -2
100
AcDbLine
 10
663.8692872546449
 20
159.8569931701007
 30
0.0
 11
710.869287254645
 21
159.8569931701007
 31
0.0
  0
INSERT
  5
70C4
330
702F
100
AcDbEntity
  8
SUNPOU
 62
     0
440
 16777216
 48
2.0
370
    -2
100
AcDbBlockReference
  2
Y1
 10
662.8692872546448
 20
159.8569931701007
 30
0.0
 50
180.0
  0
INSERT
  5
70C5
330
702F
100
AcDbEntity
  8
SUNPOU
 62
     0
440
 16777216
 48
2.0
370
    -2
100
AcDbBlockReference
  2
Y1
 10
711.8692872546451
 20
159.8569931701007
 30
0.0
  0
MTEXT
  5
70C6
330
702F
100
AcDbEntity
  8
SUNPOU
 62
     1
440
 16777216
 48
2.0
100
AcDbMText
 10
685.7692872546449
 20
162.3569931701007
 30
0.0
 40
4.0
 41
0.0
 46
0.0
 71
     5
 72
     1
  1
\A1;49
  7
KANJI
 73
     1
 44
1.0
  0
POINT
  5
70C7
330
702F
100
AcDbEntity
  8
DEFPOINTS
 62
     0
440
 16777216
 48
2.0
100
AcDbPoint
 10
662.8692872546448
 20
180.1754082048001
 30
0.0
  0
POINT
  5
70C8
330
702F
100
AcDbEntity
  8
DEFPOINTS
 62
     0
440
 16777216
 48
2.0
100
AcDbPoint
 10
711.8692872546451
 20
185.4254082048001
 30
0.0
  0
POINT
  5
70C9
330
702F
100
AcDbEntity
  8
DEFPOINTS
 62
     0
440
 16777216
 48
2.0
100
AcDbPoint
 10
711.8692872546451
 20
159.8569931701007
 30
0.0
  0
ENDBLK
  5
7031
330
702F
100
AcDbEntity
  8
0
 48
2.0
100
AcDbBlockEnd
  0
BLOCK
  5
70D5
330
70D4
100
AcDbEntity
  8
0
 48
2.0
100
AcDbBlockBegin
  2
*D97
 70
     1
 10
0.0
 20
0.0
 30
0.0
  3
*D97
  1

  0
LINE
  5
70D7
330
70D4
100
AcDbEntity
  8
SUNPOU
 62
     0
440
 16777216
 48
2.0
370
    -2
100
AcDbLine
 10
697.0192872546451
 20
206.9254082048001
 30
0.0
 11
719.8094879828129
 21
206.9254082048002
 31
0.0
  0
LINE
  5
70D8
330
70D4
100
AcDbEntity
  8
SUNPOU
 62
     0
440
 16777216
 48
2.0
370
    -2
100
AcDbLine
 10
697.0192872546451
 20
211.6254082048001
 30
0.0
 11
719.8094879828129
 21
211.6254082048002
 31
0.0
  0
LINE
  5
70D9
330
70D4
100
AcDbEntity
  8
SUNPOU
 62
     0
440
 16777216
 48
2.0
370
    -2
100
AcDbLine
 10
718.8094879828129
 20
207.9254082048002
 30
0.0
 11
718.8094879828129
 21
210.6254082048002
 31
0.0
  0
LINE
  5
70DA
330
70D4
100
AcDbEntity
  8
SUNPOU
 62
     0
440
 16777216
 48
2.0
370
    -2
100
AcDbLine
 10
718.8094879828129
 20
211.6254082048002
 30
0.0
 11
718.8094879828129
 21
222.0063605857526
 31
0.0
  0
INSERT
  5
70DB
330
70D4
100
AcDbEntity
  8
SUNPOU
 62
     0
440
 16777216
 48
2.0
370
    -2
100
AcDbBlockReference
  2
Y1
 10
718.8094879828129
 20
206.9254082048002
 30
0.0
 50
270.0
  0
INSERT
  5
70DC
330
70D4
100
AcDbEntity
  8
SUNPOU
 62
     0
440
 16777216
 48
2.0
370
    -2
100
AcDbBlockReference
  2
Y1
 10
718.8094879828129
 20
211.6254082048002
 30
0.0
 50
90.0
  0
MTEXT
  5
70DD
330
70D4
100
AcDbEntity
  8
SUNPOU
 62
     1
440
 16777216
 48
2.0
100
AcDbMText
 10
721.3094879828128
 20
217.3158843952761
 30
0.0
 40
4.0
 41
0.0
 46
0.0
 71
     5
 72
     1
  1
\A1;4.7
  7
KANJI
 11
0.0000000000000001
 21
1.0
 31
0.0
 73
     1
 44
1.0
  0
POINT
  5
70DE
330
70D4
100
AcDbEntity
  8
DEFPOINTS
 62
     0
440
 16777216
 48
2.0
100
AcDbPoint
 10
696.0192872546452
 20
206.9254082048001
 30
0.0
  0
POINT
  5
70DF
330
70D4
100
AcDbEntity
  8
DEFPOINTS
 62
     0
440
 16777216
 48
2.0
100
AcDbPoint
 10
696.0192872546452
 20
211.6254082048001
 30
0.0
  0
POINT
  5
70E0
330
70D4
100
AcDbEntity
  8
DEFPOINTS
 62
     0
440
 16777216
 48
2.0
100
AcDbPoint
 10
718.8094879828129
 20
211.6254082048002
 30
0.0
  0
ENDBLK
  5
70D6
330
70D4
100
AcDbEntity
  8
0
 48
2.0
100
AcDbBlockEnd
  0
BLOCK
  5
713F
330
713E
100
AcDbEntity
  8
0
 48
2.0
100
AcDbBlockBegin
  2
*D98
 70
     1
 10
0.0
 20
0.0
 30
0.0
  3
*D98
  1

  0
LINE
  5
7153
330
713E
100
AcDbEntity
  8
SUNPOU
 62
     0
440
 16777216
 48
2.0
370
    -2
100
AcDbLine
 10
662.8692872546448
 20
233.474907534426
 30
0.0
 11
662.8692872546448
 21
222.17542122194
 31
0.0
  0
LINE
  5
7154
330
713E
100
AcDbEntity
  8
SUNPOU
 62
     0
440
 16777216
 48
2.0
370
    -2
100
AcDbLine
 10
670.8692872546448
 20
242.4512056339871
 30
0.0
 11
670.8692872546448
 21
222.17542122194
 31
0.0
  0
LINE
  5
7155
330
713E
100
AcDbEntity
  8
SUNPOU
 62
     0
440
 16777216
 48
2.0
370
    -2
100
AcDbLine
 10
663.8692872546449
 20
223.1754212219399
 30
0.0
 11
669.8692872546448
 21
223.1754212219399
 31
0.0
  0
INSERT
  5
7156
330
713E
100
AcDbEntity
  8
SUNPOU
 62
     0
440
 16777216
 48
2.0
370
    -2
100
AcDbBlockReference
  2
Y1
 10
662.8692872546448
 20
223.1754212219399
 30
0.0
 50
180.0
  0
INSERT
  5
7157
330
713E
100
AcDbEntity
  8
SUNPOU
 62
     0
440
 16777216
 48
2.0
370
    -2
100
AcDbBlockReference
  2
Y1
 10
670.8692872546448
 20
223.1754212219399
 30
0.0
  0
MTEXT
  5
7158
330
713E
100
AcDbEntity
  8
SUNPOU
 62
     1
440
 16777216
 48
2.0
100
AcDbMText
 10
667.3903026626908
 20
225.67542122194
 30
0.0
 40
4.0
 41
0.0
 46
0.0
 71
     5
 72
     1
  1
\A1;8
  7
KANJI
 73
     1
 44
1.0
  0
POINT
  5
7159
330
713E
100
AcDbEntity
  8
DEFPOINTS
 62
     0
440
 16777216
 48
2.0
100
AcDbPoint
 10
662.8692872546448
 20
234.474907534426
 30
0.0
  0
POINT
  5
715A
330
713E
100
AcDbEntity
  8
DEFPOINTS
 62
     0
440
 16777216
 48
2.0
100
AcDbPoint
 10
670.8692872546448
 20
243.4512056339871
 30
0.0
  0
POINT
  5
715B
330
713E
100
AcDbEntity
  8
DEFPOINTS
 62
     0
440
 16777216
 48
2.0
100
AcDbPoint
 10
670.8692872546448
 20
223.1754212219399
 30
0.0
  0
ENDBLK
  5
7140
330
713E
100
AcDbEntity
  8
0
 48
2.0
100
AcDbBlockEnd
  0
BLOCK
  5
714B
330
714A
100
AcDbEntity
  8
0
 48
2.0
100
AcDbBlockBegin
  2
*D99
 70
     1
 10
0.0
 20
0.0
 30
0.0
  3
*D99
  1

  0
LINE
  5
715C
330
714A
100
AcDbEntity
  8
SUNPOU
 62
     0
440
 16777216
 48
2.0
370
    -2
100
AcDbLine
 10
646.6979598259381
 20
257.1365671702156
 30
0.0
 11
654.3408169687948
 21
257.1365671702156
 31
0.0
  0
LINE
  5
715D
330
714A
100
AcDbEntity
  8
SUNPOU
 62
     0
440
 16777216
 48
2.0
370
    -2
100
AcDbLine
 10
654.3408169687948
 20
257.1365671702156
 30
0.0
 11
668.5585594554849
 21
245.364458632989
 31
0.0
  0
MTEXT
  5
715E
330
714A
100
AcDbEntity
  8
SUNPOU
440
 16777216
 48
2.0
100
AcDbMText
 10
649.9360550640333
 20
259.6365671702156
 30
0.0
 40
4.0
 41
0.0
 46
0.0
 71
     5
 72
     1
  1
\A1;%%c4
  7
KANJI
 73
     1
 44
1.0
  0
INSERT
  5
715F
330
714A
100
AcDbEntity
  8
SUNPOU
 62
     0
440
 16777216
 48
2.0
370
    -2
100
AcDbBlockReference
  2
Y2
 10
669.3288020552048
 20
244.7267076333216
 30
0.0
 50
320.3756790954187
  0
POINT
  5
7160
330
714A
100
AcDbEntity
  8
DEFPOINTS
 62
     0
440
 16777216
 48
2.0
100
AcDbPoint
 10
669.3288020552048
 20
244.7267076333216
 30
0.0
  0
POINT
  5
7161
330
714A
100
AcDbEntity
  8
DEFPOINTS
 62
     0
440
 16777216
 48
2.0
100
AcDbPoint
 10
670.8692872546448
 20
243.4512056339869
 30
0.0
  0
ENDBLK
  5
714C
330
714A
100
AcDbEntity
  8
0
 48
2.0
100
AcDbBlockEnd
  0
ENDSEC
  0
SECTION
  2
ENTITIES
  0
TEXT
  5
543B
330
17
100
AcDbEntity
  8
WAKU
 62
     2
 48
2.0
100
AcDbText
 10
193.5192252863761
 20
62.91718160307858
 30
0.0
 40
3.5
  1

  7
KANJI
100
AcDbText
  0
TEXT
  5
546E
330
17
100
AcDbEntity
  8
WAKU
 62
     2
 48
2.0
100
AcDbText
 10
35.47912501581027
 20
51.8536756341366
 30
0.0
 40
5.0
  1

  7
KANJI
 72
     4
 11
35.47912501581027
 21
51.8536756341366
 31
0.0
100
AcDbText
  0
TEXT
  5
5474
330
17
100
AcDbEntity
  8
WAKU
 62
     2
 48
2.0
100
AcDbText
 10
32.31338980500527
 20
51.8536756341366
 30
0.0
 40
5.0
  1

  7
KANJI
 72
     4
 11
32.31338980500527
 21
51.8536756341366
 31
0.0
100
AcDbText
  0
TEXT
  5
54B7
330
17
100
AcDbEntity
  8
WAKU
 62
     2
 48
2.0
100
AcDbText
 10
143.3365454996446
 20
31.14678122961322
 30
0.0
 40
3.5
  1

 41
0.8
  7
KANJI
100
AcDbText
  0
TEXT
  5
54FA
330
17
100
AcDbEntity
  8
WAKU
 62
     7
 48
2.0
100
AcDbText
 10
41.12503575410118
 20
50.60484510136053
 30
0.0
 40
3.5
  1

  7
KANJI
100
AcDbText
  0
TEXT
  5
54FB
330
17
100
AcDbEntity
  8
WAKU
 62
     2
 48
2.0
100
AcDbText
 10
41.12503575410118
 20
50.60484510136053
 30
0.0
 40
3.5
  1

  7
KANJI
100
AcDbText
  0
TEXT
  5
54FC
330
17
100
AcDbEntity
  8
WAKU
 62
     2
 48
2.0
100
AcDbText
 10
41.12503575410118
 20
50.60484510136053
 30
0.0
 40
3.5
  1

  7
KANJI
100
AcDbText
  0
LINE
  5
7163
330
17
100
AcDbEntity
  8
C4
100
AcDbLine
 10
543.2214038731695
 20
-54.17938821423916
 30
0.0
 11
521.7214038731695
 21
-54.17938821423916
 31
0.0
  0
LINE
  5
7164
330
17
100
AcDbEntity
  8
C4
100
AcDbLine
 10
538.0214038731694
 20
-48.87938821423907
 30
0.0
 11
522.7214038731695
 21
-48.87938821423924
 31
0.0
  0
LINE
  5
7165
330
17
100
AcDbEntity
  8
C4
100
AcDbLine
 10
496.681123096208
 20
-36.67938821423917
 30
0.0
 11
496.1673298519611
 21
-32.0683141548601
 31
0.0
  0
LINE
  5
7166
330
17
100
AcDbEntity
  8
C4
100
AcDbLine
 10
493.1811230962081
 20
-32.07938821423909
 30
0.0
 11
493.1811230962081
 21
-49.87938821423924
 31
0.0
  0
LINE
  5
7167
330
17
100
AcDbEntity
  8
C4
100
AcDbLine
 10
489.6811230962068
 20
-49.37938821423916
 30
0.0
 11
489.6811230962079
 21
-32.07938821423909
 31
0.0
  0
LINE
  5
7168
330
17
100
AcDbEntity
  8
C4
100
AcDbLine
 10
484.6811230962081
 20
-32.07938821423909
 30
0.0
 11
484.6811230962081
 21
-49.37938821423916
 31
0.0
  0
LINE
  5
7169
330
17
100
AcDbEntity
  8
C4
100
AcDbLine
 10
496.1574211957692
 20
-32.03473403619101
 30
0.0
 11
496.1574211957692
 21
-48.90543138241833
 31
0.0
  0
LINE
  5
716A
330
17
100
AcDbEntity
  8
C4
100
AcDbLine
 10
477.681123096208
 20
-36.67938821423917
 30
0.0
 11
478.194916340455
 21
-32.06831415486006
 31
0.0
  0
LINE
  5
716B
330
17
100
AcDbEntity
  8
C4
100
AcDbLine
 10
481.1811230962081
 20
-49.87938821423918
 30
0.0
 11
481.1811230962081
 21
-32.07938821423906
 31
0.0
  0
LINE
  5
716C
330
17
100
AcDbEntity
  8
C4
100
AcDbLine
 10
478.2048249966469
 20
-32.03473403619087
 30
0.0
 11
478.2048249966469
 21
-48.90543138241833
 31
0.0
  0
LINE
  5
716D
330
17
100
AcDbEntity
  8
C4
100
AcDbLine
 10
496.681123096208
 20
-36.67938821423917
 30
0.0
 11
496.681123096208
 21
-54.17938821423916
 31
0.0
  0
LINE
  5
716E
330
17
100
AcDbEntity
  8
C4
100
AcDbLine
 10
477.681123096208
 20
-36.67938821423917
 30
0.0
 11
477.681123096208
 21
-54.17938821423916
 31
0.0
  0
LINE
  5
716F
330
17
100
AcDbEntity
  8
C4
100
AcDbLine
 10
483.681123096208
 20
-49.37938821423916
 30
0.0
 11
490.681123096208
 21
-49.37938821423916
 31
0.0
  0
LINE
  5
7170
330
17
100
AcDbEntity
  8
C4
100
AcDbLine
 10
493.1811230962081
 20
-49.87938821423924
 30
0.0
 11
481.1811230962081
 21
-49.87938821423918
 31
0.0
  0
LINE
  5
7171
330
17
100
AcDbEntity
  8
C4
100
AcDbLine
 10
477.681123096208
 20
-54.17938821423916
 30
0.0
 11
496.681123096208
 21
-54.17938821423916
 31
0.0
  0
LINE
  5
7172
330
17
100
AcDbEntity
  8
C4
100
AcDbLine
 10
477.681123096208
 20
-54.17938821423916
 30
0.0
 11
478.1725751961571
 21
-48.96999595477959
 31
0.0
  0
ARC
  5
7173
330
17
100
AcDbEntity
  8
C4
100
AcDbCircle
 10
481.081123096208
 20
-48.97938821423915
 30
0.0
 40
0.1
100
AcDbArc
 50
0.0
 51
90.0
  0
ARC
  5
7174
330
17
100
AcDbEntity
  8
C4
100
AcDbCircle
 10
478.2721331464285
 20
-48.97938821423915
 30
0.0
 40
0.1
100
AcDbArc
 50
90.0
 51
174.6106882400258
  0
LINE
  5
7175
330
17
100
AcDbEntity
  8
C4
100
AcDbLine
 10
481.081123096208
 20
-48.87938821423915
 30
0.0
 11
478.2721331464285
 21
-48.87938821423915
 31
0.0
  0
LINE
  5
7176
330
17
100
AcDbEntity
  8
C4
100
AcDbLine
 10
483.681123096208
 20
-49.87938821423916
 30
0.0
 11
483.681123096208
 21
-49.37938821423916
 31
0.0
  0
LINE
  5
7177
330
17
100
AcDbEntity
  8
C4
100
AcDbLine
 10
496.681123096208
 20
-54.17938821423916
 30
0.0
 11
496.189670996259
 21
-48.96999595477962
 31
0.0
  0
LINE
  5
7178
330
17
100
AcDbEntity
  8
C4
100
AcDbLine
 10
496.0901130459876
 20
-48.87938821423919
 30
0.0
 11
493.281123096208
 21
-48.87938821423919
 31
0.0
  0
LINE
  5
7179
330
17
100
AcDbEntity
  8
C4
100
AcDbLine
 10
490.681123096208
 20
-49.37938821423916
 30
0.0
 11
490.681123096208
 21
-49.87938821423916
 31
0.0
  0
ARC
  5
717A
330
17
100
AcDbEntity
  8
C4
100
AcDbCircle
 10
493.281123096208
 20
-48.97938821423918
 30
0.0
 40
0.1
100
AcDbArc
 50
90.0
 51
180.0
  0
ARC
  5
717B
330
17
100
AcDbEntity
  8
C4
100
AcDbCircle
 10
496.0901130459876
 20
-48.97938821423918
 30
0.0
 40
0.1
100
AcDbArc
 50
5.389311759974212
 51
90.0
  0
LINE
  5
717C
330
17
100
AcDbEntity
  8
C4
100
AcDbLine
 10
521.7214038731695
 20
-49.87938821423918
 30
0.0
 11
521.7214038731695
 21
-54.17938821423916
 31
0.0
  0
ARC
  5
717D
330
17
100
AcDbEntity
  8
C4
100
AcDbCircle
 10
522.7214038731695
 20
-49.87938821423918
 30
0.0
 40
1.0
100
AcDbArc
 50
90.0
 51
180.0
  0
LINE
  5
717E
330
17
100
AcDbEntity
  8
C4
100
AcDbLine
 10
489.581123096208
 20
-31.97938821423909
 30
0.0
 11
484.781123096208
 21
-31.97938821423909
 31
0.0
  0
LINE
  5
717F
330
17
100
AcDbEntity
  8
C4
100
AcDbLine
 10
484.6811230962081
 20
-32.97938821423912
 30
0.0
 11
481.1811230962081
 21
-32.97938821423907
 31
0.0
  0
ARC
  5
7180
330
17
100
AcDbEntity
  8
C4
100
AcDbCircle
 10
481.081123096208
 20
-32.07938821423906
 30
0.0
 40
0.1
100
AcDbArc
 50
0.0
 51
90.0
  0
LINE
  5
7181
330
17
100
AcDbEntity
  8
C4
100
AcDbLine
 10
481.081123096208
 20
-31.97938821423907
 30
0.0
 11
478.2943012749716
 21
-31.97938821423907
 31
0.0
  0
ARC
  5
7182
330
17
100
AcDbEntity
  8
C4
100
AcDbCircle
 10
484.781123096208
 20
-32.07938821423909
 30
0.0
 40
0.1
100
AcDbArc
 50
90.0
 51
180.0
  0
LINE
  5
7183
330
17
100
AcDbEntity
  8
C4
100
AcDbLine
 10
496.0679449174445
 20
-31.97938821423909
 30
0.0
 11
493.281123096208
 21
-31.97938821423909
 31
0.0
  0
ARC
  5
7184
330
17
100
AcDbEntity
  8
C4
100
AcDbCircle
 10
493.281123096208
 20
-32.07938821423909
 30
0.0
 40
0.1
100
AcDbArc
 50
90.0
 51
180.0
  0
ARC
  5
7185
330
17
100
AcDbEntity
  8
C4
100
AcDbCircle
 10
489.581123096208
 20
-32.07938821423909
 30
0.0
 40
0.1
100
AcDbArc
 50
0.0
 51
90.0
  0
LINE
  5
7186
330
17
100
AcDbEntity
  8
C4
100
AcDbLine
 10
493.1811230962081
 20
-32.9793882142391
 30
0.0
 11
489.681123096208
 21
-32.9793882142391
 31
0.0
  0
LINE
  5
7187
330
17
100
AcDbEntity
  8
C4
100
AcDbLine
 10
543.7214038731695
 20
-45.8293882142392
 30
0.0
 11
543.7214038731695
 21
-53.67938821423916
 31
0.0
  0
ARC
  5
7188
330
17
100
AcDbEntity
  8
C4
100
AcDbCircle
 10
543.2214038731695
 20
-53.67938821423916
 30
0.0
 40
0.5
100
AcDbArc
 50
270.0
 51
0.0
  0
LINE
  5
7189
330
17
100
AcDbEntity
  8
C4
100
AcDbLine
 10
562.0214038731695
 20
-45.8293882142392
 30
0.0
 11
562.0214038731695
 21
-54.1793882142392
 31
0.0
  0
LINE
  5
718A
330
17
100
AcDbEntity
  8
C4
100
AcDbLine
 10
566.7214038731697
 20
-54.17938821423923
 30
0.0
 11
562.0214038731695
 21
-54.1793882142392
 31
0.0
  0
CIRCLE
  5
718B
330
17
100
AcDbEntity
  8
C4
100
AcDbCircle
 10
529.7214038731694
 20
3.846409214947783
 30
0.0
 40
3.5
  0
LINE
  5
718C
330
17
100
AcDbEntity
  8
C4
100
AcDbLine
 10
566.6660580512178
 20
12.82270731450901
 30
0.0
 11
521.7214038731695
 21
12.82270731450902
 31
0.0
  0
LINE
  5
718D
330
17
100
AcDbEntity
  8
C4
100
AcDbLine
 10
566.6660580512179
 20
-5.129888884613365
 30
0.0
 11
521.7214038731695
 21
-5.129888884613308
 31
0.0
  0
LINE
  5
718E
330
17
100
AcDbEntity
  8
C4
100
AcDbLine
 10
521.7214038731695
 20
9.846409214947755
 30
0.0
 11
566.6214038731697
 21
9.846409214947868
 31
0.0
  0
LINE
  5
718F
330
17
100
AcDbEntity
  8
C4
100
AcDbLine
 10
566.6214038731697
 20
-2.153590785052188
 30
0.0
 11
521.7214038731695
 21
-2.153590785052244
 31
0.0
  0
LINE
  5
7190
330
17
100
AcDbEntity
  8
C4
100
AcDbLine
 10
521.7214038731695
 20
-5.653590785052131
 30
0.0
 11
521.7214038731695
 21
13.3464092149479
 31
0.0
  0
LINE
  5
7191
330
17
100
AcDbEntity
  8
C4
100
AcDbLine
 10
565.7214038731698
 20
6.34640921494784
 30
0.0
 11
565.7214038731698
 21
9.84640921494784
 31
0.0
  0
LINE
  5
7192
330
17
100
AcDbEntity
  8
C4
100
AcDbLine
 10
540.0214038731694
 20
6.346409214947783
 30
0.0
 11
540.0214038731694
 21
9.846409214947755
 31
0.0
  0
LINE
  5
7193
330
17
100
AcDbEntity
  8
C4
100
AcDbLine
 10
566.6214038731697
 20
6.34640921494784
 30
0.0
 11
539.1214038731695
 21
6.34640921494784
 31
0.0
  0
LINE
  5
7194
330
17
100
AcDbEntity
  8
C4
100
AcDbLine
 10
539.1214038731695
 20
1.346409214949915
 30
0.0
 11
566.6214038731697
 21
1.346409214947897
 31
0.0
  0
LINE
  5
7195
330
17
100
AcDbEntity
  8
C4
100
AcDbLine
 10
539.0214038731694
 20
-5.062580734831755
 30
0.0
 11
539.0214038731694
 21
-2.253590785052182
 31
0.0
  0
ARC
  5
7196
330
17
100
AcDbEntity
  8
C4
100
AcDbCircle
 10
539.1214038731695
 20
-5.062580734831755
 30
0.0
 40
0.1
100
AcDbArc
 50
180.0
 51
264.6106882400274
  0
LINE
  5
7197
330
17
100
AcDbEntity
  8
C4
100
AcDbLine
 10
539.0214038731694
 20
1.446409214947863
 30
0.0
 11
539.0214038731694
 21
6.246409214947817
 31
0.0
  0
CIRCLE
  5
7198
330
17
100
AcDbEntity
  8
C4
100
AcDbCircle
 10
529.7214038731694
 20
3.846409214947783
 30
0.0
 40
2.0
  0
ARC
  5
7199
330
17
100
AcDbEntity
  8
C4
100
AcDbCircle
 10
539.1214038731695
 20
1.446409214947863
 30
0.0
 40
0.1
100
AcDbArc
 50
180.0
 51
270.0
  0
ARC
  5
719A
330
17
100
AcDbEntity
  8
C4
100
AcDbCircle
 10
539.1214038731695
 20
-2.253590785052182
 30
0.0
 40
0.1
100
AcDbArc
 50
90.0
 51
180.0
  0
ARC
  5
719B
330
17
100
AcDbEntity
  8
C4
100
AcDbCircle
 10
539.1214038731695
 20
6.246409214947817
 30
0.0
 40
0.1
100
AcDbArc
 50
90.0
 51
180.0
  0
LINE
  5
719C
330
17
100
AcDbEntity
  8
C4
100
AcDbLine
 10
540.0214038731694
 20
-2.153590785052244
 30
0.0
 11
540.0214038731696
 21
1.346409214949858
 31
0.0
  0
LINE
  5
719D
330
17
100
AcDbEntity
  8
C4
100
AcDbLine
 10
566.7214038731698
 20
-5.040412606288604
 30
0.0
 11
566.7214038731698
 21
-2.253590785052182
 31
0.0
  0
LINE
  5
719E
330
17
100
AcDbEntity
  8
C4
100
AcDbLine
 10
566.7214038731698
 20
1.446409214947863
 30
0.0
 11
566.7214038731698
 21
6.246409214947817
 31
0.0
  0
LINE
  5
719F
330
17
100
AcDbEntity
  8
C4
100
AcDbLine
 10
565.7214038731698
 20
-2.153590785052188
 30
0.0
 11
565.7214038731698
 21
1.346409214947897
 31
0.0
  0
ARC
  5
71A0
330
17
100
AcDbEntity
  8
C4
100
AcDbCircle
 10
566.6214038731697
 20
-2.253590785052182
 30
0.0
 40
0.1
100
AcDbArc
 50
0.0
 51
90.0
  0
ARC
  5
71A1
330
17
100
AcDbEntity
  8
C4
100
AcDbCircle
 10
566.6214038731697
 20
1.446409214947863
 30
0.0
 40
0.1
100
AcDbArc
 50
270.0
 51
0.0
  0
ARC
  5
71A2
330
17
100
AcDbEntity
  8
C4
100
AcDbCircle
 10
566.6214038731697
 20
6.246409214947817
 30
0.0
 40
0.1
100
AcDbArc
 50
0.0
 51
90.0
  0
LINE
  5
71A3
330
17
100
AcDbEntity
  8
C4
100
AcDbLine
 10
539.0214038731694
 20
9.946409214947863
 30
0.0
 11
539.0214038731694
 21
12.75539916472738
 31
0.0
  0
ARC
  5
71A4
330
17
100
AcDbEntity
  8
C4
100
AcDbCircle
 10
539.1214038731695
 20
12.75539916472738
 30
0.0
 40
0.1
100
AcDbArc
 50
95.38931175997261
 51
180.0
  0
ARC
  5
71A5
330
17
100
AcDbEntity
  8
C4
100
AcDbCircle
 10
539.1214038731695
 20
9.946409214947863
 30
0.0
 40
0.1
100
AcDbArc
 50
180.0
 51
270.0
  0
ARC
  5
71A6
330
17
100
AcDbEntity
  8
C4
100
AcDbCircle
 10
566.6214038731697
 20
9.946409214947863
 30
0.0
 40
0.1
100
AcDbArc
 50
270.0
 51
0.0
  0
LINE
  5
71A7
330
17
100
AcDbEntity
  8
C4
100
AcDbLine
 10
566.7214038731698
 20
9.946409214947863
 30
0.0
 11
566.7214038731698
 21
12.73323103618423
 31
0.0
  0
ARC
  5
71CA
330
17
100
AcDbEntity
  8
C4
 48
2.0
100
AcDbCircle
 10
552.8714038731695
 20
-45.8293882142392
 30
0.0
 40
9.150000000000114
100
AcDbArc
 50
0.0
 51
180.0
  0
ARC
  5
71CB
330
17
100
AcDbEntity
  8
C4
 48
2.0
100
AcDbCircle
 10
552.8714038731695
 20
-45.8293882142392
 30
0.0
 40
13.85000000000011
100
AcDbArc
 50
359.9999999999984
 51
180.0
  0
LINE
  5
71CD
330
17
100
AcDbEntity
  8
C4
 48
2.0
100
AcDbLine
 10
539.0214038731694
 20
-45.8293882142392
 30
0.0
 11
539.0214038731694
 21
-47.87938821423907
 31
0.0
  0
ARC
  5
71CE
330
17
100
AcDbEntity
  8
C4
 48
2.0
100
AcDbCircle
 10
538.0214038731694
 20
-47.87938821423907
 30
0.0
 40
1.0
100
AcDbArc
 50
270.0000000000008
 51
0.0
  0
LINE
  5
71CF
330
17
100
AcDbEntity
  8
C4
 48
2.0
100
AcDbLine
 10
566.7214038731697
 20
-45.8293882142392
 30
0.0
 11
566.7214038731697
 21
-54.17938821423923
 31
0.0
  0
LINE
  5
71D1
330
17
100
AcDbEntity
  8
C4
100
AcDbLine
 10
684.3692872546448
 20
-54.17938821423916
 30
0.0
 11
662.8692872546448
 21
-54.17938821423916
 31
0.0
  0
LINE
  5
71D2
330
17
100
AcDbEntity
  8
C4
100
AcDbLine
 10
679.1692872546448
 20
-48.87938821423907
 30
0.0
 11
663.8692872546449
 21
-48.87938821423924
 31
0.0
  0
LINE
  5
71D3
330
17
100
AcDbEntity
  8
C4
100
AcDbLine
 10
637.8290064776834
 20
-32.67938821423934
 30
0.0
 11
637.3152132334364
 21
-28.06831415486026
 31
0.0
  0
LINE
  5
71D4
330
17
100
AcDbEntity
  8
C4
100
AcDbLine
 10
634.3290064776834
 20
-28.07938821423926
 30
0.0
 11
634.3290064776834
 21
-49.87938821423924
 31
0.0
  0
LINE
  5
71D5
330
17
100
AcDbEntity
  8
C4
100
AcDbLine
 10
630.8290064776822
 20
-49.37938821423916
 30
0.0
 11
630.8290064776834
 21
-28.07938821423926
 31
0.0
  0
LINE
  5
71D6
330
17
100
AcDbEntity
  8
C4
100
AcDbLine
 10
625.8290064776834
 20
-28.07938821423926
 30
0.0
 11
625.8290064776834
 21
-49.37938821423916
 31
0.0
  0
LINE
  5
71D7
330
17
100
AcDbEntity
  8
C4
100
AcDbLine
 10
637.3053045772446
 20
-28.03473403619128
 30
0.0
 11
637.3053045772446
 21
-48.90543138241833
 31
0.0
  0
LINE
  5
71D8
330
17
100
AcDbEntity
  8
C4
100
AcDbLine
 10
618.8290064776833
 20
-32.67938821423934
 30
0.0
 11
619.3427997219305
 21
-28.06831415486023
 31
0.0
  0
LINE
  5
71D9
330
17
100
AcDbEntity
  8
C4
100
AcDbLine
 10
622.3290064776834
 20
-49.87938821423918
 30
0.0
 11
622.3290064776833
 21
-28.07938821423923
 31
0.0
  0
LINE
  5
71DA
330
17
100
AcDbEntity
  8
C4
100
AcDbLine
 10
619.3527083781224
 20
-28.03473403619107
 30
0.0
 11
619.3527083781223
 21
-48.90543138241833
 31
0.0
  0
LINE
  5
71DB
330
17
100
AcDbEntity
  8
C4
100
AcDbLine
 10
637.8290064776834
 20
-32.67938821423991
 30
0.0
 11
637.8290064776834
 21
-54.17938821423916
 31
0.0
  0
LINE
  5
71DC
330
17
100
AcDbEntity
  8
C4
100
AcDbLine
 10
618.8290064776833
 20
-32.67938821423925
 30
0.0
 11
618.8290064776833
 21
-54.17938821423916
 31
0.0
  0
LINE
  5
71DD
330
17
100
AcDbEntity
  8
C4
100
AcDbLine
 10
624.8290064776833
 20
-49.37938821423916
 30
0.0
 11
631.8290064776833
 21
-49.37938821423916
 31
0.0
  0
LINE
  5
71DE
330
17
100
AcDbEntity
  8
C4
100
AcDbLine
 10
634.3290064776834
 20
-49.87938821423924
 30
0.0
 11
622.3290064776834
 21
-49.87938821423918
 31
0.0
  0
LINE
  5
71DF
330
17
100
AcDbEntity
  8
C4
100
AcDbLine
 10
618.8290064776833
 20
-54.17938821423916
 30
0.0
 11
637.8290064776834
 21
-54.17938821423916
 31
0.0
  0
LINE
  5
71E0
330
17
100
AcDbEntity
  8
C4
100
AcDbLine
 10
618.8290064776833
 20
-54.17938821423916
 30
0.0
 11
619.3204585776324
 21
-48.96999595477959
 31
0.0
  0
ARC
  5
71E1
330
17
100
AcDbEntity
  8
C4
100
AcDbCircle
 10
622.2290064776834
 20
-48.97938821423915
 30
0.0
 40
0.1
100
AcDbArc
 50
0.0
 51
90.0
  0
ARC
  5
71E2
330
17
100
AcDbEntity
  8
C4
100
AcDbCircle
 10
619.4200165279039
 20
-48.97938821423915
 30
0.0
 40
0.1
100
AcDbArc
 50
90.0
 51
174.6106882400258
  0
LINE
  5
71E3
330
17
100
AcDbEntity
  8
C4
100
AcDbLine
 10
622.2290064776834
 20
-48.87938821423915
 30
0.0
 11
619.4200165279039
 21
-48.87938821423915
 31
0.0
  0
LINE
  5
71E4
330
17
100
AcDbEntity
  8
C4
100
AcDbLine
 10
624.8290064776833
 20
-49.87938821423916
 30
0.0
 11
624.8290064776833
 21
-49.37938821423916
 31
0.0
  0
LINE
  5
71E5
330
17
100
AcDbEntity
  8
C4
100
AcDbLine
 10
637.8290064776834
 20
-54.17938821423916
 30
0.0
 11
637.3375543777345
 21
-48.96999595477962
 31
0.0
  0
LINE
  5
71E6
330
17
100
AcDbEntity
  8
C4
100
AcDbLine
 10
637.237996427463
 20
-48.87938821423919
 30
0.0
 11
634.4290064776835
 21
-48.87938821423919
 31
0.0
  0
LINE
  5
71E7
330
17
100
AcDbEntity
  8
C4
100
AcDbLine
 10
631.8290064776833
 20
-49.37938821423916
 30
0.0
 11
631.8290064776833
 21
-49.87938821423916
 31
0.0
  0
ARC
  5
71E8
330
17
100
AcDbEntity
  8
C4
100
AcDbCircle
 10
634.4290064776835
 20
-48.97938821423918
 30
0.0
 40
0.1
100
AcDbArc
 50
90.0
 51
180.0
  0
ARC
  5
71E9
330
17
100
AcDbEntity
  8
C4
100
AcDbCircle
 10
637.237996427463
 20
-48.97938821423918
 30
0.0
 40
0.1
100
AcDbArc
 50
5.389311759974209
 51
90.0
  0
LINE
  5
71EA
330
17
100
AcDbEntity
  8
C4
100
AcDbLine
 10
662.8692872546448
 20
-49.87938821423918
 30
0.0
 11
662.8692872546448
 21
-54.17938821423916
 31
0.0
  0
ARC
  5
71EB
330
17
100
AcDbEntity
  8
C4
100
AcDbCircle
 10
663.8692872546449
 20
-49.87938821423918
 30
0.0
 40
1.0
100
AcDbArc
 50
90.0
 51
180.0
  0
LINE
  5
71EC
330
17
100
AcDbEntity
  8
C4
100
AcDbLine
 10
630.7290064776834
 20
-27.97938821423926
 30
0.0
 11
625.9290064776835
 21
-27.97938821423926
 31
0.0
  0
LINE
  5
71ED
330
17
100
AcDbEntity
  8
C4
100
AcDbLine
 10
625.8290064776834
 20
-28.9793882142393
 30
0.0
 11
622.3290064776834
 21
-28.97938821423924
 31
0.0
  0
ARC
  5
71EE
330
17
100
AcDbEntity
  8
C4
100
AcDbCircle
 10
622.2290064776834
 20
-28.07938821423923
 30
0.0
 40
0.1
100
AcDbArc
 50
0.0
 51
90.0
  0
LINE
  5
71EF
330
17
100
AcDbEntity
  8
C4
100
AcDbLine
 10
622.2290064776834
 20
-27.97938821423924
 30
0.0
 11
619.4421846564471
 21
-27.97938821423924
 31
0.0
  0
ARC
  5
71F0
330
17
100
AcDbEntity
  8
C4
100
AcDbCircle
 10
625.9290064776835
 20
-28.07938821423926
 30
0.0
 40
0.1
100
AcDbArc
 50
90.0
 51
180.0
  0
LINE
  5
71F1
330
17
100
AcDbEntity
  8
C4
100
AcDbLine
 10
637.2158282989198
 20
-27.97938821423926
 30
0.0
 11
634.4290064776835
 21
-27.97938821423926
 31
0.0
  0
ARC
  5
71F2
330
17
100
AcDbEntity
  8
C4
100
AcDbCircle
 10
634.4290064776835
 20
-28.07938821423926
 30
0.0
 40
0.1
100
AcDbArc
 50
90.0
 51
180.0
  0
ARC
  5
71F3
330
17
100
AcDbEntity
  8
C4
100
AcDbCircle
 10
630.7290064776834
 20
-28.07938821423926
 30
0.0
 40
0.1
100
AcDbArc
 50
0.0
 51
90.0
  0
LINE
  5
71F4
330
17
100
AcDbEntity
  8
C4
100
AcDbLine
 10
634.3290064776834
 20
-28.97938821423927
 30
0.0
 11
630.8290064776834
 21
-28.97938821423927
 31
0.0
  0
LINE
  5
71F5
330
17
100
AcDbEntity
  8
C4
100
AcDbLine
 10
684.8692872546449
 20
-43.82938821423934
 30
0.0
 11
684.8692872546449
 21
-53.67938821423916
 31
0.0
  0
ARC
  5
71F6
330
17
100
AcDbEntity
  8
C4
100
AcDbCircle
 10
684.3692872546448
 20
-53.67938821423916
 30
0.0
 40
0.5
100
AcDbArc
 50
270.0
 51
0.0
  0
LINE
  5
71F7
330
17
100
AcDbEntity
  8
C4
100
AcDbLine
 10
707.1692872546449
 20
-43.82938821423934
 30
0.0
 11
707.1692872546449
 21
-54.1793882142392
 31
0.0
  0
LINE
  5
71F8
330
17
100
AcDbEntity
  8
C4
100
AcDbLine
 10
711.8692872546451
 20
-54.17938821423923
 30
0.0
 11
707.1692872546449
 21
-54.1793882142392
 31
0.0
  0
LINE
  5
7219
330
17
100
AcDbEntity
  8
C4
 48
2.0
100
AcDbLine
 10
680.1692872546448
 20
-43.82938821423934
 30
0.0
 11
680.1692872546448
 21
-47.87938821423907
 31
0.0
  0
ARC
  5
721A
330
17
100
AcDbEntity
  8
C4
 48
2.0
100
AcDbCircle
 10
679.1692872546448
 20
-47.87938821423907
 30
0.0
 40
1.0
100
AcDbArc
 50
270.0
 51
0.0
  0
LINE
  5
721B
330
17
100
AcDbEntity
  8
C4
 48
2.0
100
AcDbLine
 10
711.8692872546449
 20
-43.82938821423934
 30
0.0
 11
711.8692872546451
 21
-54.17938821423923
 31
0.0
  0
ARC
  5
721C
330
17
100
AcDbEntity
  8
C4
 48
2.0
100
AcDbCircle
 10
696.0192872546449
 20
-43.82938821423934
 30
0.0
 40
11.15000000000007
100
AcDbArc
 50
0.0
 51
180.0
  0
ARC
  5
721D
330
17
100
AcDbEntity
  8
C4
 48
2.0
100
AcDbCircle
 10
696.0192872546449
 20
-43.82938821423934
 30
0.0
 40
15.85000000000007
100
AcDbArc
 50
0.0
 51
180.0
  0
LINE
  5
721F
330
17
100
AcDbEntity
  8
C4
 48
2.0
100
AcDbLine
 10
521.7214038731695
 20
13.3464092149479
 30
0.0
 11
562.0214038731692
 21
13.3464092149479
 31
0.0
  0
LINE
  5
7220
330
17
100
AcDbEntity
  8
C4
 48
2.0
100
AcDbLine
 10
521.7214038731695
 20
-5.653590785052131
 30
0.0
 11
562.02140387317
 21
-5.653590785052131
 31
0.0
  0
LINE
  5
7221
330
17
100
AcDbEntity
  8
C4
100
AcDbLine
 10
562.0214038731696
 20
-5.653590785052159
 30
0.0
 11
566.6324779325488
 21
-5.139797540805208
 31
0.0
  0
LINE
  5
7222
330
17
100
AcDbEntity
  8
C4
100
AcDbLine
 10
562.0214038731696
 20
13.34640921494784
 30
0.0
 11
566.6324779325488
 21
12.83261597070083
 31
0.0
  0
LINE
  5
7223
330
17
100
AcDbEntity
  8
C4
100
AcDbLine
 10
566.7214038731698
 20
1.446409214947863
 30
0.0
 11
566.7214038731698
 21
6.246409214947817
 31
0.0
  0
LINE
  5
7224
330
17
100
AcDbEntity
  8
C4
100
AcDbLine
 10
565.7214038731697
 20
6.34640921494784
 30
0.0
 11
565.7214038731698
 21
9.84640921494784
 31
0.0
  0
ARC
  5
7225
330
17
100
AcDbEntity
  8
C4
100
AcDbCircle
 10
566.6214038731697
 20
9.946409214947863
 30
0.0
 40
0.1
100
AcDbArc
 50
270.0
 51
0.0
  0
LINE
  5
7226
330
17
100
AcDbEntity
  8
C4
100
AcDbLine
 10
566.7214038731698
 20
9.946409214947863
 30
0.0
 11
566.7214038731698
 21
12.73323103618423
 31
0.0
  0
ARC
  5
7227
330
17
100
AcDbEntity
  8
C4
100
AcDbCircle
 10
566.6214038731697
 20
6.246409214947817
 30
0.0
 40
0.1
100
AcDbArc
 50
0.0
 51
90.0
  0
LINE
  5
7228
330
17
100
AcDbEntity
  8
C4
100
AcDbLine
 10
566.7214038731698
 20
-5.040412606288604
 30
0.0
 11
566.7214038731698
 21
-2.253590785052182
 31
0.0
  0
ARC
  5
7229
330
17
100
AcDbEntity
  8
C4
100
AcDbCircle
 10
566.6214038731697
 20
-2.253590785052182
 30
0.0
 40
0.1
100
AcDbArc
 50
0.0
 51
90.0
  0
ARC
  5
722A
330
17
100
AcDbEntity
  8
C4
100
AcDbCircle
 10
566.6214038731697
 20
1.446409214947863
 30
0.0
 40
0.1
100
AcDbArc
 50
270.0
 51
0.0
  0
LINE
  5
722B
330
17
100
AcDbEntity
  8
C4
100
AcDbLine
 10
565.7214038731698
 20
-2.153590785052159
 30
0.0
 11
565.7214038731698
 21
1.346409214947897
 31
0.0
  0
CIRCLE
  5
722C
330
17
100
AcDbEntity
  8
C4
100
AcDbCircle
 10
670.8692872546448
 20
3.846409214947783
 30
0.0
 40
3.5
  0
LINE
  5
722D
330
17
100
AcDbEntity
  8
C4
100
AcDbLine
 10
711.813941432693
 20
12.82270731450899
 30
0.0
 11
662.8692872546448
 21
12.82270731450902
 31
0.0
  0
LINE
  5
722E
330
17
100
AcDbEntity
  8
C4
100
AcDbLine
 10
711.813941432693
 20
-5.129888884613365
 30
0.0
 11
662.8692872546448
 21
-5.129888884613308
 31
0.0
  0
LINE
  5
722F
330
17
100
AcDbEntity
  8
C4
100
AcDbLine
 10
662.8692872546448
 20
9.846409214947755
 30
0.0
 11
711.769287254645
 21
9.846409214947868
 31
0.0
  0
LINE
  5
7230
330
17
100
AcDbEntity
  8
C4
100
AcDbLine
 10
711.769287254645
 20
-2.153590785052244
 30
0.0
 11
662.8692872546448
 21
-2.153590785052244
 31
0.0
  0
LINE
  5
7231
330
17
100
AcDbEntity
  8
C4
100
AcDbLine
 10
662.8692872546448
 20
-5.653590785052131
 30
0.0
 11
662.8692872546448
 21
13.3464092149479
 31
0.0
  0
LINE
  5
7232
330
17
100
AcDbEntity
  8
C4
100
AcDbLine
 10
710.8692872546449
 20
6.34640921494784
 30
0.0
 11
710.8692872546449
 21
9.84640921494784
 31
0.0
  0
LINE
  5
7233
330
17
100
AcDbEntity
  8
C4
100
AcDbLine
 10
681.1692872546448
 20
6.346409214947783
 30
0.0
 11
681.1692872546448
 21
9.846409214947755
 31
0.0
  0
LINE
  5
7234
330
17
100
AcDbEntity
  8
C4
100
AcDbLine
 10
711.769287254645
 20
6.346409214947811
 30
0.0
 11
680.2692872546448
 21
6.34640921494784
 31
0.0
  0
LINE
  5
7235
330
17
100
AcDbEntity
  8
C4
100
AcDbLine
 10
680.2692872546448
 20
1.346409214949915
 30
0.0
 11
711.769287254645
 21
1.346409214947584
 31
0.0
  0
LINE
  5
7236
330
17
100
AcDbEntity
  8
C4
100
AcDbLine
 10
680.1692872546448
 20
-5.062580734831755
 30
0.0
 11
680.1692872546448
 21
-2.253590785052182
 31
0.0
  0
ARC
  5
7237
330
17
100
AcDbEntity
  8
C4
100
AcDbCircle
 10
680.2692872546448
 20
-5.062580734831755
 30
0.0
 40
0.1
100
AcDbArc
 50
180.0
 51
264.6106882400275
  0
LINE
  5
7238
330
17
100
AcDbEntity
  8
C4
100
AcDbLine
 10
680.1692872546448
 20
1.446409214947863
 30
0.0
 11
680.1692872546448
 21
6.246409214947817
 31
0.0
  0
CIRCLE
  5
7239
330
17
100
AcDbEntity
  8
C4
100
AcDbCircle
 10
670.8692872546448
 20
3.846409214947783
 30
0.0
 40
2.0
  0
ARC
  5
723A
330
17
100
AcDbEntity
  8
C4
100
AcDbCircle
 10
680.2692872546448
 20
1.446409214947863
 30
0.0
 40
0.1
100
AcDbArc
 50
180.0
 51
270.0
  0
ARC
  5
723B
330
17
100
AcDbEntity
  8
C4
100
AcDbCircle
 10
680.2692872546448
 20
-2.253590785052182
 30
0.0
 40
0.1
100
AcDbArc
 50
90.0
 51
180.0
  0
ARC
  5
723C
330
17
100
AcDbEntity
  8
C4
100
AcDbCircle
 10
680.2692872546448
 20
6.246409214947817
 30
0.0
 40
0.1
100
AcDbArc
 50
90.0
 51
180.0
  0
LINE
  5
723D
330
17
100
AcDbEntity
  8
C4
100
AcDbLine
 10
681.1692872546448
 20
-2.153590785052244
 30
0.0
 11
681.1692872546448
 21
1.346409214949858
 31
0.0
  0
LINE
  5
723E
330
17
100
AcDbEntity
  8
C4
100
AcDbLine
 10
711.8692872546449
 20
-5.040412606288604
 30
0.0
 11
711.8692872546449
 21
-2.253590785052182
 31
0.0
  0
LINE
  5
723F
330
17
100
AcDbEntity
  8
C4
100
AcDbLine
 10
711.8692872546449
 20
1.446409214947863
 30
0.0
 11
711.8692872546449
 21
6.246409214947817
 31
0.0
  0
LINE
  5
7240
330
17
100
AcDbEntity
  8
C4
100
AcDbLine
 10
710.8692872546449
 20
-2.153590785052188
 30
0.0
 11
710.8692872546449
 21
1.346409214947897
 31
0.0
  0
ARC
  5
7241
330
17
100
AcDbEntity
  8
C4
100
AcDbCircle
 10
711.769287254645
 20
-2.253590785052182
 30
0.0
 40
0.1
100
AcDbArc
 50
0.0
 51
90.0
  0
ARC
  5
7242
330
17
100
AcDbEntity
  8
C4
100
AcDbCircle
 10
711.769287254645
 20
1.446409214947863
 30
0.0
 40
0.1
100
AcDbArc
 50
270.0
 51
0.0
  0
ARC
  5
7243
330
17
100
AcDbEntity
  8
C4
100
AcDbCircle
 10
711.769287254645
 20
6.246409214947817
 30
0.0
 40
0.1
100
AcDbArc
 50
0.0
 51
90.0
  0
LINE
  5
7244
330
17
100
AcDbEntity
  8
C4
100
AcDbLine
 10
680.1692872546448
 20
9.946409214947863
 30
0.0
 11
680.1692872546448
 21
12.75539916472738
 31
0.0
  0
ARC
  5
7245
330
17
100
AcDbEntity
  8
C4
100
AcDbCircle
 10
680.2692872546448
 20
12.75539916472738
 30
0.0
 40
0.1
100
AcDbArc
 50
95.38931175997253
 51
180.0
  0
ARC
  5
7246
330
17
100
AcDbEntity
  8
C4
100
AcDbCircle
 10
680.2692872546448
 20
9.946409214947863
 30
0.0
 40
0.1
100
AcDbArc
 50
180.0
 51
270.0
  0
ARC
  5
7247
330
17
100
AcDbEntity
  8
C4
100
AcDbCircle
 10
711.769287254645
 20
9.946409214947863
 30
0.0
 40
0.1
100
AcDbArc
 50
270.0
 51
0.0
  0
LINE
  5
7248
330
17
100
AcDbEntity
  8
C4
100
AcDbLine
 10
711.8692872546449
 20
9.946409214947863
 30
0.0
 11
711.8692872546449
 21
12.73323103618423
 31
0.0
  0
LINE
  5
724B
330
17
100
AcDbEntity
  8
C4
 48
2.0
100
AcDbLine
 10
662.8692872546448
 20
13.3464092149479
 30
0.0
 11
707.1692872546443
 21
13.34640921494787
 31
0.0
  0
LINE
  5
724C
330
17
100
AcDbEntity
  8
C4
 48
2.0
100
AcDbLine
 10
662.8692872546448
 20
-5.653590785052131
 30
0.0
 11
707.1692872546454
 21
-5.653590785052131
 31
0.0
  0
LINE
  5
724D
330
17
100
AcDbEntity
  8
C4
100
AcDbLine
 10
707.1692872546449
 20
-5.653590785052159
 30
0.0
 11
711.7803613140239
 21
-5.139797540805208
 31
0.0
  0
LINE
  5
724E
330
17
100
AcDbEntity
  8
C4
100
AcDbLine
 10
707.1692872546449
 20
13.34640921494784
 30
0.0
 11
711.7803613140239
 21
12.83261597070083
 31
0.0
  0
LINE
  5
724F
330
17
100
AcDbEntity
  8
C4
100
AcDbLine
 10
711.8692872546449
 20
1.446409214947863
 30
0.0
 11
711.8692872546449
 21
6.246409214947817
 31
0.0
  0
LINE
  5
7250
330
17
100
AcDbEntity
  8
C4
100
AcDbLine
 10
710.8692872546449
 20
6.34640921494784
 30
0.0
 11
710.8692872546449
 21
9.84640921494784
 31
0.0
  0
ARC
  5
7251
330
17
100
AcDbEntity
  8
C4
100
AcDbCircle
 10
711.769287254645
 20
9.946409214947863
 30
0.0
 40
0.1
100
AcDbArc
 50
270.0
 51
0.0
  0
LINE
  5
7252
330
17
100
AcDbEntity
  8
C4
100
AcDbLine
 10
711.8692872546449
 20
9.946409214947863
 30
0.0
 11
711.8692872546449
 21
12.73323103618423
 31
0.0
  0
ARC
  5
7253
330
17
100
AcDbEntity
  8
C4
100
AcDbCircle
 10
711.769287254645
 20
6.246409214947817
 30
0.0
 40
0.1
100
AcDbArc
 50
0.0
 51
90.0
  0
LINE
  5
7254
330
17
100
AcDbEntity
  8
C4
100
AcDbLine
 10
711.8692872546449
 20
-5.040412606288604
 30
0.0
 11
711.8692872546449
 21
-2.253590785052182
 31
0.0
  0
ARC
  5
7255
330
17
100
AcDbEntity
  8
C4
100
AcDbCircle
 10
711.769287254645
 20
-2.253590785052182
 30
0.0
 40
0.1
100
AcDbArc
 50
0.0
 51
90.0
  0
ARC
  5
7256
330
17
100
AcDbEntity
  8
C4
100
AcDbCircle
 10
711.769287254645
 20
1.446409214947863
 30
0.0
 40
0.1
100
AcDbArc
 50
270.0
 51
0.0
  0
LINE
  5
7257
330
17
100
AcDbEntity
  8
C4
100
AcDbLine
 10
710.8692872546449
 20
-2.153590785052159
 30
0.0
 11
710.8692872546449
 21
1.346409214947897
 31
0.0
  0
LWPOLYLINE
  5
73B7
330
17
100
AcDbEntity
  8
SUNPOU
 48
2.0
100
AcDbPolyline
 90
        4
 70
     1
 43
0.0
 10
447.2779569281729
 20
42.15772304443499
 10
588.4258403096482
 20
42.15772304443499
 10
588.4258403096482
 20
-67.46592267230608
 10
447.2779569281729
 20
-67.46592267230608
  0
TEXT
  5
73B8
330
17
100
AcDbEntity
  8
SUNPOU
100
AcDbText
 10
454.4195150551969
 20
26.69429374904496
 30
0.0
 40
10.0
  1
DSV-14
  7
KANJI
100
AcDbText
  0
LWPOLYLINE
  5
73C3
330
17
100
AcDbEntity
  8
SUNPOU
 48
2.0
100
AcDbPolyline
 90
        4
 70
     1
 43
0.0
 10
588.4258403096482
 20
42.15772304443499
 10
729.5737236911236
 20
42.15772304443499
 10
729.5737236911236
 20
-67.46592267230608
 10
588.4258403096482
 20
-67.46592267230608
  0
TEXT
  5
73C4
330
17
100
AcDbEntity
  8
SUNPOU
100
AcDbText
 10
595.5673984366722
 20
26.69429374904496
 30
0.0
 40
10.0
  1
DSV-16
  7
KANJI
100
AcDbText
  0
LINE
  5
73C6
330
17
100
AcDbEntity
  8
SUNPOU
  6
CENTER
 48
3.0
100
AcDbLine
 10
517.5110196892019
 20
3.846409214947783
 30
0.0
 11
574.6198946868171
 21
3.846409214947783
 31
0.0
  0
ARC
  5
73C7
330
17
100
AcDbEntity
  8
C4
100
AcDbCircle
 10
566.6214038731697
 20
12.73323103618423
 30
0.0
 40
0.1
100
AcDbArc
 50
0.0
 51
83.6419906952811
  0
ARC
  5
73C8
330
17
100
AcDbEntity
  8
C4
100
AcDbCircle
 10
566.6214038731697
 20
-5.040412606288604
 30
0.0
 40
0.1
100
AcDbArc
 50
276.3580093047181
 51
0.0
  0
ARC
  5
73C9
330
17
100
AcDbEntity
  8
C4
100
AcDbCircle
 10
478.2943012749716
 20
-32.07938821423907
 30
0.0
 40
0.1
100
AcDbArc
 50
90.0
 51
173.6419906952809
  0
ARC
  5
73CA
330
17
100
AcDbEntity
  8
C4
100
AcDbCircle
 10
496.0679449174445
 20
-32.0793882142391
 30
0.0
 40
0.1
100
AcDbArc
 50
6.358009304718413
 51
90.0
  0
ARC
  5
73CB
330
17
100
AcDbEntity
  8
C4
100
AcDbCircle
 10
619.4421846564471
 20
-28.07938821423924
 30
0.0
 40
0.1
100
AcDbArc
 50
90.0
 51
173.6419906952796
  0
ARC
  5
73CC
330
17
100
AcDbEntity
  8
C4
100
AcDbCircle
 10
637.2158282989198
 20
-28.07938821423927
 30
0.0
 40
0.1
100
AcDbArc
 50
6.358009304717749
 51
90.0
  0
ARC
  5
73CD
330
17
100
AcDbEntity
  8
C4
100
AcDbCircle
 10
711.7692872546449
 20
12.73323103618423
 30
0.0
 40
0.1
100
AcDbArc
 50
0.0
 51
83.64199069528089
  0
ARC
  5
73CE
330
17
100
AcDbEntity
  8
C4
100
AcDbCircle
 10
711.7692872546449
 20
-5.040412606288604
 30
0.0
 40
0.1
100
AcDbArc
 50
276.3580093047185
 51
0.0
  0
LINE
  5
73CF
330
17
100
AcDbEntity
  8
SUNPOU
  6
CENTER
 48
2.0
100
AcDbLine
 10
529.7046728784132
 20
-0.6535907850522165
 30
0.0
 11
529.7046728784132
 21
8.346409214947783
 31
0.0
  0
LINE
  5
73D0
330
17
100
AcDbEntity
  8
SUNPOU
  6
CENTER
 48
2.0
100
AcDbLine
 10
670.8525562598885
 20
-0.6535907850522165
 30
0.0
 11
670.8525562598885
 21
8.346409214947783
 31
0.0
  0
LINE
  5
73D1
330
17
100
AcDbEntity
  8
SUNPOU
  6
CENTER
 48
3.0
100
AcDbLine
 10
658.6589030706773
 20
3.846409214947783
 30
0.0
 11
715.7677780682925
 21
3.846409214947783
 31
0.0
  0
LINE
  5
73D2
330
17
100
AcDbEntity
  8
SUNPOU
  6
CENTER
 48
3.0
100
AcDbLine
 10
486.9516587781872
 20
-56.17938821423923
 30
0.0
 11
486.9516587781872
 21
-29.37938821423922
 31
0.0
  0
LINE
  5
73D3
330
17
100
AcDbEntity
  8
SUNPOU
  6
CENTER
 48
3.0
100
AcDbLine
 10
628.3290064776833
 20
-56.17938821423923
 30
0.0
 11
628.3290064776833
 21
-25.34959613737556
 31
0.0
  0
ENDSEC
  0
SECTION
  2
OBJECTS
  0
DICTIONARY
  5
C
330
0
100
AcDbDictionary
281
     1
  3
ACAD_CIP_PREVIOUS_PRODUCT_INFO
350
5A38
  3
ACAD_COLOR
350
5A18
  3
ACAD_DETAILVIEWSTYLE
350
5A31
  3
ACAD_GROUP
350
D
  3
ACAD_LAYOUT
350
58D4
  3
ACAD_MATERIAL
350
59E6
  3
ACAD_MLEADERSTYLE
350
5A2D
  3
ACAD_MLINESTYLE
350
1A
  3
ACAD_PLOTSETTINGS
350
58D5
  3
ACAD_PLOTSTYLENAME
350
58D2
  3
ACAD_SCALELIST
350
5A1B
  3
ACAD_SECTIONVIEWSTYLE
350
5A2F
  3
ACAD_TABLESTYLE
350
5A19
  3
ACAD_VISUALSTYLE
350
59FF
  3
ACDB_RECOMPOSE_DATA
350
73EE
  3
ACDBVARIABLEDICTIONARY
350
51
  0
DICTIONARY
  5
6357
330
2
100
AcDbDictionary
280
     1
281
     1
  3
ACAD_LAYERSTATES
360
6358
  0
DICTIONARY
  5
5A3A
330
E
100
AcDbDictionary
280
     1
281
     1
  3
ADSK_XREC_LAYER_RECONCILED
360
5A3B
  0
DICTIONARY
  5
5A3C
330
43
100
AcDbDictionary
280
     1
281
     1
  3
ADSK_XREC_LAYER_RECONCILED
360
5A3D
  0
DICTIONARY
  5
5A3E
330
49
100
AcDbDictionary
280
     1
281
     1
  3
ADSK_XREC_LAYER_RECONCILED
360
5A3F
  0
DICTIONARY
  5
5A40
330
4C
100
AcDbDictionary
280
     1
281
     1
  3
ADSK_XREC_LAYER_RECONCILED
360
5A41
  0
DICTIONARY
  5
634D
330
634C
100
AcDbDictionary
280
     1
281
     1
  0
DICTIONARY
  5
634F
330
634E
100
AcDbDictionary
280
     1
281
     1
  0
DICTIONARY
  5
6351
330
6350
100
AcDbDictionary
280
     1
281
     1
  0
DICTIONARY
  5
6353
330
6352
100
AcDbDictionary
280
     1
281
     1
  0
DICTIONARY
  5
6355
330
6354
100
AcDbDictionary
280
     1
281
     1
  0
DICTIONARY
  5
3F09
330
17
100
AcDbDictionary
280
     1
281
     1
  3
ACAD_SORTENTS
360
3F0A
  0
XRECORD
  5
5A38
102
{ACAD_REACTORS
330
C
102
}
330
C
100
AcDbXrecord
280
     1
300
ACD
300
2023
300

  0
DICTIONARY
  5
5A18
102
{ACAD_REACTORS
330
C
102
}
330
C
100
AcDbDictionary
281
     1
  0
DICTIONARY
  5
5A31
102
{ACAD_REACTORS
330
C
102
}
330
C
100
AcDbDictionary
281
     1
  3
Imperial24
350
5A32
  3
Metric50
350
635A
  0
DICTIONARY
  5
D
102
{ACAD_REACTORS
330
C
102
}
330
C
100
AcDbDictionary
281
     1
  0
DICTIONARY
  5
58D4
102
{ACAD_REACTORS
330
C
102
}
330
C
100
AcDbDictionary
281
     1
  3
Model
350
58D6
  3
ﾚｲｱｳﾄ1
350
58D7
  0
DICTIONARY
  5
59E6
102
{ACAD_REACTORS
330
C
102
}
330
C
100
AcDbDictionary
281
     1
  3
ByBlock
350
59EF
  3
ByLayer
350
59E7
  3
Global
350
59F7
  0
DICTIONARY
  5
5A2D
102
{ACAD_REACTORS
330
C
102
}
330
C
100
AcDbDictionary
281
     1
  3
Standard
350
5A2E
  0
DICTIONARY
  5
1A
102
{ACAD_REACTORS
330
C
102
}
330
C
100
AcDbDictionary
281
     1
  3
STANDARD
350
1B
  0
DICTIONARY
  5
58D5
102
{ACAD_REACTORS
330
C
102
}
330
C
100
AcDbDictionary
281
     1
  0
ACDBDICTIONARYWDFLT
  5
58D2
102
{ACAD_REACTORS
330
C
102
}
330
C
100
AcDbDictionary
281
     1
  3
Normal
350
58D3
100
AcDbDictionaryWithDefault
340
58D3
  0
DICTIONARY
  5
5A1B
102
{ACAD_REACTORS
330
C
102
}
330
C
100
AcDbDictionary
281
     1
  3
A0
350
5A1C
  3
A1
350
5A1D
  3
A2
350
5A1E
  3
A3
350
5A1F
  3
A4
350
5A20
  3
A5
350
5A21
  3
A6
350
5A22
  3
A7
350
5A23
  3
A8
350
5A24
  3
A9
350
5A25
  3
B0
350
5A26
  3
B1
350
5A27
  3
B2
350
5A28
  3
B3
350
5A29
  3
B4
350
5A2A
  3
B5
350
5A2B
  3
B6
350
5A2C
  0
DICTIONARY
  5
5A2F
102
{ACAD_REACTORS
330
C
102
}
330
C
100
AcDbDictionary
281
     1
  3
Imperial24
350
5A30
  3
Metric50
350
6359
  0
DICTIONARY
  5
5A19
102
{ACAD_REACTORS
330
C
102
}
330
C
100
AcDbDictionary
281
     1
  3
Standard
350
5A1A
  0
DICTIONARY
  5
59FF
102
{ACAD_REACTORS
330
C
102
}
330
C
100
AcDbDictionary
281
     1
  3
2dWireframe
350
5A05
  3
Basic
350
5A04
  3
Brighten
350
5A0B
  3
ColorChange
350
5A0F
  3
Conceptual
350
5A08
  3
Dim
350
5A0A
  3
EdgeColorOff
350
5A17
  3
Facepattern
350
5A0E
  3
Flat
350
5A00
  3
FlatWithEdges
350
5A01
  3
Gouraud
350
5A02
  3
GouraudWithEdges
350
5A03
  3
Hidden
350
5A07
  3
JitterOff
350
5A15
  3
Linepattern
350
5A0D
  3
OverhangOff
350
5A16
  3
Realistic
350
5A09
  3
Shaded
350
5A14
  3
Shaded with edges
350
5A13
  3
Shades of Gray
350
5A10
  3
Sketchy
350
5A11
  3
Thicken
350
5A0C
  3
Wireframe
350
5A06
  3
X-Ray
350
5A12
  0
XRECORD
  5
73EE
102
{ACAD_REACTORS
330
C
102
}
330
C
100
AcDbXrecord
280
     1
 90
        1
330
5A1A
  0
DICTIONARY
  5
51
102
{ACAD_REACTORS
330
C
102
}
330
C
100
AcDbDictionary
281
     1
  3
CANNOSCALE
350
73E0
  3
CMLEADERSTYLE
350
73DC
  3
CTABLESTYLE
350
73DB
  3
CVIEWDETAILSTYLE
350
73DD
  3
CVIEWSECTIONSTYLE
350
73DE
  3
DIMADEC
350
52
  3
DIMASSOC
350
58DD
  3
LAYEREVAL
350
73E2
  3
LAYERNOTIFY
350
73E3
  3
LIGHTINGUNITS
350
73E1
  3
MSLTSCALE
350
73DF
  3
SORTENTS
350
3F08
  0
DICTIONARY
  5
6358
102
{ACAD_REACTORS
330
6357
102
}
330
6357
100
AcDbDictionary
281
     1
  0
XRECORD
  5
5A3B
102
{ACAD_REACTORS
330
5A3A
102
}
330
5A3A
100
AcDbXrecord
280
     1
290
     1
  0
XRECORD
  5
5A3D
102
{ACAD_REACTORS
330
5A3C
102
}
330
5A3C
100
AcDbXrecord
280
     1
290
     1
  0
XRECORD
  5
5A3F
102
{ACAD_REACTORS
330
5A3E
102
}
330
5A3E
100
AcDbXrecord
280
     1
290
     1
  0
XRECORD
  5
5A41
102
{ACAD_REACTORS
330
5A40
102
}
330
5A40
100
AcDbXrecord
280
     1
290
     1
  0
SORTENTSTABLE
  5
3F0A
102
{ACAD_REACTORS
330
3F09
102
}
330
3F09
100
AcDbSortentsTable
330
17
331
7166
  5
7167
331
7167
  5
7168
331
7168
  5
7169
331
7169
  5
716A
331
716A
  5
716B
331
716B
  5
716C
331
716C
  5
716D
331
716D
  5
716E
331
716E
  5
716F
331
716F
  5
7170
331
7170
  5
7171
331
7171
  5
7172
331
7172
  5
7173
331
7173
  5
7174
331
7174
  5
7175
331
7175
  5
7176
331
7176
  5
7177
331
7177
  5
7178
331
7178
  5
7179
331
7179
  5
717A
331
717A
  5
717B
331
717B
  5
717C
331
717C
  5
717D
331
717D
  5
717E
331
717E
  5
717F
331
717F
  5
7180
331
7180
  5
7181
331
7181
  5
7182
331
7182
  5
7184
331
7183
  5
7185
331
7184
  5
7186
331
7185
  5
7187
331
7186
  5
7188
331
7187
  5
7189
331
7188
  5
718A
331
7189
  5
718B
331
718A
  5
718C
331
718B
  5
718D
331
718C
  5
718E
331
718D
  5
718F
331
718E
  5
7190
331
718F
  5
7191
331
7190
  5
7192
331
7191
  5
7193
331
7192
  5
7194
331
7193
  5
7195
331
7194
  5
7196
331
7195
  5
7197
331
7196
  5
7198
331
7197
  5
7199
331
7198
  5
719A
331
7199
  5
719B
331
719A
  5
719C
331
719B
  5
719D
331
719C
  5
719E
331
719D
  5
719F
331
719E
  5
71A0
331
719F
  5
71A1
331
71A0
  5
71A2
331
71A1
  5
71A3
331
71A2
  5
71A4
331
71A3
  5
71A5
331
71A4
  5
71A6
331
71A5
  5
71A7
331
71A6
  5
71CA
331
71A7
  5
71CB
331
71CA
  5
71CD
331
71CB
  5
71CE
331
71CD
  5
71CF
331
71CE
  5
71D1
331
71CF
  5
71D2
331
71D1
  5
71D3
331
71D2
  5
71D4
331
71D3
  5
71D5
331
71D4
  5
71D7
331
71D5
  5
71D8
331
71D6
  5
71D9
331
71D7
  5
71DA
331
71D8
  5
71DB
331
71D9
  5
71DD
331
71DA
  5
71DE
331
71DB
  5
71DF
331
71DC
  5
71E0
331
71DD
  5
71E1
331
71DE
  5
71E2
331
71DF
  5
71E3
331
71E0
  5
71E4
331
71E1
  5
71E5
331
71E2
  5
71E6
331
71E3
  5
71E7
331
71E4
  5
71E8
331
71E5
  5
71E9
331
71E6
  5
71EA
331
71E7
  5
71EB
331
71E8
  5
71EC
331
71E9
  5
71ED
331
71EA
  5
71EE
331
71EB
  5
71EF
331
71EC
  5
71F0
331
71ED
  5
71F1
331
71EE
  5
71F2
331
71EF
  5
71F3
331
71F0
  5
71F4
331
71F1
  5
71F5
331
71F2
  5
71F6
331
71F3
  5
71F7
331
71F4
  5
71F8
331
71F5
  5
7219
331
71F6
  5
721A
331
71F7
  5
721B
331
71F8
  5
721C
331
7219
  5
721D
331
721A
  5
721F
331
721B
  5
7220
331
721C
  5
7221
331
721D
  5
7222
331
721F
  5
7223
331
7220
  5
7224
331
7221
  5
7225
331
7222
  5
7226
331
7223
  5
7227
331
7224
  5
7228
331
7225
  5
7229
331
7226
  5
722A
331
7227
  5
722C
331
7228
  5
722D
331
7229
  5
722F
331
722A
  5
7230
331
722B
  5
7231
331
722C
  5
7232
331
722D
  5
7233
331
722E
  5
7234
331
722F
  5
7235
331
7230
  5
7236
331
7231
  5
7237
331
7232
  5
7238
331
7233
  5
7239
331
7234
  5
723A
331
7235
  5
723B
331
7236
  5
723C
331
7237
  5
723D
331
7238
  5
723E
331
7239
  5
723F
331
723A
  5
7240
331
723B
  5
7241
331
723C
  5
7242
331
723D
  5
7243
331
723E
  5
7244
331
723F
  5
7245
331
7240
  5
7246
331
7241
  5
7247
331
7242
  5
7248
331
7243
  5
724B
331
7244
  5
724C
331
7245
  5
724D
331
7246
  5
724E
331
7247
  5
724F
331
7248
  5
7250
331
724B
  5
7251
331
724C
  5
7252
331
724D
  5
7253
331
724E
  5
7254
331
724F
  5
7255
331
7250
  5
7256
331
7251
  5
7257
331
7252
  5
73B7
331
7253
  5
73C3
331
7254
  5
73C4
331
7255
  5
73C7
331
7256
  5
73C8
331
7257
  5
73C9
331
73B7
  5
73CA
331
73B8
  5
73CB
331
73C3
  5
73CC
331
73C4
  5
73CD
331
73C6
  5
73CE
331
73C7
  5
722B
331
73C8
  5
722E
331
73C9
  5
7183
331
73CA
  5
7166
331
73CB
  5
71DC
331
73CC
  5
71D6
331
73CD
  5
73B8
331
73CE
  5
73C6
  0
ACDBDETAILVIEWSTYLE
  5
5A32
102
{ACAD_REACTORS
330
5A31
102
}
330
5A31
100
AcDbModelDocViewStyle
 70
     0
  3
Imperial24
290
     1
300
Imperial24
 90
        0
100
AcDbDetailViewStyle
 70
     0
 71
     0
 90
        3
 71
     1
340
F
 62
   256
 40
0.24
340
0
 62
   256
 40
0.24
300

 40
0.36
280
     3
 71
     2
340
13
 90
       25
 62
   256
 71
     3
340
F
 62
   256
 40
0.24
 90
        1
 40
0.75
 90
        1
300
%<\AcVar ViewType \f "%tc1">% %<\AcVar ViewDetailId>%\PSCALE %<\AcVar ViewScale \f "%sn">%
 71
     4
340
13
 90
       25
 62
   256
340
13
 90
       25
 62
   256
280
     0
  0
ACDBDETAILVIEWSTYLE
  5
635A
102
{ACAD_REACTORS
330
5A31
102
}
330
5A31
100
AcDbModelDocViewStyle
 70
     0
  3
Metric50
290
     0
300
Metric50
 90
        0
100
AcDbDetailViewStyle
 70
     0
 71
     0
 90
        3
 71
     1
340
F
 62
   256
 40
5.0
340
0
 62
   256
 40
5.0
300

 40
0.0
280
     1
 71
     2
340
13
 90
       25
 62
   256
 71
     3
340
F
 62
   256
 40
5.0
 90
        0
 40
15.0
 90
        1
300
%<\AcVar ViewDetailId>% (%<\AcVar ViewScale \f "%sn">%)
 71
     4
340
13
 90
       25
 62
   256
340
13
 90
       25
 62
   256
280
     0
  0
LAYOUT
  5
58D6
102
{ACAD_REACTORS
330
58D4
102
}
330
58D4
100
AcDbPlotSettings
  1

  2
none_device
  4
Letter_(8.50_x_11.00_Inches)
  6

 40
6.349999904632568
 41
6.349999904632568
 42
6.350006103515625
 43
6.350006103515625
 44
215.8999938964844
 45
279.3999938964844
 46
0.0
 47
0.0
 48
0.0
 49
0.0
140
0.0
141
0.0
142
1.0
143
1.0
 70
 11952
 72
     0
 73
     1
 74
     0
  7
INABA-CAD(IKEBE).ctb
 75
     0
147
1.0
 76
     0
 77
     2
 78
   300
148
1817.636430680784
149
953.8695340867224
100
AcDbLayout
  1
Model
 70
     1
 71
     0
 10
0.0
 20
0.0
 11
12.0
 21
9.0
 12
0.0
 22
0.0
 32
0.0
 14
0.0
 24
0.0
 34
0.0
 15
0.0
 25
0.0
 35
0.0
146
0.0
 13
0.0
 23
0.0
 33
0.0
 16
1.0
 26
0.0
 36
0.0
 17
0.0
 27
1.0
 37
0.0
 76
     0
330
17
331
59E4
  0
LAYOUT
  5
58D7
102
{ACAD_REACTORS
330
58D4
102
}
330
58D4
100
AcDbPlotSettings
  1

  2
RICOH IPSiO SP C710e (モノクロ)
  4

  6

 40
0.0
 41
0.0
 42
0.0
 43
0.0
 44
0.0
 45
0.0
 46
0.0
 47
0.0
 48
0.0
 49
0.0
140
0.0
141
0.0
142
1.0
143
1.0
 70
   688
 72
     0
 73
     0
 74
     5
  7
INABA-CAD(IKEBE).ctb
 75
    16
147
1.0
 76
     0
 77
     2
 78
   300
148
0.0
149
0.0
100
AcDbLayout
  1
ﾚｲｱｳﾄ1
 70
     0
 71
     1
 10
0.0
 20
0.0
 11
12.0
 21
9.0
 12
0.0
 22
0.0
 32
0.0
 14
1.000000000000000E+20
 24
1.000000000000000E+20
 34
1.000000000000000E+20
 15
-1.000000000000000E+20
 25
-1.000000000000000E+20
 35
-1.000000000000000E+20
146
0.0
 13
0.0
 23
0.0
 33
0.0
 16
1.0
 26
0.0
 36
0.0
 17
0.0
 27
1.0
 37
0.0
 76
     0
330
14
  0
MATERIAL
  5
59EF
102
{ACAD_XDICTIONARY
360
59F0
102
}
102
{ACAD_REACTORS
330
59E6
102
}
330
59E6
100
AcDbMaterial
  1
ByBlock
 72
     0
 43
0.0208333333333333
 43
0.0
 43
0.0
 43
0.0
 43
0.0
 43
0.0208333333333333
 43
0.0
 43
0.0
 43
0.0
 43
0.0
 43
1.0
 43
0.0
 43
0.0
 43
0.0
 43
0.0
 43
1.0
 77
     0
 47
0.0208333333333333
 47
0.0
 47
0.0
 47
0.0
 47
0.0
 47
0.0208333333333333
 47
0.0
 47
0.0
 47
0.0
 47
0.0
 47
1.0
 47
0.0
 47
0.0
 47
0.0
 47
0.0
 47
1.0
171
     0
 49
0.0208333333333333
 49
0.0
 49
0.0
 49
0.0
 49
0.0
 49
0.0208333333333333
 49
0.0
 49
0.0
 49
0.0
 49
0.0
 49
1.0
 49
0.0
 49
0.0
 49
0.0
 49
0.0
 49
1.0
175
     0
142
0.0208333333333333
142
0.0
142
0.0
142
0.0
142
0.0
142
0.0208333333333333
142
0.0
142
0.0
142
0.0
142
0.0
142
1.0
142
0.0
142
0.0
142
0.0
142
0.0
142
1.0
179
     0
144
0.0208333333333333
144
0.0
144
0.0
144
0.0
144
0.0
144
0.0208333333333333
144
0.0
144
0.0
144
0.0
144
0.0
144
1.0
144
0.0
144
0.0
144
0.0
144
0.0
144
1.0
147
0.0208333333333333
147
0.0
147
0.0
147
0.0
147
0.0
147
0.0208333333333333
147
0.0
147
0.0
147
0.0
147
0.0
147
1.0
147
0.0
147
0.0
147
0.0
147
0.0
147
1.0
  0
MATERIAL
  5
59E7
102
{ACAD_XDICTIONARY
360
59E8
102
}
102
{ACAD_REACTORS
330
59E6
102
}
330
59E6
100
AcDbMaterial
  1
ByLayer
 72
     0
 43
0.0208333333333333
 43
0.0
 43
0.0
 43
0.0
 43
0.0
 43
0.0208333333333333
 43
0.0
 43
0.0
 43
0.0
 43
0.0
 43
1.0
 43
0.0
 43
0.0
 43
0.0
 43
0.0
 43
1.0
 77
     0
 47
0.0208333333333333
 47
0.0
 47
0.0
 47
0.0
 47
0.0
 47
0.0208333333333333
 47
0.0
 47
0.0
 47
0.0
 47
0.0
 47
1.0
 47
0.0
 47
0.0
 47
0.0
 47
0.0
 47
1.0
171
     0
 49
0.0208333333333333
 49
0.0
 49
0.0
 49
0.0
 49
0.0
 49
0.0208333333333333
 49
0.0
 49
0.0
 49
0.0
 49
0.0
 49
1.0
 49
0.0
 49
0.0
 49
0.0
 49
0.0
 49
1.0
175
     0
142
0.0208333333333333
142
0.0
142
0.0
142
0.0
142
0.0
142
0.0208333333333333
142
0.0
142
0.0
142
0.0
142
0.0
142
1.0
142
0.0
142
0.0
142
0.0
142
0.0
142
1.0
179
     0
144
0.0208333333333333
144
0.0
144
0.0
144
0.0
144
0.0
144
0.0208333333333333
144
0.0
144
0.0
144
0.0
144
0.0
144
1.0
144
0.0
144
0.0
144
0.0
144
0.0
144
1.0
147
0.0208333333333333
147
0.0
147
0.0
147
0.0
147
0.0
147
0.0208333333333333
147
0.0
147
0.0
147
0.0
147
0.0
147
1.0
147
0.0
147
0.0
147
0.0
147
0.0
147
1.0
  0
MATERIAL
  5
59F7
102
{ACAD_XDICTIONARY
360
59F8
102
}
102
{ACAD_REACTORS
330
59E6
102
}
330
59E6
100
AcDbMaterial
  1
Global
 72
     0
 43
0.0208333333333333
 43
0.0
 43
0.0
 43
0.0
 43
0.0
 43
0.0208333333333333
 43
0.0
 43
0.0
 43
0.0
 43
0.0
 43
1.0
 43
0.0
 43
0.0
 43
0.0
 43
0.0
 43
1.0
 77
     0
 47
0.0208333333333333
 47
0.0
 47
0.0
 47
0.0
 47
0.0
 47
0.0208333333333333
 47
0.0
 47
0.0
 47
0.0
 47
0.0
 47
1.0
 47
0.0
 47
0.0
 47
0.0
 47
0.0
 47
1.0
171
     0
 49
0.0208333333333333
 49
0.0
 49
0.0
 49
0.0
 49
0.0
 49
0.0208333333333333
 49
0.0
 49
0.0
 49
0.0
 49
0.0
 49
1.0
 49
0.0
 49
0.0
 49
0.0
 49
0.0
 49
1.0
175
     0
142
0.0208333333333333
142
0.0
142
0.0
142
0.0
142
0.0
142
0.0208333333333333
142
0.0
142
0.0
142
0.0
142
0.0
142
1.0
142
0.0
142
0.0
142
0.0
142
0.0
142
1.0
179
     0
144
0.0208333333333333
144
0.0
144
0.0
144
0.0
144
0.0
144
0.0208333333333333
144
0.0
144
0.0
144
0.0
144
0.0
144
1.0
144
0.0
144
0.0
144
0.0
144
0.0
144
1.0
147
0.0208333333333333
147
0.0
147
0.0
147
0.0
147
0.0
147
0.0208333333333333
147
0.0
147
0.0
147
0.0
147
0.0
147
1.0
147
0.0
147
0.0
147
0.0
147
0.0
147
1.0
  0
MLEADERSTYLE
  5
5A2E
102
{ACAD_REACTORS
330
5A2D
102
}
330
5A2D
100
AcDbMLeaderStyle
179
     2
170
     2
171
     1
172
     0
 90
        2
 40
0.0
 41
0.0
173
     1
 91
-1056964608
340
11
 92
       -2
290
     1
 42
0.09
291
     1
 43
0.36
  3
Standard
 44
0.18
300

342
F
174
     1
178
     6
175
     1
176
     0
 93
-1056964608
 45
0.18
292
     0
297
     0
 46
0.18
 94
-1056964608
 47
1.0
 49
1.0
140
1.0
293
     1
141
0.0
294
     1
177
     0
142
1.0
295
     1
296
     0
143
0.125
271
     0
272
     9
273
     9
298
     1
  0
MLINESTYLE
  5
1B
102
{ACAD_REACTORS
330
1A
102
}
330
1A
100
AcDbMlineStyle
  2
STANDARD
 70
     0
  3

 62
   256
 51
90.0
 52
90.0
 71
     2
 49
0.5
 62
   256
  6
BYLAYER
 49
-0.5
 62
   256
  6
BYLAYER
  0
ACDBPLACEHOLDER
  5
58D3
102
{ACAD_REACTORS
330
58D2
102
}
330
58D2
  0
SCALE
  5
5A1C
102
{ACAD_REACTORS
330
5A1B
102
}
330
5A1B
100
AcDbScale
 70
     0
300
1:1
140
1.0
141
1.0
290
     1
  0
SCALE
  5
5A1D
102
{ACAD_REACTORS
330
5A1B
102
}
330
5A1B
100
AcDbScale
 70
     0
300
1/128" = 1'-0"
140
0.0078125
141
12.0
290
     0
  0
SCALE
  5
5A1E
102
{ACAD_REACTORS
330
5A1B
102
}
330
5A1B
100
AcDbScale
 70
     0
300
1/64" = 1'-0"
140
0.015625
141
12.0
290
     0
  0
SCALE
  5
5A1F
102
{ACAD_REACTORS
330
5A1B
102
}
330
5A1B
100
AcDbScale
 70
     0
300
1/32" = 1'-0"
140
0.03125
141
12.0
290
     0
  0
SCALE
  5
5A20
102
{ACAD_REACTORS
330
5A1B
102
}
330
5A1B
100
AcDbScale
 70
     0
300
1/16" = 1'-0"
140
0.0625
141
12.0
290
     0
  0
SCALE
  5
5A21
102
{ACAD_REACTORS
330
5A1B
102
}
330
5A1B
100
AcDbScale
 70
     0
300
3/32" = 1'-0"
140
0.09375
141
12.0
290
     0
  0
SCALE
  5
5A22
102
{ACAD_REACTORS
330
5A1B
102
}
330
5A1B
100
AcDbScale
 70
     0
300
1/8" = 1'-0"
140
0.125
141
12.0
290
     0
  0
SCALE
  5
5A23
102
{ACAD_REACTORS
330
5A1B
102
}
330
5A1B
100
AcDbScale
 70
     0
300
3/16" = 1'-0"
140
0.1875
141
12.0
290
     0
  0
SCALE
  5
5A24
102
{ACAD_REACTORS
330
5A1B
102
}
330
5A1B
100
AcDbScale
 70
     0
300
1/4" = 1'-0"
140
0.25
141
12.0
290
     0
  0
SCALE
  5
5A25
102
{ACAD_REACTORS
330
5A1B
102
}
330
5A1B
100
AcDbScale
 70
     0
300
3/8" = 1'-0"
140
0.375
141
12.0
290
     0
  0
SCALE
  5
5A26
102
{ACAD_REACTORS
330
5A1B
102
}
330
5A1B
100
AcDbScale
 70
     0
300
1/2" = 1'-0"
140
0.5
141
12.0
290
     0
  0
SCALE
  5
5A27
102
{ACAD_REACTORS
330
5A1B
102
}
330
5A1B
100
AcDbScale
 70
     0
300
3/4" = 1'-0"
140
0.75
141
12.0
290
     0
  0
SCALE
  5
5A28
102
{ACAD_REACTORS
330
5A1B
102
}
330
5A1B
100
AcDbScale
 70
     0
300
1" = 1'-0"
140
1.0
141
12.0
290
     0
  0
SCALE
  5
5A29
102
{ACAD_REACTORS
330
5A1B
102
}
330
5A1B
100
AcDbScale
 70
     0
300
1-1/2" = 1'-0"
140
1.5
141
12.0
290
     0
  0
SCALE
  5
5A2A
102
{ACAD_REACTORS
330
5A1B
102
}
330
5A1B
100
AcDbScale
 70
     0
300
3" = 1'-0"
140
3.0
141
12.0
290
     0
  0
SCALE
  5
5A2B
102
{ACAD_REACTORS
330
5A1B
102
}
330
5A1B
100
AcDbScale
 70
     0
300
6" = 1'-0"
140
6.0
141
12.0
290
     0
  0
SCALE
  5
5A2C
102
{ACAD_REACTORS
330
5A1B
102
}
330
5A1B
100
AcDbScale
 70
     0
300
1'-0" = 1'-0"
140
12.0
141
12.0
290
     0
  0
ACDBSECTIONVIEWSTYLE
  5
5A30
102
{ACAD_REACTORS
330
5A2F
102
}
330
5A2F
100
AcDbModelDocViewStyle
 70
     0
  3
Imperial24
290
     1
300
Imperial24
 90
        0
100
AcDbSectionViewStyle
 70
     0
 71
     0
 90
       78
 71
     1
340
F
 62
   256
 40
0.24
340
0
340
0
 62
   256
 40
0.24
300
I, O, Q, S, X, Z
 40
0.48
 90
        3
 40
0.18
 90
        1
 71
     2
340
13
 90
       25
 62
   256
340
13
 90
       50
 62
   256
 40
0.24
 40
0.0
 40
0.24
 71
     3
340
F
 62
   256
 40
0.24
 90
        1
 40
0.75
 90
        1
300
%<\AcVar ViewType \f "%tc1">% %<\AcVar ViewSectionStartId>%-%<\AcVar ViewSectionEndId>%\PSCALE %<\AcVar ViewScale \f "%sn">%
 71
     4
 62
   256
 62
   257
300
ANSI31
 40
1.0
 90
        0
290
     0
290
     0
 90
        6
 40
0.0
 40
1.570796326794896
 40
0.2617993877991494
 40
1.308996938995747
 40
-0.2617993877991494
 40
1.832595714594046
  0
ACDBSECTIONVIEWSTYLE
  5
6359
102
{ACAD_REACTORS
330
5A2F
102
}
330
5A2F
100
AcDbModelDocViewStyle
 70
     0
  3
Metric50
290
     0
300
Metric50
 90
        0
100
AcDbSectionViewStyle
 70
     0
 71
     0
 90
      102
 71
     1
340
F
 62
   256
 40
5.0
340
0
340
0
 62
   256
 40
5.0
300
I, O, Q, S, X, Z
 40
10.0
 90
        0
 40
2.5
 90
        0
 71
     2
340
13
 90
       25
 62
   256
340
13
 90
       50
 62
   256
 40
5.0
 40
2.5
 40
5.0
 71
     3
340
F
 62
   256
 40
5.0
 90
        0
 40
15.0
 90
        1
300
%<\AcVar ViewSectionStartId>%-%<\AcVar ViewSectionEndId>% (%<\AcVar ViewScale \f "%sn">%)
 71
     4
 62
   256
 62
   257
300
ANSI31
 40
1.0
 90
        0
290
     0
290
     0
 90
        6
 40
0.0
 40
1.570796326794896
 40
0.2617993877991494
 40
1.308996938995747
 40
-0.2617993877991494
 40
1.832595714594046
  0
TABLESTYLE
  5
5A1A
102
{ACAD_XDICTIONARY
360
73EC
102
}
102
{ACAD_REACTORS
330
5A19
102
}
330
5A19
100
AcDbTableStyle
280
     0
  3
Standard
 70
     0
 71
     0
 40
0.06
 41
0.06
280
     0
281
     0
  7
STANDARD
140
0.18
170
     2
 62
     0
 63
     7
283
     0
 90
      512
 91
        0
  1

274
    -2
284
     1
 64
     0
275
    -2
285
     1
 65
     0
276
    -2
286
     1
 66
     0
277
    -2
287
     1
 67
     0
278
    -2
288
     1
 68
     0
279
    -2
289
     1
 69
     0
  7
STANDARD
140
0.25
170
     5
 62
     0
 63
     7
283
     0
 90
      512
 91
        0
  1

274
    -2
284
     1
 64
     0
275
    -2
285
     1
 65
     0
276
    -2
286
     1
 66
     0
277
    -2
287
     1
 67
     0
278
    -2
288
     1
 68
     0
279
    -2
289
     1
 69
     0
  7
STANDARD
140
0.18
170
     5
 62
     0
 63
     7
283
     0
 90
      512
 91
        0
  1

274
    -2
284
     1
 64
     0
275
    -2
285
     1
 65
     0
276
    -2
286
     1
 66
     0
277
    -2
287
     1
 67
     0
278
    -2
288
     1
 68
     0
279
    -2
289
     1
 69
     0
  0
VISUALSTYLE
  5
5A05
102
{ACAD_REACTORS
330
59FF
102
}
330
59FF
100
AcDbVisualStyle
  2
2dWireframe
 70
     4
177
     3
291
     0
 70
    58
 90
        0
176
     1
 90
        2
176
     1
 90
        0
176
     1
 90
        0
176
     1
 40
0.6
176
     1
 40
30.0
176
     1
 62
     7
420
 16777215
176
     1
 90
        1
176
     1
 90
        4
176
     1
 62
     7
176
     1
 62
   257
176
     1
 90
        1
176
     1
 90
        1
176
     1
 40
1.0
176
     1
 90
        0
176
     1
 62
   257
176
     1
 40
1.0
176
     1
 90
        1
176
     1
 90
        6
176
     1
 90
        2
176
     1
 62
     7
176
     1
 90
        5
176
     1
 90
        0
176
     1
 90
        0
176
     1
290
     0
176
     1
 90
        1
176
     1
 40
0.0
176
     1
 90
        0
176
     1
290
     1
176
     1
290
     1
176
     1
290
     0
176
     1
290
     0
176
     1
290
     0
176
     1
290
     0
176
     1
290
     0
176
     1
290
     0
176
     1
290
     0
176
     1
 90
       50
176
     1
 40
0.0
176
     1
 40
1.0
176
     1
 90
        0
176
     1
 62
    18
420
        0
176
     1
 90
       50
176
     1
 90
        3
176
     1
 62
     5
420
      255
176
     1
290
     0
176
     1
 90
       50
176
     1
 90
       50
176
     1
 90
       50
176
     1
290
     0
176
     1
 90
       50
176
     1
 62
   256
176
     0
 40
1.0
176
     0
 90
        2
176
     1
  1
strokes_ogs.tif
176
     1
290
     0
176
     1
 40
1.0
176
     1
 40
1.0
176
     1
  0
VISUALSTYLE
  5
5A04
102
{ACAD_REACTORS
330
59FF
102
}
330
59FF
100
AcDbVisualStyle
  2
Basic
 70
     7
177
     3
291
     1
 70
    58
 90
        1
176
     1
 90
        0
176
     1
 90
        1
176
     1
 90
        0
176
     1
 40
0.6
176
     1
 40
30.0
176
     1
 62
     7
420
 16777215
176
     1
 90
        0
176
     1
 90
        4
176
     1
 62
     7
176
     1
 62
   257
176
     1
 90
        1
176
     1
 90
        1
176
     1
 40
1.0
176
     1
 90
        8
176
     1
 62
     7
176
     1
 40
1.0
176
     1
 90
        1
176
     1
 90
        6
176
     1
 90
        2
176
     1
 62
     7
176
     1
 90
        5
176
     1
 90
        0
176
     1
 90
        0
176
     1
290
     0
176
     1
 90
        1
176
     1
 40
0.0
176
     1
 90
        0
176
     1
290
     0
176
     1
290
     1
176
     1
290
     1
176
     1
290
     0
176
     1
290
     0
176
     1
290
     0
176
     1
290
     0
176
     1
290
     0
176
     1
290
     0
176
     1
 90
       50
176
     1
 40
0.0
176
     1
 40
1.0
176
     1
 90
        0
176
     1
 62
    18
420
        0
176
     1
 90
       50
176
     1
 90
        3
176
     1
 62
     5
420
      255
176
     1
290
     0
176
     1
 90
       50
176
     1
 90
       50
176
     1
 90
       50
176
     1
290
     0
176
     1
 90
       50
176
     1
 62
   256
176
     0
 40
1.0
176
     0
 90
        2
176
     1
  1
strokes_ogs.tif
176
     1
290
     0
176
     1
 40
1.0
176
     1
 40
1.0
176
     1
  0
VISUALSTYLE
  5
5A0B
102
{ACAD_REACTORS
330
59FF
102
}
330
59FF
100
AcDbVisualStyle
  2
Brighten
 70
    12
177
     3
291
     1
 70
    58
 90
        2
176
     1
 90
        2
176
     1
 90
        0
176
     1
 90
        0
176
     1
 40
0.6
176
     1
 40
30.0
176
     1
 62
     7
420
 16777215
176
     1
 90
        1
176
     1
 90
        4
176
     1
 62
     7
176
     1
 62
   257
176
     1
 90
        1
176
     1
 90
        1
176
     1
 40
1.0
176
     1
 90
        8
176
     1
 62
     7
176
     1
 40
1.0
176
     1
 90
        1
176
     1
 90
        6
176
     1
 90
        2
176
     1
 62
     7
176
     1
 90
        5
176
     1
 90
        0
176
     1
 90
        0
176
     1
290
     0
176
     1
 90
        1
176
     1
 40
50.0
176
     1
 90
        0
176
     1
290
     0
176
     1
290
     1
176
     1
290
     1
176
     1
290
     0
176
     1
290
     0
176
     1
290
     0
176
     1
290
     0
176
     1
290
     0
176
     1
290
     0
176
     1
 90
       50
176
     1
 40
0.0
176
     1
 40
1.0
176
     1
 90
        0
176
     1
 62
    18
420
        0
176
     1
 90
       50
176
     1
 90
        3
176
     1
 62
     5
420
      255
176
     1
290
     0
176
     1
 90
       50
176
     1
 90
       50
176
     1
 90
       50
176
     1
290
     0
176
     1
 90
       50
176
     1
 62
   256
176
     0
 40
1.0
176
     0
 90
        2
176
     1
  1
strokes_ogs.tif
176
     1
290
     0
176
     1
 40
1.0
176
     1
 40
1.0
176
     1
  0
VISUALSTYLE
  5
5A0F
102
{ACAD_REACTORS
330
59FF
102
}
330
59FF
100
AcDbVisualStyle
  2
ColorChange
 70
    16
177
     3
291
     1
 70
    58
 90
        2
176
     1
 90
        2
176
     1
 90
        3
176
     1
 90
        0
176
     1
 40
0.6
176
     1
 40
30.0
176
     1
 62
     8
420
  8421504
176
     1
 90
        1
176
     1
 90
        4
176
     1
 62
     7
176
     1
 62
   257
176
     1
 90
        1
176
     1
 90
        1
176
     1
 40
1.0
176
     1
 90
        8
176
     1
 62
     8
420
  8421504
176
     1
 40
1.0
176
     1
 90
        1
176
     1
 90
        6
176
     1
 90
        2
176
     1
 62
     7
176
     1
 90
        5
176
     1
 90
        0
176
     1
 90
        0
176
     1
290
     0
176
     1
 90
        1
176
     1
 40
0.0
176
     1
 90
        0
176
     1
290
     0
176
     1
290
     1
176
     1
290
     1
176
     1
290
     0
176
     1
290
     0
176
     1
290
     0
176
     1
290
     0
176
     1
290
     0
176
     1
290
     0
176
     1
 90
       50
176
     1
 40
0.0
176
     1
 40
1.0
176
     1
 90
        0
176
     1
 62
    18
420
        0
176
     1
 90
       50
176
     1
 90
        3
176
     1
 62
     5
420
      255
176
     1
290
     0
176
     1
 90
       50
176
     1
 90
       50
176
     1
 90
       50
176
     1
290
     0
176
     1
 90
       50
176
     1
 62
   256
176
     0
 40
1.0
176
     0
 90
        2
176
     1
  1
strokes_ogs.tif
176
     1
290
     0
176
     1
 40
1.0
176
     1
 40
1.0
176
     1
  0
VISUALSTYLE
  5
5A08
102
{ACAD_REACTORS
330
59FF
102
}
330
59FF
100
AcDbVisualStyle
  2
Conceptual
 70
     9
177
     3
291
     0
 70
    58
 90
        3
176
     1
 90
        2
176
     1
 90
        0
176
     1
 90
        0
176
     1
 40
0.6
176
     1
 40
30.0
176
     1
 62
     7
420
 16777215
176
     1
 90
        2
176
     1
 90
        2
176
     1
 62
     7
176
     1
 62
   257
176
     1
 90
        1
176
     1
 90
        1
176
     1
 40
179.0
176
     1
 90
        8
176
     1
 62
     7
176
     1
 40
1.0
176
     1
 90
        1
176
     1
 90
        6
176
     1
 90
        2
176
     1
 62
     7
176
     1
 90
        3
176
     1
 90
        0
176
     1
 90
        0
176
     1
290
     0
176
     1
 90
        1
176
     1
 40
0.0
176
     1
 90
        0
176
     1
290
     0
176
     1
290
     1
176
     1
290
     1
176
     1
290
     0
176
     1
290
     0
176
     1
290
     0
176
     1
290
     0
176
     1
290
     0
176
     1
290
     0
176
     1
 90
       50
176
     1
 40
0.0
176
     1
 40
1.0
176
     1
 90
        0
176
     1
 62
    18
420
        0
176
     1
 90
       50
176
     1
 90
        3
176
     1
 62
     5
420
      255
176
     1
290
     0
176
     1
 90
       50
176
     1
 90
       50
176
     1
 90
       50
176
     1
290
     0
176
     1
 90
       50
176
     1
 62
   256
176
     0
 40
1.0
176
     0
 90
        2
176
     1
  1
strokes_ogs.tif
176
     1
290
     0
176
     1
 40
1.0
176
     1
 40
1.0
176
     1
  0
VISUALSTYLE
  5
5A0A
102
{ACAD_REACTORS
330
59FF
102
}
330
59FF
100
AcDbVisualStyle
  2
Dim
 70
    11
177
     3
291
     1
 70
    58
 90
        2
176
     1
 90
        2
176
     1
 90
        0
176
     1
 90
        0
176
     1
 40
0.6
176
     1
 40
30.0
176
     1
 62
     7
420
 16777215
176
     1
 90
        1
176
     1
 90
        4
176
     1
 62
     7
176
     1
 62
   257
176
     1
 90
        1
176
     1
 90
        1
176
     1
 40
1.0
176
     1
 90
        8
176
     1
 62
     7
176
     1
 40
1.0
176
     1
 90
        1
176
     1
 90
        6
176
     1
 90
        2
176
     1
 62
     7
176
     1
 90
        5
176
     1
 90
        0
176
     1
 90
        0
176
     1
290
     0
176
     1
 90
        1
176
     1
 40
-50.0
176
     1
 90
        0
176
     1
290
     0
176
     1
290
     1
176
     1
290
     1
176
     1
290
     0
176
     1
290
     0
176
     1
290
     0
176
     1
290
     0
176
     1
290
     0
176
     1
290
     0
176
     1
 90
       50
176
     1
 40
0.0
176
     1
 40
1.0
176
     1
 90
        0
176
     1
 62
    18
420
        0
176
     1
 90
       50
176
     1
 90
        3
176
     1
 62
     5
420
      255
176
     1
290
     0
176
     1
 90
       50
176
     1
 90
       50
176
     1
 90
       50
176
     1
290
     0
176
     1
 90
       50
176
     1
 62
   256
176
     0
 40
1.0
176
     0
 90
        2
176
     1
  1
strokes_ogs.tif
176
     1
290
     0
176
     1
 40
1.0
176
     1
 40
1.0
176
     1
  0
VISUALSTYLE
  5
5A17
102
{ACAD_REACTORS
330
59FF
102
}
330
59FF
100
AcDbVisualStyle
  2
EdgeColorOff
 70
    22
177
     3
291
     1
 70
    58
 90
        2
176
     0
 90
        2
176
     0
 90
        0
176
     0
 90
        0
176
     0
 40
0.6
176
     0
 40
30.0
176
     0
 62
     7
420
 16777215
176
     0
 90
        1
176
     0
 90
        4
176
     0
 62
     7
176
     0
 62
   257
176
     0
 90
        1
176
     0
 90
        1
176
     0
 40
1.0
176
     0
 90
        8
176
     2
 62
     7
176
     0
 40
1.0
176
     0
 90
        1
176
     0
 90
        6
176
     0
 90
        2
176
     0
 62
     7
176
     0
 90
        5
176
     0
 90
        0
176
     0
 90
        0
176
     0
290
     0
176
     0
 90
        1
176
     0
 40
0.0
176
     0
 90
        0
176
     0
290
     0
176
     0
290
     1
176
     0
290
     1
176
     0
290
     0
176
     0
290
     0
176
     0
290
     0
176
     0
290
     0
176
     0
290
     0
176
     0
290
     0
176
     0
 90
       50
176
     0
 40
0.0
176
     0
 40
1.0
176
     0
 90
        0
176
     0
 62
    18
420
        0
176
     0
 90
       50
176
     0
 90
        3
176
     0
 62
     5
420
      255
176
     0
290
     0
176
     0
 90
       50
176
     0
 90
       50
176
     0
 90
       50
176
     0
290
     0
176
     0
 90
       50
176
     0
 62
   256
176
     0
 40
1.0
176
     0
 90
        2
176
     0
  1
strokes_ogs.tif
176
     0
290
     0
176
     0
 40
1.0
176
     0
 40
1.0
176
     0
  0
VISUALSTYLE
  5
5A0E
102
{ACAD_REACTORS
330
59FF
102
}
330
59FF
100
AcDbVisualStyle
  2
Facepattern
 70
    15
177
     3
291
     1
 70
    58
 90
        2
176
     1
 90
        2
176
     1
 90
        0
176
     1
 90
        0
176
     1
 40
0.6
176
     1
 40
30.0
176
     1
 62
     7
420
 16777215
176
     1
 90
        1
176
     1
 90
        4
176
     1
 62
     7
176
     1
 62
   257
176
     1
 90
        1
176
     1
 90
        1
176
     1
 40
1.0
176
     1
 90
        8
176
     1
 62
     7
176
     1
 40
1.0
176
     1
 90
        1
176
     1
 90
        6
176
     1
 90
        2
176
     1
 62
     7
176
     1
 90
        5
176
     1
 90
        0
176
     1
 90
        0
176
     1
290
     0
176
     1
 90
        1
176
     1
 40
0.0
176
     1
 90
        0
176
     1
290
     0
176
     1
290
     1
176
     1
290
     1
176
     1
290
     0
176
     1
290
     0
176
     1
290
     0
176
     1
290
     0
176
     1
290
     0
176
     1
290
     0
176
     1
 90
       50
176
     1
 40
0.0
176
     1
 40
1.0
176
     1
 90
        0
176
     1
 62
    18
420
        0
176
     1
 90
       50
176
     1
 90
        3
176
     1
 62
     5
420
      255
176
     1
290
     0
176
     1
 90
       50
176
     1
 90
       50
176
     1
 90
       50
176
     1
290
     0
176
     1
 90
       50
176
     1
 62
   256
176
     0
 40
1.0
176
     0
 90
        2
176
     1
  1
strokes_ogs.tif
176
     1
290
     0
176
     1
 40
1.0
176
     1
 40
1.0
176
     1
  0
VISUALSTYLE
  5
5A00
102
{ACAD_REACTORS
330
59FF
102
}
330
59FF
100
AcDbVisualStyle
  2
Flat
 70
     0
177
     3
291
     1
 70
    58
 90
        2
176
     1
 90
        1
176
     1
 90
        1
176
     1
 90
        2
176
     1
 40
0.6
176
     1
 40
30.0
176
     1
 62
     7
420
 16777215
176
     1
 90
        0
176
     1
 90
        0
176
     1
 62
     7
176
     1
 62
   257
176
     1
 90
        1
176
     1
 90
        1
176
     1
 40
1.0
176
     1
 90
        8
176
     1
 62
     7
176
     1
 40
1.0
176
     1
 90
        1
176
     1
 90
        6
176
     1
 90
        2
176
     1
 62
     7
176
     1
 90
        5
176
     1
 90
        0
176
     1
 90
        0
176
     1
290
     0
176
     1
 90
       13
176
     1
 40
0.0
176
     1
 90
        0
176
     1
290
     0
176
     1
290
     1
176
     1
290
     1
176
     1
290
     0
176
     1
290
     0
176
     1
290
     0
176
     1
290
     0
176
     1
290
     0
176
     1
290
     0
176
     1
 90
       50
176
     1
 40
0.0
176
     1
 40
1.0
176
     1
 90
        0
176
     1
 62
    18
420
        0
176
     1
 90
       50
176
     1
 90
        3
176
     1
 62
     5
420
      255
176
     1
290
     0
176
     1
 90
       50
176
     1
 90
       50
176
     1
 90
       50
176
     1
290
     0
176
     1
 90
       50
176
     1
 62
   256
176
     0
 40
1.0
176
     0
 90
        2
176
     1
  1
strokes_ogs.tif
176
     1
290
     0
176
     1
 40
1.0
176
     1
 40
1.0
176
     1
  0
VISUALSTYLE
  5
5A01
102
{ACAD_REACTORS
330
59FF
102
}
330
59FF
100
AcDbVisualStyle
  2
FlatWithEdges
 70
     1
177
     3
291
     1
 70
    58
 90
        2
176
     1
 90
        1
176
     1
 90
        1
176
     1
 90
        2
176
     1
 40
0.6
176
     1
 40
30.0
176
     1
 62
     7
420
 16777215
176
     1
 90
        1
176
     1
 90
        0
176
     1
 62
     7
176
     1
 62
   257
176
     1
 90
        1
176
     1
 90
        1
176
     1
 40
1.0
176
     1
 90
        0
176
     1
 62
   257
176
     1
 40
1.0
176
     1
 90
        1
176
     1
 90
        6
176
     1
 90
        2
176
     1
 62
     7
176
     1
 90
        5
176
     1
 90
        0
176
     1
 90
        0
176
     1
290
     0
176
     1
 90
       13
176
     1
 40
0.0
176
     1
 90
        0
176
     1
290
     0
176
     1
290
     1
176
     1
290
     1
176
     1
290
     0
176
     1
290
     0
176
     1
290
     0
176
     1
290
     0
176
     1
290
     0
176
     1
290
     0
176
     1
 90
       50
176
     1
 40
0.0
176
     1
 40
1.0
176
     1
 90
        0
176
     1
 62
    18
420
        0
176
     1
 90
       50
176
     1
 90
        3
176
     1
 62
     5
420
      255
176
     1
290
     0
176
     1
 90
       50
176
     1
 90
       50
176
     1
 90
       50
176
     1
290
     0
176
     1
 90
       50
176
     1
 62
   256
176
     0
 40
1.0
176
     0
 90
        2
176
     1
  1
strokes_ogs.tif
176
     1
290
     0
176
     1
 40
1.0
176
     1
 40
1.0
176
     1
  0
VISUALSTYLE
  5
5A02
102
{ACAD_REACTORS
330
59FF
102
}
330
59FF
100
AcDbVisualStyle
  2
Gouraud
 70
     2
177
     3
291
     1
 70
    58
 90
        2
176
     1
 90
        2
176
     1
 90
        1
176
     1
 90
        2
176
     1
 40
0.6
176
     1
 40
30.0
176
     1
 62
     7
420
 16777215
176
     1
 90
        0
176
     1
 90
        0
176
     1
 62
     7
176
     1
 62
   257
176
     1
 90
        1
176
     1
 90
        1
176
     1
 40
1.0
176
     1
 90
        0
176
     1
 62
     7
176
     1
 40
1.0
176
     1
 90
        1
176
     1
 90
        6
176
     1
 90
        2
176
     1
 62
     7
176
     1
 90
        5
176
     1
 90
        0
176
     1
 90
        0
176
     1
290
     0
176
     1
 90
       13
176
     1
 40
0.0
176
     1
 90
        0
176
     1
290
     0
176
     1
290
     1
176
     1
290
     1
176
     1
290
     0
176
     1
290
     0
176
     1
290
     0
176
     1
290
     0
176
     1
290
     0
176
     1
290
     0
176
     1
 90
       50
176
     1
 40
0.0
176
     1
 40
1.0
176
     1
 90
        0
176
     1
 62
    18
420
        0
176
     1
 90
       50
176
     1
 90
        3
176
     1
 62
     5
420
      255
176
     1
290
     0
176
     1
 90
       50
176
     1
 90
       50
176
     1
 90
       50
176
     1
290
     0
176
     1
 90
       50
176
     1
 62
   256
176
     0
 40
1.0
176
     0
 90
        2
176
     1
  1
strokes_ogs.tif
176
     1
290
     0
176
     1
 40
1.0
176
     1
 40
1.0
176
     1
  0
VISUALSTYLE
  5
5A03
102
{ACAD_REACTORS
330
59FF
102
}
330
59FF
100
AcDbVisualStyle
  2
GouraudWithEdges
 70
     3
177
     3
291
     1
 70
    58
 90
        2
176
     1
 90
        2
176
     1
 90
        1
176
     1
 90
        2
176
     1
 40
0.6
176
     1
 40
30.0
176
     1
 62
     7
420
 16777215
176
     1
 90
        1
176
     1
 90
        0
176
     1
 62
     7
176
     1
 62
   257
176
     1
 90
        1
176
     1
 90
        1
176
     1
 40
1.0
176
     1
 90
        0
176
     1
 62
   257
176
     1
 40
1.0
176
     1
 90
        1
176
     1
 90
        6
176
     1
 90
        2
176
     1
 62
     7
176
     1
 90
        5
176
     1
 90
        0
176
     1
 90
        0
176
     1
290
     0
176
     1
 90
       13
176
     1
 40
0.0
176
     1
 90
        0
176
     1
290
     0
176
     1
290
     1
176
     1
290
     1
176
     1
290
     0
176
     1
290
     0
176
     1
290
     0
176
     1
290
     0
176
     1
290
     0
176
     1
290
     0
176
     1
 90
       50
176
     1
 40
0.0
176
     1
 40
1.0
176
     1
 90
        0
176
     1
 62
    18
420
        0
176
     1
 90
       50
176
     1
 90
        3
176
     1
 62
     5
420
      255
176
     1
290
     0
176
     1
 90
       50
176
     1
 90
       50
176
     1
 90
       50
176
     1
290
     0
176
     1
 90
       50
176
     1
 62
   256
176
     0
 40
1.0
176
     0
 90
        2
176
     1
  1
strokes_ogs.tif
176
     1
290
     0
176
     1
 40
1.0
176
     1
 40
1.0
176
     1
  0
VISUALSTYLE
  5
5A07
102
{ACAD_REACTORS
330
59FF
102
}
330
59FF
100
AcDbVisualStyle
  2
Hidden
 70
     6
177
     3
291
     0
 70
    58
 90
        1
176
     1
 90
        2
176
     1
 90
        2
176
     1
 90
        0
176
     1
 40
0.6
176
     1
 40
30.0
176
     1
 62
     7
420
 16777215
176
     1
 90
        2
176
     1
 90
        2
176
     1
 62
     7
176
     1
 62
   257
176
     1
 90
        2
176
     1
 90
        1
176
     1
 40
40.0
176
     1
 90
        0
176
     1
 62
   257
176
     1
 40
1.0
176
     1
 90
        1
176
     1
 90
        6
176
     1
 90
        2
176
     1
 62
     7
176
     1
 90
        3
176
     1
 90
        0
176
     1
 90
        0
176
     1
290
     0
176
     1
 90
        1
176
     1
 40
0.0
176
     1
 90
        0
176
     1
290
     0
176
     1
290
     1
176
     1
290
     1
176
     1
290
     0
176
     1
290
     0
176
     1
290
     0
176
     1
290
     0
176
     1
290
     0
176
     1
290
     0
176
     1
 90
       50
176
     1
 40
0.0
176
     1
 40
1.0
176
     1
 90
        0
176
     1
 62
    18
420
        0
176
     1
 90
       50
176
     1
 90
        3
176
     1
 62
     5
420
      255
176
     1
290
     0
176
     1
 90
       50
176
     1
 90
       50
176
     1
 90
       50
176
     1
290
     0
176
     1
 90
       50
176
     1
 62
   256
176
     0
 40
1.0
176
     0
 90
        2
176
     1
  1
strokes_ogs.tif
176
     1
290
     0
176
     1
 40
1.0
176
     1
 40
1.0
176
     1
  0
VISUALSTYLE
  5
5A15
102
{ACAD_REACTORS
330
59FF
102
}
330
59FF
100
AcDbVisualStyle
  2
JitterOff
 70
    20
177
     3
291
     1
 70
    58
 90
        2
176
     0
 90
        2
176
     0
 90
        0
176
     0
 90
        0
176
     0
 40
0.6
176
     0
 40
30.0
176
     0
 62
     7
420
 16777215
176
     0
 90
        1
176
     0
 90
        4
176
     0
 62
     7
176
     0
 62
   257
176
     0
 90
        1
176
     0
 90
        1
176
     0
 40
1.0
176
     0
 90
       10
176
     2
 62
     7
176
     0
 40
1.0
176
     0
 90
        1
176
     0
 90
        6
176
     0
 90
        2
176
     0
 62
     7
176
     0
 90
        5
176
     0
 90
        0
176
     0
 90
        0
176
     0
290
     0
176
     0
 90
        1
176
     0
 40
0.0
176
     0
 90
        0
176
     0
290
     0
176
     0
290
     1
176
     0
290
     1
176
     0
290
     0
176
     0
290
     0
176
     0
290
     0
176
     0
290
     0
176
     0
290
     0
176
     0
290
     0
176
     0
 90
       50
176
     0
 40
0.0
176
     0
 40
1.0
176
     0
 90
        0
176
     0
 62
    18
420
        0
176
     0
 90
       50
176
     0
 90
        3
176
     0
 62
     5
420
      255
176
     0
290
     0
176
     0
 90
       50
176
     0
 90
       50
176
     0
 90
       50
176
     0
290
     0
176
     0
 90
       50
176
     0
 62
   256
176
     0
 40
1.0
176
     0
 90
        2
176
     0
  1
strokes_ogs.tif
176
     0
290
     0
176
     0
 40
1.0
176
     0
 40
1.0
176
     0
  0
VISUALSTYLE
  5
5A0D
102
{ACAD_REACTORS
330
59FF
102
}
330
59FF
100
AcDbVisualStyle
  2
Linepattern
 70
    14
177
     3
291
     1
 70
    58
 90
        2
176
     1
 90
        2
176
     1
 90
        0
176
     1
 90
        0
176
     1
 40
0.6
176
     1
 40
30.0
176
     1
 62
     7
420
 16777215
176
     1
 90
        1
176
     1
 90
        4
176
     1
 62
     7
176
     1
 62
   257
176
     1
 90
        7
176
     1
 90
        7
176
     1
 40
1.0
176
     1
 90
        8
176
     1
 62
     7
176
     1
 40
1.0
176
     1
 90
        1
176
     1
 90
        6
176
     1
 90
        2
176
     1
 62
     7
176
     1
 90
        5
176
     1
 90
        0
176
     1
 90
        0
176
     1
290
     0
176
     1
 90
        1
176
     1
 40
0.0
176
     1
 90
        0
176
     1
290
     0
176
     1
290
     1
176
     1
290
     1
176
     1
290
     0
176
     1
290
     0
176
     1
290
     0
176
     1
290
     0
176
     1
290
     0
176
     1
290
     0
176
     1
 90
       50
176
     1
 40
0.0
176
     1
 40
1.0
176
     1
 90
        0
176
     1
 62
    18
420
        0
176
     1
 90
       50
176
     1
 90
        3
176
     1
 62
     5
420
      255
176
     1
290
     0
176
     1
 90
       50
176
     1
 90
       50
176
     1
 90
       50
176
     1
290
     0
176
     1
 90
       50
176
     1
 62
   256
176
     0
 40
1.0
176
     0
 90
        2
176
     1
  1
strokes_ogs.tif
176
     1
290
     0
176
     1
 40
1.0
176
     1
 40
1.0
176
     1
  0
VISUALSTYLE
  5
5A16
102
{ACAD_REACTORS
330
59FF
102
}
330
59FF
100
AcDbVisualStyle
  2
OverhangOff
 70
    21
177
     3
291
     1
 70
    58
 90
        2
176
     0
 90
        2
176
     0
 90
        0
176
     0
 90
        0
176
     0
 40
0.6
176
     0
 40
30.0
176
     0
 62
     7
420
 16777215
176
     0
 90
        1
176
     0
 90
        4
176
     0
 62
     7
176
     0
 62
   257
176
     0
 90
        1
176
     0
 90
        1
176
     0
 40
1.0
176
     0
 90
        9
176
     2
 62
     7
176
     0
 40
1.0
176
     0
 90
        1
176
     0
 90
        6
176
     0
 90
        2
176
     0
 62
     7
176
     0
 90
        5
176
     0
 90
        0
176
     0
 90
        0
176
     0
290
     0
176
     0
 90
        1
176
     0
 40
0.0
176
     0
 90
        0
176
     0
290
     0
176
     0
290
     1
176
     0
290
     1
176
     0
290
     0
176
     0
290
     0
176
     0
290
     0
176
     0
290
     0
176
     0
290
     0
176
     0
290
     0
176
     0
 90
       50
176
     0
 40
0.0
176
     0
 40
1.0
176
     0
 90
        0
176
     0
 62
    18
420
        0
176
     0
 90
       50
176
     0
 90
        3
176
     0
 62
     5
420
      255
176
     0
290
     0
176
     0
 90
       50
176
     0
 90
       50
176
     0
 90
       50
176
     0
290
     0
176
     0
 90
       50
176
     0
 62
   256
176
     0
 40
1.0
176
     0
 90
        2
176
     0
  1
strokes_ogs.tif
176
     0
290
     0
176
     0
 40
1.0
176
     0
 40
1.0
176
     0
  0
VISUALSTYLE
  5
5A09
102
{ACAD_REACTORS
330
59FF
102
}
330
59FF
100
AcDbVisualStyle
  2
Realistic
 70
     8
177
     3
291
     0
 70
    58
 90
        2
176
     1
 90
        3
176
     1
 90
        0
176
     1
 90
        2
176
     1
 40
0.6
176
     1
 40
30.0
176
     1
 62
     7
420
 16777215
176
     1
 90
        0
176
     1
 90
        0
176
     1
 62
     7
176
     1
 62
   257
176
     1
 90
        1
176
     1
 90
        1
176
     1
 40
1.0
176
     1
 90
        8
176
     1
 62
   257
176
     1
 40
1.0
176
     1
 90
        1
176
     1
 90
        6
176
     1
 90
        2
176
     1
 62
     7
176
     1
 90
        3
176
     1
 90
        0
176
     1
 90
        0
176
     1
290
     0
176
     1
 90
       13
176
     1
 40
0.0
176
     1
 90
        0
176
     1
290
     0
176
     1
290
     1
176
     1
290
     1
176
     1
290
     0
176
     1
290
     0
176
     1
290
     0
176
     1
290
     0
176
     1
290
     0
176
     1
290
     0
176
     1
 90
       50
176
     1
 40
0.0
176
     1
 40
1.0
176
     1
 90
        0
176
     1
 62
    18
420
        0
176
     1
 90
       50
176
     1
 90
        3
176
     1
 62
     5
420
      255
176
     1
290
     0
176
     1
 90
       50
176
     1
 90
       50
176
     1
 90
       50
176
     1
290
     0
176
     1
 90
       50
176
     1
 62
   256
176
     0
 40
1.0
176
     0
 90
        2
176
     1
  1
strokes_ogs.tif
176
     1
290
     0
176
     1
 40
1.0
176
     1
 40
1.0
176
     1
  0
VISUALSTYLE
  5
5A14
102
{ACAD_REACTORS
330
59FF
102
}
330
59FF
100
AcDbVisualStyle
  2
Shaded
 70
    27
177
     3
291
     0
 70
    58
 90
        2
176
     1
 90
        2
176
     1
 90
        1
176
     1
 90
        2
176
     1
 40
0.6
176
     1
 40
30.0
176
     1
 62
     7
420
 16777215
176
     1
 90
        0
176
     1
 90
        4
176
     1
 62
     7
176
     1
 62
   257
176
     1
 90
        1
176
     1
 90
        1
176
     1
 40
1.0
176
     1
 90
        8
176
     1
 62
   257
176
     1
 40
1.0
176
     1
 90
        1
176
     1
 90
        6
176
     1
 90
        2
176
     1
 62
     8
420
  7895160
176
     1
 90
        3
176
     1
 90
        0
176
     1
 90
        0
176
     1
290
     0
176
     1
 90
        5
176
     1
 40
0.0
176
     1
 90
        0
176
     1
290
     0
176
     1
290
     1
176
     1
290
     1
176
     1
290
     0
176
     1
290
     0
176
     1
290
     0
176
     1
290
     0
176
     1
290
     0
176
     1
290
     0
176
     1
 90
       50
176
     1
 40
0.0
176
     1
 40
1.0
176
     1
 90
        0
176
     1
 62
    18
420
        0
176
     1
 90
       50
176
     1
 90
        3
176
     1
 62
     5
420
      255
176
     1
290
     0
176
     1
 90
       50
176
     1
 90
       50
176
     1
 90
       50
176
     1
290
     0
176
     1
 90
       50
176
     1
 62
   256
176
     0
 40
1.0
176
     0
 90
        2
176
     1
  1
strokes_ogs.tif
176
     1
290
     0
176
     1
 40
1.0
176
     1
 40
1.0
176
     1
  0
VISUALSTYLE
  5
5A13
102
{ACAD_REACTORS
330
59FF
102
}
330
59FF
100
AcDbVisualStyle
  2
Shaded with edges
 70
    26
177
     3
291
     0
 70
    58
 90
        2
176
     1
 90
        2
176
     1
 90
        1
176
     1
 90
        2
176
     1
 40
0.6
176
     1
 40
30.0
176
     1
 62
     7
420
 16777215
176
     1
 90
        1
176
     1
 90
        2
176
     1
 62
     7
176
     1
 62
   257
176
     1
 90
        2
176
     1
 90
        1
176
     1
 40
1.0
176
     1
 90
        8
176
     1
 62
   257
176
     1
 40
1.0
176
     1
 90
        1
176
     1
 90
        6
176
     1
 90
        2
176
     1
 62
     7
176
     1
 90
        3
176
     1
 90
        0
176
     1
 90
        0
176
     1
290
     0
176
     1
 90
        5
176
     1
 40
0.0
176
     1
 90
        0
176
     1
290
     0
176
     1
290
     1
176
     1
290
     1
176
     1
290
     0
176
     1
290
     0
176
     1
290
     0
176
     1
290
     0
176
     1
290
     0
176
     1
290
     0
176
     1
 90
       50
176
     1
 40
0.0
176
     1
 40
1.0
176
     1
 90
        0
176
     1
 62
    18
420
        0
176
     1
 90
       50
176
     1
 90
        3
176
     1
 62
     5
420
      255
176
     1
290
     0
176
     1
 90
       50
176
     1
 90
       50
176
     1
 90
       50
176
     1
290
     0
176
     1
 90
       50
176
     1
 62
   256
176
     0
 40
1.0
176
     0
 90
        2
176
     1
  1
strokes_ogs.tif
176
     1
290
     0
176
     1
 40
1.0
176
     1
 40
1.0
176
     1
  0
VISUALSTYLE
  5
5A10
102
{ACAD_REACTORS
330
59FF
102
}
330
59FF
100
AcDbVisualStyle
  2
Shades of Gray
 70
    23
177
     3
291
     0
 70
    58
 90
        2
176
     1
 90
        2
176
     1
 90
        3
176
     1
 90
        0
176
     1
 40
0.6
176
     1
 40
30.0
176
     1
 62
     7
420
 16777215
176
     1
 90
        2
176
     1
 90
        2
176
     1
 62
     7
176
     1
 62
     7
176
     1
 90
        1
176
     1
 90
        1
176
     1
 40
40.0
176
     1
 90
        8
176
     1
 62
     7
176
     1
 40
1.0
176
     1
 90
        1
176
     1
 90
        6
176
     1
 90
        2
176
     1
 62
     7
176
     1
 90
        3
176
     1
 90
        0
176
     1
 90
        0
176
     1
290
     0
176
     1
 90
        1
176
     1
 40
0.0
176
     1
 90
        0
176
     1
290
     0
176
     1
290
     1
176
     1
290
     1
176
     1
290
     0
176
     1
290
     0
176
     1
290
     0
176
     1
290
     0
176
     1
290
     0
176
     1
290
     0
176
     1
 90
       50
176
     1
 40
0.0
176
     1
 40
1.0
176
     1
 90
        0
176
     1
 62
    18
420
        0
176
     1
 90
       50
176
     1
 90
        3
176
     1
 62
     5
420
      255
176
     1
290
     0
176
     1
 90
       50
176
     1
 90
       50
176
     1
 90
       50
176
     1
290
     0
176
     1
 90
       50
176
     1
 62
   256
176
     0
 40
1.0
176
     0
 90
        2
176
     1
  1
strokes_ogs.tif
176
     1
290
     0
176
     1
 40
1.0
176
     1
 40
1.0
176
     1
  0
VISUALSTYLE
  5
5A11
102
{ACAD_REACTORS
330
59FF
102
}
330
59FF
100
AcDbVisualStyle
  2
Sketchy
 70
    24
177
     3
291
     0
 70
    58
 90
        1
176
     1
 90
        2
176
     1
 90
        2
176
     1
 90
        0
176
     1
 40
0.6
176
     1
 40
30.0
176
     1
 62
     7
420
 16777215
176
     1
 90
        2
176
     1
 90
        2
176
     1
 62
     7
176
     1
 62
     7
176
     1
 90
        1
176
     1
 90
        1
176
     1
 40
40.0
176
     1
 90
       11
176
     1
 62
     7
176
     1
 40
1.0
176
     1
 90
        1
176
     1
 90
        6
176
     1
 90
        2
176
     1
 62
     7
176
     1
 90
        6
176
     1
 90
        0
176
     1
 90
        0
176
     1
290
     0
176
     1
 90
        1
176
     1
 40
0.0
176
     1
 90
        0
176
     1
290
     0
176
     1
290
     1
176
     1
290
     1
176
     1
290
     0
176
     1
290
     0
176
     1
290
     0
176
     1
290
     0
176
     1
290
     0
176
     1
290
     0
176
     1
 90
       50
176
     1
 40
0.0
176
     1
 40
1.0
176
     1
 90
        0
176
     1
 62
    18
420
        0
176
     1
 90
       50
176
     1
 90
        3
176
     1
 62
     5
420
      255
176
     1
290
     0
176
     1
 90
       50
176
     1
 90
       50
176
     1
 90
       50
176
     1
290
     0
176
     1
 90
       50
176
     1
 62
   256
176
     0
 40
1.0
176
     0
 90
        2
176
     1
  1
strokes_ogs.tif
176
     1
290
     0
176
     1
 40
1.0
176
     1
 40
1.0
176
     1
  0
VISUALSTYLE
  5
5A0C
102
{ACAD_REACTORS
330
59FF
102
}
330
59FF
100
AcDbVisualStyle
  2
Thicken
 70
    13
177
     3
291
     1
 70
    58
 90
        2
176
     1
 90
        2
176
     1
 90
        0
176
     1
 90
        0
176
     1
 40
0.6
176
     1
 40
30.0
176
     1
 62
     7
420
 16777215
176
     1
 90
        1
176
     1
 90
        4
176
     1
 62
     7
176
     1
 62
   257
176
     1
 90
        1
176
     1
 90
        1
176
     1
 40
1.0
176
     1
 90
       12
176
     1
 62
     7
176
     1
 40
1.0
176
     1
 90
        1
176
     1
 90
        6
176
     1
 90
        2
176
     1
 62
     7
176
     1
 90
        5
176
     1
 90
        0
176
     1
 90
        0
176
     1
290
     0
176
     1
 90
        1
176
     1
 40
0.0
176
     1
 90
        0
176
     1
290
     0
176
     1
290
     1
176
     1
290
     1
176
     1
290
     0
176
     1
290
     0
176
     1
290
     0
176
     1
290
     0
176
     1
290
     0
176
     1
290
     0
176
     1
 90
       50
176
     1
 40
0.0
176
     1
 40
1.0
176
     1
 90
        0
176
     1
 62
    18
420
        0
176
     1
 90
       50
176
     1
 90
        3
176
     1
 62
     5
420
      255
176
     1
290
     0
176
     1
 90
       50
176
     1
 90
       50
176
     1
 90
       50
176
     1
290
     0
176
     1
 90
       50
176
     1
 62
   256
176
     0
 40
1.0
176
     0
 90
        2
176
     1
  1
strokes_ogs.tif
176
     1
290
     0
176
     1
 40
1.0
176
     1
 40
1.0
176
     1
  0
VISUALSTYLE
  5
5A06
102
{ACAD_REACTORS
330
59FF
102
}
330
59FF
100
AcDbVisualStyle
  2
Wireframe
 70
     5
177
     3
291
     0
 70
    58
 90
        0
176
     1
 90
        2
176
     1
 90
        0
176
     1
 90
        0
176
     1
 40
0.6
176
     1
 40
30.0
176
     1
 62
     7
420
 16777215
176
     1
 90
        1
176
     1
 90
        4
176
     1
 62
     7
176
     1
 62
   257
176
     1
 90
        1
176
     1
 90
        1
176
     1
 40
1.0
176
     1
 90
        0
176
     1
 62
   257
176
     1
 40
1.0
176
     1
 90
        1
176
     1
 90
        6
176
     1
 90
        2
176
     1
 62
     7
176
     1
 90
        3
176
     1
 90
        0
176
     1
 90
        0
176
     1
290
     0
176
     1
 90
        1
176
     1
 40
0.0
176
     1
 90
        0
176
     1
290
     0
176
     1
290
     1
176
     1
290
     1
176
     1
290
     0
176
     1
290
     0
176
     1
290
     0
176
     1
290
     0
176
     1
290
     0
176
     1
290
     0
176
     1
 90
       50
176
     1
 40
0.0
176
     1
 40
1.0
176
     1
 90
        0
176
     1
 62
    18
420
        0
176
     1
 90
       50
176
     1
 90
        3
176
     1
 62
     5
420
      255
176
     1
290
     0
176
     1
 90
       50
176
     1
 90
       50
176
     1
 90
       50
176
     1
290
     0
176
     1
 90
       50
176
     1
 62
   256
176
     0
 40
1.0
176
     0
 90
        2
176
     1
  1
strokes_ogs.tif
176
     1
290
     0
176
     1
 40
1.0
176
     1
 40
1.0
176
     1
  0
VISUALSTYLE
  5
5A12
102
{ACAD_REACTORS
330
59FF
102
}
330
59FF
100
AcDbVisualStyle
  2
X-Ray
 70
    25
177
     3
291
     0
 70
    58
 90
        2
176
     1
 90
        2
176
     1
 90
        1
176
     1
 90
        1
176
     1
 40
0.5
176
     1
 40
30.0
176
     1
 62
     7
420
 16777215
176
     1
 90
        1
176
     1
 90
        0
176
     1
 62
     7
176
     1
 62
   257
176
     1
 90
        1
176
     1
 90
        1
176
     1
 40
1.0
176
     1
 90
        8
176
     1
 62
     7
176
     1
 40
1.0
176
     1
 90
        1
176
     1
 90
        6
176
     1
 90
        2
176
     1
 62
     7
176
     1
 90
        3
176
     1
 90
        0
176
     1
 90
        0
176
     1
290
     0
176
     1
 90
       13
176
     1
 40
0.0
176
     1
 90
        0
176
     1
290
     0
176
     1
290
     1
176
     1
290
     1
176
     1
290
     0
176
     1
290
     0
176
     1
290
     0
176
     1
290
     0
176
     1
290
     0
176
     1
290
     0
176
     1
 90
       50
176
     1
 40
0.0
176
     1
 40
1.0
176
     1
 90
        0
176
     1
 62
    18
420
        0
176
     1
 90
       50
176
     1
 90
        3
176
     1
 62
     5
420
      255
176
     1
290
     0
176
     1
 90
       50
176
     1
 90
       50
176
     1
 90
       50
176
     1
290
     0
176
     1
 90
       50
176
     1
 62
   256
176
     0
 40
1.0
176
     0
 90
        2
176
     1
  1
strokes_ogs.tif
176
     1
290
     0
176
     1
 40
1.0
176
     1
 40
1.0
176
     1
  0
DICTIONARYVAR
  5
73E0
102
{ACAD_REACTORS
330
51
102
}
330
51
100
DictionaryVariables
280
     0
  1
1:1
  0
DICTIONARYVAR
  5
73DC
102
{ACAD_REACTORS
330
51
102
}
330
51
100
DictionaryVariables
280
     0
  1
STANDARD
  0
DICTIONARYVAR
  5
73DB
102
{ACAD_REACTORS
330
51
102
}
330
51
100
DictionaryVariables
280
     0
  1
STANDARD
  0
DICTIONARYVAR
  5
73DD
102
{ACAD_REACTORS
330
51
102
}
330
51
100
DictionaryVariables
280
     0
  1
Imperial24
  0
DICTIONARYVAR
  5
73DE
102
{ACAD_REACTORS
330
51
102
}
330
51
100
DictionaryVariables
280
     0
  1
Imperial24
  0
DICTIONARYVAR
  5
52
102
{ACAD_REACTORS
330
51
102
}
330
51
100
DictionaryVariables
280
     0
  1
0
  0
DICTIONARYVAR
  5
58DD
102
{ACAD_REACTORS
330
51
102
}
330
51
100
DictionaryVariables
280
     0
  1
1
  0
DICTIONARYVAR
  5
73E2
102
{ACAD_REACTORS
330
51
102
}
330
51
100
DictionaryVariables
280
     0
  1
1
  0
DICTIONARYVAR
  5
73E3
102
{ACAD_REACTORS
330
51
102
}
330
51
100
DictionaryVariables
280
     0
  1
15
  0
DICTIONARYVAR
  5
73E1
102
{ACAD_REACTORS
330
51
102
}
330
51
100
DictionaryVariables
280
     0
  1
0
  0
DICTIONARYVAR
  5
73DF
102
{ACAD_REACTORS
330
51
102
}
330
51
100
DictionaryVariables
280
     0
  1
0
  0
DICTIONARYVAR
  5
3F08
102
{ACAD_REACTORS
330
51
102
}
330
51
100
DictionaryVariables
280
     0
  1
127
  0
DICTIONARY
  5
59F0
330
59EF
100
AcDbDictionary
280
     1
281
     1
  3
BUMPTILE
360
59F2
  3
DIFFUSETILE
360
59F1
  3
OPACITYTILE
360
59F5
  3
REFLECTIONTILE
360
59F4
  3
REFRACTIONTILE
360
59F6
  3
SPECULARTILE
360
59F3
  0
DICTIONARY
  5
59E8
330
59E7
100
AcDbDictionary
280
     1
281
     1
  3
BUMPTILE
360
59EA
  3
DIFFUSETILE
360
59E9
  3
OPACITYTILE
360
59ED
  3
REFLECTIONTILE
360
59EC
  3
REFRACTIONTILE
360
59EE
  3
SPECULARTILE
360
59EB
  0
DICTIONARY
  5
59F8
330
59F7
100
AcDbDictionary
280
     1
281
     1
  3
BUMPTILE
360
59FA
  3
DIFFUSETILE
360
59F9
  3
OPACITYTILE
360
59FD
  3
REFLECTIONTILE
360
59FC
  3
REFRACTIONTILE
360
59FE
  3
SPECULARTILE
360
59FB
  0
DICTIONARY
  5
73EC
330
5A1A
100
AcDbDictionary
280
     1
281
     1
  3
ACAD_ROUNDTRIP_2008_TABLESTYLE_CELLSTYLEMAP
360
73ED
  0
XRECORD
  5
59F2
102
{ACAD_REACTORS
330
59F0
102
}
330
59F0
100
AcDbXrecord
280
     1
270
     1
271
     1
  0
XRECORD
  5
59F1
102
{ACAD_REACTORS
330
59F0
102
}
330
59F0
100
AcDbXrecord
280
     1
270
     1
271
     1
  0
XRECORD
  5
59F5
102
{ACAD_REACTORS
330
59F0
102
}
330
59F0
100
AcDbXrecord
280
     1
270
     1
271
     1
  0
XRECORD
  5
59F4
102
{ACAD_REACTORS
330
59F0
102
}
330
59F0
100
AcDbXrecord
280
     1
270
     1
271
     1
  0
XRECORD
  5
59F6
102
{ACAD_REACTORS
330
59F0
102
}
330
59F0
100
AcDbXrecord
280
     1
270
     1
271
     1
  0
XRECORD
  5
59F3
102
{ACAD_REACTORS
330
59F0
102
}
330
59F0
100
AcDbXrecord
280
     1
270
     1
271
     1
  0
XRECORD
  5
59EA
102
{ACAD_REACTORS
330
59E8
102
}
330
59E8
100
AcDbXrecord
280
     1
270
     1
271
     1
  0
XRECORD
  5
59E9
102
{ACAD_REACTORS
330
59E8
102
}
330
59E8
100
AcDbXrecord
280
     1
270
     1
271
     1
  0
XRECORD
  5
59ED
102
{ACAD_REACTORS
330
59E8
102
}
330
59E8
100
AcDbXrecord
280
     1
270
     1
271
     1
  0
XRECORD
  5
59EC
102
{ACAD_REACTORS
330
59E8
102
}
330
59E8
100
AcDbXrecord
280
     1
270
     1
271
     1
  0
XRECORD
  5
59EE
102
{ACAD_REACTORS
330
59E8
102
}
330
59E8
100
AcDbXrecord
280
     1
270
     1
271
     1
  0
XRECORD
  5
59EB
102
{ACAD_REACTORS
330
59E8
102
}
330
59E8
100
AcDbXrecord
280
     1
270
     1
271
     1
  0
XRECORD
  5
59FA
102
{ACAD_REACTORS
330
59F8
102
}
330
59F8
100
AcDbXrecord
280
     1
270
     1
271
     1
  0
XRECORD
  5
59F9
102
{ACAD_REACTORS
330
59F8
102
}
330
59F8
100
AcDbXrecord
280
     1
270
     1
271
     1
  0
XRECORD
  5
59FD
102
{ACAD_REACTORS
330
59F8
102
}
330
59F8
100
AcDbXrecord
280
     1
270
     1
271
     1
  0
XRECORD
  5
59FC
102
{ACAD_REACTORS
330
59F8
102
}
330
59F8
100
AcDbXrecord
280
     1
270
     1
271
     1
  0
XRECORD
  5
59FE
102
{ACAD_REACTORS
330
59F8
102
}
330
59F8
100
AcDbXrecord
280
     1
270
     1
271
     1
  0
XRECORD
  5
59FB
102
{ACAD_REACTORS
330
59F8
102
}
330
59F8
100
AcDbXrecord
280
     1
270
     1
271
     1
  0
CELLSTYLEMAP
  5
73ED
102
{ACAD_REACTORS
330
73EC
102
}
330
73EC
100
AcDbCellStyleMap
 90
        3
300
CELLSTYLE
  1
TABLEFORMAT_BEGIN
 90
        5
170
     1
 91
        0
 92
    32768
 62
   257
 93
        1
300
CONTENTFORMAT
  1
CONTENTFORMAT_BEGIN
 90
        0
 91
        0
 92
      512
 93
        0
300

 40
0.0
140
1.0
 94
        5
 62
     0
340
F
144
0.25
309
CONTENTFORMAT_END
171
     0
 94
        0
309
TABLEFORMAT_END
  1
CELLSTYLE_BEGIN
 90
        1
 91
        1
300
_TITLE
309
CELLSTYLE_END
300
CELLSTYLE
  1
TABLEFORMAT_BEGIN
 90
        5
170
     1
 91
        0
 92
        0
 62
   257
 93
        1
300
CONTENTFORMAT
  1
CONTENTFORMAT_BEGIN
 90
        0
 91
        0
 92
      512
 93
        0
300

 40
0.0
140
1.0
 94
        5
 62
     0
340
F
144
0.18
309
CONTENTFORMAT_END
171
     0
 94
        0
309
TABLEFORMAT_END
  1
CELLSTYLE_BEGIN
 90
        2
 91
        1
300
_HEADER
309
CELLSTYLE_END
300
CELLSTYLE
  1
TABLEFORMAT_BEGIN
 90
        5
170
     1
 91
        0
 92
        0
 62
   257
 93
        1
300
CONTENTFORMAT
  1
CONTENTFORMAT_BEGIN
 90
        0
 91
        0
 92
      512
 93
        0
300

 40
0.0
140
1.0
 94
        2
 62
     0
340
F
144
0.18
309
CONTENTFORMAT_END
171
     0
 94
        0
309
TABLEFORMAT_END
  1
CELLSTYLE_BEGIN
 90
        3
 91
        2
300
_DATA
309
CELLSTYLE_END
  0
ENDSEC
  0
SECTION
  2
ACDSDATA
 70
     2
 71
     8
  0
ACDSSCHEMA
 90
        0
  1
AcDb_Thumbnail_Schema
  2
AcDbDs::ID
280
    10
 91
        8
  2
Thumbnail_Data
280
    15
 91
        0
101
ACDSRECORD
 95
        0
 90
        1
  2
AcDbDs::TreatedAsObjectData
280
     1
291
     1
101
ACDSRECORD
 95
        0
 90
        2
  2
AcDbDs::Legacy
280
     1
291
     1
101
ACDSRECORD
  1
AcDbDs::ID
 90
        3
  2
AcDs:Indexable
280
     1
291
     1
101
ACDSRECORD
  1
AcDbDs::ID
 90
        4
  2
AcDbDs::HandleAttribute
280
     7
282
     1
  0
ACDSSCHEMA
 90
        1
  1
AcDbDs::TreatedAsObjectDataSchema
  2
AcDbDs::TreatedAsObjectData
280
     1
 91
        0
  0
ACDSSCHEMA
 90
        2
  1
AcDbDs::LegacySchema
  2
AcDbDs::Legacy
280
     1
 91
        0
  0
ACDSSCHEMA
 90
        3
  1
AcDbDs::IndexedPropertySchema
  2
AcDs:Indexable
280
     1
 91
        0
  0
ACDSSCHEMA
 90
        4
  1
AcDbDs::HandleAttributeSchema
  2
AcDbDs::HandleAttribute
280
     7
 91
        1
284
     1
  0
ACDSRECORD
 90
        0
  2
AcDbDs::ID
280
    10
320
58D6
  2
Thumbnail_Data
280
    15
 94
     1471
310
89504E470D0A1A0A0000000D4948445200000100000000730803000000406D2C8F00000300504C5445000000FFFFFF0000000000000000000000000000000000000000000000000000000000330000660000990000CC0000FF0033000033330033660033990033CC0033FF0066000066330066660066990066CC0066FF0099
310
000099330099660099990099CC0099FF00CC0000CC3300CC6600CC9900CCCC00CCFF00FF0000FF3300FF6600FF9900FFCC00FFFF3300003300333300663300993300CC3300FF3333003333333333663333993333CC3333FF3366003366333366663366993366CC3366FF3399003399333399663399993399CC3399FF33CC00
310
33CC3333CC6633CC9933CCCC33CCFF33FF0033FF3333FF6633FF9933FFCC33FFFF6600006600336600666600996600CC6600FF6633006633336633666633996633CC6633FF6666006666336666666666996666CC6666FF6699006699336699666699996699CC6699FF66CC0066CC3366CC6666CC9966CCCC66CCFF66FF0066
310
FF3366FF6666FF9966FFCC66FFFF9900009900339900669900999900CC9900FF9933009933339933669933999933CC9933FF9966009966339966669966999966CC9966FF9999009999339999669999999999CC9999FF99CC0099CC3399CC6699CC9999CCCC99CCFF99FF0099FF3399FF6699FF9999FFCC99FFFFCC0000CC00
310
33CC0066CC0099CC00CCCC00FFCC3300CC3333CC3366CC3399CC33CCCC33FFCC6600CC6633CC6666CC6699CC66CCCC66FFCC9900CC9933CC9966CC9999CC99CCCC99FFCCCC00CCCC33CCCC66CCCC99CCCCCCCCCCFFCCFF00CCFF33CCFF66CCFF99CCFFCCCCFFFFFF0000FF0033FF0066FF0099FF00CCFF00FFFF3300FF3333
310
FF3366FF3399FF33CCFF33FFFF6600FF6633FF6666FF6699FF66CCFF66FFFF9900FF9933FF9966FF9999FF99CCFF99FFFFCC00FFCC33FFCC66FFCC99FFCCCCFFCCFFFFFF00FFFF33FFFF66FFFF99FFFFCCFFFFFF0000000D0D0D1A1A1A2828283535354343435050505D5D5D6B6B6B787878868686939393A1A1A1AEAEAEBB
310
BBBBC9C9C9D6D6D6E4E4E4F1F1F1FFFFFF0000000000000000000000000000000000000000000000000000000000003AE5ACE9000001A34944415478DAED9B01AE83200C407B9CDEFF3C3DCCBE4E045111E527A3F25E16B791AD8147416099080000000000000C8F75C12F05F4100201BF15F0CDC1E962B12E565FB1E5CB12
310
92D9B2F2FE054C8F7859A68670B917221160A1D08380A9A6CB5352A7BB02B2269B989F0CB090B22191D7A1512F6011988430113F43C0241DBF77E700596710CBCA7D4C826BBE3F1510436C04D447E0368800042000019D0AD063FE218422C08780F031CD0A1B43C477FD0B50D35D37DE0BA147215C08B83EC86909E12403A6
310
EED35133200E81B639601FC2CF1CC06D1001E7AD6F11C05218010840000210800004BC50800D2C605EE359BE5ADC2F0B3B16606D02FE1A28F3EEF9ACF9DBE7CE04D4755F83008D8DD73E05CC1B772D775F29812F05CC02BF97FE04685940ACBA3E149014AB3F01A1E559EB1E0A485EFB111087803E1290E6BD4F01071D794F
310
808A5F01BA11A0030A904480BC56C07E1D909CE1D5082887E85EC05274F2134055061443B8CE80585C38D3BD0AB11D6F2FDC0B0CBF1BE43C00010840802B01A3FF670800000000000000000000000000000000000000000000005EC007C5B48853A5C197E80000000049454E44AE426082B3F6DAFBEAD99A28AEFFDA2F7814
310
90058085FDD46649F4EBD01E30074255E43A5332F51FC42CB10E20A101D89BFE9B0728028099044B8055E092067A793C3080BDCB070800DE03AE79809705031800C608E19C34AE481EB0EEA6B6970410F8636807B0AC932B108DE075D3C07994BED5A4C10001705A3B0E480FE8AFBDCC2D26E3B7011B00F7FFDB5241180073
310
6F512D63DE309207B80FD4534B0516F13B28FD00B4D5E3DC40E1B79EFFFB00B8AD2E45511445511445511445511445511445FD4F7D011742AC22BEB772DB0000000049454E44AE426082
  0
ENDSEC
  0
EOF
