  0
SECTION
  2
HEADER
  9
$ACADVER
  1
AC1032
  9
$ACADMAINTVER
 90
      233
  9
$DWGCODEPAGE
  3
ANSI_932
  9
$LASTSAVEDBY
  1
taketo.kashima
  9
$REQUIREDVERSIONS
160
                 0
  9
$INSBASE
 10
0.0
 20
0.0
 30
0.0
  9
$EXTMIN
 10
2793.010838329716
 20
1289.480092685512
 30
0.0
  9
$EXTMAX
 10
3055.198555373896
 20
1549.344352822342
 30
0.0
  9
$LIMMIN
 10
0.0
 20
0.0
  9
$LIMMAX
 10
420.0
 20
297.0
  9
$ORTHOMODE
 70
     0
  9
$REGENMODE
 70
     1
  9
$FILLMODE
 70
     1
  9
$QTEXTMODE
 70
     0
  9
$MIRRTEXT
 70
     0
  9
$LTSCALE
 40
1.0
  9
$ATTMODE
 70
     1
  9
$TEXTSIZE
 40
23.13421075919951
  9
$TRACEWID
 40
1.0
  9
$TEXTSTYLE
  7
Standard
  9
$CLAYER
  8
L5寸法
  9
$CELTYPE
  6
ByLayer
  9
$CECOLOR
 62
   256
  9
$CELTSCALE
 40
1.0
  9
$DISPSILH
 70
     0
  9
$DIMSCALE
 40
1.0
  9
$DIMASZ
 40
2.5
  9
$DIMEXO
 40
0.625
  9
$DIMDLI
 40
3.75
  9
$DIMRND
 40
0.0
  9
$DIMDLE
 40
0.0
  9
$DIMEXE
 40
1.25
  9
$DIMTP
 40
0.0
  9
$DIMTM
 40
0.0
  9
$DIMTXT
 40
2.5
  9
$DIMCEN
 40
2.5
  9
$DIMTSZ
 40
0.0
  9
$DIMTOL
 70
     0
  9
$DIMLIM
 70
     0
  9
$DIMTIH
 70
     0
  9
$DIMTOH
 70
     0
  9
$DIMSE1
 70
     0
  9
$DIMSE2
 70
     0
  9
$DIMTAD
 70
     1
  9
$DIMZIN
 70
     8
  9
$DIMBLK
  1

  9
$DIMASO
 70
     1
  9
$DIMSHO
 70
     1
  9
$DIMPOST
  1

  9
$DIMAPOST
  1

  9
$DIMALT
 70
     0
  9
$DIMALTD
 70
     3
  9
$DIMALTF
 40
0.03937007874016
  9
$DIMLFAC
 40
1.0
  9
$DIMTOFL
 70
     1
  9
$DIMTVP
 40
0.0
  9
$DIMTIX
 70
     0
  9
$DIMSOXD
 70
     0
  9
$DIMSAH
 70
     0
  9
$DIMBLK1
  1

  9
$DIMBLK2
  1

  9
$DIMSTYLE
  2
ISO-25
  9
$DIMCLRD
 70
     0
  9
$DIMCLRE
 70
     0
  9
$DIMCLRT
 70
     0
  9
$DIMTFAC
 40
1.0
  9
$DIMGAP
 40
0.625
  9
$DIMJUST
 70
     0
  9
$DIMSD1
 70
     0
  9
$DIMSD2
 70
     0
  9
$DIMTOLJ
 70
     0
  9
$DIMTZIN
 70
     8
  9
$DIMALTZ
 70
     0
  9
$DIMALTTZ
 70
     0
  9
$DIMUPT
 70
     0
  9
$DIMDEC
 70
     2
  9
$DIMTDEC
 70
     2
  9
$DIMALTU
 70
     2
  9
$DIMALTTD
 70
     3
  9
$DIMTXSTY
  7
Standard
  9
$DIMAUNIT
 70
     0
  9
$DIMADEC
 70
     0
  9
$DIMALTRND
 40
0.0
  9
$DIMAZIN
 70
     0
  9
$DIMDSEP
 70
    44
  9
$DIMATFIT
 70
     3
  9
$DIMFRAC
 70
     0
  9
$DIMLDRBLK
  1

  9
$DIMLUNIT
 70
     2
  9
$DIMLWD
 70
    -2
  9
$DIMLWE
 70
    -2
  9
$DIMTMOVE
 70
     0
  9
$DIMFXL
 40
1.0
  9
$DIMFXLON
 70
     0
  9
$DIMJOGANG
 40
0.7853981633974483
  9
$DIMTFILL
 70
     0
  9
$DIMTFILLCLR
 70
     0
  9
$DIMARCSYM
 70
     0
  9
$DIMLTYPE
  6

  9
$DIMLTEX1
  6

  9
$DIMLTEX2
  6

  9
$DIMTXTDIRECTION
 70
     0
  9
$LUNITS
 70
     2
  9
$LUPREC
 70
     4
  9
$SKETCHINC
 40
1.0
  9
$FILLETRAD
 40
0.0
  9
$AUNITS
 70
     0
  9
$AUPREC
 70
     0
  9
$MENU
  1
.
  9
$ELEVATION
 40
0.0
  9
$PELEVATION
 40
0.0
  9
$THICKNESS
 40
0.0
  9
$LIMCHECK
 70
     0
  9
$CHAMFERA
 40
0.0
  9
$CHAMFERB
 40
0.0
  9
$CHAMFERC
 40
0.0
  9
$CHAMFERD
 40
0.0
  9
$SKPOLY
 70
     0
  9
$TDCREATE
 40
2458683.598819444
  9
$TDUCREATE
 40
2458683.223819445
  9
$TDUPDATE
 40
2460320.678171296
  9
$TDUUPDATE
 40
2460320.303171296
  9
$TDINDWG
 40
0.0914495370
  9
$TDUSRTIMER
 40
0.0914495370
  9
$USRTIMER
 70
     1
  9
$ANGBASE
 50
0.0
  9
$ANGDIR
 70
     0
  9
$PDMODE
 70
     0
  9
$PDSIZE
 40
0.0
  9
$PLINEWID
 40
0.0
  9
$SPLFRAME
 70
     0
  9
$SPLINETYPE
 70
     6
  9
$SPLINESEGS
 70
     8
  9
$HANDSEED
  5
1D57
  9
$SURFTAB1
 70
     6
  9
$SURFTAB2
 70
     6
  9
$SURFTYPE
 70
     6
  9
$SURFU
 70
     6
  9
$SURFV
 70
     6
  9
$UCSBASE
  2

  9
$UCSNAME
  2

  9
$UCSORG
 10
0.0
 20
0.0
 30
0.0
  9
$UCSXDIR
 10
1.0
 20
0.0
 30
0.0
  9
$UCSYDIR
 10
0.0
 20
1.0
 30
0.0
  9
$UCSORTHOREF
  2

  9
$UCSORTHOVIEW
 70
     0
  9
$UCSORGTOP
 10
0.0
 20
0.0
 30
0.0
  9
$UCSORGBOTTOM
 10
0.0
 20
0.0
 30
0.0
  9
$UCSORGLEFT
 10
0.0
 20
0.0
 30
0.0
  9
$UCSORGRIGHT
 10
0.0
 20
0.0
 30
0.0
  9
$UCSORGFRONT
 10
0.0
 20
0.0
 30
0.0
  9
$UCSORGBACK
 10
0.0
 20
0.0
 30
0.0
  9
$PUCSBASE
  2

  9
$PUCSNAME
  2

  9
$PUCSORG
 10
0.0
 20
0.0
 30
0.0
  9
$PUCSXDIR
 10
1.0
 20
0.0
 30
0.0
  9
$PUCSYDIR
 10
0.0
 20
1.0
 30
0.0
  9
$PUCSORTHOREF
  2

  9
$PUCSORTHOVIEW
 70
     0
  9
$PUCSORGTOP
 10
0.0
 20
0.0
 30
0.0
  9
$PUCSORGBOTTOM
 10
0.0
 20
0.0
 30
0.0
  9
$PUCSORGLEFT
 10
0.0
 20
0.0
 30
0.0
  9
$PUCSORGRIGHT
 10
0.0
 20
0.0
 30
0.0
  9
$PUCSORGFRONT
 10
0.0
 20
0.0
 30
0.0
  9
$PUCSORGBACK
 10
0.0
 20
0.0
 30
0.0
  9
$USERI1
 70
     0
  9
$USERI2
 70
     0
  9
$USERI3
 70
     0
  9
$USERI4
 70
     0
  9
$USERI5
 70
     0
  9
$USERR1
 40
0.0
  9
$USERR2
 40
0.0
  9
$USERR3
 40
0.0
  9
$USERR4
 40
0.0
  9
$USERR5
 40
0.0
  9
$WORLDVIEW
 70
     1
  9
$SHADEDGE
 70
     3
  9
$SHADEDIF
 70
    70
  9
$TILEMODE
 70
     1
  9
$MAXACTVP
 70
    64
  9
$PINSBASE
 10
0.0
 20
0.0
 30
0.0
  9
$PLIMCHECK
 70
     0
  9
$PEXTMIN
 10
0.0
 20
0.0
 30
0.0
  9
$PEXTMAX
 10
0.0
 20
0.0
 30
0.0
  9
$PLIMMIN
 10
0.0
 20
0.0
  9
$PLIMMAX
 10
12.0
 20
9.0
  9
$UNITMODE
 70
     0
  9
$VISRETAIN
 70
     1
  9
$PLINEGEN
 70
     0
  9
$PSLTSCALE
 70
     1
  9
$TREEDEPTH
 70
  3020
  9
$CMLSTYLE
  2
Standard
  9
$CMLJUST
 70
     0
  9
$CMLSCALE
 40
20.0
  9
$PROXYGRAPHICS
 70
     1
  9
$MEASUREMENT
 70
     1
  9
$CELWEIGHT
370
    -1
  9
$ENDCAPS
280
     0
  9
$JOINSTYLE
280
     0
  9
$LWDISPLAY
290
     0
  9
$INSUNITS
 70
     4
  9
$HYPERLINKBASE
  1

  9
$STYLESHEET
  1
INABA-CAD-CANON.CTB
  9
$XEDIT
290
     1
  9
$CEPSNTYPE
380
     0
  9
$PSTYLEMODE
290
     1
  9
$FINGERPRINTGUID
  2
{1AE96172-5791-1744-A36B-F1E65432BEA9}
  9
$VERSIONGUID
  2
{4435717B-1A76-E349-8389-9C3163058ACF}
  9
$EXTNAMES
290
     1
  9
$PSVPSCALE
 40
0.0
  9
$OLESTARTUP
290
     0
  9
$SORTENTS
280
   127
  9
$INDEXCTL
280
     0
  9
$HIDETEXT
280
     1
  9
$XCLIPFRAME
280
     2
  9
$HALOGAP
280
     0
  9
$OBSCOLOR
 70
   257
  9
$OBSLTYPE
280
     0
  9
$INTERSECTIONDISPLAY
280
     0
  9
$INTERSECTIONCOLOR
 70
   257
  9
$DIMASSOC
280
     2
  9
$PROJECTNAME
  1

  9
$CAMERADISPLAY
290
     0
  9
$LENSLENGTH
 40
50.0
  9
$CAMERAHEIGHT
 40
0.0
  9
$STEPSPERSEC
 40
2.0
  9
$STEPSIZE
 40
6.0
  9
$3DDWFPREC
 40
2.0
  9
$PSOLWIDTH
 40
5.0
  9
$PSOLHEIGHT
 40
80.0
  9
$LOFTANG1
 40
1.570796326794896
  9
$LOFTANG2
 40
1.570796326794896
  9
$LOFTMAG1
 40
0.0
  9
$LOFTMAG2
 40
0.0
  9
$LOFTPARAM
 70
     7
  9
$LOFTNORMALS
280
     1
  9
$LATITUDE
 40
37.795
  9
$LONGITUDE
 40
-122.394
  9
$NORTHDIRECTION
 40
0.0
  9
$TIMEZONE
 70
 -8000
  9
$LIGHTGLYPHDISPLAY
280
     1
  9
$TILEMODELIGHTSYNCH
280
     1
  9
$CMATERIAL
347
EC
  9
$SOLIDHIST
280
     0
  9
$SHOWHIST
280
     1
  9
$DWFFRAME
280
     2
  9
$DGNFRAME
280
     0
  9
$REALWORLDSCALE
290
     1
  9
$INTERFERECOLOR
 62
     1
  9
$INTERFEREOBJVS
345
F9
  9
$INTERFEREVPVS
346
F6
  9
$CSHADOW
280
     0
  9
$SHADOWPLANELOCATION
 40
0.0
  0
ENDSEC
  0
SECTION
  2
CLASSES
  0
CLASS
  1
ACDBDICTIONARYWDFLT
  2
AcDbDictionaryWithDefault
  3
ObjectDBX Classes
 90
        0
 91
        1
280
     0
281
     0
  0
CLASS
  1
DICTIONARYVAR
  2
AcDbDictionaryVar
  3
ObjectDBX Classes
 90
        0
 91
       12
280
     0
281
     0
  0
CLASS
  1
TABLESTYLE
  2
AcDbTableStyle
  3
ObjectDBX Classes
 90
     4095
 91
        1
280
     0
281
     0
  0
CLASS
  1
MATERIAL
  2
AcDbMaterial
  3
ObjectDBX Classes
 90
     1153
 91
        3
280
     0
281
     0
  0
CLASS
  1
VISUALSTYLE
  2
AcDbVisualStyle
  3
ObjectDBX Classes
 90
     4095
 91
       25
280
     0
281
     0
  0
CLASS
  1
SCALE
  2
AcDbScale
  3
ObjectDBX Classes
 90
     1153
 91
       17
280
     0
281
     0
  0
CLASS
  1
MLEADERSTYLE
  2
AcDbMLeaderStyle
  3
ACDB_MLEADERSTYLE_CLASS
 90
     4095
 91
        2
280
     0
281
     0
  0
CLASS
  1
CELLSTYLEMAP
  2
AcDbCellStyleMap
  3
ObjectDBX Classes
 90
     1152
 91
        2
280
     0
281
     0
  0
CLASS
  1
EXACXREFPANELOBJECT
  2
ExAcXREFPanelObject
  3
EXAC_ESW
 90
     1025
 91
        0
280
     0
281
     0
  0
CLASS
  1
NPOCOLLECTION
  2
AcDbImpNonPersistentObjectsCollection
  3
ObjectDBX Classes
 90
     1153
 91
        0
280
     0
281
     0
  0
CLASS
  1
LAYER_INDEX
  2
AcDbLayerIndex
  3
ObjectDBX Classes
 90
        0
 91
        0
280
     0
281
     0
  0
CLASS
  1
SPATIAL_INDEX
  2
AcDbSpatialIndex
  3
ObjectDBX Classes
 90
        0
 91
        0
280
     0
281
     0
  0
CLASS
  1
IDBUFFER
  2
AcDbIdBuffer
  3
ObjectDBX Classes
 90
        0
 91
        0
280
     0
281
     0
  0
CLASS
  1
ACDBSECTIONVIEWSTYLE
  2
AcDbSectionViewStyle
  3
ObjectDBX Classes
 90
     1025
 91
        2
280
     0
281
     0
  0
CLASS
  1
ACDBDETAILVIEWSTYLE
  2
AcDbDetailViewStyle
  3
ObjectDBX Classes
 90
     1025
 91
        2
280
     0
281
     0
  0
CLASS
  1
SORTENTSTABLE
  2
AcDbSortentsTable
  3
ObjectDBX Classes
 90
        0
 91
        1
280
     0
281
     0
  0
CLASS
  1
ACDB_MTEXTOBJECTCONTEXTDATA_CLASS
  2
AcDbMTextObjectContextData
  3
ObjectDBX Classes
 90
     1153
 91
        0
280
     0
281
     0
  0
CLASS
  1
ACDB_ALDIMOBJECTCONTEXTDATA_CLASS
  2
AcDbAlignedDimensionObjectContextData
  3
ObjectDBX Classes
 90
     1153
 91
        0
280
     0
281
     0
  0
CLASS
  1
DIMASSOC
  2
AcDbDimAssoc
  3
"AcDbDimAssoc|Product Desc:     AcDim ARX App For Dimension|Company:          Autodesk, Inc.|WEB Address:      www.autodesk.com"
 90
        0
 91
        0
280
     0
281
     0
  0
CLASS
  1
ACAD_EVALUATION_GRAPH
  2
AcDbEvalGraph
  3
ObjectDBX Classes
 90
     1153
 91
        0
280
     0
281
     0
  0
CLASS
  1
ACAECUSTOBJ
  2
AcAeEditorObj
  3
AcAeEditorObj
 90
     1024
 91
        0
280
     0
281
     0
  0
CLASS
  1
ACDB_DYNAMICBLOCKPURGEPREVENTER_VERSION
  2
AcDbDynamicBlockPurgePreventer
  3
ObjectDBX Classes
 90
     1153
 91
        0
280
     0
281
     0
  0
ENDSEC
  0
SECTION
  2
TABLES
  0
TABLE
  2
VPORT
  5
8
330
0
100
AcDbSymbolTable
 70
     1
  0
VPORT
  5
EA
330
8
100
AcDbSymbolTableRecord
100
AcDbViewportTableRecord
  2
*Active
 70
     0
 10
0.0
 20
0.0
 11
1.0
 21
1.0
 12
2931.186813147969
 22
1430.051793049193
 13
0.0
 23
0.0
 14
10.0
 24
10.0
 15
10.0
 25
10.0
 16
0.0
 26
0.0
 36
1.0
 17
0.0
 27
0.0
 37
0.0
 40
275.109273428096
 41
1.92094861660079
 42
50.0
 43
0.0
 44
0.0
 50
0.0
 51
0.0
 71
     0
 72
  1000
 73
     1
 74
     3
 75
     0
 76
     0
 77
     0
 78
     0
281
     0
 65
     1
110
0.0
120
0.0
130
0.0
111
1.0
121
0.0
131
0.0
112
0.0
122
1.0
132
0.0
 79
     0
146
0.0
348
F5
 60
     3
 61
     5
292
     1
282
     1
141
0.0
142
0.0
 63
   250
421
  3355443
1001
ACAD_NAV_VCDISPLAY
1070
     3
  0
ENDTAB
  0
TABLE
  2
LTYPE
  5
5
330
0
100
AcDbSymbolTable
 70
     5
  0
LTYPE
  5
14
330
5
100
AcDbSymbolTableRecord
100
AcDbLinetypeTableRecord
  2
ByBlock
 70
     0
  3

 72
    65
 73
     0
 40
0.0
  0
LTYPE
  5
15
330
5
100
AcDbSymbolTableRecord
100
AcDbLinetypeTableRecord
  2
ByLayer
 70
     0
  3

 72
    65
 73
     0
 40
0.0
  0
LTYPE
  5
16
330
5
100
AcDbSymbolTableRecord
100
AcDbLinetypeTableRecord
  2
Continuous
 70
     0
  3
Solid line
 72
    65
 73
     0
 40
0.0
  0
LTYPE
  5
27B
330
5
100
AcDbSymbolTableRecord
100
AcDbLinetypeTableRecord
  2
CENTER
 70
     0
  3
____ _ ____ _ ____ _ ____ _ ____ _ ____ _ ____ 
 72
    65
 73
     4
 40
2.0
 49
1.25
 74
     0
 49
-0.25
 74
     0
 49
0.25
 74
     0
 49
-0.25
 74
     0
  0
LTYPE
  5
A4B
330
5
100
AcDbSymbolTableRecord
100
AcDbLinetypeTableRecord
  2
PHANTOM
 70
     0
  3
______  __  __  ______  __  __  ______  __  __ 
 72
    65
 73
     6
 40
2.5
 49
1.25
 74
     0
 49
-0.25
 74
     0
 49
0.25
 74
     0
 49
-0.25
 74
     0
 49
0.25
 74
     0
 49
-0.25
 74
     0
  0
LTYPE
  5
1095
330
5
100
AcDbSymbolTableRecord
100
AcDbLinetypeTableRecord
  2
HIDDEN
 70
     0
  3
Hidden __ __ __ __ __ __ __ __ __ __ __ __ __ _
 72
    65
 73
     2
 40
9.524999999999996
 49
6.349999999999997
 74
     0
 49
-3.174999999999998
 74
     0
  0
LTYPE
  5
1096
330
5
100
AcDbSymbolTableRecord
100
AcDbLinetypeTableRecord
  2
PHANTOM2
 70
     0
  3
Phantom (.5x) ___ _ _ ___ _ _ ___ _ _ ___ _ _
 72
    65
 73
     6
 40
31.75
 49
15.875
 74
     0
 49
-3.174999999999998
 74
     0
 49
3.174999999999998
 74
     0
 49
-3.174999999999998
 74
     0
 49
3.174999999999998
 74
     0
 49
-3.174999999999998
 74
     0
  0
ENDTAB
  0
TABLE
  2
LAYER
  5
2
102
{ACAD_XDICTIONARY
360
1FF
102
}
330
0
100
AcDbSymbolTable
 70
    24
  0
LAYER
  5
10
102
{ACAD_XDICTIONARY
360
13C
102
}
330
2
100
AcDbSymbolTableRecord
100
AcDbLayerTableRecord
  2
0
 70
     0
 62
     7
  6
Continuous
370
    -3
390
F
347
EE
348
0
  0
LAYER
  5
27C
102
{ACAD_XDICTIONARY
360
27D
102
}
330
2
100
AcDbSymbolTableRecord
100
AcDbLayerTableRecord
  2
C6
 70
     0
 62
     2
  6
Continuous
370
    -3
390
F
347
EE
348
0
  0
LAYER
  5
27E
102
{ACAD_XDICTIONARY
360
27F
102
}
330
2
100
AcDbSymbolTableRecord
100
AcDbLayerTableRecord
  2
SUNPOU
 70
     0
 62
     2
  6
Continuous
370
    -3
390
F
347
EE
348
0
  0
LAYER
  5
280
102
{ACAD_XDICTIONARY
360
281
102
}
330
2
100
AcDbSymbolTableRecord
100
AcDbLayerTableRecord
  2
WAKU
 70
     0
 62
     5
  6
Continuous
370
    -3
390
F
347
EE
348
0
  0
LAYER
  5
282
102
{ACAD_XDICTIONARY
360
283
102
}
330
2
100
AcDbSymbolTableRecord
100
AcDbLayerTableRecord
  2
2寸法線
 70
     0
 62
     2
  6
Continuous
370
    -3
390
F
347
EE
348
0
  0
LAYER
  5
284
102
{ACAD_XDICTIONARY
360
285
102
}
330
2
100
AcDbSymbolTableRecord
100
AcDbLayerTableRecord
  2
6図枠
 70
     0
 62
     7
  6
Continuous
370
    -3
390
F
347
EE
348
0
  0
LAYER
  5
A4C
330
2
100
AcDbSymbolTableRecord
100
AcDbLayerTableRecord
  2
Defpoints
 70
     0
 62
     7
  6
Continuous
290
     0
370
    -3
390
F
347
EE
348
0
  0
LAYER
  5
A4D
330
2
100
AcDbSymbolTableRecord
100
AcDbLayerTableRecord
  2
L5寸法
 70
     0
 62
     2
  6
Continuous
370
     9
390
F
347
EE
348
0
1001
AcAecLayerStandard
1000

1000

1001
ACCMTRANSPARENCY
1071
        0
  0
LAYER
  5
A4E
330
2
100
AcDbSymbolTableRecord
100
AcDbLayerTableRecord
  2
L7中心
 70
     0
 62
     4
  6
CENTER
370
     9
390
F
347
EE
348
0
1001
AcAecLayerStandard
1000

1000

1001
ACCMTRANSPARENCY
1071
        0
  0
LAYER
  5
A4F
330
2
100
AcDbSymbolTableRecord
100
AcDbLayerTableRecord
  2
L0
 70
     0
 62
     3
  6
Continuous
370
    30
390
F
347
EE
348
0
1001
AcAecLayerStandard
1000

1000

1001
ACCMTRANSPARENCY
1071
        0
  0
LAYER
  5
A50
330
2
100
AcDbSymbolTableRecord
100
AcDbLayerTableRecord
  2
L0-1
 70
     0
 62
   150
  6
Continuous
370
    30
390
F
347
EE
348
0
1001
AcAecLayerStandard
1000

1000

1001
ACCMTRANSPARENCY
1071
        0
  0
LAYER
  5
A51
330
2
100
AcDbSymbolTableRecord
100
AcDbLayerTableRecord
  2
L0-2
 70
     0
 62
   230
  6
Continuous
370
    30
390
F
347
EE
348
0
1001
AcAecLayerStandard
1000

1000

1001
ACCMTRANSPARENCY
1071
        0
  0
LAYER
  5
A52
330
2
100
AcDbSymbolTableRecord
100
AcDbLayerTableRecord
  2
L0-03
 70
     0
 62
    23
  6
Continuous
370
    30
390
F
347
EE
348
0
1001
AcAecLayerStandard
1000

1000

1001
ACCMTRANSPARENCY
1071
        0
  0
LAYER
  5
A53
330
2
100
AcDbSymbolTableRecord
100
AcDbLayerTableRecord
  2
L0-05
 70
     0
 62
   163
  6
Continuous
370
    30
390
F
347
EE
348
0
1001
AcAecLayerStandard
1000

1000

1001
ACCMTRANSPARENCY
1071
        0
  0
LAYER
  5
A54
330
2
100
AcDbSymbolTableRecord
100
AcDbLayerTableRecord
  2
L0-06
 70
     0
 62
   223
  6
Continuous
370
    30
390
F
347
EE
348
0
1001
AcAecLayerStandard
1000

1000

1001
ACCMTRANSPARENCY
1071
        0
  0
LAYER
  5
A55
330
2
100
AcDbSymbolTableRecord
100
AcDbLayerTableRecord
  2
L0-07
 70
     0
 62
    41
  6
Continuous
370
    30
390
F
347
EE
348
0
1001
AcAecLayerStandard
1000

1000

1001
ACCMTRANSPARENCY
1071
        0
  0
LAYER
  5
A56
330
2
100
AcDbSymbolTableRecord
100
AcDbLayerTableRecord
  2
L0-08
 70
     0
 62
    85
  6
Continuous
370
    30
390
F
347
EE
348
0
1001
AcAecLayerStandard
1000

1000

1001
ACCMTRANSPARENCY
1071
        0
  0
LAYER
  5
A57
330
2
100
AcDbSymbolTableRecord
100
AcDbLayerTableRecord
  2
L0-10
 70
     0
 62
    56
  6
Continuous
370
    30
390
F
347
EE
348
0
1001
AcAecLayerStandard
1000

1000

1001
ACCMTRANSPARENCY
1071
        0
  0
LAYER
  5
1097
102
{ACAD_XDICTIONARY
360
1098
102
}
330
2
100
AcDbSymbolTableRecord
100
AcDbLayerTableRecord
  2
1外形線
 70
     0
 62
     3
  6
Continuous
370
    30
390
F
347
EE
348
0
  0
LAYER
  5
1099
330
2
100
AcDbSymbolTableRecord
100
AcDbLayerTableRecord
  2
L2細線
 70
     0
 62
     1
  6
Continuous
370
    20
390
F
347
EE
348
0
1001
AcAecLayerStandard
1000

1000

1001
ACCMTRANSPARENCY
1071
        0
  0
LAYER
  5
109A
330
2
100
AcDbSymbolTableRecord
100
AcDbLayerTableRecord
  2
L6文字
 70
     0
 62
     2
  6
Continuous
370
     9
390
F
347
EE
348
0
1001
AcAecLayerStandard
1000

1000

1001
ACCMTRANSPARENCY
1071
        0
  0
LAYER
  5
109B
330
2
100
AcDbSymbolTableRecord
100
AcDbLayerTableRecord
  2
L9想像
 70
     0
 62
     5
  6
PHANTOM2
370
     9
390
F
347
EE
348
0
1001
AcAecLayerStandard
1000

1000

1001
ACCMTRANSPARENCY
1071
        0
  0
LAYER
  5
109C
102
{ACAD_XDICTIONARY
360
109D
102
}
330
2
100
AcDbSymbolTableRecord
100
AcDbLayerTableRecord
  2
C5
 70
     0
 62
     4
  6
Continuous
370
    -3
390
F
347
EE
348
0
  0
LAYER
  5
109E
330
2
100
AcDbSymbolTableRecord
100
AcDbLayerTableRecord
  2
L0-04
 70
     0
 62
    34
  6
Continuous
370
    30
390
F
347
EE
348
0
1001
AcAecLayerStandard
1000

1000

1001
ACCMTRANSPARENCY
1071
        0
  0
ENDTAB
  0
TABLE
  2
STYLE
  5
3
330
0
100
AcDbSymbolTable
 70
     7
  0
STYLE
  5
11
330
3
100
AcDbSymbolTableRecord
100
AcDbTextStyleTableRecord
  2
Standard
 70
     0
 40
0.0
 41
1.0
 50
0.0
 71
     0
 42
23.13421075919951
  3
arial.ttf
  4

1001
ACAD
1000
Arial
1071
       34
  0
STYLE
  5
132
330
3
100
AcDbSymbolTableRecord
100
AcDbTextStyleTableRecord
  2
Annotative
 70
     0
 40
0.0
 41
1.0
 50
0.0
 71
     0
 42
2.5
  3
arial.ttf
  4

1001
AcadAnnotative
1000
AnnotativeData
1002
{
1070
     1
1070
     1
1002
}
1001
ACAD
1000
Arial
1071
       34
  0
STYLE
  5
286
330
3
100
AcDbSymbolTableRecord
100
AcDbTextStyleTableRecord
  2
KANJI
 70
     0
 40
0.0
 41
1.0
 50
0.0
 71
     0
 42
5.0
  3
simplex
  4
bigfont
  0
STYLE
  5
287
330
3
100
AcDbSymbolTableRecord
100
AcDbTextStyleTableRecord
  2
CMP-SET
 70
     0
 40
0.0
 41
1.0
 50
0.0
 71
     0
 42
3.0
  3
SIMPLEX
  4
BIGFONT
  0
STYLE
  5
288
330
3
100
AcDbSymbolTableRecord
100
AcDbTextStyleTableRecord
  2
ｺﾞｼｯｸ
 70
     0
 40
0.0
 41
1.0
 50
0.0
 71
     0
 42
2.5
  3

  4

1001
ACAD
1000
MS PGothic
1071
    32818
  0
STYLE
  5
A58
330
3
100
AcDbSymbolTableRecord
100
AcDbTextStyleTableRecord
  2
S_KANJI
 70
     0
 40
3.2
 41
0.8
 50
0.0
 71
     0
 42
3.2
  3
simplex.shx
  4
bigfont.shx
1001
AcadAnnotative
1000
AnnotativeData
1002
{
1070
     1
1070
     0
1002
}
  0
STYLE
  5
109F
330
3
100
AcDbSymbolTableRecord
100
AcDbTextStyleTableRecord
  2
S_KANJI_M
 70
     0
 40
2.799999999999998
 41
0.8
 50
0.0
 71
     0
 42
2.799999999999998
  3
simplex.shx
  4
bigfont.shx
1001
AcadAnnotative
1000
AnnotativeData
1002
{
1070
     1
1070
     1
1002
}
  0
ENDTAB
  0
TABLE
  2
VIEW
  5
6
330
0
100
AcDbSymbolTable
 70
     0
  0
ENDTAB
  0
TABLE
  2
UCS
  5
7
330
0
100
AcDbSymbolTable
 70
     0
  0
ENDTAB
  0
TABLE
  2
APPID
  5
9
330
0
100
AcDbSymbolTable
 70
    18
  0
APPID
  5
12
330
9
100
AcDbSymbolTableRecord
100
AcDbRegAppTableRecord
  2
ACAD
 70
     0
  0
APPID
  5
9E
330
9
100
AcDbSymbolTableRecord
100
AcDbRegAppTableRecord
  2
ACAD_PSEXT
 70
     0
  0
APPID
  5
133
330
9
100
AcDbSymbolTableRecord
100
AcDbRegAppTableRecord
  2
AcadAnnoPO
 70
     0
  0
APPID
  5
134
330
9
100
AcDbSymbolTableRecord
100
AcDbRegAppTableRecord
  2
AcadAnnotative
 70
     0
  0
APPID
  5
135
330
9
100
AcDbSymbolTableRecord
100
AcDbRegAppTableRecord
  2
ACAD_DSTYLE_DIMJAG
 70
     0
  0
APPID
  5
136
330
9
100
AcDbSymbolTableRecord
100
AcDbRegAppTableRecord
  2
ACAD_DSTYLE_DIMTALN
 70
     0
  0
APPID
  5
165
330
9
100
AcDbSymbolTableRecord
100
AcDbRegAppTableRecord
  2
ACAD_MLEADERVER
 70
     0
  0
APPID
  5
217
330
9
100
AcDbSymbolTableRecord
100
AcDbRegAppTableRecord
  2
ACAD_NAV_VCDISPLAY
 70
     0
  0
APPID
  5
907
330
9
100
AcDbSymbolTableRecord
100
AcDbRegAppTableRecord
  2
ACAD_EXEMPT_FROM_CAD_STANDARDS
 70
     0
  0
APPID
  5
A5C
330
9
100
AcDbSymbolTableRecord
100
AcDbRegAppTableRecord
  2
AcAecLayerStandard
 70
     0
  0
APPID
  5
A5D
330
9
100
AcDbSymbolTableRecord
100
AcDbRegAppTableRecord
  2
ACAD_DSTYLE_DIMBREAK
 70
     0
  0
APPID
  5
A5E
330
9
100
AcDbSymbolTableRecord
100
AcDbRegAppTableRecord
  2
ACCMTRANSPARENCY
 70
     0
  0
APPID
  5
10A4
330
9
100
AcDbSymbolTableRecord
100
AcDbRegAppTableRecord
  2
ACAD_DSTYLE_DIMRADIAL_EXTENSION
 70
     0
  0
APPID
  5
10A5
330
9
100
AcDbSymbolTableRecord
100
AcDbRegAppTableRecord
  2
GRADIENTCOLOR1ACI
 70
     0
  0
APPID
  5
10A6
330
9
100
AcDbSymbolTableRecord
100
AcDbRegAppTableRecord
  2
GRADIENTCOLOR2ACI
 70
     0
  0
APPID
  5
1D19
330
9
100
AcDbSymbolTableRecord
100
AcDbRegAppTableRecord
  2
ACAUTHENVIRON
 70
     0
  0
APPID
  5
1D1C
330
9
100
AcDbSymbolTableRecord
100
AcDbRegAppTableRecord
  2
AcDbDynamicBlockTrueName
 70
     0
  0
APPID
  5
1D1D
330
9
100
AcDbSymbolTableRecord
100
AcDbRegAppTableRecord
  2
AcDbDynamicBlockGUID
 70
     0
  0
ENDTAB
  0
TABLE
  2
DIMSTYLE
  5
A
330
0
100
AcDbSymbolTable
 70
    11
100
AcDbDimStyleTable
 71
     2
340
27
340
137
  0
DIMSTYLE
105
1B0
330
A
100
AcDbSymbolTableRecord
100
AcDbDimStyleTableRecord
  2
Standard
 70
     0
340
11
  0
DIMSTYLE
105
137
330
A
100
AcDbSymbolTableRecord
100
AcDbDimStyleTableRecord
  2
Annotative
 70
     0
 40
0.0
 41
2.5
 42
0.625
 43
3.75
 44
1.25
 73
     0
 74
     0
 77
     1
 78
     8
140
2.5
141
2.5
143
0.03937007874016
147
0.625
171
     3
172
     1
271
     2
272
     2
274
     3
278
    44
283
     0
284
     8
340
11
1001
AcadAnnotative
1000
AnnotativeData
1002
{
1070
     1
1070
     1
1002
}
1001
ACAD_DSTYLE_DIMJAG
1070
   388
1040
1.5
1001
ACAD_DSTYLE_DIMTALN
1070
   392
1070
     0
  0
DIMSTYLE
105
27
330
A
100
AcDbSymbolTableRecord
100
AcDbDimStyleTableRecord
  2
ISO-25
 70
     0
 41
2.5
 42
0.625
 43
3.75
 44
1.25
 73
     0
 74
     0
 77
     1
 78
     8
140
2.5
141
2.5
143
0.03937007874016
147
0.625
171
     3
172
     1
271
     2
272
     2
274
     3
278
    44
283
     0
284
     8
340
11
  0
DIMSTYLE
105
289
330
A
100
AcDbSymbolTableRecord
100
AcDbDimStyleTableRecord
  2
M
 70
     0
 40
0.0
 41
2.0
 42
1.0
 43
0.0
 44
1.0
 73
     0
 74
     0
 77
     1
 78
     8
140
2.5
141
0.0
147
0.5
172
     1
173
     1
284
     8
340
286
341
277
343
277
344
277
  0
DIMSTYLE
105
A59
330
A
100
AcDbSymbolTableRecord
100
AcDbDimStyleTableRecord
  2
S_STAND
 70
     0
 41
2.0
 42
1.0
 43
8.0
 44
0.5
 73
     0
 74
     0
 77
     1
 78
     8
140
3.2
141
0.0
147
0.8
176
   256
177
   256
271
     2
272
     2
284
     8
285
     8
286
     8
340
286
341
277
342
277
1001
ACAD_DSTYLE_DIMBREAK
1070
   391
1040
3.75
1001
AcadAnnotative
1000
AnnotativeData
1002
{
1070
     1
1070
     1
1002
}
1001
ACAD_DSTYLE_DIMJAG
1070
   388
1040
2.98
1001
ACAD_DSTYLE_DIMTALN
1070
   392
1070
     0
  0
DIMSTYLE
105
A5A
330
A
100
AcDbSymbolTableRecord
100
AcDbDimStyleTableRecord
  2
S_STAND$0
 70
     0
 41
2.0
 42
1.0
 43
8.0
 44
0.5
 73
     0
 74
     0
 77
     1
 78
     8
140
3.2
141
0.0
147
0.8
172
     1
176
   256
177
   256
271
     2
272
     2
284
     8
285
     8
286
     8
340
286
341
277
342
277
1001
ACAD_DSTYLE_DIMBREAK
1070
   391
1040
3.75
1001
AcadAnnotative
1000
AnnotativeData
1002
{
1070
     1
1070
     1
1002
}
1001
ACAD_DSTYLE_DIMJAG
1070
   388
1040
2.98
1001
ACAD_DSTYLE_DIMTALN
1070
   392
1070
     0
  0
DIMSTYLE
105
A5B
330
A
100
AcDbSymbolTableRecord
100
AcDbDimStyleTableRecord
  2
JIS
 70
     0
 41
2.5
 42
1.0
 43
7.0
 44
1.0
 73
     0
 74
     0
 77
     1
 78
     8
 79
     2
140
2.5
141
0.0
143
0.0394
147
1.0
172
     1
174
     1
175
     1
176
   256
177
   256
178
   256
340
11
371
    -1
372
    -1
  0
DIMSTYLE
105
10A0
330
A
100
AcDbSymbolTableRecord
100
AcDbDimStyleTableRecord
  2
AM_ISO
 70
     0
  4
"
 41
6.0
 42
2.0
 43
10.0
 44
2.0
 47
0.1
 48
0.1
 73
     0
 74
     0
 77
     1
 78
     8
 79
     2
140
12.0
141
0.0
143
0.0393701
146
0.71
147
2.0
172
     1
176
     2
177
     2
178
     2
271
     2
272
     2
283
     0
284
     8
340
286
341
277
342
277
371
    -1
372
    -1
  0
DIMSTYLE
105
10A1
330
A
100
AcDbSymbolTableRecord
100
AcDbDimStyleTableRecord
  2
S_STANDARD
 70
     0
 41
2.0
 42
1.0
 43
8.0
 44
0.5
 73
     0
 74
     0
 77
     1
 78
     8
140
2.799999999999998
141
0.0
147
0.8
176
   256
177
   256
271
     2
272
     2
284
     8
285
     8
286
     8
340
109F
341
277
342
277
1001
ACAD_DSTYLE_DIMBREAK
1070
   391
1040
3.75
1001
AcadAnnotative
1000
AnnotativeData
1002
{
1070
     1
1070
     1
1002
}
1001
ACAD_DSTYLE_DIMJAG
1070
   388
1040
2.98
1001
ACAD_DSTYLE_DIMTALN
1070
   392
1070
     0
  0
DIMSTYLE
105
10A2
330
A
100
AcDbSymbolTableRecord
100
AcDbDimStyleTableRecord
  2
S_STANDARD R用
 70
     0
 41
2.0
 42
1.0
 43
8.0
 44
0.5
 73
     0
 77
     1
 78
     8
140
2.799999999999998
141
0.0
147
0.8
176
   256
177
   256
271
     2
272
     2
284
     8
285
     8
286
     8
340
109F
341
277
342
277
1001
ACAD_DSTYLE_DIMBREAK
1070
   391
1040
3.75
1001
AcadAnnotative
1000
AnnotativeData
1002
{
1070
     1
1070
     1
1002
}
1001
ACAD_DSTYLE_DIMJAG
1070
   388
1040
2.98
1001
ACAD_DSTYLE_DIMTALN
1070
   392
1070
     0
  0
DIMSTYLE
105
10A3
330
A
100
AcDbSymbolTableRecord
100
AcDbDimStyleTableRecord
  2
M$3
 70
     0
 40
0.5
 41
2.0
 42
1.0
 43
0.0
 44
1.0
 77
     1
 78
     8
140
2.5
141
0.0
147
0.5
172
     1
173
     1
176
   256
177
   256
178
   256
271
     1
272
     1
279
     1
284
     8
340
286
341
277
343
277
344
277
1001
ACAD_DSTYLE_DIMBREAK
1070
   391
1040
3.75
1001
ACAD_DSTYLE_DIMJAG
1070
   388
1040
1.5
1001
ACAD_DSTYLE_DIMTALN
1070
   392
1070
     0
  0
ENDTAB
  0
TABLE
  2
BLOCK_RECORD
  5
1
330
0
100
AcDbSymbolTable
 70
    25
  0
BLOCK_RECORD
  5
1F
102
{ACAD_XDICTIONARY
360
1CE
102
}
330
1
100
AcDbSymbolTableRecord
100
AcDbBlockTableRecord
  2
*Model_Space
340
22
 70
     0
280
     1
281
     0
  0
BLOCK_RECORD
  5
D2
330
1
100
AcDbSymbolTableRecord
100
AcDbBlockTableRecord
  2
*Paper_Space
340
D3
 70
     0
280
     1
281
     0
  0
BLOCK_RECORD
  5
D6
330
1
100
AcDbSymbolTableRecord
100
AcDbBlockTableRecord
  2
*Paper_Space0
340
D7
 70
     0
280
     1
281
     0
  0
BLOCK_RECORD
  5
277
330
1
100
AcDbSymbolTableRecord
100
AcDbBlockTableRecord
  2
2
340
0
102
{BLKREFS
331
1CC6
331
1CC7
331
1CCD
331
1CCE
331
1CD6
331
1CD7
331
1CDF
331
1CE0
331
1CE8
331
1CE9
331
1CF1
331
1CF2
331
1CFA
331
1CFB
331
1D05
331
1D06
331
1A21
331
1A22
331
1A93
331
1A94
331
1922
331
1923
331
192B
331
192C
331
19B1
331
19B2
331
19BA
331
19BB
331
19C5
331
19C6
331
19CE
331
19CF
331
19D7
331
19D8
331
19EA
331
19EB
331
19F3
331
19F4
331
1CA9
331
1CAA
331
1CB2
331
1CB3
331
1CBB
331
1CBC
102
}
 70
     0
280
     1
281
     0
  0
BLOCK_RECORD
  5
FAA
102
{ACAD_XDICTIONARY
360
1D18
102
}
330
1
100
AcDbSymbolTableRecord
100
AcDbBlockTableRecord
  2
84684354353
340
0
310
2800000020000000200000000100080000000000000400000000000000000000000000000000000000000000000080000080000000808000800000008000800080800000C0C0C000C0DCC000F0CAA6000020400000206000002080000020A0000020C0000020E00000400000004020000040400000406000004080000040A0
310
000040C0000040E00000600000006020000060400000606000006080000060A0000060C0000060E00000800000008020000080400000806000008080000080A0000080C0000080E00000A0000000A0200000A0400000A0600000A0800000A0A00000A0C00000A0E00000C0000000C0200000C0400000C0600000C0800000C0
310
A00000C0C00000C0E00000E0000000E0200000E0400000E0600000E0800000E0A00000E0C00000E0E00040000000400020004000400040006000400080004000A0004000C0004000E00040200000402020004020400040206000402080004020A0004020C0004020E000404000004040200040404000404060004040800040
310
40A0004040C0004040E00040600000406020004060400040606000406080004060A0004060C0004060E00040800000408020004080400040806000408080004080A0004080C0004080E00040A0000040A0200040A0400040A0600040A0800040A0A00040A0C00040A0E00040C0000040C0200040C0400040C0600040C08000
310
40C0A00040C0C00040C0E00040E0000040E0200040E0400040E0600040E0800040E0A00040E0C00040E0E00080000000800020008000400080006000800080008000A0008000C0008000E00080200000802020008020400080206000802080008020A0008020C0008020E00080400000804020008040400080406000804080
310
008040A0008040C0008040E00080600000806020008060400080606000806080008060A0008060C0008060E00080800000808020008080400080806000808080008080A0008080C0008080E00080A0000080A0200080A0400080A0600080A0800080A0A00080A0C00080A0E00080C0000080C0200080C0400080C0600080C0
310
800080C0A00080C0C00080C0E00080E0000080E0200080E0400080E0600080E0800080E0A00080E0C00080E0E000C0000000C0002000C0004000C0006000C0008000C000A000C000C000C000E000C0200000C0202000C0204000C0206000C0208000C020A000C020C000C020E000C0400000C0402000C0404000C0406000C0
310
408000C040A000C040C000C040E000C0600000C0602000C0604000C0606000C0608000C060A000C060C000C060E000C0800000C0802000C0804000C0806000C0808000C080A000C080C000C080E000C0A00000C0A02000C0A04000C0A06000C0A08000C0A0A000C0A0C000C0A0E000C0C00000C0C02000C0C04000C0C06000
310
C0C08000C0C0A000F0FBFF00A4A0A000808080000000FF0000FF000000FFFF00FF000000FF00FF00FFFF0000FFFFFF00000000000000000000000000000000000000000000000000000000000000000000000000000000000000000000000000DEDE0000000000000000000000000000000000000000000000000000000000
310
DEDEDE00000000000000000000000000000000000000000000DEDEDE00000000DE00DE00000000000000000000000000000000000000000000DE00DE000000DEDE00DE00000000000000000000000000000000000000000000DE00DE000000DEDE0000DE000000000000000000000000000000000000000000DE00DE000000
310
0000DE00DE000000000000000000000000000000000000000000DE00DE0000000000DE00DE000000000000000000000000000000000000000000DE00DE0000000000DE00DE000000000000000000000000000000000000000000DE00DE0000000000DE00DE000000000000000000000000000000000000000000DE00DE0000
310
000000DE0000DE0000000000000000000000000000000000000000DE00DE000000000000DE00DE0000000000000000000000000000000000000000DE00DE000000000000DE00DE0000000000000000000000000000000000000000DE00DE000000000000DE00DE0000000000000000000000000000000000000000DE00DE00
310
0000000000DE00DE0000000000000000000000000000000000000000DE00DE000000000000DE00DE0000000000000000000000000000000000000000DE00DE000000000000DE0000DE00000000000000000000000000000000000000DE00DE00000000000000DE00DE00000000000000000000000000000000000000DE00DE
310
00000000000000DE00DE00000000000000000000000000000000000000DE00DE00000000000000DE00DE00000000000000000000000000000000000000DE00DE00000000000000DE00DE00000000000000000000000000000000000000DE00DE00000000000000DE0000DE000000000000000000000000000000000000DE00
310
DE0000000000000000DE00DE000000000000000000000000000000000000DE00DE0000000000000000DE00DE000000000000000000000000000000000000DE00DE0000000000000000DE00DE000000000000000000000000000000000000DE00DE0000000000000000DE00DE00DE00000000000000000000000000000000DE
310
DEDE0000000000000000DE0000DEDE0000000000000000000000000000000000DEDE000000000000000000DE00DEDE00000000000000000000000000000000000000000000000000000000DE00DE0000000000000000000000000000000000000000000000000000000000DEDEDE0000000000000000000000000000000000
310
00000000000000000000000000DE000000000000000000000000000000000000000000000000000000000000000000000000000000000000
102
{BLKREFS
331
1B21
331
1BDA
102
}
 70
     0
280
     1
281
     1
1001
AcDbDynamicBlockGUID
1000
{F207434F-E090-3E4D-8F90-CE2C36874AB1}
  0
BLOCK_RECORD
  5
1461
330
1
100
AcDbSymbolTableRecord
100
AcDbBlockTableRecord
  2
*D3
340
0
 70
     0
280
     1
281
     0
  0
BLOCK_RECORD
  5
146D
330
1
100
AcDbSymbolTableRecord
100
AcDbBlockTableRecord
  2
*D4
340
0
 70
     0
280
     1
281
     0
  0
BLOCK_RECORD
  5
1479
330
1
100
AcDbSymbolTableRecord
100
AcDbBlockTableRecord
  2
*D5
340
0
 70
     0
280
     1
281
     0
  0
BLOCK_RECORD
  5
1485
330
1
100
AcDbSymbolTableRecord
100
AcDbBlockTableRecord
  2
*D6
340
0
 70
     0
280
     1
281
     0
  0
BLOCK_RECORD
  5
1491
330
1
100
AcDbSymbolTableRecord
100
AcDbBlockTableRecord
  2
*D7
340
0
 70
     0
280
     1
281
     0
  0
BLOCK_RECORD
  5
14DA
330
1
100
AcDbSymbolTableRecord
100
AcDbBlockTableRecord
  2
*D8
340
0
 70
     0
280
     1
281
     0
  0
BLOCK_RECORD
  5
1502
330
1
100
AcDbSymbolTableRecord
100
AcDbBlockTableRecord
  2
*D9
340
0
 70
     0
280
     1
281
     0
  0
BLOCK_RECORD
  5
151A
330
1
100
AcDbSymbolTableRecord
100
AcDbBlockTableRecord
  2
*D10
340
0
 70
     0
280
     1
281
     0
  0
BLOCK_RECORD
  5
1526
330
1
100
AcDbSymbolTableRecord
100
AcDbBlockTableRecord
  2
*D11
340
0
 70
     0
280
     1
281
     0
  0
BLOCK_RECORD
  5
1532
330
1
100
AcDbSymbolTableRecord
100
AcDbBlockTableRecord
  2
*D12
340
0
 70
     0
280
     1
281
     0
  0
BLOCK_RECORD
  5
1A2E
330
1
100
AcDbSymbolTableRecord
100
AcDbBlockTableRecord
  2
*D13
340
0
 70
     0
280
     1
281
     0
  0
BLOCK_RECORD
  5
1C20
330
1
100
AcDbSymbolTableRecord
100
AcDbBlockTableRecord
  2
*D14
340
0
 70
     0
280
     1
281
     0
  0
BLOCK_RECORD
  5
1C2C
330
1
100
AcDbSymbolTableRecord
100
AcDbBlockTableRecord
  2
*D15
340
0
 70
     0
280
     1
281
     0
  0
BLOCK_RECORD
  5
1C38
330
1
100
AcDbSymbolTableRecord
100
AcDbBlockTableRecord
  2
*D16
340
0
 70
     0
280
     1
281
     0
  0
BLOCK_RECORD
  5
1C44
330
1
100
AcDbSymbolTableRecord
100
AcDbBlockTableRecord
  2
*D17
340
0
 70
     0
280
     1
281
     0
  0
BLOCK_RECORD
  5
1C50
330
1
100
AcDbSymbolTableRecord
100
AcDbBlockTableRecord
  2
*D18
340
0
 70
     0
280
     1
281
     0
  0
BLOCK_RECORD
  5
1C5C
330
1
100
AcDbSymbolTableRecord
100
AcDbBlockTableRecord
  2
*D19
340
0
 70
     0
280
     1
281
     0
  0
BLOCK_RECORD
  5
1C68
330
1
100
AcDbSymbolTableRecord
100
AcDbBlockTableRecord
  2
*D20
340
0
 70
     0
280
     1
281
     0
  0
BLOCK_RECORD
  5
1C74
330
1
100
AcDbSymbolTableRecord
100
AcDbBlockTableRecord
  2
*D21
340
0
 70
     0
280
     1
281
     0
  0
BLOCK_RECORD
  5
1C80
330
1
100
AcDbSymbolTableRecord
100
AcDbBlockTableRecord
  2
*D22
340
0
 70
     0
280
     1
281
     0
  0
BLOCK_RECORD
  5
1C8C
330
1
100
AcDbSymbolTableRecord
100
AcDbBlockTableRecord
  2
*D23
340
0
 70
     0
280
     1
281
     0
  0
BLOCK_RECORD
  5
1C98
330
1
100
AcDbSymbolTableRecord
100
AcDbBlockTableRecord
  2
*D24
340
0
 70
     0
280
     1
281
     0
  0
ENDTAB
  0
ENDSEC
  0
SECTION
  2
BLOCKS
  0
BLOCK
  5
20
330
1F
100
AcDbEntity
  8
0
100
AcDbBlockBegin
  2
*Model_Space
 70
     0
 10
0.0
 20
0.0
 30
0.0
  3
*Model_Space
  1

  0
ENDBLK
  5
21
330
1F
100
AcDbEntity
  8
0
100
AcDbBlockEnd
  0
BLOCK
  5
D4
330
D2
100
AcDbEntity
 67
     1
  8
0
100
AcDbBlockBegin
  2
*Paper_Space
 70
     0
 10
0.0
 20
0.0
 30
0.0
  3
*Paper_Space
  1

  0
ENDBLK
  5
D5
330
D2
100
AcDbEntity
 67
     1
  8
0
100
AcDbBlockEnd
  0
BLOCK
  5
D8
330
D6
100
AcDbEntity
 67
     1
  8
0
100
AcDbBlockBegin
  2
*Paper_Space0
 70
     0
 10
0.0
 20
0.0
 30
0.0
  3
*Paper_Space0
  1

  0
ENDBLK
  5
D9
330
D6
100
AcDbEntity
 67
     1
  8
0
100
AcDbBlockEnd
  0
BLOCK
  5
278
330
277
100
AcDbEntity
  8
0
 48
3.0
100
AcDbBlockBegin
  2
2
 70
     0
 10
0.0
 20
0.0
 30
0.0
  3
2
  1

  0
HATCH
  5
279
330
277
100
AcDbEntity
  8
0
  6
ByBlock
 62
     0
 48
3.0
380
     1
100
AcDbHatch
 10
0.0
 20
0.0
 30
0.0
210
0.0
220
0.0
230
1.0
  2
SOLID
 70
     1
 71
     0
 91
        1
 92
        1
 93
        3
 72
     1
 10
-0.9999999999983517
 20
0.2679491924306774
 11
0.0
 21
0.0
 72
     1
 10
0.0
 20
0.0
 11
-0.9999999999983517
 21
-0.2679491924306765
 72
     1
 10
-0.9999999999983524
 20
-0.267949192430676
 11
-0.9999999999983524
 21
0.2679491924306774
 97
        0
 75
     0
 76
     1
 98
        1
 10
2.995745117231336
 20
-4.124946096263201
450
        0
451
        0
460
0.0
461
0.0
452
        0
462
0.0
453
        0
470

  0
ENDBLK
  5
27A
330
277
100
AcDbEntity
  8
0
 48
3.0
100
AcDbBlockEnd
  0
BLOCK
  5
FAC
330
FAA
100
AcDbEntity
  8
0
 48
3.0
100
AcDbBlockBegin
  2
84684354353
 70
     0
 10
0.0
 20
0.0
 30
0.0
  3
84684354353
  1

  0
ARC
  5
1D0E
330
FAA
100
AcDbEntity
  8
1外形線
 48
3.0
100
AcDbCircle
 10
3.94162338756837
 20
-6.125968146983947
 30
0.0
 40
0.4999999999999062
100
AcDbArc
 50
169.6118884341573
 51
349.6118884341573
  0
ARC
  5
1D0F
330
FAA
100
AcDbEntity
  8
1外形線
 48
3.0
100
AcDbCircle
 10
0.4999999999998864
 20
-5.275008517558261
 30
0.0
 40
0.5
100
AcDbArc
 50
180.0
 51
0.0
  0
ARC
  5
1D10
330
FAA
100
AcDbEntity
  8
1外形線
 48
3.0
100
AcDbCircle
 10
0.4999999999998864
 20
5.275008517558261
 30
0.0
 40
0.5
100
AcDbArc
 50
0.0
 51
180.0
  0
ARC
  5
1D11
330
FAA
100
AcDbEntity
  8
1外形線
 48
3.0
100
AcDbCircle
 10
6.291896401652365
 20
6.694644262259997
 30
0.0
 40
0.5
100
AcDbArc
 50
349.6118884341573
 51
169.6118884341573
  0
LINE
  5
1D12
330
FAA
100
AcDbEntity
  8
1外形線
 48
3.0
100
AcDbLine
 10
3.462659522261673
 20
-6.269472905547218
 30
0.0
 11
3.008211046041196
 21
-4.752698124471177
 31
0.0
  0
LINE
  5
1D13
330
FAA
100
AcDbEntity
  8
1外形線
 48
3.0
100
AcDbLine
 10
7.240561361557411
 20
4.747299327337259
 30
0.0
 11
6.779802045609128
 21
6.803951547448377
 31
0.0
  0
LINE
  5
1D14
330
FAA
100
AcDbEntity
  8
1外形線
 48
3.0
100
AcDbLine
 10
4.433427840556419
 20
-6.216125675904321
 30
0.0
 11
6.783700854640526
 21
6.604486733339624
 31
0.0
  0
LINE
  5
1D15
330
FAA
100
AcDbEntity
  8
1外形線
 48
3.0
100
AcDbLine
 10
3.449818934580207
 20
-6.035810618063352
 30
0.0
 11
5.800091948664316
 21
6.784801791180597
 31
0.0
  0
LINE
  5
1D16
330
FAA
100
AcDbEntity
  8
1外形線
 48
3.0
100
AcDbLine
 10
0.9999999999998864
 20
5.275008517558261
 30
0.0
 11
0.9999999999998864
 21
-5.275008517558261
 31
0.0
  0
LINE
  5
1D17
330
FAA
100
AcDbEntity
  8
1外形線
 48
3.0
100
AcDbLine
 10
0.0
 20
-5.275008517558261
 30
0.0
 11
0.0
 21
5.275008517558261
 31
0.0
  0
ENDBLK
  5
FB7
330
FAA
100
AcDbEntity
  8
0
 48
3.0
100
AcDbBlockEnd
  0
BLOCK
  5
1462
330
1461
100
AcDbEntity
  8
0
100
AcDbBlockBegin
  2
*D3
 70
     1
 10
0.0
 20
0.0
 30
0.0
  3
*D3
  1

  0
LINE
  5
19D4
330
1461
100
AcDbEntity
  8
L5寸法
 62
     0
440
 16777216
 48
3.0
370
    -2
100
AcDbLine
 10
2392.749886180559
 20
1346.187056019249
 30
0.0
 11
2392.749886180559
 21
1399.301680952872
 31
0.0
  0
LINE
  5
19D5
330
1461
100
AcDbEntity
  8
L5寸法
 62
     0
440
 16777216
 48
3.0
370
    -2
100
AcDbLine
 10
2468.749886180611
 20
1381.187056019247
 30
0.0
 11
2468.749886180611
 21
1399.301680952872
 31
0.0
  0
LINE
  5
19D6
330
1461
100
AcDbEntity
  8
L5寸法
 62
     0
440
 16777216
 48
3.0
370
    -2
100
AcDbLine
 10
2394.74988618056
 20
1398.301680952872
 30
0.0
 11
2466.749886180612
 21
1398.301680952872
 31
0.0
  0
INSERT
  5
19D7
330
1461
100
AcDbEntity
  8
L5寸法
 62
     0
440
 16777216
 48
3.0
370
    -2
100
AcDbBlockReference
  2
2
 10
2392.749886180559
 20
1398.301680952872
 30
0.0
 41
2.0
 42
2.0
 43
2.0
 50
180.0
  0
INSERT
  5
19D8
330
1461
100
AcDbEntity
  8
L5寸法
 62
     0
440
 16777216
 48
3.0
370
    -2
100
AcDbBlockReference
  2
2
 10
2468.749886180611
 20
1398.301680952872
 30
0.0
 41
2.0
 42
2.0
 43
2.0
  0
MTEXT
  5
19D9
330
1461
100
AcDbEntity
  8
L5寸法
 62
     0
440
 16777216
 48
3.0
100
AcDbMText
 10
2430.749886180585
 20
1400.051680952872
 30
0.0
 40
2.5
 41
0.0
 46
0.0
 71
     5
 72
     1
  1
\A1;76
  7
KANJI
 73
     1
 44
1.0
  0
POINT
  5
19DA
330
1461
100
AcDbEntity
  8
Defpoints
 62
     0
440
 16777216
 48
3.0
100
AcDbPoint
 10
2392.749886180559
 20
1345.18705601925
 30
0.0
  0
POINT
  5
19DB
330
1461
100
AcDbEntity
  8
Defpoints
 62
     0
440
 16777216
 48
3.0
100
AcDbPoint
 10
2468.749886180611
 20
1380.187056019247
 30
0.0
  0
POINT
  5
19DC
330
1461
100
AcDbEntity
  8
Defpoints
 62
     0
440
 16777216
 48
3.0
100
AcDbPoint
 10
2468.749886180611
 20
1398.301680952872
 30
0.0
  0
ENDBLK
  5
1463
330
1461
100
AcDbEntity
  8
0
100
AcDbBlockEnd
  0
BLOCK
  5
146E
330
146D
100
AcDbEntity
  8
0
100
AcDbBlockBegin
  2
*D4
 70
     1
 10
0.0
 20
0.0
 30
0.0
  3
*D4
  1

  0
LINE
  5
19E7
330
146D
100
AcDbEntity
  8
L5寸法
 62
     0
440
 16777216
 48
3.0
370
    -2
100
AcDbLine
 10
2554.40544867492
 20
1385.254468850412
 30
0.0
 11
2554.40544867492
 21
1391.478440787222
 31
0.0
  0
LINE
  5
19E8
330
146D
100
AcDbEntity
  8
L5寸法
 62
     0
440
 16777216
 48
3.0
370
    -2
100
AcDbLine
 10
2573.405449681362
 20
1379.187056019214
 30
0.0
 11
2573.405449681362
 21
1391.478440787222
 31
0.0
  0
LINE
  5
19E9
330
146D
100
AcDbEntity
  8
L5寸法
 62
     0
440
 16777216
 48
3.0
370
    -2
100
AcDbLine
 10
2556.40544867492
 20
1390.478440787221
 30
0.0
 11
2571.405449681362
 21
1390.478440787221
 31
0.0
  0
INSERT
  5
19EA
330
146D
100
AcDbEntity
  8
L5寸法
 62
     0
440
 16777216
 48
3.0
370
    -2
100
AcDbBlockReference
  2
2
 10
2554.40544867492
 20
1390.478440787221
 30
0.0
 41
2.0
 42
2.0
 43
2.0
 50
180.0
  0
INSERT
  5
19EB
330
146D
100
AcDbEntity
  8
L5寸法
 62
     0
440
 16777216
 48
3.0
370
    -2
100
AcDbBlockReference
  2
2
 10
2573.405449681362
 20
1390.478440787221
 30
0.0
 41
2.0
 42
2.0
 43
2.0
  0
MTEXT
  5
19EC
330
146D
100
AcDbEntity
  8
L5寸法
 62
     0
440
 16777216
 48
3.0
100
AcDbMText
 10
2563.905449178141
 20
1392.228440787222
 30
0.0
 40
2.5
 41
0.0
 46
0.0
 71
     5
 72
     1
  1
\A1;19
  7
KANJI
 73
     1
 44
1.0
  0
POINT
  5
19ED
330
146D
100
AcDbEntity
  8
Defpoints
 62
     0
440
 16777216
 48
3.0
100
AcDbPoint
 10
2554.40544867492
 20
1384.254468850412
 30
0.0
  0
POINT
  5
19EE
330
146D
100
AcDbEntity
  8
Defpoints
 62
     0
440
 16777216
 48
3.0
100
AcDbPoint
 10
2573.405449681362
 20
1378.187056019214
 30
0.0
  0
POINT
  5
19EF
330
146D
100
AcDbEntity
  8
Defpoints
 62
     0
440
 16777216
 48
3.0
100
AcDbPoint
 10
2573.405449681362
 20
1390.478440787221
 30
0.0
  0
ENDBLK
  5
146F
330
146D
100
AcDbEntity
  8
0
100
AcDbBlockEnd
  0
BLOCK
  5
147A
330
1479
100
AcDbEntity
  8
0
100
AcDbBlockBegin
  2
*D5
 70
     1
 10
0.0
 20
0.0
 30
0.0
  3
*D5
  1

  0
LINE
  5
19F0
330
1479
100
AcDbEntity
  8
L5寸法
 62
     0
440
 16777216
 48
3.0
370
    -2
100
AcDbLine
 10
2573.405449681362
 20
1379.187056019214
 30
0.0
 11
2573.405449681362
 21
1399.301680952872
 31
0.0
  0
LINE
  5
19F1
330
1479
100
AcDbEntity
  8
L5寸法
 62
     0
440
 16777216
 48
3.0
370
    -2
100
AcDbLine
 10
2541.405449681362
 20
1381.187056019214
 30
0.0
 11
2541.405449681362
 21
1399.301680952872
 31
0.0
  0
LINE
  5
19F2
330
1479
100
AcDbEntity
  8
L5寸法
 62
     0
440
 16777216
 48
3.0
370
    -2
100
AcDbLine
 10
2571.405449681362
 20
1398.301680952872
 30
0.0
 11
2543.405449681362
 21
1398.301680952872
 31
0.0
  0
INSERT
  5
19F3
330
1479
100
AcDbEntity
  8
L5寸法
 62
     0
440
 16777216
 48
3.0
370
    -2
100
AcDbBlockReference
  2
2
 10
2573.405449681362
 20
1398.301680952872
 30
0.0
 41
2.0
 42
2.0
 43
2.0
  0
INSERT
  5
19F4
330
1479
100
AcDbEntity
  8
L5寸法
 62
     0
440
 16777216
 48
3.0
370
    -2
100
AcDbBlockReference
  2
2
 10
2541.405449681362
 20
1398.301680952872
 30
0.0
 41
2.0
 42
2.0
 43
2.0
 50
180.0
  0
MTEXT
  5
19F5
330
1479
100
AcDbEntity
  8
L5寸法
 62
     0
440
 16777216
 48
3.0
100
AcDbMText
 10
2557.405449681362
 20
1400.051680952872
 30
0.0
 40
2.5
 41
0.0
 46
0.0
 71
     5
 72
     1
  1
\A1;32
  7
KANJI
 73
     1
 44
1.0
  0
POINT
  5
19F6
330
1479
100
AcDbEntity
  8
Defpoints
 62
     0
440
 16777216
 48
3.0
100
AcDbPoint
 10
2573.405449681362
 20
1378.187056019214
 30
0.0
  0
POINT
  5
19F7
330
1479
100
AcDbEntity
  8
Defpoints
 62
     0
440
 16777216
 48
3.0
100
AcDbPoint
 10
2541.405449681362
 20
1380.187056019214
 30
0.0
  0
POINT
  5
19F8
330
1479
100
AcDbEntity
  8
Defpoints
 62
     0
440
 16777216
 48
3.0
100
AcDbPoint
 10
2541.405449681362
 20
1398.301680952872
 30
0.0
  0
ENDBLK
  5
147B
330
1479
100
AcDbEntity
  8
0
100
AcDbBlockEnd
  0
BLOCK
  5
1486
330
1485
100
AcDbEntity
  8
0
100
AcDbBlockBegin
  2
*D6
 70
     1
 10
0.0
 20
0.0
 30
0.0
  3
*D6
  1

  0
LINE
  5
19AE
330
1485
100
AcDbEntity
  8
L5寸法
 62
     0
440
 16777216
 48
3.0
370
    -2
100
AcDbLine
 10
2469.749886180611
 20
1380.187056019247
 30
0.0
 11
2480.270344617658
 21
1380.187056019247
 31
0.0
  0
LINE
  5
19AF
330
1485
100
AcDbEntity
  8
L5寸法
 62
     0
440
 16777216
 48
3.0
370
    -2
100
AcDbLine
 10
2449.706988326558
 20
1345.187056019216
 30
0.0
 11
2480.270344617658
 21
1345.187056019216
 31
0.0
  0
LINE
  5
19B0
330
1485
100
AcDbEntity
  8
L5寸法
 62
     0
440
 16777216
 48
3.0
370
    -2
100
AcDbLine
 10
2479.270344617658
 20
1378.187056019247
 30
0.0
 11
2479.270344617658
 21
1347.187056019216
 31
0.0
  0
INSERT
  5
19B1
330
1485
100
AcDbEntity
  8
L5寸法
 62
     0
440
 16777216
 48
3.0
370
    -2
100
AcDbBlockReference
  2
2
 10
2479.270344617658
 20
1380.187056019247
 30
0.0
 41
2.0
 42
2.0
 43
2.0
 50
90.0
  0
INSERT
  5
19B2
330
1485
100
AcDbEntity
  8
L5寸法
 62
     0
440
 16777216
 48
3.0
370
    -2
100
AcDbBlockReference
  2
2
 10
2479.270344617658
 20
1345.187056019216
 30
0.0
 41
2.0
 42
2.0
 43
2.0
 50
270.0
  0
MTEXT
  5
19B3
330
1485
100
AcDbEntity
  8
L5寸法
 62
     0
440
 16777216
 48
3.0
100
AcDbMText
 10
2477.520344617657
 20
1362.687056019232
 30
0.0
 40
2.5
 41
0.0
 46
0.0
 71
     5
 72
     1
  1
\A1;35
  7
KANJI
 11
0.0000000000000001
 21
1.0
 31
0.0
 73
     1
 44
1.0
  0
POINT
  5
19B4
330
1485
100
AcDbEntity
  8
Defpoints
 62
     0
440
 16777216
 48
3.0
100
AcDbPoint
 10
2468.749886180611
 20
1380.187056019247
 30
0.0
  0
POINT
  5
19B5
330
1485
100
AcDbEntity
  8
Defpoints
 62
     0
440
 16777216
 48
3.0
100
AcDbPoint
 10
2448.706988326558
 20
1345.187056019216
 30
0.0
  0
POINT
  5
19B6
330
1485
100
AcDbEntity
  8
Defpoints
 62
     0
440
 16777216
 48
3.0
100
AcDbPoint
 10
2479.270344617658
 20
1345.187056019216
 30
0.0
  0
ENDBLK
  5
1487
330
1485
100
AcDbEntity
  8
0
100
AcDbBlockEnd
  0
BLOCK
  5
1492
330
1491
100
AcDbEntity
  8
0
100
AcDbBlockBegin
  2
*D7
 70
     1
 10
0.0
 20
0.0
 30
0.0
  3
*D7
  1

  0
LINE
  5
19B7
330
1491
100
AcDbEntity
  8
L5寸法
 62
     0
440
 16777216
 48
3.0
370
    -2
100
AcDbLine
 10
2469.749886180611
 20
1380.187056019247
 30
0.0
 11
2489.598743200171
 21
1380.187056019247
 31
0.0
  0
LINE
  5
19B8
330
1491
100
AcDbEntity
  8
L5寸法
 62
     0
440
 16777216
 48
3.0
370
    -2
100
AcDbLine
 10
2414.749886180628
 20
1312.187056019214
 30
0.0
 11
2489.598743200171
 21
1312.187056019214
 31
0.0
  0
LINE
  5
19B9
330
1491
100
AcDbEntity
  8
L5寸法
 62
     0
440
 16777216
 48
3.0
370
    -2
100
AcDbLine
 10
2488.59874320017
 20
1378.187056019247
 30
0.0
 11
2488.59874320017
 21
1314.187056019214
 31
0.0
  0
INSERT
  5
19BA
330
1491
100
AcDbEntity
  8
L5寸法
 62
     0
440
 16777216
 48
3.0
370
    -2
100
AcDbBlockReference
  2
2
 10
2488.59874320017
 20
1380.187056019247
 30
0.0
 41
2.0
 42
2.0
 43
2.0
 50
90.0
  0
INSERT
  5
19BB
330
1491
100
AcDbEntity
  8
L5寸法
 62
     0
440
 16777216
 48
3.0
370
    -2
100
AcDbBlockReference
  2
2
 10
2488.59874320017
 20
1312.187056019214
 30
0.0
 41
2.0
 42
2.0
 43
2.0
 50
270.0
  0
MTEXT
  5
19BC
330
1491
100
AcDbEntity
  8
L5寸法
 62
     0
440
 16777216
 48
3.0
100
AcDbMText
 10
2486.84874320017
 20
1346.187056019231
 30
0.0
 40
2.5
 41
0.0
 46
0.0
 71
     5
 72
     1
  1
\A1;68
  7
KANJI
 11
0.0000000000000001
 21
1.0
 31
0.0
 73
     1
 44
1.0
  0
POINT
  5
19BD
330
1491
100
AcDbEntity
  8
Defpoints
 62
     0
440
 16777216
 48
3.0
100
AcDbPoint
 10
2468.749886180611
 20
1380.187056019247
 30
0.0
  0
POINT
  5
19BE
330
1491
100
AcDbEntity
  8
Defpoints
 62
     0
440
 16777216
 48
3.0
100
AcDbPoint
 10
2413.749886180629
 20
1312.187056019214
 30
0.0
  0
POINT
  5
19BF
330
1491
100
AcDbEntity
  8
Defpoints
 62
     0
440
 16777216
 48
3.0
100
AcDbPoint
 10
2488.59874320017
 20
1312.187056019214
 30
0.0
  0
ENDBLK
  5
1493
330
1491
100
AcDbEntity
  8
0
100
AcDbBlockEnd
  0
BLOCK
  5
14DB
330
14DA
100
AcDbEntity
  8
0
100
AcDbBlockBegin
  2
*D8
 70
     1
 10
0.0
 20
0.0
 30
0.0
  3
*D8
  1

  0
LINE
  5
19C2
330
14DA
100
AcDbEntity
  8
L5寸法
 62
     0
440
 16777216
 48
3.0
370
    -2
100
AcDbLine
 10
2453.749886180609
 20
1386.749201589432
 30
0.0
 11
2453.749886180609
 21
1391.478440787222
 31
0.0
  0
LINE
  5
19C3
330
14DA
100
AcDbEntity
  8
L5寸法
 62
     0
440
 16777216
 48
3.0
370
    -2
100
AcDbLine
 10
2413.749886180629
 20
1385.658510139112
 30
0.0
 11
2413.749886180629
 21
1391.478440787222
 31
0.0
  0
LINE
  5
19C4
330
14DA
100
AcDbEntity
  8
L5寸法
 62
     0
440
 16777216
 48
3.0
370
    -2
100
AcDbLine
 10
2451.749886180609
 20
1390.478440787221
 30
0.0
 11
2415.749886180629
 21
1390.478440787221
 31
0.0
  0
INSERT
  5
19C5
330
14DA
100
AcDbEntity
  8
L5寸法
 62
     0
440
 16777216
 48
3.0
370
    -2
100
AcDbBlockReference
  2
2
 10
2453.749886180609
 20
1390.478440787221
 30
0.0
 41
2.0
 42
2.0
 43
2.0
  0
INSERT
  5
19C6
330
14DA
100
AcDbEntity
  8
L5寸法
 62
     0
440
 16777216
 48
3.0
370
    -2
100
AcDbBlockReference
  2
2
 10
2413.749886180629
 20
1390.478440787221
 30
0.0
 41
2.0
 42
2.0
 43
2.0
 50
180.0
  0
MTEXT
  5
19C7
330
14DA
100
AcDbEntity
  8
L5寸法
 62
     0
440
 16777216
 48
3.0
100
AcDbMText
 10
2433.749886180619
 20
1392.228440787222
 30
0.0
 40
2.5
 41
0.0
 46
0.0
 71
     5
 72
     1
  1
\A1;40
  7
KANJI
 73
     1
 44
1.0
  0
POINT
  5
19C8
330
14DA
100
AcDbEntity
  8
Defpoints
 62
     0
440
 16777216
 48
3.0
100
AcDbPoint
 10
2453.749886180609
 20
1385.749201589432
 30
0.0
  0
POINT
  5
19C9
330
14DA
100
AcDbEntity
  8
Defpoints
 62
     0
440
 16777216
 48
3.0
100
AcDbPoint
 10
2413.749886180629
 20
1384.658510139112
 30
0.0
  0
POINT
  5
19CA
330
14DA
100
AcDbEntity
  8
Defpoints
 62
     0
440
 16777216
 48
3.0
100
AcDbPoint
 10
2413.749886180629
 20
1390.478440787221
 30
0.0
  0
ENDBLK
  5
14DC
330
14DA
100
AcDbEntity
  8
0
100
AcDbBlockEnd
  0
BLOCK
  5
1503
330
1502
100
AcDbEntity
  8
0
100
AcDbBlockBegin
  2
*D9
 70
     1
 10
0.0
 20
0.0
 30
0.0
  3
*D9
  1

  0
LINE
  5
19CB
330
1502
100
AcDbEntity
  8
L6文字
 62
     0
440
 16777216
 48
3.0
370
    -2
100
AcDbLine
 10
2413.749886180629
 20
1385.658510139112
 30
0.0
 11
2413.749886180629
 21
1391.478440787222
 31
0.0
  0
LINE
  5
19CC
330
1502
100
AcDbEntity
  8
L6文字
 62
     0
440
 16777216
 48
3.0
370
    -2
100
AcDbLine
 10
2392.74988618055
 20
1346.187056019215
 30
0.0
 11
2392.74988618055
 21
1391.478440787222
 31
0.0
  0
LINE
  5
19CD
330
1502
100
AcDbEntity
  8
L6文字
 62
     0
440
 16777216
 48
3.0
370
    -2
100
AcDbLine
 10
2411.749886180629
 20
1390.478440787221
 30
0.0
 11
2394.74988618055
 21
1390.478440787221
 31
0.0
  0
INSERT
  5
19CE
330
1502
100
AcDbEntity
  8
L6文字
 62
     0
440
 16777216
 48
3.0
370
    -2
100
AcDbBlockReference
  2
2
 10
2413.749886180629
 20
1390.478440787221
 30
0.0
 41
2.0
 42
2.0
 43
2.0
  0
INSERT
  5
19CF
330
1502
100
AcDbEntity
  8
L6文字
 62
     0
440
 16777216
 48
3.0
370
    -2
100
AcDbBlockReference
  2
2
 10
2392.74988618055
 20
1390.478440787221
 30
0.0
 41
2.0
 42
2.0
 43
2.0
 50
180.0
  0
MTEXT
  5
19D0
330
1502
100
AcDbEntity
  8
L6文字
 62
     0
440
 16777216
 48
3.0
100
AcDbMText
 10
2403.249886180589
 20
1392.228440787222
 30
0.0
 40
2.5
 41
0.0
 46
0.0
 71
     5
 72
     1
  1
\A1;21
  7
KANJI
 73
     1
 44
1.0
  0
POINT
  5
19D1
330
1502
100
AcDbEntity
  8
Defpoints
 62
     0
440
 16777216
 48
3.0
100
AcDbPoint
 10
2413.749886180629
 20
1384.658510139112
 30
0.0
  0
POINT
  5
19D2
330
1502
100
AcDbEntity
  8
Defpoints
 62
     0
440
 16777216
 48
3.0
100
AcDbPoint
 10
2392.74988618055
 20
1345.187056019215
 30
0.0
  0
POINT
  5
19D3
330
1502
100
AcDbEntity
  8
Defpoints
 62
     0
440
 16777216
 48
3.0
100
AcDbPoint
 10
2392.74988618055
 20
1390.478440787221
 30
0.0
  0
ENDBLK
  5
1504
330
1502
100
AcDbEntity
  8
0
100
AcDbBlockEnd
  0
BLOCK
  5
151B
330
151A
100
AcDbEntity
  8
0
100
AcDbBlockBegin
  2
*D10
 70
     1
 10
0.0
 20
0.0
 30
0.0
  3
*D10
  1

  0
LINE
  5
1A1C
330
151A
100
AcDbEntity
  8
L5寸法
440
 16777216
 48
3.0
370
    -2
100
AcDbLine
 10
2479.195769005997
 20
1467.926864965712
 30
0.0
 11
2472.362435672665
 21
1467.926864965712
 31
0.0
  0
LINE
  5
1A1D
330
151A
100
AcDbEntity
  8
L5寸法
440
 16777216
 48
3.0
370
    -2
100
AcDbLine
 10
2472.362435672665
 20
1467.926864965712
 30
0.0
 11
2461.656026253455
 21
1462.10338708402
 31
0.0
  0
LINE
  5
1A1E
330
151A
100
AcDbEntity
  8
L5寸法
440
 16777216
 48
3.0
370
    -2
100
AcDbLine
 10
2445.843746107778
 20
1453.502701262844
 30
0.0
 11
2443.647596087544
 21
1452.30816156546
 31
0.0
  0
MTEXT
  5
1A1F
330
151A
100
AcDbEntity
  8
L5寸法
440
 16777216
 48
3.0
100
AcDbMText
 10
2476.27910233933
 20
1470.176864965712
 30
0.0
 40
2.5
 41
0.0
 46
0.0
 71
     5
 72
     1
  1
\A1;∅13
  7
KANJI
 73
     1
 44
1.0
  0
LINE
  5
1A20
330
151A
100
AcDbEntity
  8
L5寸法
440
 16777216
 48
3.0
370
    -2
100
AcDbLine
 10
2448.039896128011
 20
1454.697240960231
 30
0.0
 11
2459.459876233223
 21
1460.908847386635
 31
0.0
  0
INSERT
  5
1A21
330
151A
100
AcDbEntity
  8
L5寸法
440
 16777216
 48
3.0
370
    -2
100
AcDbBlockReference
  2
2
 10
2448.039896128011
 20
1454.697240960231
 30
0.0
 41
2.5
 42
2.5
 43
2.5
 50
28.5428505278293
  0
INSERT
  5
1A22
330
151A
100
AcDbEntity
  8
L5寸法
440
 16777216
 48
3.0
370
    -2
100
AcDbBlockReference
  2
2
 10
2459.459876233223
 20
1460.908847386635
 30
0.0
 41
2.5
 42
2.5
 43
2.5
 50
208.5428505278293
  0
POINT
  5
1A23
330
151A
100
AcDbEntity
  8
Defpoints
 62
     0
440
 16777216
 48
3.0
100
AcDbPoint
 10
2459.459876233223
 20
1460.908847386635
 30
0.0
  0
POINT
  5
1A24
330
151A
100
AcDbEntity
  8
Defpoints
 62
     0
440
 16777216
 48
3.0
100
AcDbPoint
 10
2448.039896128011
 20
1454.697240960231
 30
0.0
  0
ENDBLK
  5
151C
330
151A
100
AcDbEntity
  8
0
100
AcDbBlockEnd
  0
BLOCK
  5
1527
330
1526
100
AcDbEntity
  8
0
100
AcDbBlockBegin
  2
*D11
 70
     1
 10
0.0
 20
0.0
 30
0.0
  3
*D11
  1

  0
LINE
  5
191F
330
1526
100
AcDbEntity
  8
L5寸法
 62
     0
440
 16777216
 48
3.0
370
    -2
100
AcDbLine
 10
2438.749886180619
 20
1446.803045179876
 30
0.0
 11
2438.749886180619
 21
1435.119720766806
 31
0.0
  0
LINE
  5
1920
330
1526
100
AcDbEntity
  8
L5寸法
 62
     0
440
 16777216
 48
3.0
370
    -2
100
AcDbLine
 10
2468.749886180619
 20
1446.803045179876
 30
0.0
 11
2468.749886180619
 21
1435.119720766806
 31
0.0
  0
LINE
  5
1921
330
1526
100
AcDbEntity
  8
L5寸法
 62
     0
440
 16777216
 48
3.0
370
    -2
100
AcDbLine
 10
2440.749886180619
 20
1436.119720766806
 30
0.0
 11
2466.749886180619
 21
1436.119720766806
 31
0.0
  0
INSERT
  5
1922
330
1526
100
AcDbEntity
  8
L5寸法
 62
     0
440
 16777216
 48
3.0
370
    -2
100
AcDbBlockReference
  2
2
 10
2438.749886180619
 20
1436.119720766806
 30
0.0
 41
2.0
 42
2.0
 43
2.0
 50
180.0
  0
INSERT
  5
1923
330
1526
100
AcDbEntity
  8
L5寸法
 62
     0
440
 16777216
 48
3.0
370
    -2
100
AcDbBlockReference
  2
2
 10
2468.749886180619
 20
1436.119720766806
 30
0.0
 41
2.0
 42
2.0
 43
2.0
  0
MTEXT
  5
1924
330
1526
100
AcDbEntity
  8
L5寸法
 62
     0
440
 16777216
 48
3.0
100
AcDbMText
 10
2453.749886180619
 20
1437.869720766806
 30
0.0
 40
2.5
 41
0.0
 46
0.0
 71
     5
 72
     1
  1
\A1;30
  7
KANJI
 73
     1
 44
1.0
  0
POINT
  5
1925
330
1526
100
AcDbEntity
  8
Defpoints
 62
     0
440
 16777216
 48
3.0
100
AcDbPoint
 10
2438.749886180619
 20
1447.803045179877
 30
0.0
  0
POINT
  5
1926
330
1526
100
AcDbEntity
  8
Defpoints
 62
     0
440
 16777216
 48
3.0
100
AcDbPoint
 10
2468.749886180619
 20
1447.803045179877
 30
0.0
  0
POINT
  5
1927
330
1526
100
AcDbEntity
  8
Defpoints
 62
     0
440
 16777216
 48
3.0
100
AcDbPoint
 10
2468.749886180619
 20
1436.119720766806
 30
0.0
  0
ENDBLK
  5
1528
330
1526
100
AcDbEntity
  8
0
100
AcDbBlockEnd
  0
BLOCK
  5
1533
330
1532
100
AcDbEntity
  8
0
100
AcDbBlockBegin
  2
*D12
 70
     1
 10
0.0
 20
0.0
 30
0.0
  3
*D12
  1

  0
LINE
  5
1928
330
1532
100
AcDbEntity
  8
L5寸法
 62
     0
440
 16777216
 48
3.0
370
    -2
100
AcDbLine
 10
2468.749886180623
 20
1446.803045179876
 30
0.0
 11
2468.749886180623
 21
1427.993065886203
 31
0.0
  0
LINE
  5
1929
330
1532
100
AcDbEntity
  8
L5寸法
 62
     0
440
 16777216
 48
3.0
370
    -2
100
AcDbLine
 10
2420.749886180623
 20
1471.568255140594
 30
0.0
 11
2420.749886180623
 21
1427.993065886203
 31
0.0
  0
LINE
  5
192A
330
1532
100
AcDbEntity
  8
L5寸法
 62
     0
440
 16777216
 48
3.0
370
    -2
100
AcDbLine
 10
2466.749886180623
 20
1428.993065886203
 30
0.0
 11
2422.749886180623
 21
1428.993065886203
 31
0.0
  0
INSERT
  5
192B
330
1532
100
AcDbEntity
  8
L5寸法
 62
     0
440
 16777216
 48
3.0
370
    -2
100
AcDbBlockReference
  2
2
 10
2468.749886180623
 20
1428.993065886203
 30
0.0
 41
2.0
 42
2.0
 43
2.0
  0
INSERT
  5
192C
330
1532
100
AcDbEntity
  8
L5寸法
 62
     0
440
 16777216
 48
3.0
370
    -2
100
AcDbBlockReference
  2
2
 10
2420.749886180623
 20
1428.993065886203
 30
0.0
 41
2.0
 42
2.0
 43
2.0
 50
180.0
  0
MTEXT
  5
192D
330
1532
100
AcDbEntity
  8
L5寸法
 62
     0
440
 16777216
 48
3.0
100
AcDbMText
 10
2444.749886180622
 20
1430.743065886203
 30
0.0
 40
2.5
 41
0.0
 46
0.0
 71
     5
 72
     1
  1
\A1;48
  7
KANJI
 73
     1
 44
1.0
  0
POINT
  5
192E
330
1532
100
AcDbEntity
  8
Defpoints
 62
     0
440
 16777216
 48
3.0
100
AcDbPoint
 10
2468.749886180623
 20
1447.803045179877
 30
0.0
  0
POINT
  5
192F
330
1532
100
AcDbEntity
  8
Defpoints
 62
     0
440
 16777216
 48
3.0
100
AcDbPoint
 10
2420.749886180623
 20
1472.568255140594
 30
0.0
  0
POINT
  5
1930
330
1532
100
AcDbEntity
  8
Defpoints
 62
     0
440
 16777216
 48
3.0
100
AcDbPoint
 10
2420.749886180623
 20
1428.993065886203
 30
0.0
  0
ENDBLK
  5
1534
330
1532
100
AcDbEntity
  8
0
100
AcDbBlockEnd
  0
BLOCK
  5
1A2F
330
1A2E
100
AcDbEntity
  8
0
100
AcDbBlockBegin
  2
*D13
 70
     1
 10
0.0
 20
0.0
 30
0.0
  3
*D13
  1

  0
LINE
  5
1A8E
330
1A2E
100
AcDbEntity
  8
L5寸法
 62
     0
440
 16777216
 48
3.0
370
    -2
100
AcDbLine
 10
2540.405449681362
 20
1380.187056019214
 30
0.0
 11
2526.35433555498
 21
1380.187056019214
 31
0.0
  0
LINE
  5
1A8F
330
1A2E
100
AcDbEntity
  8
L5寸法
 62
     0
440
 16777216
 48
3.0
370
    -2
100
AcDbLine
 10
2540.405449681362
 20
1377.887056019214
 30
0.0
 11
2526.35433555498
 21
1377.887056019214
 31
0.0
  0
LINE
  5
1A90
330
1A2E
100
AcDbEntity
  8
L5寸法
 62
     0
440
 16777216
 48
3.0
370
    -2
100
AcDbLine
 10
2527.35433555498
 20
1382.187056019214
 30
0.0
 11
2527.35433555498
 21
1384.187056019214
 31
0.0
  0
LINE
  5
1A91
330
1A2E
100
AcDbEntity
  8
L5寸法
 62
     0
440
 16777216
 48
3.0
370
    -2
100
AcDbLine
 10
2527.35433555498
 20
1375.887056019214
 30
0.0
 11
2527.35433555498
 21
1362.887056019214
 31
0.0
  0
LINE
  5
1A92
330
1A2E
100
AcDbEntity
  8
L5寸法
 62
     0
440
 16777216
 48
3.0
370
    -2
100
AcDbLine
 10
2527.35433555498
 20
1380.187056019214
 30
0.0
 11
2527.35433555498
 21
1377.887056019214
 31
0.0
  0
INSERT
  5
1A93
330
1A2E
100
AcDbEntity
  8
L5寸法
 62
     0
440
 16777216
 48
3.0
370
    -2
100
AcDbBlockReference
  2
2
 10
2527.35433555498
 20
1380.187056019214
 30
0.0
 41
2.0
 42
2.0
 43
2.0
 50
270.0
  0
INSERT
  5
1A94
330
1A2E
100
AcDbEntity
  8
L5寸法
 62
     0
440
 16777216
 48
3.0
370
    -2
100
AcDbBlockReference
  2
2
 10
2527.35433555498
 20
1377.887056019214
 30
0.0
 41
2.0
 42
2.0
 43
2.0
 50
90.0
  0
MTEXT
  5
1A95
330
1A2E
100
AcDbEntity
  8
L5寸法
 62
     0
440
 16777216
 48
3.0
100
AcDbMText
 10
2525.60433555498
 20
1368.387056019214
 30
0.0
 40
2.5
 41
0.0
 46
0.0
 71
     5
 72
     1
  1
\A1;t=2.3
  7
KANJI
 11
0.0000000000000001
 21
1.0
 31
0.0
 73
     1
 44
1.0
  0
POINT
  5
1A96
330
1A2E
100
AcDbEntity
  8
Defpoints
 62
     0
440
 16777216
 48
3.0
100
AcDbPoint
 10
2541.405449681362
 20
1380.187056019214
 30
0.0
  0
POINT
  5
1A97
330
1A2E
100
AcDbEntity
  8
Defpoints
 62
     0
440
 16777216
 48
3.0
100
AcDbPoint
 10
2541.405449681362
 20
1377.887056019214
 30
0.0
  0
POINT
  5
1A98
330
1A2E
100
AcDbEntity
  8
Defpoints
 62
     0
440
 16777216
 48
3.0
100
AcDbPoint
 10
2527.35433555498
 20
1377.887056019214
 30
0.0
  0
ENDBLK
  5
1A30
330
1A2E
100
AcDbEntity
  8
0
100
AcDbBlockEnd
  0
BLOCK
  5
1C21
330
1C20
100
AcDbEntity
  8
0
100
AcDbBlockBegin
  2
*D14
 70
     1
 10
0.0
 20
0.0
 30
0.0
  3
*D14
  1

  0
LINE
  5
1CA6
330
1C20
100
AcDbEntity
  8
L5寸法
 62
     0
440
 16777216
 48
3.0
370
    -2
100
AcDbLine
 10
2878.476174141485
 20
1446.803045179876
 30
0.0
 11
2878.476174141485
 21
1435.119720766806
 31
0.0
  0
LINE
  5
1CA7
330
1C20
100
AcDbEntity
  8
L5寸法
 62
     0
440
 16777216
 48
3.0
370
    -2
100
AcDbLine
 10
2908.476174141485
 20
1446.803045179876
 30
0.0
 11
2908.476174141485
 21
1435.119720766806
 31
0.0
  0
LINE
  5
1CA8
330
1C20
100
AcDbEntity
  8
L5寸法
 62
     0
440
 16777216
 48
3.0
370
    -2
100
AcDbLine
 10
2880.476174141485
 20
1436.119720766806
 30
0.0
 11
2906.476174141485
 21
1436.119720766806
 31
0.0
  0
INSERT
  5
1CA9
330
1C20
100
AcDbEntity
  8
L5寸法
 62
     0
440
 16777216
 48
3.0
370
    -2
100
AcDbBlockReference
  2
2
 10
2878.476174141485
 20
1436.119720766806
 30
0.0
 41
2.0
 42
2.0
 43
2.0
 50
180.0
  0
INSERT
  5
1CAA
330
1C20
100
AcDbEntity
  8
L5寸法
 62
     0
440
 16777216
 48
3.0
370
    -2
100
AcDbBlockReference
  2
2
 10
2908.476174141485
 20
1436.119720766806
 30
0.0
 41
2.0
 42
2.0
 43
2.0
  0
MTEXT
  5
1CAB
330
1C20
100
AcDbEntity
  8
L5寸法
 62
     0
440
 16777216
 48
3.0
100
AcDbMText
 10
2893.476174141485
 20
1437.869720766806
 30
0.0
 40
2.5
 41
0.0
 46
0.0
 71
     5
 72
     1
  1
\A1;30
  7
KANJI
 73
     1
 44
1.0
  0
POINT
  5
1CAC
330
1C20
100
AcDbEntity
  8
Defpoints
 62
     0
440
 16777216
 48
3.0
100
AcDbPoint
 10
2878.476174141485
 20
1447.803045179877
 30
0.0
  0
POINT
  5
1CAD
330
1C20
100
AcDbEntity
  8
Defpoints
 62
     0
440
 16777216
 48
3.0
100
AcDbPoint
 10
2908.476174141485
 20
1447.803045179877
 30
0.0
  0
POINT
  5
1CAE
330
1C20
100
AcDbEntity
  8
Defpoints
 62
     0
440
 16777216
 48
3.0
100
AcDbPoint
 10
2908.476174141485
 20
1436.119720766806
 30
0.0
  0
ENDBLK
  5
1C22
330
1C20
100
AcDbEntity
  8
0
100
AcDbBlockEnd
  0
BLOCK
  5
1C2D
330
1C2C
100
AcDbEntity
  8
0
100
AcDbBlockBegin
  2
*D15
 70
     1
 10
0.0
 20
0.0
 30
0.0
  3
*D15
  1

  0
LINE
  5
1CAF
330
1C2C
100
AcDbEntity
  8
L5寸法
 62
     0
440
 16777216
 48
3.0
370
    -2
100
AcDbLine
 10
2908.476174141489
 20
1446.803045179876
 30
0.0
 11
2908.476174141489
 21
1427.993065886203
 31
0.0
  0
LINE
  5
1CB0
330
1C2C
100
AcDbEntity
  8
L5寸法
 62
     0
440
 16777216
 48
3.0
370
    -2
100
AcDbLine
 10
2860.476174141489
 20
1471.568255140594
 30
0.0
 11
2860.476174141489
 21
1427.993065886203
 31
0.0
  0
LINE
  5
1CB1
330
1C2C
100
AcDbEntity
  8
L5寸法
 62
     0
440
 16777216
 48
3.0
370
    -2
100
AcDbLine
 10
2906.476174141489
 20
1428.993065886203
 30
0.0
 11
2862.476174141489
 21
1428.993065886203
 31
0.0
  0
INSERT
  5
1CB2
330
1C2C
100
AcDbEntity
  8
L5寸法
 62
     0
440
 16777216
 48
3.0
370
    -2
100
AcDbBlockReference
  2
2
 10
2908.476174141489
 20
1428.993065886203
 30
0.0
 41
2.0
 42
2.0
 43
2.0
  0
INSERT
  5
1CB3
330
1C2C
100
AcDbEntity
  8
L5寸法
 62
     0
440
 16777216
 48
3.0
370
    -2
100
AcDbBlockReference
  2
2
 10
2860.476174141489
 20
1428.993065886203
 30
0.0
 41
2.0
 42
2.0
 43
2.0
 50
180.0
  0
MTEXT
  5
1CB4
330
1C2C
100
AcDbEntity
  8
L5寸法
 62
     0
440
 16777216
 48
3.0
100
AcDbMText
 10
2884.476174141489
 20
1430.743065886203
 30
0.0
 40
2.5
 41
0.0
 46
0.0
 71
     5
 72
     1
  1
\A1;48
  7
KANJI
 73
     1
 44
1.0
  0
POINT
  5
1CB5
330
1C2C
100
AcDbEntity
  8
Defpoints
 62
     0
440
 16777216
 48
3.0
100
AcDbPoint
 10
2908.476174141489
 20
1447.803045179877
 30
0.0
  0
POINT
  5
1CB6
330
1C2C
100
AcDbEntity
  8
Defpoints
 62
     0
440
 16777216
 48
3.0
100
AcDbPoint
 10
2860.476174141489
 20
1472.568255140594
 30
0.0
  0
POINT
  5
1CB7
330
1C2C
100
AcDbEntity
  8
Defpoints
 62
     0
440
 16777216
 48
3.0
100
AcDbPoint
 10
2860.476174141489
 20
1428.993065886203
 30
0.0
  0
ENDBLK
  5
1C2E
330
1C2C
100
AcDbEntity
  8
0
100
AcDbBlockEnd
  0
BLOCK
  5
1C39
330
1C38
100
AcDbEntity
  8
0
100
AcDbBlockBegin
  2
*D16
 70
     1
 10
0.0
 20
0.0
 30
0.0
  3
*D16
  1

  0
LINE
  5
1CB8
330
1C38
100
AcDbEntity
  8
L6文字
 62
     0
440
 16777216
 48
3.0
370
    -2
100
AcDbLine
 10
2853.476174141495
 20
1385.658510139112
 30
0.0
 11
2853.476174141495
 21
1391.478440787222
 31
0.0
  0
LINE
  5
1CB9
330
1C38
100
AcDbEntity
  8
L6文字
 62
     0
440
 16777216
 48
3.0
370
    -2
100
AcDbLine
 10
2832.476174141417
 20
1346.187056019215
 30
0.0
 11
2832.476174141417
 21
1391.478440787222
 31
0.0
  0
LINE
  5
1CBA
330
1C38
100
AcDbEntity
  8
L6文字
 62
     0
440
 16777216
 48
3.0
370
    -2
100
AcDbLine
 10
2851.476174141495
 20
1390.478440787221
 30
0.0
 11
2834.476174141416
 21
1390.478440787221
 31
0.0
  0
INSERT
  5
1CBB
330
1C38
100
AcDbEntity
  8
L6文字
 62
     0
440
 16777216
 48
3.0
370
    -2
100
AcDbBlockReference
  2
2
 10
2853.476174141495
 20
1390.478440787221
 30
0.0
 41
2.0
 42
2.0
 43
2.0
  0
INSERT
  5
1CBC
330
1C38
100
AcDbEntity
  8
L6文字
 62
     0
440
 16777216
 48
3.0
370
    -2
100
AcDbBlockReference
  2
2
 10
2832.476174141417
 20
1390.478440787221
 30
0.0
 41
2.0
 42
2.0
 43
2.0
 50
180.0
  0
MTEXT
  5
1CBD
330
1C38
100
AcDbEntity
  8
L6文字
 62
     0
440
 16777216
 48
3.0
100
AcDbMText
 10
2842.976174141456
 20
1392.228440787222
 30
0.0
 40
2.5
 41
0.0
 46
0.0
 71
     5
 72
     1
  1
\A1;21
  7
KANJI
 73
     1
 44
1.0
  0
POINT
  5
1CBE
330
1C38
100
AcDbEntity
  8
Defpoints
 62
     0
440
 16777216
 48
3.0
100
AcDbPoint
 10
2853.476174141495
 20
1384.658510139112
 30
0.0
  0
POINT
  5
1CBF
330
1C38
100
AcDbEntity
  8
Defpoints
 62
     0
440
 16777216
 48
3.0
100
AcDbPoint
 10
2832.476174141417
 20
1345.187056019215
 30
0.0
  0
POINT
  5
1CC0
330
1C38
100
AcDbEntity
  8
Defpoints
 62
     0
440
 16777216
 48
3.0
100
AcDbPoint
 10
2832.476174141417
 20
1390.478440787221
 30
0.0
  0
ENDBLK
  5
1C3A
330
1C38
100
AcDbEntity
  8
0
100
AcDbBlockEnd
  0
BLOCK
  5
1C45
330
1C44
100
AcDbEntity
  8
0
100
AcDbBlockBegin
  2
*D17
 70
     1
 10
0.0
 20
0.0
 30
0.0
  3
*D17
  1

  0
LINE
  5
1CC1
330
1C44
100
AcDbEntity
  8
L5寸法
440
 16777216
 48
3.0
370
    -2
100
AcDbLine
 10
2918.922056966865
 20
1467.926864965712
 30
0.0
 11
2912.088723633531
 21
1467.926864965713
 31
0.0
  0
LINE
  5
1CC2
330
1C44
100
AcDbEntity
  8
L5寸法
440
 16777216
 48
3.0
370
    -2
100
AcDbLine
 10
2912.088723633531
 20
1467.926864965713
 30
0.0
 11
2901.382314214322
 21
1462.10338708402
 31
0.0
  0
LINE
  5
1CC3
330
1C44
100
AcDbEntity
  8
L5寸法
440
 16777216
 48
3.0
370
    -2
100
AcDbLine
 10
2885.570034068644
 20
1453.502701262846
 30
0.0
 11
2883.373884048411
 21
1452.30816156546
 31
0.0
  0
MTEXT
  5
1CC4
330
1C44
100
AcDbEntity
  8
L5寸法
440
 16777216
 48
3.0
100
AcDbMText
 10
2916.005390300198
 20
1470.176864965712
 30
0.0
 40
2.5
 41
0.0
 46
0.0
 71
     5
 72
     1
  1
\A1;∅13
  7
KANJI
 73
     1
 44
1.0
  0
LINE
  5
1CC5
330
1C44
100
AcDbEntity
  8
L5寸法
440
 16777216
 48
3.0
370
    -2
100
AcDbLine
 10
2887.766184088878
 20
1454.697240960231
 30
0.0
 11
2899.186164194089
 21
1460.908847386635
 31
0.0
  0
INSERT
  5
1CC6
330
1C44
100
AcDbEntity
  8
L5寸法
440
 16777216
 48
3.0
370
    -2
100
AcDbBlockReference
  2
2
 10
2887.766184088878
 20
1454.697240960231
 30
0.0
 41
2.5
 42
2.5
 43
2.5
 50
28.54285052782834
  0
INSERT
  5
1CC7
330
1C44
100
AcDbEntity
  8
L5寸法
440
 16777216
 48
3.0
370
    -2
100
AcDbBlockReference
  2
2
 10
2899.186164194089
 20
1460.908847386635
 30
0.0
 41
2.5
 42
2.5
 43
2.5
 50
208.5428505278283
  0
POINT
  5
1CC8
330
1C44
100
AcDbEntity
  8
Defpoints
 62
     0
440
 16777216
 48
3.0
100
AcDbPoint
 10
2899.186164194089
 20
1460.908847386635
 30
0.0
  0
POINT
  5
1CC9
330
1C44
100
AcDbEntity
  8
Defpoints
 62
     0
440
 16777216
 48
3.0
100
AcDbPoint
 10
2887.766184088878
 20
1454.697240960231
 30
0.0
  0
ENDBLK
  5
1C46
330
1C44
100
AcDbEntity
  8
0
100
AcDbBlockEnd
  0
BLOCK
  5
1C51
330
1C50
100
AcDbEntity
  8
0
100
AcDbBlockBegin
  2
*D18
 70
     1
 10
0.0
 20
0.0
 30
0.0
  3
*D18
  1

  0
LINE
  5
1CCA
330
1C50
100
AcDbEntity
  8
L5寸法
 62
     0
440
 16777216
 48
3.0
370
    -2
100
AcDbLine
 10
2832.476174141426
 20
1346.187056019249
 30
0.0
 11
2832.476174141426
 21
1399.301680952872
 31
0.0
  0
LINE
  5
1CCB
330
1C50
100
AcDbEntity
  8
L5寸法
 62
     0
440
 16777216
 48
3.0
370
    -2
100
AcDbLine
 10
2908.476174141478
 20
1381.187056019247
 30
0.0
 11
2908.476174141478
 21
1399.301680952872
 31
0.0
  0
LINE
  5
1CCC
330
1C50
100
AcDbEntity
  8
L5寸法
 62
     0
440
 16777216
 48
3.0
370
    -2
100
AcDbLine
 10
2834.476174141426
 20
1398.301680952872
 30
0.0
 11
2906.476174141478
 21
1398.301680952872
 31
0.0
  0
INSERT
  5
1CCD
330
1C50
100
AcDbEntity
  8
L5寸法
 62
     0
440
 16777216
 48
3.0
370
    -2
100
AcDbBlockReference
  2
2
 10
2832.476174141426
 20
1398.301680952872
 30
0.0
 41
2.0
 42
2.0
 43
2.0
 50
180.0
  0
INSERT
  5
1CCE
330
1C50
100
AcDbEntity
  8
L5寸法
 62
     0
440
 16777216
 48
3.0
370
    -2
100
AcDbBlockReference
  2
2
 10
2908.476174141478
 20
1398.301680952872
 30
0.0
 41
2.0
 42
2.0
 43
2.0
  0
MTEXT
  5
1CCF
330
1C50
100
AcDbEntity
  8
L5寸法
 62
     0
440
 16777216
 48
3.0
100
AcDbMText
 10
2870.476174141451
 20
1400.051680952872
 30
0.0
 40
2.5
 41
0.0
 46
0.0
 71
     5
 72
     1
  1
\A1;76
  7
KANJI
 73
     1
 44
1.0
  0
POINT
  5
1CD0
330
1C50
100
AcDbEntity
  8
Defpoints
 62
     0
440
 16777216
 48
3.0
100
AcDbPoint
 10
2832.476174141426
 20
1345.18705601925
 30
0.0
  0
POINT
  5
1CD1
330
1C50
100
AcDbEntity
  8
Defpoints
 62
     0
440
 16777216
 48
3.0
100
AcDbPoint
 10
2908.476174141478
 20
1380.187056019247
 30
0.0
  0
POINT
  5
1CD2
330
1C50
100
AcDbEntity
  8
Defpoints
 62
     0
440
 16777216
 48
3.0
100
AcDbPoint
 10
2908.476174141478
 20
1398.301680952872
 30
0.0
  0
ENDBLK
  5
1C52
330
1C50
100
AcDbEntity
  8
0
100
AcDbBlockEnd
  0
BLOCK
  5
1C5D
330
1C5C
100
AcDbEntity
  8
0
100
AcDbBlockBegin
  2
*D19
 70
     1
 10
0.0
 20
0.0
 30
0.0
  3
*D19
  1

  0
LINE
  5
1CD3
330
1C5C
100
AcDbEntity
  8
L5寸法
 62
     0
440
 16777216
 48
3.0
370
    -2
100
AcDbLine
 10
2994.131736635786
 20
1385.254468850412
 30
0.0
 11
2994.131736635786
 21
1391.478440787222
 31
0.0
  0
LINE
  5
1CD4
330
1C5C
100
AcDbEntity
  8
L5寸法
 62
     0
440
 16777216
 48
3.0
370
    -2
100
AcDbLine
 10
3013.131737642228
 20
1379.187056019214
 30
0.0
 11
3013.131737642228
 21
1391.478440787222
 31
0.0
  0
LINE
  5
1CD5
330
1C5C
100
AcDbEntity
  8
L5寸法
 62
     0
440
 16777216
 48
3.0
370
    -2
100
AcDbLine
 10
2996.131736635786
 20
1390.478440787221
 30
0.0
 11
3011.131737642228
 21
1390.478440787221
 31
0.0
  0
INSERT
  5
1CD6
330
1C5C
100
AcDbEntity
  8
L5寸法
 62
     0
440
 16777216
 48
3.0
370
    -2
100
AcDbBlockReference
  2
2
 10
2994.131736635786
 20
1390.478440787221
 30
0.0
 41
2.0
 42
2.0
 43
2.0
 50
180.0
  0
INSERT
  5
1CD7
330
1C5C
100
AcDbEntity
  8
L5寸法
 62
     0
440
 16777216
 48
3.0
370
    -2
100
AcDbBlockReference
  2
2
 10
3013.131737642228
 20
1390.478440787221
 30
0.0
 41
2.0
 42
2.0
 43
2.0
  0
MTEXT
  5
1CD8
330
1C5C
100
AcDbEntity
  8
L5寸法
 62
     0
440
 16777216
 48
3.0
100
AcDbMText
 10
3003.631737139007
 20
1392.228440787222
 30
0.0
 40
2.5
 41
0.0
 46
0.0
 71
     5
 72
     1
  1
\A1;19
  7
KANJI
 73
     1
 44
1.0
  0
POINT
  5
1CD9
330
1C5C
100
AcDbEntity
  8
Defpoints
 62
     0
440
 16777216
 48
3.0
100
AcDbPoint
 10
2994.131736635786
 20
1384.254468850412
 30
0.0
  0
POINT
  5
1CDA
330
1C5C
100
AcDbEntity
  8
Defpoints
 62
     0
440
 16777216
 48
3.0
100
AcDbPoint
 10
3013.131737642228
 20
1378.187056019214
 30
0.0
  0
POINT
  5
1CDB
330
1C5C
100
AcDbEntity
  8
Defpoints
 62
     0
440
 16777216
 48
3.0
100
AcDbPoint
 10
3013.131737642228
 20
1390.478440787221
 30
0.0
  0
ENDBLK
  5
1C5E
330
1C5C
100
AcDbEntity
  8
0
100
AcDbBlockEnd
  0
BLOCK
  5
1C69
330
1C68
100
AcDbEntity
  8
0
100
AcDbBlockBegin
  2
*D20
 70
     1
 10
0.0
 20
0.0
 30
0.0
  3
*D20
  1

  0
LINE
  5
1CDC
330
1C68
100
AcDbEntity
  8
L5寸法
 62
     0
440
 16777216
 48
3.0
370
    -2
100
AcDbLine
 10
3013.131737642228
 20
1379.187056019214
 30
0.0
 11
3013.131737642228
 21
1399.301680952872
 31
0.0
  0
LINE
  5
1CDD
330
1C68
100
AcDbEntity
  8
L5寸法
 62
     0
440
 16777216
 48
3.0
370
    -2
100
AcDbLine
 10
2981.131737642228
 20
1381.187056019214
 30
0.0
 11
2981.131737642228
 21
1399.301680952872
 31
0.0
  0
LINE
  5
1CDE
330
1C68
100
AcDbEntity
  8
L5寸法
 62
     0
440
 16777216
 48
3.0
370
    -2
100
AcDbLine
 10
3011.131737642228
 20
1398.301680952872
 30
0.0
 11
2983.131737642228
 21
1398.301680952872
 31
0.0
  0
INSERT
  5
1CDF
330
1C68
100
AcDbEntity
  8
L5寸法
 62
     0
440
 16777216
 48
3.0
370
    -2
100
AcDbBlockReference
  2
2
 10
3013.131737642228
 20
1398.301680952872
 30
0.0
 41
2.0
 42
2.0
 43
2.0
  0
INSERT
  5
1CE0
330
1C68
100
AcDbEntity
  8
L5寸法
 62
     0
440
 16777216
 48
3.0
370
    -2
100
AcDbBlockReference
  2
2
 10
2981.131737642228
 20
1398.301680952872
 30
0.0
 41
2.0
 42
2.0
 43
2.0
 50
180.0
  0
MTEXT
  5
1CE1
330
1C68
100
AcDbEntity
  8
L5寸法
 62
     0
440
 16777216
 48
3.0
100
AcDbMText
 10
2997.131737642228
 20
1400.051680952872
 30
0.0
 40
2.5
 41
0.0
 46
0.0
 71
     5
 72
     1
  1
\A1;32
  7
KANJI
 73
     1
 44
1.0
  0
POINT
  5
1CE2
330
1C68
100
AcDbEntity
  8
Defpoints
 62
     0
440
 16777216
 48
3.0
100
AcDbPoint
 10
3013.131737642228
 20
1378.187056019214
 30
0.0
  0
POINT
  5
1CE3
330
1C68
100
AcDbEntity
  8
Defpoints
 62
     0
440
 16777216
 48
3.0
100
AcDbPoint
 10
2981.131737642228
 20
1380.187056019214
 30
0.0
  0
POINT
  5
1CE4
330
1C68
100
AcDbEntity
  8
Defpoints
 62
     0
440
 16777216
 48
3.0
100
AcDbPoint
 10
2981.131737642228
 20
1398.301680952872
 30
0.0
  0
ENDBLK
  5
1C6A
330
1C68
100
AcDbEntity
  8
0
100
AcDbBlockEnd
  0
BLOCK
  5
1C75
330
1C74
100
AcDbEntity
  8
0
100
AcDbBlockBegin
  2
*D21
 70
     1
 10
0.0
 20
0.0
 30
0.0
  3
*D21
  1

  0
LINE
  5
1CE5
330
1C74
100
AcDbEntity
  8
L5寸法
 62
     0
440
 16777216
 48
3.0
370
    -2
100
AcDbLine
 10
2909.476174141478
 20
1380.187056019247
 30
0.0
 11
2919.996632578526
 21
1380.187056019247
 31
0.0
  0
LINE
  5
1CE6
330
1C74
100
AcDbEntity
  8
L5寸法
 62
     0
440
 16777216
 48
3.0
370
    -2
100
AcDbLine
 10
2889.433276287425
 20
1345.187056019216
 30
0.0
 11
2919.996632578526
 21
1345.187056019216
 31
0.0
  0
LINE
  5
1CE7
330
1C74
100
AcDbEntity
  8
L5寸法
 62
     0
440
 16777216
 48
3.0
370
    -2
100
AcDbLine
 10
2918.996632578526
 20
1378.187056019247
 30
0.0
 11
2918.996632578526
 21
1347.187056019216
 31
0.0
  0
INSERT
  5
1CE8
330
1C74
100
AcDbEntity
  8
L5寸法
 62
     0
440
 16777216
 48
3.0
370
    -2
100
AcDbBlockReference
  2
2
 10
2918.996632578526
 20
1380.187056019247
 30
0.0
 41
2.0
 42
2.0
 43
2.0
 50
90.0
  0
INSERT
  5
1CE9
330
1C74
100
AcDbEntity
  8
L5寸法
 62
     0
440
 16777216
 48
3.0
370
    -2
100
AcDbBlockReference
  2
2
 10
2918.996632578526
 20
1345.187056019216
 30
0.0
 41
2.0
 42
2.0
 43
2.0
 50
270.0
  0
MTEXT
  5
1CEA
330
1C74
100
AcDbEntity
  8
L5寸法
 62
     0
440
 16777216
 48
3.0
100
AcDbMText
 10
2917.246632578526
 20
1362.687056019231
 30
0.0
 40
2.5
 41
0.0
 46
0.0
 71
     5
 72
     1
  1
\A1;35
  7
KANJI
 11
0.0000000000000001
 21
1.0
 31
0.0
 73
     1
 44
1.0
  0
POINT
  5
1CEB
330
1C74
100
AcDbEntity
  8
Defpoints
 62
     0
440
 16777216
 48
3.0
100
AcDbPoint
 10
2908.476174141478
 20
1380.187056019247
 30
0.0
  0
POINT
  5
1CEC
330
1C74
100
AcDbEntity
  8
Defpoints
 62
     0
440
 16777216
 48
3.0
100
AcDbPoint
 10
2888.433276287425
 20
1345.187056019216
 30
0.0
  0
POINT
  5
1CED
330
1C74
100
AcDbEntity
  8
Defpoints
 62
     0
440
 16777216
 48
3.0
100
AcDbPoint
 10
2918.996632578526
 20
1345.187056019216
 30
0.0
  0
ENDBLK
  5
1C76
330
1C74
100
AcDbEntity
  8
0
100
AcDbBlockEnd
  0
BLOCK
  5
1C81
330
1C80
100
AcDbEntity
  8
0
100
AcDbBlockBegin
  2
*D22
 70
     1
 10
0.0
 20
0.0
 30
0.0
  3
*D22
  1

  0
LINE
  5
1CEE
330
1C80
100
AcDbEntity
  8
L5寸法
 62
     0
440
 16777216
 48
3.0
370
    -2
100
AcDbLine
 10
2909.476174141478
 20
1380.187056019247
 30
0.0
 11
2929.325031161038
 21
1380.187056019247
 31
0.0
  0
LINE
  5
1CEF
330
1C80
100
AcDbEntity
  8
L5寸法
 62
     0
440
 16777216
 48
3.0
370
    -2
100
AcDbLine
 10
2854.476174141496
 20
1312.187056019215
 30
0.0
 11
2929.325031161038
 21
1312.187056019215
 31
0.0
  0
LINE
  5
1CF0
330
1C80
100
AcDbEntity
  8
L5寸法
 62
     0
440
 16777216
 48
3.0
370
    -2
100
AcDbLine
 10
2928.325031161038
 20
1378.187056019247
 30
0.0
 11
2928.325031161038
 21
1314.187056019214
 31
0.0
  0
INSERT
  5
1CF1
330
1C80
100
AcDbEntity
  8
L5寸法
 62
     0
440
 16777216
 48
3.0
370
    -2
100
AcDbBlockReference
  2
2
 10
2928.325031161038
 20
1380.187056019247
 30
0.0
 41
2.0
 42
2.0
 43
2.0
 50
90.0
  0
INSERT
  5
1CF2
330
1C80
100
AcDbEntity
  8
L5寸法
 62
     0
440
 16777216
 48
3.0
370
    -2
100
AcDbBlockReference
  2
2
 10
2928.325031161038
 20
1312.187056019215
 30
0.0
 41
2.0
 42
2.0
 43
2.0
 50
270.0
  0
MTEXT
  5
1CF3
330
1C80
100
AcDbEntity
  8
L5寸法
 62
     0
440
 16777216
 48
3.0
100
AcDbMText
 10
2926.575031161038
 20
1346.18705601923
 30
0.0
 40
2.5
 41
0.0
 46
0.0
 71
     5
 72
     1
  1
\A1;68
  7
KANJI
 11
0.0000000000000001
 21
1.0
 31
0.0
 73
     1
 44
1.0
  0
POINT
  5
1CF4
330
1C80
100
AcDbEntity
  8
Defpoints
 62
     0
440
 16777216
 48
3.0
100
AcDbPoint
 10
2908.476174141478
 20
1380.187056019247
 30
0.0
  0
POINT
  5
1CF5
330
1C80
100
AcDbEntity
  8
Defpoints
 62
     0
440
 16777216
 48
3.0
100
AcDbPoint
 10
2853.476174141496
 20
1312.187056019215
 30
0.0
  0
POINT
  5
1CF6
330
1C80
100
AcDbEntity
  8
Defpoints
 62
     0
440
 16777216
 48
3.0
100
AcDbPoint
 10
2928.325031161038
 20
1312.187056019215
 30
0.0
  0
ENDBLK
  5
1C82
330
1C80
100
AcDbEntity
  8
0
100
AcDbBlockEnd
  0
BLOCK
  5
1C8D
330
1C8C
100
AcDbEntity
  8
0
100
AcDbBlockBegin
  2
*D23
 70
     1
 10
0.0
 20
0.0
 30
0.0
  3
*D23
  1

  0
LINE
  5
1CF7
330
1C8C
100
AcDbEntity
  8
L5寸法
 62
     0
440
 16777216
 48
3.0
370
    -2
100
AcDbLine
 10
2893.476174141476
 20
1386.749201589432
 30
0.0
 11
2893.476174141476
 21
1391.478440787222
 31
0.0
  0
LINE
  5
1CF8
330
1C8C
100
AcDbEntity
  8
L5寸法
 62
     0
440
 16777216
 48
3.0
370
    -2
100
AcDbLine
 10
2853.476174141495
 20
1385.658510139112
 30
0.0
 11
2853.476174141495
 21
1391.478440787222
 31
0.0
  0
LINE
  5
1CF9
330
1C8C
100
AcDbEntity
  8
L5寸法
 62
     0
440
 16777216
 48
3.0
370
    -2
100
AcDbLine
 10
2891.476174141475
 20
1390.478440787221
 30
0.0
 11
2855.476174141495
 21
1390.478440787221
 31
0.0
  0
INSERT
  5
1CFA
330
1C8C
100
AcDbEntity
  8
L5寸法
 62
     0
440
 16777216
 48
3.0
370
    -2
100
AcDbBlockReference
  2
2
 10
2893.476174141476
 20
1390.478440787221
 30
0.0
 41
2.0
 42
2.0
 43
2.0
  0
INSERT
  5
1CFB
330
1C8C
100
AcDbEntity
  8
L5寸法
 62
     0
440
 16777216
 48
3.0
370
    -2
100
AcDbBlockReference
  2
2
 10
2853.476174141495
 20
1390.478440787221
 30
0.0
 41
2.0
 42
2.0
 43
2.0
 50
180.0
  0
MTEXT
  5
1CFC
330
1C8C
100
AcDbEntity
  8
L5寸法
 62
     0
440
 16777216
 48
3.0
100
AcDbMText
 10
2873.476174141485
 20
1392.228440787222
 30
0.0
 40
2.5
 41
0.0
 46
0.0
 71
     5
 72
     1
  1
\A1;40
  7
KANJI
 73
     1
 44
1.0
  0
POINT
  5
1CFD
330
1C8C
100
AcDbEntity
  8
Defpoints
 62
     0
440
 16777216
 48
3.0
100
AcDbPoint
 10
2893.476174141476
 20
1385.749201589432
 30
0.0
  0
POINT
  5
1CFE
330
1C8C
100
AcDbEntity
  8
Defpoints
 62
     0
440
 16777216
 48
3.0
100
AcDbPoint
 10
2853.476174141495
 20
1384.658510139112
 30
0.0
  0
POINT
  5
1CFF
330
1C8C
100
AcDbEntity
  8
Defpoints
 62
     0
440
 16777216
 48
3.0
100
AcDbPoint
 10
2853.476174141495
 20
1390.478440787221
 30
0.0
  0
ENDBLK
  5
1C8E
330
1C8C
100
AcDbEntity
  8
0
100
AcDbBlockEnd
  0
BLOCK
  5
1C99
330
1C98
100
AcDbEntity
  8
0
100
AcDbBlockBegin
  2
*D24
 70
     1
 10
0.0
 20
0.0
 30
0.0
  3
*D24
  1

  0
LINE
  5
1D00
330
1C98
100
AcDbEntity
  8
L5寸法
 62
     0
440
 16777216
 48
3.0
370
    -2
100
AcDbLine
 10
2980.131737642229
 20
1380.187056019214
 30
0.0
 11
2966.080623515848
 21
1380.187056019214
 31
0.0
  0
LINE
  5
1D01
330
1C98
100
AcDbEntity
  8
L5寸法
 62
     0
440
 16777216
 48
3.0
370
    -2
100
AcDbLine
 10
2980.131737642229
 20
1377.887056019214
 30
0.0
 11
2966.080623515848
 21
1377.887056019214
 31
0.0
  0
LINE
  5
1D02
330
1C98
100
AcDbEntity
  8
L5寸法
 62
     0
440
 16777216
 48
3.0
370
    -2
100
AcDbLine
 10
2967.080623515848
 20
1382.187056019215
 30
0.0
 11
2967.080623515848
 21
1384.187056019215
 31
0.0
  0
LINE
  5
1D03
330
1C98
100
AcDbEntity
  8
L5寸法
 62
     0
440
 16777216
 48
3.0
370
    -2
100
AcDbLine
 10
2967.080623515848
 20
1375.887056019214
 30
0.0
 11
2967.080623515848
 21
1362.887056019214
 31
0.0
  0
LINE
  5
1D04
330
1C98
100
AcDbEntity
  8
L5寸法
 62
     0
440
 16777216
 48
3.0
370
    -2
100
AcDbLine
 10
2967.080623515848
 20
1380.187056019214
 30
0.0
 11
2967.080623515848
 21
1377.887056019214
 31
0.0
  0
INSERT
  5
1D05
330
1C98
100
AcDbEntity
  8
L5寸法
 62
     0
440
 16777216
 48
3.0
370
    -2
100
AcDbBlockReference
  2
2
 10
2967.080623515848
 20
1380.187056019214
 30
0.0
 41
2.0
 42
2.0
 43
2.0
 50
270.0
  0
INSERT
  5
1D06
330
1C98
100
AcDbEntity
  8
L5寸法
 62
     0
440
 16777216
 48
3.0
370
    -2
100
AcDbBlockReference
  2
2
 10
2967.080623515848
 20
1377.887056019214
 30
0.0
 41
2.0
 42
2.0
 43
2.0
 50
90.0
  0
MTEXT
  5
1D07
330
1C98
100
AcDbEntity
  8
L5寸法
 62
     0
440
 16777216
 48
3.0
100
AcDbMText
 10
2965.330623515848
 20
1368.387056019213
 30
0.0
 40
2.5
 41
0.0
 46
0.0
 71
     5
 72
     1
  1
\A1;t=2.3
  7
KANJI
 11
0.0000000000000001
 21
1.0
 31
0.0
 73
     1
 44
1.0
  0
POINT
  5
1D08
330
1C98
100
AcDbEntity
  8
Defpoints
 62
     0
440
 16777216
 48
3.0
100
AcDbPoint
 10
2981.131737642229
 20
1380.187056019214
 30
0.0
  0
POINT
  5
1D09
330
1C98
100
AcDbEntity
  8
Defpoints
 62
     0
440
 16777216
 48
3.0
100
AcDbPoint
 10
2981.131737642229
 20
1377.887056019214
 30
0.0
  0
POINT
  5
1D0A
330
1C98
100
AcDbEntity
  8
Defpoints
 62
     0
440
 16777216
 48
3.0
100
AcDbPoint
 10
2967.080623515848
 20
1377.887056019214
 30
0.0
  0
ENDBLK
  5
1C9A
330
1C98
100
AcDbEntity
  8
0
100
AcDbBlockEnd
  0
ENDSEC
  0
SECTION
  2
ENTITIES
  0
LINE
  5
1AED
330
1F
100
AcDbEntity
  8
1外形線
 48
3.0
370
    15
100
AcDbLine
 10
3029.631739965762
 20
1348.937050370315
 30
0.0
 11
3022.131734658758
 21
1348.937050370315
 31
0.0
  0
LINE
  5
1AEE
330
1F
100
AcDbEntity
  8
1外形線
 48
3.0
370
    15
100
AcDbLine
 10
3007.231737642225
 20
1348.937050370315
 30
0.0
 11
3005.492153321352
 21
1348.937050370315
 31
0.0
  0
LINE
  5
1AEF
330
1F
100
AcDbEntity
  8
1外形線
 48
3.0
370
    15
100
AcDbLine
 10
3004.475489082218
 20
1348.937050370315
 30
0.0
 11
3000.231737642236
 21
1348.937050370315
 31
0.0
  0
LINE
  5
1AF0
330
1F
100
AcDbEntity
  8
1外形線
 48
3.0
370
    15
100
AcDbLine
 10
3029.631739965762
 20
1341.437048248879
 30
0.0
 11
3022.131734658756
 21
1341.437048248879
 31
0.0
  0
LINE
  5
1AF1
330
1F
100
AcDbEntity
  8
1外形線
 48
3.0
370
    15
100
AcDbLine
 10
3005.231737642225
 20
1341.437048248878
 30
0.0
 11
3004.117253899319
 21
1341.437048248878
 31
0.0
  0
LINE
  5
1AF2
330
1F
100
AcDbEntity
  8
1外形線
 48
3.0
370
    15
100
AcDbLine
 10
3003.100589660185
 20
1341.437048248878
 30
0.0
 11
3000.231737642236
 21
1341.437048248879
 31
0.0
  0
ARC
  5
1AF3
330
1F
100
AcDbEntity
  8
1外形線
100
AcDbCircle
 10
3009.735607600513
 20
1345.187056842521
 30
0.0
 40
20.00000000000002
100
AcDbArc
 50
205.150663413078
 51
209.3897394741807
  0
ARC
  5
1AF4
330
1F
100
AcDbEntity
  8
1外形線
100
AcDbCircle
 10
3009.735607600513
 20
1345.187056842521
 30
0.0
 40
20.00000000000002
100
AcDbArc
 50
150.6102605258913
 51
154.849336586922
  0
ARC
  5
1AF5
330
1F
100
AcDbEntity
  8
1外形線
100
AcDbCircle
 10
2996.610614324623
 20
1337.880730634108
 30
0.0
 40
4.979174950389927
100
AcDbArc
 50
180.6316240570302
 51
210.2533427090761
  0
LINE
  5
1AF6
330
1F
100
AcDbEntity
  8
1外形線
100
AcDbLine
 10
2992.309572565121
 20
1335.372100934306
 30
0.0
 11
2997.631739288629
 21
1335.372101263608
 31
0.0
  0
LINE
  5
1AF7
330
1F
100
AcDbEntity
  8
1外形線
100
AcDbLine
 10
2992.309573223719
 20
1340.279579217607
 30
0.0
 11
2997.631740276423
 21
1340.279579217611
 31
0.0
  0
ARC
  5
1AF8
330
1F
100
AcDbEntity
  8
1外形線
100
AcDbCircle
 10
2996.610588425721
 20
1337.770955444304
 30
0.0
 40
4.979149024067278
100
AcDbArc
 50
149.7465622304153
 51
179.368402962243
  0
ARC
  5
1AF9
330
1F
100
AcDbEntity
  8
1外形線
100
AcDbCircle
 10
3009.735607600513
 20
1345.187056842521
 30
0.0
 40
18.10386699023169
100
AcDbArc
 50
179.9999999998957
 51
195.7281520600054
  0
LINE
  5
1AFA
330
1F
100
AcDbEntity
  8
1外形線
100
AcDbLine
 10
2992.309571906612
 20
1350.094533150008
 30
0.0
 11
2997.631738959319
 21
1350.094533150016
 31
0.0
  0
ARC
  5
1AFB
330
1F
100
AcDbEntity
  8
1外形線
100
AcDbCircle
 10
3009.735607600513
 20
1345.187056842521
 30
0.0
 40
18.10386699023169
100
AcDbArc
 50
164.2718479399945
 51
179.9999999998957
  0
ARC
  5
1AFC
330
1F
100
AcDbEntity
  8
1外形線
100
AcDbCircle
 10
2996.610641857118
 20
1352.603170637408
 30
0.0
 40
4.979203225664152
100
AcDbArc
 50
180.6317100879522
 51
210.2532566782284
  0
LINE
  5
1AFD
330
1F
100
AcDbEntity
  8
1外形線
100
AcDbLine
 10
2992.309573223712
 20
1355.002010774804
 30
0.0
 11
2997.63174027641
 21
1355.002010774814
 31
0.0
  0
ARC
  5
1AFE
330
1F
100
AcDbEntity
  8
1外形線
100
AcDbCircle
 10
2996.610609827211
 20
1352.493379738511
 30
0.0
 40
4.979171170095298
100
AcDbArc
 50
149.7466141138377
 51
179.3683146117031
  0
LINE
  5
1AFF
330
1F
100
AcDbEntity
  8
1外形線
 48
2.0
100
AcDbLine
 10
2991.631740610314
 20
1336.687056842459
 30
0.0
 11
2991.631740610312
 21
1353.68705684258
 31
0.0
  0
LINE
  5
1B00
330
1F
100
AcDbEntity
  8
1外形線
 48
2.0
100
AcDbLine
 10
3000.231737642236
 20
1349.937054906053
 30
0.0
 11
3004.65880943733
 21
1349.937053010658
 31
0.0
  0
LINE
  5
1B01
330
1F
100
AcDbEntity
  8
1外形線
 48
2.0
100
AcDbLine
 10
3005.67547359667
 20
1349.937052575387
 30
0.0
 11
3007.231737642225
 21
1349.937051909092
 31
0.0
  0
LINE
  5
1B02
330
1F
100
AcDbEntity
  8
1外形線
 48
2.0
100
AcDbLine
 10
3022.131734658758
 20
1349.937047754297
 30
0.0
 11
3028.631743307754
 21
1349.937047028324
 31
0.0
  0
LINE
  5
1B03
330
1F
100
AcDbEntity
  8
1外形線
 48
2.0
100
AcDbLine
 10
3000.231737642236
 20
1340.4370553214
 30
0.0
 11
3002.917270953505
 21
1340.437054600645
 31
0.0
  0
LINE
  5
1B04
330
1F
100
AcDbEntity
  8
1外形線
 48
2.0
100
AcDbLine
 10
3003.93393514262
 20
1340.437054327789
 30
0.0
 11
3005.231737642225
 21
1340.437053979478
 31
0.0
  0
LINE
  5
1B05
330
1F
100
AcDbEntity
  8
1外形線
 48
2.0
100
AcDbLine
 10
3022.131734658757
 20
1340.437050676779
 30
0.0
 11
3028.631742100011
 21
1340.437050383126
 31
0.0
  0
LINE
  5
1B06
330
1F
100
AcDbEntity
  8
1外形線
 48
2.0
100
AcDbLine
 10
3029.631737952874
 20
1341.437046236001
 30
0.0
 11
3029.631739965762
 21
1348.937050370315
 31
0.0
  0
LINE
  5
1B07
330
1F
100
AcDbEntity
  8
1外形線
 48
2.0
100
AcDbLine
 10
3028.631740758102
 20
1349.937049577976
 30
0.0
 11
3029.631739965762
 21
1348.937050370315
 31
0.0
  0
LINE
  5
1B08
330
1F
100
AcDbEntity
  8
1外形線
 48
2.0
100
AcDbLine
 10
3028.631740758099
 20
1340.437049041215
 30
0.0
 11
3029.631739965762
 21
1341.437048248879
 31
0.0
  0
LINE
  5
1B09
330
1F
100
AcDbEntity
  8
1外形線
 48
2.0
100
AcDbLine
 10
3028.631740758099
 20
1340.437049041215
 30
0.0
 11
3028.631743307756
 21
1349.937049577971
 31
0.0
  0
LINE
  5
1B0A
330
1F
100
AcDbEntity
  8
1外形線
 48
2.0
100
AcDbLine
 10
2997.631737642224
 20
1356.187056019216
 30
0.0
 11
2997.631737642231
 21
1334.187056019212
 31
0.0
  0
LINE
  5
1B0B
330
1F
100
AcDbEntity
  8
1外形線
 48
2.0
100
AcDbLine
 10
2999.231737642234
 20
1356.187056019213
 30
0.0
 11
2999.231737642234
 21
1334.187056019214
 31
0.0
  0
LINE
  5
1B0C
330
1F
100
AcDbEntity
  8
1外形線
 48
2.0
100
AcDbLine
 10
2999.231737642234
 20
1356.187056019213
 30
0.0
 11
2997.631737642224
 21
1356.187056019216
 31
0.0
  0
LINE
  5
1B0D
330
1F
100
AcDbEntity
  8
1外形線
 48
2.0
100
AcDbLine
 10
2999.231737642234
 20
1334.187056019214
 30
0.0
 11
2997.631737642231
 21
1334.187056019212
 31
0.0
  0
LINE
  5
1B0E
330
1F
100
AcDbEntity
  8
1外形線
100
AcDbLine
 10
3009.231737642224
 20
1365.187048303153
 30
0.0
 11
3010.831737642225
 21
1365.187048303153
 31
0.0
  0
LINE
  5
1B0F
330
1F
100
AcDbEntity
  8
1外形線
100
AcDbLine
 10
3010.831737642225
 20
1331.287048303142
 30
0.0
 11
3010.831737642225
 21
1365.187048303153
 31
0.0
  0
ARC
  5
1B10
330
1F
100
AcDbEntity
  8
1外形線
100
AcDbCircle
 10
3009.231737642224
 20
1331.287048303142
 30
0.0
 40
1.600000000000008
100
AcDbArc
 50
270.0
 51
0.0
  0
LINE
  5
1B11
330
1F
100
AcDbEntity
  8
1外形線
100
AcDbLine
 10
3006.831737642225
 20
1329.687048303144
 30
0.0
 11
3009.231737642224
 21
1329.687048303144
 31
0.0
  0
ARC
  5
1B12
330
1F
100
AcDbEntity
  8
1外形線
100
AcDbCircle
 10
3007.331737642225
 20
1317.687048303144
 30
0.0
 40
3.0
100
AcDbArc
 50
270.0
 51
0.0
  0
LINE
  5
1B13
330
1F
100
AcDbEntity
  8
1外形線
100
AcDbLine
 10
3007.331737642225
 20
1314.687048303144
 30
0.0
 11
3006.831737642225
 21
1314.687048303144
 31
0.0
  0
ARC
  5
1B14
330
1F
100
AcDbEntity
  8
1外形線
100
AcDbCircle
 10
3006.831737642225
 20
1324.987048303147
 30
0.0
 40
10.3
100
AcDbArc
 50
98.9365044017992
 51
270.0
  0
LINE
  5
1B15
330
1F
100
AcDbEntity
  8
1外形線
100
AcDbLine
 10
3008.231737642224
 20
1348.187048303142
 30
0.0
 11
3010.831737642225
 21
1348.187048303142
 31
0.0
  0
LINE
  5
1B16
330
1F
100
AcDbEntity
  8
1外形線
100
AcDbLine
 10
3005.231737642225
 20
1335.162017590562
 30
0.0
 11
3005.231737642225
 21
1345.187048303142
 31
0.0
  0
ARC
  5
1B17
330
1F
100
AcDbEntity
  8
1外形線
100
AcDbCircle
 10
3008.231737642224
 20
1345.187048303142
 30
0.0
 40
3.000000000000013
100
AcDbArc
 50
90.0
 51
180.0
  0
LINE
  5
1B18
330
1F
100
AcDbEntity
  8
1外形線
100
AcDbLine
 10
3010.331737642225
 20
1320.287048303142
 30
0.0
 11
3006.831737642225
 21
1320.287048303142
 31
0.0
  0
LINE
  5
1B19
330
1F
100
AcDbEntity
  8
1外形線
100
AcDbLine
 10
3010.331737642225
 20
1317.687048303144
 30
0.0
 11
3010.331737642225
 21
1320.287048303142
 31
0.0
  0
ARC
  5
1B1A
330
1F
100
AcDbEntity
  8
1外形線
100
AcDbCircle
 10
3006.831737642225
 20
1324.987048303147
 30
0.0
 40
4.700000000000001
100
AcDbArc
 50
90.0
 51
270.0
  0
LINE
  5
1B1B
330
1F
100
AcDbEntity
  8
1外形線
100
AcDbLine
 10
3009.231737642224
 20
1348.187048303142
 30
0.0
 11
3009.231737642224
 21
1365.187048303153
 31
0.0
  0
LINE
  5
1B1C
330
1F
100
AcDbEntity
  8
1外形線
100
AcDbLine
 10
3003.331737642225
 20
1321.850170874876
 30
0.0
 11
3003.331737642225
 21
1328.123925731418
 31
0.0
  0
LINE
  5
1B1D
330
1F
100
AcDbEntity
  8
1外形線
 48
2.0
100
AcDbLine
 10
3009.231737642224
 20
1350.187048303142
 30
0.0
 11
3010.831737642226
 21
1350.187048303142
 31
0.0
  0
LINE
  5
1B1E
330
1F
100
AcDbEntity
  8
1外形線
100
AcDbLine
 10
3007.231737642225
 20
1348.015475427889
 30
0.0
 11
3007.231737642225
 21
1355.587048303109
 31
0.0
  0
ARC
  5
1B1F
330
1F
100
AcDbEntity
  8
1外形線
100
AcDbCircle
 10
3008.831737642225
 20
1355.587048303109
 30
0.0
 40
1.6
100
AcDbArc
 50
90.0
 51
180.0
  0
LINE
  5
1B20
330
1F
100
AcDbEntity
  8
1外形線
 48
2.0
100
AcDbLine
 10
3009.231737642224
 20
1357.187048303109
 30
0.0
 11
3008.831737642225
 21
1357.187048303109
 31
0.0
  0
INSERT
  5
1B21
330
1F
100
AcDbEntity
  8
1外形線
100
AcDbBlockReference
  2
84684354353
 10
2999.231737642234
 20
1345.187056019213
 30
0.0
  0
LINE
  5
1B36
330
1F
100
AcDbEntity
  8
1外形線
100
AcDbLine
 10
2997.63174027641
 20
1355.002010774814
 30
0.0
 11
2997.631735008044
 21
1335.372101263614
 31
0.0
  0
ARC
  5
1B3E
330
1F
100
AcDbEntity
  8
1外形線
 48
3.0
370
    13
100
AcDbCircle
 10
2853.476174141498
 20
1345.187056019216
 30
0.0
 40
28.87867965644046
100
AcDbArc
 50
229.6438767760168
 51
235.1551786792664
  0
ARC
  5
1B3F
330
1F
100
AcDbEntity
  8
1外形線
 48
3.0
370
    13
100
AcDbCircle
 10
2853.476174141498
 20
1345.187056019216
 30
0.0
 40
28.87867965644046
100
AcDbArc
 50
304.8448213207354
 51
0.0
  0
ARC
  5
1B40
330
1F
100
AcDbEntity
  8
1外形線
 48
3.0
100
AcDbCircle
 10
2853.476174141498
 20
1345.187056019216
 30
0.0
 40
33.0
100
AcDbArc
 50
238.4438883078848
 51
240.0000000000038
  0
ARC
  5
1B41
330
1F
100
AcDbEntity
  8
1外形線
 48
3.0
100
AcDbCircle
 10
2853.476174141498
 20
1345.187056019216
 30
0.0
 40
33.0
100
AcDbArc
 50
243.1590638735305
 51
296.8409361264696
  0
ARC
  5
1B42
330
1F
100
AcDbEntity
  8
1外形線
 48
3.0
100
AcDbCircle
 10
2853.476174141498
 20
1345.187056019216
 30
0.0
 40
33.0
100
AcDbArc
 50
299.9999999999962
 51
354.2608295227381
  0
ARC
  5
1B43
330
1F
100
AcDbEntity
  8
1外形線
 48
3.0
100
AcDbCircle
 10
2837.77617414154
 20
1319.623214367358
 30
0.0
 40
3.0
100
AcDbArc
 50
180.0
 51
238.4438883078848
  0
ARC
  5
1B44
330
1F
100
AcDbEntity
  8
1外形線
 48
3.0
100
AcDbCircle
 10
2883.325797254698
 20
1342.187056019216
 30
0.0
 40
3.0
100
AcDbArc
 50
354.2608295227125
 51
90.0
  0
LINE
  5
1B45
330
1F
100
AcDbEntity
  8
1外形線
 48
3.0
100
AcDbLine
 10
2908.476174141478
 20
1380.187056019216
 30
0.0
 11
2860.476174141478
 21
1380.187056019216
 31
0.0
  0
LINE
  5
1B46
330
1F
100
AcDbEntity
  8
1外形線
 48
3.0
100
AcDbLine
 10
2908.476174141478
 20
1377.887056019216
 30
0.0
 11
2860.476174141478
 21
1377.887056019216
 31
0.0
  0
LINE
  5
1B47
330
1F
100
AcDbEntity
  8
1外形線
 48
3.0
100
AcDbLine
 10
2908.476174141478
 20
1380.187056019216
 30
0.0
 11
2908.476174141478
 21
1375.429696706317
 31
0.0
  0
LINE
  5
1B48
330
1F
100
AcDbEntity
  8
1外形線
 48
3.0
100
AcDbLine
 10
2878.476174141479
 20
1377.887056019216
 30
0.0
 11
2878.476174141479
 21
1380.187056019216
 31
0.0
  0
LINE
  5
1B49
330
1F
100
AcDbEntity
  8
1外形線
 48
3.0
100
AcDbLine
 10
2878.476174141479
 20
1377.870936043076
 30
0.0
 11
2878.476174141479
 21
1377.870936043076
 31
0.0
  0
LINE
  5
1B4A
330
1F
100
AcDbEntity
  8
1外形線
 48
3.0
100
AcDbLine
 10
2895.304601266227
 20
1377.887056019216
 30
0.0
 11
2893.47617414148
 21
1376.058628894469
 31
0.0
  0
LINE
  5
1B4B
330
1F
100
AcDbEntity
  8
1外形線
 48
3.0
100
AcDbLine
 10
2893.47617414148
 20
1376.058628894469
 30
0.0
 11
2891.647747016735
 21
1377.887056019216
 31
0.0
  0
LINE
  5
1B4C
330
1F
100
AcDbEntity
  8
1外形線
 48
3.0
100
AcDbLine
 10
2893.47617414148
 20
1376.058628894469
 30
0.0
 11
2893.47617414148
 21
1377.887056019216
 31
0.0
  0
LINE
  5
1B4D
330
1F
100
AcDbEntity
  8
1外形線
 48
3.0
100
AcDbLine
 10
2873.64774701673
 20
1377.887056019216
 30
0.0
 11
2875.476174141478
 21
1376.058628894469
 31
0.0
  0
LINE
  5
1B4E
330
1F
100
AcDbEntity
  8
1外形線
 48
3.0
100
AcDbLine
 10
2875.476174141478
 20
1376.058628894469
 30
0.0
 11
2877.304601266224
 21
1377.887056019216
 31
0.0
  0
LINE
  5
1B4F
330
1F
100
AcDbEntity
  8
1外形線
 48
3.0
100
AcDbLine
 10
2875.476174141478
 20
1376.058628894469
 30
0.0
 11
2875.476174141478
 21
1377.887056019216
 31
0.0
  0
LINE
  5
1B53
330
1F
100
AcDbEntity
  8
1外形線
 48
3.0
100
AcDbLine
 10
2883.325797254698
 20
1345.187056019216
 30
0.0
 11
2882.476174141494
 21
1345.187056019216
 31
0.0
  0
ARC
  5
1B54
330
1F
100
AcDbEntity
  8
1外形線
 48
3.0
100
AcDbCircle
 10
2882.476174141494
 20
1346.187056019216
 30
0.0
 40
1.0
100
AcDbArc
 50
180.0
 51
270.0
  0
LINE
  5
1B55
330
1F
100
AcDbEntity
  8
1外形線
 48
3.0
100
AcDbLine
 10
2881.476174141495
 20
1346.187056019216
 30
0.0
 11
2881.476174141495
 21
1346.35862889447
 31
0.0
  0
ARC
  5
1B56
330
1F
100
AcDbEntity
  8
1外形線
 48
3.0
100
AcDbCircle
 10
2883.476174141495
 20
1346.35862889447
 30
0.0
 40
2.0
100
AcDbArc
 50
135.0000000000096
 51
180.0
  0
LINE
  5
1B57
330
1F
100
AcDbEntity
  8
1外形線
  6
CENTER
 48
0.5
100
AcDbLine
 10
2834.476174141546
 20
1339.187056019216
 30
0.0
 11
2834.476174141433
 21
1339.187056019216
 31
0.0
  0
LINE
  5
1B58
330
1F
100
AcDbEntity
  8
1外形線
 48
0.5
100
AcDbLine
 10
2834.77617414154
 20
1329.187056019212
 30
0.0
 11
2832.476174141538
 21
1329.187056019212
 31
0.0
  0
LINE
  5
1B59
330
1F
100
AcDbEntity
  8
1外形線
 48
0.5
100
AcDbLine
 10
2834.77617414154
 20
1337.187056019212
 30
0.0
 11
2832.476174141538
 21
1337.187056019212
 31
0.0
  0
ARC
  5
1B5A
330
1F
100
AcDbEntity
  8
1外形線
 48
0.5
100
AcDbCircle
 10
2833.776174141539
 20
1339.187056019212
 30
0.0
 40
1.0
100
AcDbArc
 50
0.0
 51
90.0
  0
LINE
  5
1B5B
330
1F
100
AcDbEntity
  8
1外形線
 48
3.0
100
AcDbLine
 10
2832.476174141538
 20
1329.187056019212
 30
0.0
 11
2832.476174141538
 21
1337.187056019212
 31
0.0
  0
LINE
  5
1B5C
330
1F
100
AcDbEntity
  8
1外形線
 48
3.0
100
AcDbLine
 10
2854.89900967512
 20
1376.308376362775
 30
0.0
 11
2838.626931736527
 21
1360.036298424183
 31
0.0
  0
ARC
  5
1B5D
330
1F
100
AcDbEntity
  8
1外形線
 48
3.0
100
AcDbCircle
 10
2857.02033001868
 20
1374.187056019216
 30
0.0
 40
3.0
100
AcDbArc
 50
90.0
 51
135.0000000000096
  0
ARC
  5
1B5E
330
1F
100
AcDbEntity
  8
1外形線
 48
3.0
100
AcDbCircle
 10
2853.476174141495
 20
1345.187056019217
 30
0.0
 40
21.00000000006897
100
AcDbArc
 50
135.0000000000096
 51
180.0
  0
LINE
  5
1B5F
330
1F
100
AcDbEntity
  8
1外形線
 48
3.0
100
AcDbLine
 10
2832.476174141426
 20
1345.187056019212
 30
0.0
 11
2832.476174141426
 21
1341.187056019212
 31
0.0
  0
ARC
  5
1B60
330
1F
100
AcDbEntity
  8
1外形線
 48
3.0
100
AcDbCircle
 10
2833.476174141426
 20
1341.187056019212
 30
0.0
 40
1.0
100
AcDbArc
 50
180.0
 51
270.0
  0
LINE
  5
1B61
330
1F
100
AcDbEntity
  8
1外形線
 48
3.0
100
AcDbLine
 10
2834.77617414154
 20
1319.623214367358
 30
0.0
 11
2834.77617414154
 21
1339.187056019212
 31
0.0
  0
LINE
  5
1B62
330
1F
100
AcDbEntity
  8
1外形線
 48
3.0
100
AcDbLine
 10
2860.476174141478
 20
1380.187056019216
 30
0.0
 11
2860.476174141478
 21
1377.887056019216
 31
0.0
  0
ARC
  5
1B63
330
1F
100
AcDbEntity
  8
1外形線
 48
3.0
100
AcDbCircle
 10
2858.476174141478
 20
1379.187056019216
 30
0.0
 40
2.0
100
AcDbArc
 50
270.0
 51
0.0
  0
LINE
  5
1B64
330
1F
100
AcDbEntity
  8
1外形線
 48
3.0
100
AcDbLine
 10
2857.02033001868
 20
1377.187056019216
 30
0.0
 11
2858.476174141478
 21
1377.187056019216
 31
0.0
  0
LINE
  5
1B65
330
1F
100
AcDbEntity
  8
1外形線
 48
3.0
100
AcDbLine
 10
2882.061960579121
 20
1347.772842456843
 30
0.0
 11
2907.597494485037
 21
1373.308376362757
 31
0.0
  0
ARC
  5
1B66
330
1F
100
AcDbEntity
  8
1外形線
 48
3.0
100
AcDbCircle
 10
2905.476174141478
 20
1375.429696706317
 30
0.0
 40
3.0
100
AcDbArc
 50
315.0000000000095
 51
0.0
  0
LINE
  5
1B67
330
1F
100
AcDbEntity
  8
1外形線
 48
3.0
100
AcDbLine
 10
2833.476174141426
 20
1340.187056019212
 30
0.0
 11
2833.776174141539
 21
1340.187056019212
 31
0.0
  0
LINE
  5
1B68
330
1F
100
AcDbEntity
  8
1外形線
100
AcDbLine
 10
2868.376174141504
 20
1314.687056019273
 30
0.0
 11
2869.976174141503
 21
1314.687056019273
 31
0.0
  0
LINE
  5
1B69
330
1F
100
AcDbEntity
  8
1外形線
100
AcDbLine
 10
2868.376174141504
 20
1335.162025306676
 30
0.0
 11
2869.976174141503
 21
1335.162025306677
 31
0.0
  0
LINE
  5
1B6A
330
1F
100
AcDbEntity
  8
1外形線
100
AcDbLine
 10
2869.976174141503
 20
1314.687056019273
 30
0.0
 11
2869.976174141504
 21
1348.187056019271
 31
0.0
  0
LINE
  5
1B6B
330
1F
100
AcDbEntity
  8
1外形線
100
AcDbLine
 10
2869.976174141504
 20
1351.187056019271
 30
0.0
 11
2869.976174141504
 21
1352.786398096067
 31
0.0
  0
LINE
  5
1B6C
330
1F
100
AcDbEntity
  8
1外形線
100
AcDbLine
 10
2838.576174141503
 20
1335.162025306676
 30
0.0
 11
2836.976174141503
 21
1335.162025306676
 31
0.0
  0
LINE
  5
1B6D
330
1F
100
AcDbEntity
  8
1外形線
100
AcDbLine
 10
2838.576174141503
 20
1314.687056019273
 30
0.0
 11
2836.976174141503
 21
1314.687056019273
 31
0.0
  0
LINE
  5
1B6E
330
1F
100
AcDbEntity
  8
1外形線
100
AcDbLine
 10
2868.376174141501
 20
1331.287056019271
 30
0.0
 11
2838.576174141503
 21
1331.287056019272
 31
0.0
  0
LINE
  5
1B6F
330
1F
100
AcDbEntity
  8
1外形線
100
AcDbLine
 10
2868.376174141501
 20
1318.687056019273
 30
0.0
 11
2838.576174141503
 21
1318.687056019273
 31
0.0
  0
LINE
  5
1B70
330
1F
100
AcDbEntity
  8
1外形線
100
AcDbLine
 10
2868.376174141504
 20
1348.187056019271
 30
0.0
 11
2869.976174141503
 21
1348.187056019271
 31
0.0
  0
LINE
  5
1B71
330
1F
100
AcDbEntity
  8
1外形線
100
AcDbLine
 10
2836.976174141503
 20
1348.187056019271
 30
0.0
 11
2838.576174141503
 21
1348.187056019271
 31
0.0
  0
LINE
  5
1B72
330
1F
100
AcDbEntity
  8
1外形線
100
AcDbLine
 10
2836.976174141503
 20
1314.687056019273
 30
0.0
 11
2836.976174141503
 21
1348.187056019271
 31
0.0
  0
LINE
  5
1B73
330
1F
100
AcDbEntity
  8
1外形線
100
AcDbLine
 10
2836.976174141504
 20
1351.187056019271
 30
0.0
 11
2836.976174141503
 21
1352.786398096067
 31
0.0
  0
ARC
  5
1B74
330
1F
100
AcDbEntity
  8
1外形線
100
AcDbCircle
 10
2837.976174141503
 20
1351.187056019271
 30
0.0
 40
1.0
100
AcDbArc
 50
180.0
 51
270.0
  0
ARC
  5
1B76
330
1F
100
AcDbEntity
  8
1外形線
 48
2.0
100
AcDbCircle
 10
2853.476174141503
 20
1345.187056019282
 30
0.0
 40
20.0
100
AcDbArc
 50
49.45839812645399
 51
130.541601873546
  0
ARC
  5
1B77
330
1F
100
AcDbEntity
  8
1外形線
 48
2.0
100
AcDbCircle
 10
2846.976174141503
 20
1352.786398096067
 30
0.0
 40
10.0
100
AcDbArc
 50
130.541601873546
 51
180.0
  0
ARC
  5
1B78
330
1F
100
AcDbEntity
  8
1外形線
 48
2.0
100
AcDbCircle
 10
2859.976174141504
 20
1352.786398096067
 30
0.0
 40
10.0
100
AcDbArc
 50
0.0
 51
49.45839812645399
  0
LINE
  5
1B79
330
1F
100
AcDbEntity
  8
1外形線
 48
2.0
100
AcDbLine
 10
2837.976174141504
 20
1350.187056019271
 30
0.0
 11
2838.576174141503
 21
1350.187056019271
 31
0.0
  0
LINE
  5
1B7A
330
1F
100
AcDbEntity
  8
1外形線
 48
2.0
100
AcDbLine
 10
2838.576174141503
 20
1350.187056019272
 30
0.0
 11
2838.576174141503
 21
1314.687056019273
 31
0.0
  0
ARC
  5
1B7B
330
1F
100
AcDbEntity
  8
1外形線
100
AcDbCircle
 10
2868.976174141503
 20
1351.187056019271
 30
0.0
 40
1.0
100
AcDbArc
 50
270.0
 51
0.0
  0
LINE
  5
1B7C
330
1F
100
AcDbEntity
  8
1外形線
 48
2.0
100
AcDbLine
 10
2868.376174141504
 20
1350.187056019272
 30
0.0
 11
2868.976174141503
 21
1350.187056019271
 31
0.0
  0
LINE
  5
1B7D
330
1F
100
AcDbEntity
  8
1外形線
 48
2.0
100
AcDbLine
 10
2868.376174141504
 20
1350.187056019272
 30
0.0
 11
2868.3761741415
 21
1314.687056019273
 31
0.0
  0
ELLIPSE
  5
1B7E
330
1F
100
AcDbEntity
  8
1外形線
100
AcDbEllipse
 10
2868.199369620453
 20
1324.987056019261
 30
0.0
 11
0.769647359079896
 21
-6.68815555493424
 31
0.0
210
0.0
220
0.0
230
0.9999999999999998
 40
0.5173994353
 41
4.045099895392805
 42
5.260737786697648
  0
ELLIPSE
  5
1B7F
330
1F
100
AcDbEntity
  8
1外形線
100
AcDbEllipse
 10
2862.452978662502
 20
1324.987056019261
 30
0.0
 11
0.7696473590798662
 21
-6.688155554934238
 31
0.0
210
0.0
220
0.0
230
1.0
 40
0.5173994353
 41
0.9035072418029926
 42
2.119145133107851
  0
LINE
  5
1B80
330
1F
100
AcDbEntity
  8
1外形線
100
AcDbLine
 10
2865.004877026553
 20
1328.813281313211
 30
0.0
 11
2865.647471256404
 21
1321.160830725311
 31
0.0
  0
ELLIPSE
  5
1B81
330
1F
100
AcDbEntity
  8
1外形線
100
AcDbEllipse
 10
2852.399369620453
 20
1324.987056019261
 30
0.0
 11
0.7696473590798807
 21
-6.688155554934231
 31
0.0
210
0.0
220
0.0
230
1.0
 40
0.5173994353
 41
4.045099895392802
 42
5.260737786697652
  0
ELLIPSE
  5
1B82
330
1F
100
AcDbEntity
  8
1外形線
100
AcDbEllipse
 10
2846.652978662502
 20
1324.987056019261
 30
0.0
 11
0.769647359079896
 21
-6.68815555493424
 31
0.0
210
0.0
220
0.0
230
0.9999999999999998
 40
0.5173994353
 41
0.9035072418029987
 42
2.119145133107839
  0
ELLIPSE
  5
1B83
330
1F
100
AcDbEntity
  8
1外形線
100
AcDbEllipse
 10
2860.299369620453
 20
1324.987056019261
 30
0.0
 11
0.7696473590798531
 21
-6.688155554934239
 31
0.0
210
0.0
220
0.0
230
1.0
 40
0.5173994353
 41
4.045099895392805
 42
5.260737786697657
  0
ELLIPSE
  5
1B84
330
1F
100
AcDbEntity
  8
1外形線
100
AcDbEllipse
 10
2854.552978662503
 20
1324.987056019261
 30
0.0
 11
0.7696473590798662
 21
-6.688155554934238
 31
0.0
210
0.0
220
0.0
230
1.0
 40
0.5173994353
 41
0.9035072418029947
 42
2.119145133107846
  0
LINE
  5
1B85
330
1F
100
AcDbEntity
  8
1外形線
100
AcDbLine
 10
2857.104877026553
 20
1328.813281313211
 30
0.0
 11
2857.747471256402
 21
1321.160830725311
 31
0.0
  0
LINE
  5
1B86
330
1F
100
AcDbEntity
  8
1外形線
100
AcDbLine
 10
2849.204877026553
 20
1328.813281313211
 30
0.0
 11
2849.847471256404
 21
1321.160830725311
 31
0.0
  0
ELLIPSE
  5
1B87
330
1F
100
AcDbEntity
  8
1外形線
100
AcDbEllipse
 10
2844.499369620454
 20
1324.987056019261
 30
0.0
 11
0.7696473590798662
 21
-6.688155554934238
 31
0.0
210
0.0
220
0.0
230
1.0
 40
0.5173994353
 41
4.045099895392805
 42
5.260737786697653
  0
ELLIPSE
  5
1B88
330
1F
100
AcDbEntity
  8
1外形線
100
AcDbEllipse
 10
2838.752978662503
 20
1324.987056019261
 30
0.0
 11
0.7696473590798662
 21
-6.688155554934238
 31
0.0
210
0.0
220
0.0
230
1.0
 40
0.5173994353
 41
0.9035072418029967
 42
2.119145133107851
  0
LINE
  5
1B89
330
1F
100
AcDbEntity
  8
1外形線
100
AcDbLine
 10
2841.304877026553
 20
1328.813281313211
 30
0.0
 11
2841.947471256402
 21
1321.160830725311
 31
0.0
  0
CIRCLE
  5
1B8A
330
1F
100
AcDbEntity
  8
1外形線
 48
2.0
100
AcDbCircle
 10
2853.476174141481
 20
1345.187056019236
 30
0.0
 40
10.99999999999954
  0
LINE
  5
1B8B
330
1F
100
AcDbEntity
  8
1外形線
 48
2.0
100
AcDbLine
 10
2861.976174368114
 20
1350.09453343827
 30
0.0
 11
2853.476174141474
 21
1355.002010857232
 31
0.0
  0
LINE
  5
1B8C
330
1F
100
AcDbEntity
  8
1外形線
 48
2.0
100
AcDbLine
 10
2853.476174141474
 20
1355.002010857232
 30
0.0
 11
2844.976173914833
 21
1350.094533438269
 31
0.0
  0
LINE
  5
1B8D
330
1F
100
AcDbEntity
  8
1外形線
 48
2.0
100
AcDbLine
 10
2844.976173914833
 20
1350.094533438269
 30
0.0
 11
2844.976173914832
 21
1340.279578600343
 31
0.0
  0
LINE
  5
1B8E
330
1F
100
AcDbEntity
  8
1外形線
 48
2.0
100
AcDbLine
 10
2861.976174368138
 20
1350.094533438227
 30
0.0
 11
2861.976174368138
 21
1340.279578600302
 31
0.0
  0
LINE
  5
1B8F
330
1F
100
AcDbEntity
  8
1外形線
 48
2.0
100
AcDbLine
 10
2861.976174368138
 20
1340.279578600302
 30
0.0
 11
2853.476174141497
 21
1335.37210118134
 31
0.0
  0
LINE
  5
1B90
330
1F
100
AcDbEntity
  8
1外形線
 48
2.0
100
AcDbLine
 10
2853.476174141497
 20
1335.37210118134
 30
0.0
 11
2844.976173914856
 21
1340.279578600301
 31
0.0
  0
CIRCLE
  5
1B91
330
1F
100
AcDbEntity
  8
1外形線
 48
3.0
100
AcDbCircle
 10
2853.476174141503
 20
1345.18705601921
 30
0.0
 40
11.99999228389765
  0
LINE
  5
1B94
330
1F
100
AcDbEntity
  8
1外形線
 48
3.0
100
AcDbLine
 10
2881.476174141487
 20
1444.803045179877
 30
0.0
 11
2905.476174141487
 21
1444.803045179877
 31
0.0
  0
LINE
  5
1B95
330
1F
100
AcDbEntity
  8
1外形線
 48
3.0
100
AcDbLine
 10
2908.476174141487
 20
1476.803045179877
 30
0.0
 11
2908.476174141487
 21
1447.803045179877
 31
0.0
  0
ARC
  5
1B96
330
1F
100
AcDbEntity
  8
1外形線
 48
3.0
100
AcDbCircle
 10
2905.476174141487
 20
1447.803045179877
 30
0.0
 40
3.0
100
AcDbArc
 50
270.0
 51
0.0
  0
LINE
  5
1B97
330
1F
100
AcDbEntity
  8
1外形線
 48
3.0
100
AcDbLine
 10
2878.476174141487
 20
1459.037834212718
 30
0.0
 11
2878.476174141487
 21
1447.803045179877
 31
0.0
  0
ARC
  5
1B98
330
1F
100
AcDbEntity
  8
1外形線
 48
3.0
100
AcDbCircle
 10
2881.476174141487
 20
1447.803045179877
 30
0.0
 40
3.0
100
AcDbArc
 50
180.0
 51
270.0
  0
CIRCLE
  5
1B9A
330
1F
100
AcDbEntity
  8
1外形線
 48
3.0
100
AcDbCircle
 10
2893.476174141485
 20
1457.803044173435
 30
0.0
 40
6.5
  0
LINE
  5
1B9B
330
1F
100
AcDbEntity
  8
1外形線
 48
3.0
100
AcDbLine
 10
2872.476174141487
 20
1476.803045179877
 30
0.0
 11
2875.476174141487
 21
1473.803045179877
 31
0.0
  0
LINE
  5
1B9C
330
1F
100
AcDbEntity
  8
1外形線
 48
3.0
100
AcDbLine
 10
2875.476174141487
 20
1473.803045179877
 30
0.0
 11
2878.476174141487
 21
1476.803045179877
 31
0.0
  0
LINE
  5
1B9D
330
1F
100
AcDbEntity
  8
1外形線
 48
3.0
100
AcDbLine
 10
2875.476174141487
 20
1473.803045179877
 30
0.0
 11
2875.476174141487
 21
1476.803045179877
 31
0.0
  0
LINE
  5
1B9E
330
1F
100
AcDbEntity
  8
1外形線
 48
3.0
100
AcDbLine
 10
2896.476174141485
 20
1476.803045179877
 30
0.0
 11
2893.476174141485
 21
1473.803045179877
 31
0.0
  0
LINE
  5
1B9F
330
1F
100
AcDbEntity
  8
1外形線
 48
3.0
100
AcDbLine
 10
2893.476174141485
 20
1473.803045179877
 30
0.0
 11
2890.476174141486
 21
1476.803045179877
 31
0.0
  0
LINE
  5
1BA0
330
1F
100
AcDbEntity
  8
1外形線
 48
3.0
100
AcDbLine
 10
2893.476174141485
 20
1473.803045179877
 30
0.0
 11
2893.476174141485
 21
1476.803045179877
 31
0.0
  0
LINE
  5
1BA1
330
1F
100
AcDbEntity
  8
1外形線
 48
2.0
100
AcDbLine
 10
2881.526426673202
 20
1476.803045179877
 30
0.0
 11
2885.061960579136
 21
1480.33857908581
 31
0.0
  0
LINE
  5
1BA2
330
1F
100
AcDbEntity
  8
1外形線
 48
2.0
100
AcDbLine
 10
2884.354853797948
 20
1476.803045179877
 30
0.0
 11
2886.476174141508
 21
1478.924365523437
 31
0.0
  0
LINE
  5
1BA3
330
1F
100
AcDbEntity
  8
1外形線
 48
2.0
100
AcDbLine
 10
2886.476174141508
 20
1478.924365523437
 30
0.0
 11
2885.061960579136
 21
1480.33857908581
 31
0.0
  0
LINE
  5
1BA4
330
1F
100
AcDbEntity
  8
1外形線
 48
3.0
100
AcDbLine
 10
2882.405106329643
 20
1476.803045179877
 30
0.0
 11
2869.354853797949
 21
1476.803045179877
 31
0.0
  0
LINE
  5
1BA5
330
1F
100
AcDbEntity
  8
1外形線
 48
3.0
100
AcDbLine
 10
2885.061960579136
 20
1480.33857908581
 30
0.0
 11
2861.976174255535
 21
1480.33857908581
 31
0.0
  0
LINE
  5
1BA6
330
1F
100
AcDbEntity
  8
1外形線
 48
3.0
100
AcDbLine
 10
2844.976174141506
 20
1480.33857908581
 30
0.0
 11
2837.476174141548
 21
1480.33857908581
 31
0.0
  0
LINE
  5
1BA7
330
1F
100
AcDbEntity
  8
1外形線
 48
3.0
100
AcDbLine
 10
2908.476174141487
 20
1476.803045179877
 30
0.0
 11
2832.476174141548
 21
1476.803045179877
 31
0.0
  0
LINE
  5
1BA8
330
1F
100
AcDbEntity
  8
1外形線
 48
3.0
100
AcDbLine
 10
2834.776174141548
 20
1466.803045179877
 30
0.0
 11
2832.476174141548
 21
1466.803045179877
 31
0.0
  0
LINE
  5
1BA9
330
1F
100
AcDbEntity
  8
1外形線
 48
3.0
100
AcDbLine
 10
2832.476174141548
 20
1476.803045179877
 30
0.0
 11
2832.476174141548
 21
1474.803045179877
 31
0.0
  0
LINE
  5
1BAA
330
1F
100
AcDbEntity
  8
1外形線
 48
3.0
100
AcDbLine
 10
2855.777689331569
 20
1474.503045179877
 30
0.0
 11
2855.777689331569
 21
1476.803045179877
 31
0.0
  0
LINE
  5
1BAB
330
1F
100
AcDbEntity
  8
1外形線
 48
3.0
100
AcDbLine
 10
2832.476174141548
 20
1474.503045179877
 30
0.0
 11
2860.476174141487
 21
1474.503045179877
 31
0.0
  0
LINE
  5
1BAD
330
1F
100
AcDbEntity
  8
1外形線
 48
3.0
100
AcDbLine
 10
2834.776174141548
 20
1466.803045179877
 30
0.0
 11
2834.776174141548
 21
1474.503045179877
 31
0.0
  0
LINE
  5
1BAE
330
1F
100
AcDbEntity
  8
1外形線
 48
3.0
100
AcDbLine
 10
2832.476174141548
 20
1466.803045179877
 30
0.0
 11
2832.476174141548
 21
1474.803045179877
 31
0.0
  0
LINE
  5
1BAF
330
1F
100
AcDbEntity
  8
1外形線
 48
3.0
100
AcDbLine
 10
2860.476174141487
 20
1476.803045179877
 30
0.0
 11
2860.476174141487
 21
1472.568255140594
 31
0.0
  0
ARC
  5
1BB0
330
1F
100
AcDbEntity
  8
1外形線
 48
3.0
100
AcDbCircle
 10
2863.476174141487
 20
1472.568255140594
 30
0.0
 40
3.0
100
AcDbArc
 50
180.0
 51
240.9453934529065
  0
LINE
  5
1BB1
330
1F
100
AcDbEntity
  8
1外形線
 48
3.0
100
AcDbLine
 10
2876.93310304707
 20
1461.660305978834
 30
0.0
 11
2862.019245235903
 21
1469.945783374479
 31
0.0
  0
ARC
  5
1BB2
330
1F
100
AcDbEntity
  8
1外形線
 48
3.0
100
AcDbCircle
 10
2875.476174141487
 20
1459.037834212718
 30
0.0
 40
3.0
100
AcDbArc
 50
0.0
 51
60.94539345290655
  0
LINE
  5
1BB3
330
1F
100
AcDbEntity
  8
1外形線
 48
3.0
100
AcDbLine
 10
2834.476174141548
 20
1477.33857908581
 30
0.0
 11
2834.476174141548
 21
1476.803045179877
 31
0.0
  0
ARC
  5
1BB4
330
1F
100
AcDbEntity
  8
1外形線
 48
3.0
100
AcDbCircle
 10
2837.476174141548
 20
1477.33857908581
 30
0.0
 40
3.0
100
AcDbArc
 50
90.0
 51
180.0
  0
LINE
  5
1BB5
330
1F
100
AcDbEntity
  8
1外形線
100
AcDbLine
 10
2868.175909793857
 20
1479.103045164492
 30
0.0
 11
2838.776438482409
 21
1479.103045164493
 31
0.0
  0
ARC
  5
1BB6
330
1F
100
AcDbEntity
  8
1外形線
 48
3.0
100
AcDbCircle
 10
2838.776174141699
 20
1476.803045179877
 30
0.0
 40
2.299999999999998
100
AcDbArc
 50
89.99341495343973
 51
180.0
  0
ARC
  5
1BB7
330
1F
100
AcDbEntity
  8
1外形線
 48
3.0
100
AcDbCircle
 10
2868.176174141517
 20
1476.803045179877
 30
0.0
 40
2.299999999999998
100
AcDbArc
 50
0.0
 51
90.00658521972248
  0
LINE
  5
1BB9
330
1F
100
AcDbEntity
  8
1外形線
100
AcDbLine
 10
2836.97617414151
 20
1460.203045179876
 30
0.0
 11
2838.576174141509
 21
1460.203045179876
 31
0.0
  0
LINE
  5
1BBA
330
1F
100
AcDbEntity
  8
1外形線
100
AcDbLine
 10
2842.250854602147
 20
1464.203045179876
 30
0.0
 11
2848.726175468734
 21
1464.203045179876
 31
0.0
  0
LINE
  5
1BBB
330
1F
100
AcDbEntity
  8
1外形線
100
AcDbLine
 10
2838.576174141509
 20
1464.203045179876
 30
0.0
 11
2841.001493680856
 21
1464.203045179876
 31
0.0
  0
LINE
  5
1BBC
330
1F
100
AcDbEntity
  8
1外形線
100
AcDbLine
 10
2838.576174141509
 20
1474.503045179877
 30
0.0
 11
2860.476174141487
 21
1474.503045179877
 31
0.0
  0
LINE
  5
1BBD
330
1F
100
AcDbEntity
  8
1外形線
100
AcDbLine
 10
2860.482826285426
 20
1472.903045179877
 30
0.0
 11
2838.576174141509
 21
1472.903045179876
 31
0.0
  0
ARC
  5
1BBE
330
1F
100
AcDbEntity
  8
1外形線
100
AcDbCircle
 10
2838.576174141509
 20
1472.903045179876
 30
0.0
 40
1.600000000000008
100
AcDbArc
 50
90.0
 51
180.0
  0
LINE
  5
1BBF
330
1F
100
AcDbEntity
  8
1外形線
100
AcDbLine
 10
2838.576174141509
 20
1468.903045179876
 30
0.0
 11
2836.97617414151
 21
1468.903045179876
 31
0.0
  0
LINE
  5
1BC0
330
1F
100
AcDbEntity
  8
1外形線
100
AcDbLine
 10
2838.576174141509
 20
1460.203045179876
 30
0.0
 11
2838.576174141509
 21
1474.503045179877
 31
0.0
  0
LINE
  5
1BC1
330
1F
100
AcDbEntity
  8
1外形線
100
AcDbLine
 10
2841.001493680856
 20
1464.203045179876
 30
0.0
 11
2841.626174141545
 21
1465.403045179876
 31
0.0
  0
LINE
  5
1BC2
330
1F
100
AcDbEntity
  8
1外形線
100
AcDbLine
 10
2841.626174141545
 20
1465.403045179876
 30
0.0
 11
2842.250854602147
 21
1464.203045179876
 31
0.0
  0
LINE
  5
1BC3
330
1F
100
AcDbEntity
  8
1外形線
100
AcDbLine
 10
2836.97617414151
 20
1474.003045179876
 30
0.0
 11
2837.414279137611
 21
1474.003045179876
 31
0.0
  0
LINE
  5
1BC4
330
1F
100
AcDbEntity
  8
1外形線
100
AcDbLine
 10
2836.976174141503
 20
1460.203045179876
 30
0.0
 11
2836.97617414151
 21
1474.003045179876
 31
0.0
  0
ARC
  5
1BC5
330
1F
100
AcDbEntity
  8
1外形線
100
AcDbCircle
 10
2843.076174141504
 20
1472.503045179875
 30
0.0
 40
1.6
100
AcDbArc
 50
180.0
 51
270.0
  0
LINE
  5
1BC6
330
1F
100
AcDbEntity
  8
1外形線
 48
2.0
100
AcDbLine
 10
2841.476174141504
 20
1472.903045179876
 30
0.0
 11
2841.476174141504
 21
1472.503045179875
 31
0.0
  0
LINE
  5
1BC7
330
1F
100
AcDbEntity
  8
1外形線
 48
2.0
100
AcDbLine
 10
2860.980763196027
 20
1470.903045179876
 30
0.0
 11
2853.476174141505
 21
1470.903045179876
 31
0.0
  0
LINE
  5
1BC8
330
1F
100
AcDbEntity
  8
1外形線
 48
2.0
100
AcDbLine
 10
2853.476174141505
 20
1470.903045179876
 30
0.0
 11
2843.076174141504
 21
1470.903045179875
 31
0.0
  0
LINE
  5
1BC9
330
1F
100
AcDbEntity
  8
1外形線
 48
3.0
370
    15
100
AcDbLine
 10
2849.726179790403
 20
1470.903045179876
 30
0.0
 11
2849.726179790403
 21
1469.16296506532
 31
0.0
  0
LINE
  5
1BCA
330
1F
100
AcDbEntity
  8
1外形線
 48
3.0
370
    15
100
AcDbLine
 10
2849.726179790403
 20
1468.146300826186
 30
0.0
 11
2849.726179790403
 21
1463.903045179883
 31
0.0
  0
LINE
  5
1BCB
330
1F
100
AcDbEntity
  8
1外形線
 48
3.0
370
    15
100
AcDbLine
 10
2857.22618191184
 20
1470.903045179876
 30
0.0
 11
2857.22618191184
 21
1467.788065643286
 31
0.0
  0
LINE
  5
1BCC
330
1F
100
AcDbEntity
  8
1外形線
 48
3.0
370
    15
100
AcDbLine
 10
2857.22618191184
 20
1466.771401404152
 30
0.0
 11
2857.22618191184
 21
1463.903045179883
 31
0.0
  0
LINE
  5
1BCD
330
1F
100
AcDbEntity
  8
1外形線
100
AcDbLine
 10
2861.976174470808
 20
1455.980881085187
 30
0.0
 11
2861.976174141505
 21
1461.303046826278
 31
0.0
  0
LINE
  5
1BCE
330
1F
100
AcDbEntity
  8
1外形線
100
AcDbLine
 10
2853.476174141512
 20
1455.980879444262
 30
0.0
 11
2853.476174141504
 21
1461.303046496968
 31
0.0
  0
ARC
  5
1BCF
330
1F
100
AcDbEntity
  8
1外形線
100
AcDbCircle
 10
2849.226174141514
 20
1468.646810977722
 30
0.0
 40
13.35995070507548
100
AcDbArc
 50
251.4510369375351
 51
288.5489630624649
  0
LINE
  5
1BD0
330
1F
100
AcDbEntity
  8
1外形線
100
AcDbLine
 10
2844.976174141516
 20
1455.980880761361
 30
0.0
 11
2844.976174141505
 21
1461.303047814059
 31
0.0
  0
LINE
  5
1BD1
330
1F
100
AcDbEntity
  8
1外形線
 48
2.0
100
AcDbLine
 10
2858.383651430211
 20
1455.303048147962
 30
0.0
 11
2849.883651429595
 21
1455.303048147962
 31
0.0
  0
LINE
  5
1BD2
330
1F
100
AcDbEntity
  8
1外形線
 48
2.0
100
AcDbLine
 10
2848.726175254665
 20
1463.903045179883
 30
0.0
 11
2848.726177149848
 21
1468.329621181337
 31
0.0
  0
LINE
  5
1BD3
330
1F
100
AcDbEntity
  8
1外形線
 48
2.0
100
AcDbLine
 10
2848.72617758512
 20
1469.346285340676
 30
0.0
 11
2848.726178251627
 21
1470.903045179875
 31
0.0
  0
LINE
  5
1BD4
330
1F
100
AcDbEntity
  8
1外形線
 48
2.0
100
AcDbLine
 10
2858.226174839319
 20
1463.903045179883
 30
0.0
 11
2858.22617555994
 21
1466.588082697497
 31
0.0
  0
LINE
  5
1BD5
330
1F
100
AcDbEntity
  8
1外形線
 48
2.0
100
AcDbLine
 10
2858.226175832797
 20
1467.604746886611
 30
0.0
 11
2858.226176718009
 21
1470.903045179876
 31
0.0
  0
LINE
  5
1BD6
330
1F
100
AcDbEntity
  8
1外形線
 48
2.0
100
AcDbLine
 10
2842.476174141502
 20
1461.303045179873
 30
0.0
 11
2864.476174141506
 21
1461.303045179878
 31
0.0
  0
LINE
  5
1BD7
330
1F
100
AcDbEntity
  8
1外形線
 48
2.0
100
AcDbLine
 10
2842.476174141505
 20
1462.903045179883
 30
0.0
 11
2864.476174141504
 21
1462.903045179883
 31
0.0
  0
LINE
  5
1BD8
330
1F
100
AcDbEntity
  8
1外形線
 48
2.0
100
AcDbLine
 10
2842.476174141505
 20
1462.903045179883
 30
0.0
 11
2842.476174141502
 21
1461.303045179873
 31
0.0
  0
LINE
  5
1BD9
330
1F
100
AcDbEntity
  8
1外形線
 48
2.0
100
AcDbLine
 10
2864.476174141504
 20
1462.903045179883
 30
0.0
 11
2864.476174141506
 21
1461.303045179878
 31
0.0
  0
INSERT
  5
1BDA
330
1F
100
AcDbEntity
  8
1外形線
100
AcDbBlockReference
  2
84684354353
 10
2853.473469613739
 20
1462.903045179883
 30
0.0
 50
90.0
  0
ARC
  5
1BDB
330
1F
100
AcDbEntity
  8
1外形線
100
AcDbCircle
 10
2857.726174141511
 20
1468.646810977722
 30
0.0
 40
13.35995070507548
100
AcDbArc
 50
251.4510369375351
 51
288.5489645520897
  0
LINE
  5
1BDC
330
1F
100
AcDbEntity
  8
1外形線
100
AcDbLine
 10
2844.976174141505
 20
1461.303047814059
 30
0.0
 11
2861.976174141505
 21
1461.303046826278
 31
0.0
  0
LINE
  5
1BDD
330
1F
100
AcDbEntity
  8
1外形線
 48
3.0
370
    15
100
AcDbLine
 10
2849.726179790414
 20
1493.303048326612
 30
0.0
 11
2849.726179790414
 21
1485.809873227958
 31
0.0
  0
LINE
  5
1BDE
330
1F
100
AcDbEntity
  8
1外形線
 48
3.0
370
    15
100
AcDbLine
 10
2857.22618191185
 20
1493.303048326612
 30
0.0
 11
2857.22618191185
 21
1485.803045164685
 31
0.0
  0
LINE
  5
1BDF
330
1F
100
AcDbEntity
  8
1外形線
 48
2.0
100
AcDbLine
 10
2848.726182714858
 20
1485.8098737606
 30
0.0
 11
2848.726183132404
 21
1492.303051668604
 31
0.0
  0
LINE
  5
1BE0
330
1F
100
AcDbEntity
  8
1外形線
 48
2.0
100
AcDbLine
 10
2858.226179581783
 20
1485.803045164685
 30
0.0
 11
2858.226179777602
 21
1492.30305046086
 31
0.0
  0
LINE
  5
1BE1
330
1F
100
AcDbEntity
  8
1外形線
 48
2.0
100
AcDbLine
 10
2857.226183924727
 20
1493.303046313725
 30
0.0
 11
2849.726179790414
 21
1493.303048326612
 31
0.0
  0
LINE
  5
1BE2
330
1F
100
AcDbEntity
  8
1外形線
 48
2.0
100
AcDbLine
 10
2848.726180582752
 20
1492.303049118952
 30
0.0
 11
2849.726179790414
 21
1493.303048326612
 31
0.0
  0
LINE
  5
1BE3
330
1F
100
AcDbEntity
  8
1外形線
 48
2.0
100
AcDbLine
 10
2858.226181119513
 20
1492.303049118949
 30
0.0
 11
2857.22618191185
 21
1493.303048326612
 31
0.0
  0
LINE
  5
1BE4
330
1F
100
AcDbEntity
  8
1外形線
 48
2.0
100
AcDbLine
 10
2858.226181119513
 20
1492.303049118949
 30
0.0
 11
2848.726180582758
 21
1492.303051668605
 31
0.0
  0
LINE
  5
1BE5
330
1F
100
AcDbEntity
  8
1外形線
100
AcDbLine
 10
2869.97617414152
 20
1460.203045179876
 30
0.0
 11
2868.376174141521
 21
1460.203045179876
 31
0.0
  0
LINE
  5
1BE6
330
1F
100
AcDbEntity
  8
1外形線
100
AcDbLine
 10
2864.701493680884
 20
1464.203045179876
 30
0.0
 11
2858.226172814297
 21
1464.203045179876
 31
0.0
  0
LINE
  5
1BE7
330
1F
100
AcDbEntity
  8
1外形線
100
AcDbLine
 10
2868.376174141521
 20
1464.203045179876
 30
0.0
 11
2865.950854602174
 21
1464.203045179876
 31
0.0
  0
LINE
  5
1BE8
330
1F
100
AcDbEntity
  8
1外形線
100
AcDbLine
 10
2868.376174141521
 20
1460.203045179876
 30
0.0
 11
2868.376174141521
 21
1466.114155849253
 31
0.0
  0
LINE
  5
1BE9
330
1F
100
AcDbEntity
  8
1外形線
100
AcDbLine
 10
2865.950854602175
 20
1464.203045179876
 30
0.0
 11
2865.326174141486
 21
1465.403045179876
 31
0.0
  0
LINE
  5
1BEA
330
1F
100
AcDbEntity
  8
1外形線
100
AcDbLine
 10
2865.326174141486
 20
1465.403045179876
 30
0.0
 11
2864.701493680884
 21
1464.203045179876
 31
0.0
  0
LINE
  5
1BEB
330
1F
100
AcDbEntity
  8
1外形線
100
AcDbLine
 10
2869.976174141527
 20
1460.203045179876
 30
0.0
 11
2869.976174141524
 21
1465.225266870901
 31
0.0
  0
LINE
  5
1BEC
330
1F
100
AcDbEntity
  8
1外形線
 48
3.0
100
AcDbLine
 10
3011.131737642228
 20
1380.187056019214
 30
0.0
 11
2981.131737642228
 21
1380.187056019214
 31
0.0
  0
LINE
  5
1BED
330
1F
100
AcDbEntity
  8
1外形線
 48
3.0
100
AcDbLine
 10
3010.831737642228
 20
1377.887056019214
 30
0.0
 11
2981.131737642228
 21
1377.887056019214
 31
0.0
  0
LINE
  5
1BEE
330
1F
100
AcDbEntity
  8
1外形線
 48
3.0
100
AcDbLine
 10
3010.831737642228
 20
1377.887056019214
 30
0.0
 11
3010.831737642228
 21
1345.187056019213
 31
0.0
  0
LINE
  5
1BEF
330
1F
100
AcDbEntity
  8
1外形線
 48
3.0
100
AcDbLine
 10
3010.831737642228
 20
1345.187056019213
 30
0.0
 11
3010.831737642228
 21
1317.136803487519
 31
0.0
  0
ARC
  5
1BF0
330
1F
100
AcDbEntity
  8
1外形線
 48
3.0
100
AcDbCircle
 10
3011.131737642228
 20
1378.187056019214
 30
0.0
 40
2.0
100
AcDbArc
 50
0.0
 51
90.0
  0
LINE
  5
1BF1
330
1F
100
AcDbEntity
  8
1外形線
 48
3.0
100
AcDbLine
 10
2981.131737642228
 20
1380.187056019214
 30
0.0
 11
2981.131737642228
 21
1377.887056019214
 31
0.0
  0
ARC
  5
1BF2
330
1F
100
AcDbEntity
  8
1外形線
 48
2.0
100
AcDbCircle
 10
3012.831737642228
 20
1317.136803487519
 30
0.0
 40
1.999999999999999
100
AcDbArc
 50
180.0
 51
224.9999999999904
  0
LINE
  5
1BF3
330
1F
100
AcDbEntity
  8
1外形線
 48
2.0
100
AcDbLine
 10
3011.417524079855
 20
1315.722589925147
 30
0.0
 11
3014.953057985787
 21
1312.187056019214
 31
0.0
  0
LINE
  5
1BF4
330
1F
100
AcDbEntity
  8
1外形線
 48
2.0
100
AcDbLine
 10
3014.953057985787
 20
1312.187056019214
 30
0.0
 11
3016.667271548161
 21
1313.901269581587
 31
0.0
  0
LINE
  5
1BF7
330
1F
100
AcDbEntity
  8
1外形線
 48
3.0
100
AcDbLine
 10
3016.667271548161
 20
1313.901269581587
 30
0.0
 11
3016.667271548161
 21
1343.187056019214
 31
0.0
  0
ARC
  5
1BF8
330
1F
100
AcDbEntity
  8
1外形線
 48
3.0
100
AcDbCircle
 10
3014.667271548161
 20
1343.187056019214
 30
0.0
 40
2.0
100
AcDbArc
 50
0.0
 51
90.00000000020843
  0
LINE
  5
1BF9
330
1F
100
AcDbEntity
  8
1外形線
100
AcDbLine
 10
3013.131735008045
 20
1355.002010774814
 30
0.0
 11
3013.131737642228
 21
1345.187056019214
 31
0.0
  0
LINE
  5
1BFA
330
1F
100
AcDbEntity
  8
1外形線
 48
3.0
100
AcDbLine
 10
3009.003310517481
 20
1377.887056019214
 30
0.0
 11
3010.831737642228
 21
1376.058628894467
 31
0.0
  0
LINE
  5
1BFB
330
1F
100
AcDbEntity
  8
1外形線
 48
3.0
100
AcDbLine
 10
3013.131737642228
 20
1378.187056019214
 30
0.0
 11
3013.131737642228
 21
1345.187056019218
 31
0.0
  0
LINE
  5
1BFC
330
1F
100
AcDbEntity
  8
1外形線
 48
3.0
100
AcDbLine
 10
3003.131737642228
 20
1336.187056019213
 30
0.0
 11
3003.131737642228
 21
1334.599540175706
 31
0.0
  0
LINE
  5
1BFD
330
1F
100
AcDbEntity
  8
1外形線
 48
3.0
100
AcDbLine
 10
3004.722250693941
 20
1329.187056019213
 30
0.0
 11
3010.831737642228
 21
1329.187056019213
 31
0.0
  0
LINE
  5
1BFE
330
1F
100
AcDbEntity
  8
1外形線
 48
3.0
100
AcDbLine
 10
3004.131737642228
 20
1337.187056019213
 30
0.0
 11
3005.231737642225
 21
1337.187056019213
 31
0.0
  0
ARC
  5
1BFF
330
1F
100
AcDbEntity
  8
1外形線
 48
3.0
100
AcDbCircle
 10
3004.131737642228
 20
1336.187056019213
 30
0.0
 40
1.0
100
AcDbArc
 50
90.0
 51
180.0
  0
LINE
  5
1C00
330
1F
100
AcDbEntity
  8
1外形線
100
AcDbLine
 10
3015.431737626844
 20
1345.035187944847
 30
0.0
 11
3015.431737626844
 21
1359.886791678506
 31
0.0
  0
ARC
  5
1C01
330
1F
100
AcDbEntity
  8
1外形線
 48
3.0
100
AcDbCircle
 10
3013.131737642228
 20
1359.887056019216
 30
0.0
 40
2.299999999999998
100
AcDbArc
 50
359.9934149534658
 51
90.0
  0
LINE
  5
1C02
330
1F
100
AcDbEntity
  8
1外形線
 48
3.0
100
AcDbLine
 10
3010.831737642228
 20
1345.187056019214
 30
0.0
 11
3014.667271548153
 21
1345.18705601922
 31
0.0
  0
LINE
  5
1C03
330
1F
100
AcDbEntity
  8
1外形線
 48
3.0
100
AcDbLine
 10
3014.953057985787
 20
1312.187056019214
 30
0.0
 11
3014.953057985787
 21
1343.187056019217
 31
0.0
  0
ARC
  5
1C04
330
1F
100
AcDbEntity
  8
1外形線
 48
3.0
100
AcDbCircle
 10
3012.953057985788
 20
1343.187056019217
 30
0.0
 40
2.0
100
AcDbArc
 50
0.0
 51
84.87437095972691
  0
LINE
  5
1C05
330
1F
100
AcDbEntity
  8
1外形線
 48
3.0
100
AcDbLine
 10
3010.831737642228
 20
1374.187056019165
 30
0.0
 11
3013.131737642228
 21
1374.187056019165
 31
0.0
  0
LINE
  5
1C06
330
1F
100
AcDbEntity
  8
1外形線
 48
3.0
100
AcDbLine
 10
3010.831737642228
 20
1347.187056019183
 30
0.0
 11
3013.131737642228
 21
1347.187056019183
 31
0.0
  0
ARC
  5
1C07
330
1F
100
AcDbEntity
  8
1外形線
100
AcDbCircle
 10
3004.027867668557
 20
1345.18705684252
 30
0.0
 40
20.00000000000002
100
AcDbArc
 50
330.6102605258666
 51
334.8493365869219
  0
ARC
  5
1C08
330
1F
100
AcDbEntity
  8
1外形線
100
AcDbCircle
 10
3004.027867668557
 20
1345.18705684252
 30
0.0
 40
20.00000000000002
100
AcDbArc
 50
25.15066341307792
 51
29.38973947410867
  0
ARC
  5
1C09
330
1F
100
AcDbEntity
  8
1外形線
100
AcDbCircle
 10
3017.152860944448
 20
1337.880730634107
 30
0.0
 40
4.979174950389927
100
AcDbArc
 50
329.7466572909236
 51
359.3683759429698
  0
LINE
  5
1C0A
330
1F
100
AcDbEntity
  8
1外形線
100
AcDbLine
 10
3021.453902703949
 20
1335.372100934305
 30
0.0
 11
3016.667271548161
 21
1335.372101149576
 31
0.0
  0
LINE
  5
1C0B
330
1F
100
AcDbEntity
  8
1外形線
100
AcDbLine
 10
3021.453902045351
 20
1340.279579217606
 30
0.0
 11
3016.667271548161
 21
1340.279579217609
 31
0.0
  0
ARC
  5
1C0C
330
1F
100
AcDbEntity
  8
1外形線
100
AcDbCircle
 10
3017.152886843349
 20
1337.770955444303
 30
0.0
 40
4.979149024067278
100
AcDbArc
 50
0.6315970377569468
 51
30.25343776958472
  0
ARC
  5
1C0D
330
1F
100
AcDbEntity
  8
1外形線
100
AcDbCircle
 10
3004.027867668557
 20
1345.18705684252
 30
0.0
 40
18.10386699023169
100
AcDbArc
 50
344.2718479399945
 51
0.0000000001042204
  0
LINE
  5
1C0E
330
1F
100
AcDbEntity
  8
1外形線
100
AcDbLine
 10
3021.453903362458
 20
1350.094533150007
 30
0.0
 11
3015.431737626844
 21
1350.094533150014
 31
0.0
  0
ARC
  5
1C0F
330
1F
100
AcDbEntity
  8
1外形線
100
AcDbCircle
 10
3004.027867668557
 20
1345.18705684252
 30
0.0
 40
18.10386699023169
100
AcDbArc
 50
0.0000000001042204
 51
15.7281520600055
  0
ARC
  5
1C10
330
1F
100
AcDbEntity
  8
1外形線
100
AcDbCircle
 10
3017.152833411951
 20
1352.603170637407
 30
0.0
 40
4.979203225664152
100
AcDbArc
 50
329.7467433217716
 51
359.3682899120478
  0
LINE
  5
1C11
330
1F
100
AcDbEntity
  8
1外形線
100
AcDbLine
 10
3021.453902045359
 20
1355.002010774803
 30
0.0
 11
3015.431737626844
 21
1355.002010774811
 31
0.0
  0
ARC
  5
1C12
330
1F
100
AcDbEntity
  8
1外形線
100
AcDbCircle
 10
3017.152865441859
 20
1352.49337973851
 30
0.0
 40
4.979171170095298
100
AcDbArc
 50
0.6316853882969015
 51
30.25338588616224
  0
LINE
  5
1C13
330
1F
100
AcDbEntity
  8
1外形線
 48
2.0
100
AcDbLine
 10
3022.131734658756
 20
1336.687056842458
 30
0.0
 11
3022.131734658759
 21
1353.687056842579
 31
0.0
  0
LINE
  5
1C16
330
1F
100
AcDbEntity
  8
1外形線
100
AcDbLine
 10
2861.976174470806
 20
1485.12521222746
 30
0.0
 11
2861.976174199968
 21
1479.103045164492
 31
0.0
  0
LINE
  5
1C17
330
1F
100
AcDbEntity
  8
1外形線
100
AcDbLine
 10
2853.476174141512
 20
1485.125213868385
 30
0.0
 11
2853.476174141504
 21
1479.103045164492
 31
0.0
  0
ARC
  5
1C18
330
1F
100
AcDbEntity
  8
1外形線
100
AcDbCircle
 10
2849.226174141513
 20
1472.459282334925
 30
0.0
 40
13.35995070507548
100
AcDbArc
 50
71.45103693753512
 51
108.5489630625232
  0
LINE
  5
1C19
330
1F
100
AcDbEntity
  8
1外形線
100
AcDbLine
 10
2844.976174141514
 20
1485.125212551287
 30
0.0
 11
2844.976174141505
 21
1479.103045164493
 31
0.0
  0
LINE
  5
1C1A
330
1F
100
AcDbEntity
  8
1外形線
 48
2.0
100
AcDbLine
 10
2858.383651430209
 20
1485.803045164685
 30
0.0
 11
2849.883651429593
 21
1485.803045164686
 31
0.0
  0
ARC
  5
1C1B
330
1F
100
AcDbEntity
  8
1外形線
100
AcDbCircle
 10
2857.72617414151
 20
1472.459282334925
 30
0.0
 40
13.35995070507548
100
AcDbArc
 50
71.45103544785538
 51
108.5489630624648
  0
LWPOLYLINE
  5
1D3E
330
1F
100
AcDbEntity
  8
1外形線
100
AcDbPolyline
 90
        4
 70
     1
 43
0.0
 10
2793.010838329716
 20
1549.344352822342
 10
3055.198555373896
 20
1549.344352822342
 10
3055.198555373896
 20
1289.480092685512
 10
2793.010838329716
 20
1289.480092685512
  0
TEXT
  5
1D41
330
1F
100
AcDbEntity
  8
1外形線
100
AcDbText
 10
2806.74769954985
 20
1523.63684973524
 30
0.0
 40
15.0
  1
FL-E
  7
KANJI
100
AcDbText
  0
ARC
  5
1D54
330
1F
100
AcDbEntity
  8
1外形線
 48
3.0
370
    13
100
AcDbCircle
 10
2853.476174141498
 20
1345.187056019216
 30
0.0
 40
28.87867965644046
100
AcDbArc
 50
246.5823124814598
 51
293.417687518529
  0
ENDSEC
  0
SECTION
  2
OBJECTS
  0
DICTIONARY
  5
C
330
0
100
AcDbDictionary
281
     1
  3
ACAD_CIP_PREVIOUS_PRODUCT_INFO
350
216
  3
ACAD_COLOR
350
6B
  3
ACAD_DETAILVIEWSTYLE
350
21B
  3
ACAD_GROUP
350
D
  3
ACAD_LAYOUT
350
1A
  3
ACAD_MATERIAL
350
6A
  3
ACAD_MLEADERSTYLE
350
12D
  3
ACAD_MLINESTYLE
350
17
  3
ACAD_PLOTSETTINGS
350
19
  3
ACAD_PLOTSTYLENAME
350
E
  3
ACAD_SCALELIST
350
10C
  3
ACAD_SECTIONVIEWSTYLE
350
219
  3
ACAD_TABLESTYLE
350
7E
  3
ACAD_VISUALSTYLE
350
EF
  3
ACDB_RECOMPOSE_DATA
350
1D56
  3
AcDbVariableDictionary
350
5E
  0
DICTIONARY
  5
1FF
330
2
100
AcDbDictionary
280
     1
281
     1
  3
ACAD_LAYERSTATES
360
200
  0
DICTIONARY
  5
13C
330
10
100
AcDbDictionary
280
     1
281
     1
  0
DICTIONARY
  5
27D
330
27C
100
AcDbDictionary
280
     1
281
     1
  0
DICTIONARY
  5
27F
330
27E
100
AcDbDictionary
280
     1
281
     1
  0
DICTIONARY
  5
281
330
280
100
AcDbDictionary
280
     1
281
     1
  0
DICTIONARY
  5
283
330
282
100
AcDbDictionary
280
     1
281
     1
  0
DICTIONARY
  5
285
330
284
100
AcDbDictionary
280
     1
281
     1
  0
DICTIONARY
  5
1098
330
1097
100
AcDbDictionary
280
     1
281
     1
  0
DICTIONARY
  5
109D
330
109C
100
AcDbDictionary
280
     1
281
     1
  0
DICTIONARY
  5
1CE
330
1F
100
AcDbDictionary
280
     1
281
     1
  3
ACAD_SORTENTS
360
180F
  0
DICTIONARY
  5
1D18
330
FAA
100
AcDbDictionary
280
     1
281
     1
  0
XRECORD
  5
216
102
{ACAD_REACTORS
330
C
102
}
330
C
100
AcDbXrecord
280
     1
300
ACD
300
2023
300

  0
DICTIONARY
  5
6B
102
{ACAD_REACTORS
330
C
102
}
330
C
100
AcDbDictionary
281
     1
  0
DICTIONARY
  5
21B
102
{ACAD_REACTORS
330
C
102
}
330
C
100
AcDbDictionary
281
     1
  3
Imperial24
350
28B
  3
Metric50
350
21C
  0
DICTIONARY
  5
D
102
{ACAD_REACTORS
330
C
102
}
330
C
100
AcDbDictionary
281
     1
  0
DICTIONARY
  5
1A
102
{ACAD_REACTORS
330
C
102
}
330
C
100
AcDbDictionary
281
     1
  3
Model
350
22
  3
レイアウト1
350
D3
  3
レイアウト2
350
D7
  0
DICTIONARY
  5
6A
102
{ACAD_REACTORS
330
C
102
}
330
C
100
AcDbDictionary
281
     1
  3
ByBlock
350
ED
  3
ByLayer
350
EC
  3
Global
350
EE
  0
DICTIONARY
  5
12D
102
{ACAD_REACTORS
330
C
102
}
330
C
100
AcDbDictionary
281
     1
  3
Annotative
350
13B
  3
Standard
350
12E
  0
DICTIONARY
  5
17
102
{ACAD_REACTORS
330
C
102
}
330
C
100
AcDbDictionary
281
     1
  3
Standard
350
18
  0
DICTIONARY
  5
19
102
{ACAD_REACTORS
330
C
102
}
330
C
100
AcDbDictionary
281
     1
  0
ACDBDICTIONARYWDFLT
  5
E
102
{ACAD_REACTORS
330
C
102
}
330
C
100
AcDbDictionary
281
     1
  3
Normal
350
F
100
AcDbDictionaryWithDefault
340
F
  0
DICTIONARY
  5
10C
102
{ACAD_REACTORS
330
C
102
}
330
C
100
AcDbDictionary
281
     1
  3
A0
350
10D
  3
A1
350
1BE
  3
A2
350
1BF
  3
A3
350
1C0
  3
A4
350
1C1
  3
A5
350
1C2
  3
A6
350
1C3
  3
A7
350
1C4
  3
A8
350
1C5
  3
A9
350
1C6
  3
B0
350
1C7
  3
B1
350
1C8
  3
B2
350
1C9
  3
B3
350
1CA
  3
B4
350
1CB
  3
B5
350
1CC
  3
B6
350
1CD
  0
DICTIONARY
  5
219
102
{ACAD_REACTORS
330
C
102
}
330
C
100
AcDbDictionary
281
     1
  3
Imperial24
350
28A
  3
Metric50
350
21A
  0
DICTIONARY
  5
7E
102
{ACAD_REACTORS
330
C
102
}
330
C
100
AcDbDictionary
281
     1
  3
Standard
350
7F
  0
DICTIONARY
  5
EF
102
{ACAD_REACTORS
330
C
102
}
330
C
100
AcDbDictionary
281
     1
  3
2dWireframe
350
F5
  3
3dWireframe
350
A5F
  3
Basic
350
F4
  3
Brighten
350
FB
  3
ColorChange
350
FF
  3
Conceptual
350
F8
  3
Dim
350
FA
  3
EdgeColorOff
350
1E6
  3
Facepattern
350
FE
  3
Flat
350
F0
  3
FlatWithEdges
350
F1
  3
Gouraud
350
F2
  3
GouraudWithEdges
350
F3
  3
Hidden
350
F7
  3
JitterOff
350
1E4
  3
Linepattern
350
FD
  3
OverhangOff
350
1E5
  3
Realistic
350
F9
  3
Shaded
350
1F3
  3
Shaded with edges
350
1F2
  3
Shades of Gray
350
1EF
  3
Sketchy
350
1F0
  3
Thicken
350
FC
  3
Wireframe
350
F6
  3
X-Ray
350
1F1
  0
XRECORD
  5
1D56
102
{ACAD_REACTORS
330
C
102
}
330
C
100
AcDbXrecord
280
     1
 90
        1
330
7F
  0
DICTIONARY
  5
5E
102
{ACAD_REACTORS
330
C
102
}
330
C
100
AcDbDictionary
281
     1
  3
CANNOSCALE
350
146
  3
CENTEREXE
350
259
  3
CENTERLTYPEFILE
350
25A
  3
CMLEADERSTYLE
350
145
  3
CTABLESTYLE
350
84
  3
CVIEWDETAILSTYLE
350
227
  3
CVIEWSECTIONSTYLE
350
228
  3
DIMASSOC
350
5F
  3
HIDETEXT
350
63
  3
LAYEREVAL
350
1AE
  3
LAYERNOTIFY
350
1AF
  0
DICTIONARY
  5
200
102
{ACAD_REACTORS
330
1FF
102
}
330
1FF
100
AcDbDictionary
281
     1
  0
SORTENTSTABLE
  5
180F
102
{ACAD_REACTORS
330
1CE
102
}
330
1CE
100
AcDbSortentsTable
330
1F
331
1B3F
  5
1B40
331
1B40
  5
1B41
331
1B41
  5
1B42
331
1B42
  5
1B43
331
1B43
  5
1B44
331
1B44
  5
1B45
331
1B45
  5
1B46
331
1B46
  5
1B47
331
1B47
  5
1B48
331
1B48
  5
1B49
331
1B49
  5
1B4A
331
1B4A
  5
1B4B
331
1B4B
  5
1B4C
331
1B4C
  5
1B4D
331
1B4D
  5
1B4E
331
1B4E
  5
1B4F
331
1B4F
  5
1B53
331
1B53
  5
1B54
331
1B54
  5
1B55
331
1B55
  5
1B56
331
1B56
  5
1B57
331
1B57
  5
1B58
331
1B58
  5
1B59
331
1B59
  5
1B5A
331
1B5A
  5
1B5B
331
1B5B
  5
1B5C
331
1B5C
  5
1B5D
331
1B5D
  5
1B5E
331
1B5E
  5
1B5F
331
1B5F
  5
1B60
331
1B60
  5
1B61
331
1B61
  5
1B62
331
1B62
  5
1B63
331
1B63
  5
1B64
331
1B64
  5
1B65
331
1B65
  5
1B66
331
1B66
  5
1B67
331
1B67
  5
1B68
331
1B68
  5
1B69
331
1B69
  5
1B6A
331
1B6A
  5
1B6B
331
1B6B
  5
1B6C
331
1B6C
  5
1B6D
331
1B6D
  5
1B6E
331
1B6E
  5
1B6F
331
1B6F
  5
1B70
331
1B70
  5
1B71
331
1B71
  5
1B72
331
1B72
  5
1B73
331
1B73
  5
1B74
331
1B74
  5
1B76
331
1B76
  5
1B77
331
1B77
  5
1B78
331
1B78
  5
1B79
331
1B79
  5
1B7A
331
1B7A
  5
1B7B
331
1B7B
  5
1B7C
331
1B7C
  5
1B7D
331
1B7D
  5
1B7E
331
1B7E
  5
1B7F
331
1B7F
  5
1B80
331
1B80
  5
1B81
331
1B81
  5
1B82
331
1B82
  5
1B83
331
1B83
  5
1B84
331
1B84
  5
1B85
331
1B85
  5
1B86
331
1B86
  5
1B87
331
1B87
  5
1B88
331
1B88
  5
1B89
331
1B89
  5
1B8A
331
1B8A
  5
1B8B
331
1B8B
  5
1B8C
331
1B8C
  5
1B8D
331
1B8D
  5
1B8E
331
1B8E
  5
1B8F
331
1B8F
  5
1B90
331
1B90
  5
1B91
331
1B91
  5
1B94
331
1B94
  5
1B95
331
1B95
  5
1B96
331
1B96
  5
1B97
331
1B97
  5
1B98
331
1B98
  5
1B9A
331
1B9A
  5
1B9B
331
1B9B
  5
1B9C
331
1B9C
  5
1B9D
331
1B9D
  5
1B9E
331
1B9E
  5
1B9F
331
1B9F
  5
1BA0
331
1BA0
  5
1BA1
331
1BA1
  5
1BA2
331
1BA2
  5
1BA3
331
1BA3
  5
1BA4
331
1BA4
  5
1BA5
331
1BA5
  5
1BA6
331
1BA6
  5
1BA7
331
1BA7
  5
1BA8
331
1BA8
  5
1BA9
331
1BA9
  5
1BAA
331
1BAA
  5
1BAB
331
1BAB
  5
1BAD
331
1BAD
  5
1BAE
331
1BAE
  5
1BAF
331
1BAF
  5
1BB0
331
1BB0
  5
1BB1
331
1BB1
  5
1BB2
331
1BB2
  5
1BB3
331
1BB3
  5
1BB4
331
1BB4
  5
1BB5
331
1BB5
  5
1BB6
331
1BB6
  5
1BB7
331
1BB7
  5
1BB9
331
1BB9
  5
1BBA
331
1BBA
  5
1BBB
331
1BBB
  5
1BBC
331
1BBC
  5
1BBD
331
1BBD
  5
1BBE
331
1BBE
  5
1BBF
331
1BBF
  5
1BC0
331
1BC0
  5
1BC1
331
1BC1
  5
1BC2
331
1BC2
  5
1BC3
331
1BC3
  5
1BC4
331
1BC4
  5
1BC5
331
1BC5
  5
1BC6
331
1BC6
  5
1BC7
331
1BC7
  5
1BC8
331
1BC8
  5
1BC9
331
1BC9
  5
1BCA
331
1BCA
  5
1BCB
331
1BCB
  5
1BCC
331
1BCC
  5
1BCD
331
1BCD
  5
1BCE
331
1BCE
  5
1BCF
331
1BCF
  5
1BD0
331
1BD0
  5
1BD1
331
1BD1
  5
1BD2
331
1BD2
  5
1BD3
331
1BD3
  5
1BD4
331
1BD4
  5
1BD5
331
1BD5
  5
1BD6
331
1BD6
  5
1BD7
331
1BD7
  5
1BD8
331
1BD8
  5
1BD9
331
1BD9
  5
1BDA
331
1BDA
  5
1BDB
331
1BDB
  5
1BDC
331
1BDC
  5
1BDD
331
1BDD
  5
1BDE
331
1BDE
  5
1BDF
331
1BDF
  5
1BE0
331
1BE0
  5
1BE1
331
1BE1
  5
1BE2
331
1BE2
  5
1BE3
331
1BE3
  5
1BE4
331
1BE4
  5
1BE5
331
1BE5
  5
1BE6
331
1BE6
  5
1BE7
331
1BE7
  5
1BE8
331
1BE8
  5
1BE9
331
1BE9
  5
1BEA
331
1BEA
  5
1BEB
331
1BEB
  5
1BEC
331
1BEC
  5
1BED
331
1BED
  5
1BEE
331
1BEE
  5
1BEF
331
1BEF
  5
1BF0
331
1BF0
  5
1BF1
331
1BF1
  5
1BF2
331
1BF2
  5
1BF3
331
1BF3
  5
1BF4
331
1BF4
  5
1BF7
331
1BF7
  5
1BF8
331
1BF8
  5
1BF9
331
1BF9
  5
1BFA
331
1BFA
  5
1BFB
331
1BFB
  5
1BFC
331
1BFC
  5
1BFD
331
1BFD
  5
1BFE
331
1BFE
  5
1BFF
331
1BFF
  5
1C00
331
1C00
  5
1C01
331
1C01
  5
1C02
331
1C02
  5
1C03
331
1C03
  5
1C04
331
1C04
  5
1C05
331
1C05
  5
1C06
331
1C06
  5
1C07
331
1C07
  5
1C08
331
1C08
  5
1C09
331
1C09
  5
1C0A
331
1C0A
  5
1C0B
331
1C0B
  5
1C0C
331
1C0C
  5
1C0D
331
1C0D
  5
1C0E
331
1C0E
  5
1C0F
331
1C0F
  5
1C10
331
1C10
  5
1C11
331
1C11
  5
1C12
331
1C12
  5
1C13
331
1C13
  5
1C16
331
1C16
  5
1C17
331
1C17
  5
1C18
331
1C18
  5
1C19
331
1C19
  5
1C1A
331
1C1A
  5
1C1B
331
1C1B
  5
1D3E
331
1D3E
  5
1D41
331
1D41
  5
1D54
331
1D54
  5
1B3F
  0
ACDBDETAILVIEWSTYLE
  5
28B
102
{ACAD_REACTORS
330
21B
102
}
330
21B
100
AcDbModelDocViewStyle
 70
     0
  3
Imperial24
290
     0
300
Imperial24
 90
        0
100
AcDbDetailViewStyle
 70
     0
 71
     0
 90
        3
 71
     1
340
11
 62
   256
 40
0.24
340
0
 62
   256
 40
0.24
300

 40
0.36
280
     3
 71
     2
340
16
 90
       25
 62
   256
 71
     3
340
11
 62
   256
 40
0.24
 90
        1
 40
0.75
 90
        1
300
%<\AcVar ViewType \f "%tc1">% %<\AcVar ViewDetailId>%\PSCALE %<\AcVar ViewScale \f "%sn">%
 71
     4
340
16
 90
       25
 62
   256
340
16
 90
       25
 62
   256
280
     0
  0
ACDBDETAILVIEWSTYLE
  5
21C
102
{ACAD_REACTORS
330
21B
102
}
330
21B
100
AcDbModelDocViewStyle
 70
     0
  3
Metric50
290
     0
300
Metric50
 90
        0
100
AcDbDetailViewStyle
 70
     0
 71
     0
 90
        3
 71
     1
340
11
 62
   256
 40
5.0
340
0
 62
   256
 40
5.0
300

 40
0.0
280
     1
 71
     2
340
16
 90
       25
 62
   256
 71
     3
340
11
 62
   256
 40
5.0
 90
        0
 40
15.0
 90
        1
300
%<\AcVar ViewDetailId>% (%<\AcVar ViewScale \f "%sn">%)
 71
     4
340
16
 90
       25
 62
   256
340
16
 90
       25
 62
   256
280
     0
  0
LAYOUT
  5
22
102
{ACAD_XDICTIONARY
360
205
102
}
102
{ACAD_REACTORS
330
1A
102
}
330
1A
100
AcDbPlotSettings
  1

  2
CubePDF
  4
A3
  6

 40
3.174999952316281
 41
3.174999952316281
 42
3.17498779296875
 43
3.17498779296875
 44
297.0106506347656
 45
420.1159973144531
 46
-3.169668555259703
 47
-3.116995215415953
 48
2270.134612598639
 49
1226.131944586114
140
2690.134612598638
141
1523.131944586114
142
1.0
143
1.0
 70
 11940
 72
     1
 73
     1
 74
     4
  7
INABA-CAD-Canon.ctb
 75
     0
147
0.6674270854654539
 76
     0
 77
     2
 78
   300
148
-2270.134612598639
149
-1226.131944586114
100
AcDbLayout
  1
Model
 70
     1
 71
     0
 10
0.0
 20
0.0
 11
12.0
 21
9.0
 12
0.0
 22
0.0
 32
0.0
 14
0.0
 24
0.0
 34
0.0
 15
0.0
 25
0.0
 35
0.0
146
0.0
 13
0.0
 23
0.0
 33
0.0
 16
1.0
 26
0.0
 36
0.0
 17
0.0
 27
1.0
 37
0.0
 76
     0
330
1F
331
EA
1001
ACAD_PSEXT
1000
CubePDF
1000
CubePDF
1000
CubePDF:
1000
CubePDF Virtual Printer
1070
     0
  0
LAYOUT
  5
D3
102
{ACAD_REACTORS
330
1A
102
}
330
1A
100
AcDbPlotSettings
  1

  2
C:\Documents and Settings\basas\Application Data\Autodesk\AutoCAD 2005\R16.1\enu\plotters\Default Windows System Printer.pc3
  4

  6

 40
0.0
 41
0.0
 42
0.0
 43
0.0
 44
0.0
 45
0.0
 46
0.0
 47
0.0
 48
0.0
 49
0.0
140
0.0
141
0.0
142
1.0
143
1.0
 70
   688
 72
     0
 73
     0
 74
     5
  7
INABA-CAD-Canon.ctb
 75
    16
147
1.0
 76
     0
 77
     2
 78
   300
148
0.0
149
0.0
100
AcDbLayout
  1
レイアウト1
 70
     1
 71
     1
 10
0.0
 20
0.0
 11
12.0
 21
9.0
 12
0.0
 22
0.0
 32
0.0
 14
0.0
 24
0.0
 34
0.0
 15
0.0
 25
0.0
 35
0.0
146
0.0
 13
0.0
 23
0.0
 33
0.0
 16
1.0
 26
0.0
 36
0.0
 17
0.0
 27
1.0
 37
0.0
 76
     0
330
D2
  0
LAYOUT
  5
D7
102
{ACAD_REACTORS
330
1A
102
}
330
1A
100
AcDbPlotSettings
  1

  2
C:\Documents and Settings\basas\Application Data\Autodesk\AutoCAD 2005\R16.1\enu\plotters\Default Windows System Printer.pc3
  4

  6

 40
0.0
 41
0.0
 42
0.0
 43
0.0
 44
0.0
 45
0.0
 46
0.0
 47
0.0
 48
0.0
 49
0.0
140
0.0
141
0.0
142
1.0
143
1.0
 70
   688
 72
     0
 73
     0
 74
     5
  7
INABA-CAD-Canon.ctb
 75
    16
147
1.0
 76
     0
 77
     2
 78
   300
148
0.0
149
0.0
100
AcDbLayout
  1
レイアウト2
 70
     1
 71
     2
 10
0.0
 20
0.0
 11
12.0
 21
9.0
 12
0.0
 22
0.0
 32
0.0
 14
0.0
 24
0.0
 34
0.0
 15
0.0
 25
0.0
 35
0.0
146
0.0
 13
0.0
 23
0.0
 33
0.0
 16
1.0
 26
0.0
 36
0.0
 17
0.0
 27
1.0
 37
0.0
 76
     0
330
D6
  0
MATERIAL
  5
ED
102
{ACAD_XDICTIONARY
360
1F9
102
}
102
{ACAD_REACTORS
330
6A
102
}
330
6A
100
AcDbMaterial
  1
ByBlock
 94
       63
  0
MATERIAL
  5
EC
102
{ACAD_XDICTIONARY
360
1F7
102
}
102
{ACAD_REACTORS
330
6A
102
}
330
6A
100
AcDbMaterial
  1
ByLayer
 94
       63
  0
MATERIAL
  5
EE
102
{ACAD_XDICTIONARY
360
173
102
}
102
{ACAD_REACTORS
330
6A
102
}
330
6A
100
AcDbMaterial
  1
Global
 43
0.0007999999797903
 43
0.0
 43
0.0
 43
0.0
 43
0.0
 43
0.0007999999797903
 43
0.0
 43
0.0
 43
0.0
 43
0.0
 43
1.0
 43
0.0
 43
0.0
 43
0.0
 43
0.0
 43
1.0
 49
0.0007999999797903
 49
0.0
 49
0.0
 49
0.0
 49
0.0
 49
0.0007999999797903
 49
0.0
 49
0.0
 49
0.0
 49
0.0
 49
1.0
 49
0.0
 49
0.0
 49
0.0
 49
0.0
 49
1.0
142
0.0007999999797903
142
0.0
142
0.0
142
0.0
142
0.0
142
0.0007999999797903
142
0.0
142
0.0
142
0.0
142
0.0
142
1.0
142
0.0
142
0.0
142
0.0
142
0.0
142
1.0
144
0.0007999999797903
144
0.0
144
0.0
144
0.0
144
0.0
144
0.0007999999797903
144
0.0
144
0.0
144
0.0
144
0.0
144
1.0
144
0.0
144
0.0
144
0.0
144
0.0
144
1.0
 94
       63
1001
ACAD
1070
    -1
1070
     3
1070
     0
1000

1071
        0
1070
     0
  0
MLEADERSTYLE
  5
13B
102
{ACAD_REACTORS
330
12D
102
}
330
12D
100
AcDbMLeaderStyle
179
     2
170
     2
171
     1
172
     0
 90
        2
 40
0.0
 41
0.0
173
     1
 91
-1056964608
340
14
 92
       -2
290
     1
 42
2.0
291
     1
 43
8.0
  3
Standard
 44
4.0
300

342
11
174
     1
178
     1
175
     1
176
     0
 93
-1056964608
 45
4.0
292
     0
297
     0
 46
4.0
 94
-1056964608
 47
1.0
 49
1.0
140
1.0
293
     1
141
0.0
294
     1
177
     0
142
1.0
295
     0
296
     1
143
3.75
271
     0
272
     9
273
     9
298
     0
  0
MLEADERSTYLE
  5
12E
102
{ACAD_REACTORS
330
12D
102
}
330
12D
100
AcDbMLeaderStyle
179
     2
170
     2
171
     1
172
     0
 90
        2
 40
0.0
 41
0.0
173
     1
 91
-1056964608
340
14
 92
       -2
290
     1
 42
2.0
291
     1
 43
8.0
  3
Standard
 44
4.0
300

342
11
174
     1
178
     1
175
     1
176
     0
 93
-1056964608
 45
4.0
292
     0
297
     0
 46
4.0
 94
-1056964608
 47
1.0
 49
1.0
140
1.0
293
     1
141
0.0
294
     1
177
     0
142
1.0
295
     0
296
     0
143
3.75
271
     0
272
     9
273
     9
298
     0
  0
MLINESTYLE
  5
18
102
{ACAD_REACTORS
330
17
102
}
330
17
100
AcDbMlineStyle
  2
STANDARD
 70
     0
  3

 62
   256
 51
90.0
 52
90.0
 71
     2
 49
0.5
 62
   256
  6
BYLAYER
 49
-0.5
 62
   256
  6
BYLAYER
  0
ACDBPLACEHOLDER
  5
F
102
{ACAD_REACTORS
330
E
102
}
330
E
  0
SCALE
  5
10D
102
{ACAD_REACTORS
330
10C
102
}
330
10C
100
AcDbScale
 70
     0
300
1:1
140
1.0
141
1.0
290
     1
  0
SCALE
  5
1BE
102
{ACAD_REACTORS
330
10C
102
}
330
10C
100
AcDbScale
 70
     0
300
1:2
140
1.0
141
2.0
290
     0
  0
SCALE
  5
1BF
102
{ACAD_REACTORS
330
10C
102
}
330
10C
100
AcDbScale
 70
     0
300
1:4
140
1.0
141
4.0
290
     0
  0
SCALE
  5
1C0
102
{ACAD_REACTORS
330
10C
102
}
330
10C
100
AcDbScale
 70
     0
300
1:5
140
1.0
141
5.0
290
     0
  0
SCALE
  5
1C1
102
{ACAD_REACTORS
330
10C
102
}
330
10C
100
AcDbScale
 70
     0
300
1:8
140
1.0
141
8.0
290
     0
  0
SCALE
  5
1C2
102
{ACAD_REACTORS
330
10C
102
}
330
10C
100
AcDbScale
 70
     0
300
1:10
140
1.0
141
10.0
290
     0
  0
SCALE
  5
1C3
102
{ACAD_REACTORS
330
10C
102
}
330
10C
100
AcDbScale
 70
     0
300
1:16
140
1.0
141
16.0
290
     0
  0
SCALE
  5
1C4
102
{ACAD_REACTORS
330
10C
102
}
330
10C
100
AcDbScale
 70
     0
300
1:20
140
1.0
141
20.0
290
     0
  0
SCALE
  5
1C5
102
{ACAD_REACTORS
330
10C
102
}
330
10C
100
AcDbScale
 70
     0
300
1:30
140
1.0
141
30.0
290
     0
  0
SCALE
  5
1C6
102
{ACAD_REACTORS
330
10C
102
}
330
10C
100
AcDbScale
 70
     0
300
1:40
140
1.0
141
40.0
290
     0
  0
SCALE
  5
1C7
102
{ACAD_REACTORS
330
10C
102
}
330
10C
100
AcDbScale
 70
     0
300
1:50
140
1.0
141
50.0
290
     0
  0
SCALE
  5
1C8
102
{ACAD_REACTORS
330
10C
102
}
330
10C
100
AcDbScale
 70
     0
300
1:100
140
1.0
141
100.0
290
     0
  0
SCALE
  5
1C9
102
{ACAD_REACTORS
330
10C
102
}
330
10C
100
AcDbScale
 70
     0
300
2:1
140
2.0
141
1.0
290
     0
  0
SCALE
  5
1CA
102
{ACAD_REACTORS
330
10C
102
}
330
10C
100
AcDbScale
 70
     0
300
4:1
140
4.0
141
1.0
290
     0
  0
SCALE
  5
1CB
102
{ACAD_REACTORS
330
10C
102
}
330
10C
100
AcDbScale
 70
     0
300
8:1
140
8.0
141
1.0
290
     0
  0
SCALE
  5
1CC
102
{ACAD_REACTORS
330
10C
102
}
330
10C
100
AcDbScale
 70
     0
300
10:1
140
10.0
141
1.0
290
     0
  0
SCALE
  5
1CD
102
{ACAD_REACTORS
330
10C
102
}
330
10C
100
AcDbScale
 70
     0
300
100:1
140
100.0
141
1.0
290
     0
  0
ACDBSECTIONVIEWSTYLE
  5
28A
102
{ACAD_REACTORS
330
219
102
}
330
219
100
AcDbModelDocViewStyle
 70
     0
  3
Imperial24
290
     0
300
Imperial24
 90
        0
100
AcDbSectionViewStyle
 70
     0
 71
     0
 90
       78
 71
     1
340
11
 62
   256
 40
0.24
340
0
340
0
 62
   256
 40
0.24
300
I, O, Q, S, X, Z
 40
0.48
 90
        3
 40
0.18
 90
        1
 71
     2
340
16
 90
       25
 62
   256
340
16
 90
       50
 62
   256
 40
0.24
 40
0.0
 40
0.24
 71
     3
340
11
 62
   256
 40
0.24
 90
        1
 40
0.75
 90
        1
300
%<\AcVar ViewType \f "%tc1">% %<\AcVar ViewSectionStartId>%-%<\AcVar ViewSectionEndId>%\PSCALE %<\AcVar ViewScale \f "%sn">%
 71
     4
 62
   256
 62
   257
300
ANSI31
 40
1.0
 90
        0
290
     0
290
     0
 90
        6
 40
0.0
 40
1.570796326794896
 40
0.2617993877991494
 40
1.308996938995747
 40
-0.2617993877991494
 40
1.832595714594044
  0
ACDBSECTIONVIEWSTYLE
  5
21A
102
{ACAD_REACTORS
330
219
102
}
330
219
100
AcDbModelDocViewStyle
 70
     0
  3
Metric50
290
     0
300
Metric50
 90
        0
100
AcDbSectionViewStyle
 70
     0
 71
     0
 90
      102
 71
     1
340
11
 62
   256
 40
5.0
340
0
340
0
 62
   256
 40
5.0
300
I, O, Q, S, X, Z
 40
10.0
 90
        0
 40
2.5
 90
        0
 71
     2
340
16
 90
       25
 62
   256
340
16
 90
       50
 62
   256
 40
5.0
 40
2.5
 40
5.0
 71
     3
340
11
 62
   256
 40
5.0
 90
        0
 40
15.0
 90
        1
300
%<\AcVar ViewSectionStartId>%-%<\AcVar ViewSectionEndId>% (%<\AcVar ViewScale \f "%sn">%)
 71
     4
 62
   256
 62
   257
300
ANSI31
 40
1.0
 90
        0
290
     0
290
     0
 90
        6
 40
0.0
 40
1.570796326794896
 40
0.2617993877991494
 40
1.308996938995747
 40
-0.2617993877991494
 40
1.832595714594044
  0
TABLESTYLE
  5
7F
102
{ACAD_XDICTIONARY
360
162
102
}
102
{ACAD_REACTORS
330
7E
102
}
330
7E
100
AcDbTableStyle
280
     0
  3
Standard
 70
     0
 71
     0
 40
1.5
 41
1.5
280
     0
281
     0
  7
Standard
140
4.5
170
     2
 62
     0
 63
     7
283
     0
 90
      512
 91
        0
  1

274
    -2
284
     1
 64
     0
275
    -2
285
     1
 65
     0
276
    -2
286
     1
 66
     0
277
    -2
287
     1
 67
     0
278
    -2
288
     1
 68
     0
279
    -2
289
     1
 69
     0
  7
Standard
140
6.0
170
     5
 62
     0
 63
     7
283
     0
 90
      512
 91
        0
  1

274
    -2
284
     1
 64
     0
275
    -2
285
     1
 65
     0
276
    -2
286
     1
 66
     0
277
    -2
287
     1
 67
     0
278
    -2
288
     1
 68
     0
279
    -2
289
     1
 69
     0
  7
Standard
140
4.5
170
     5
 62
     0
 63
     7
283
     0
 90
      512
 91
        0
  1

274
    -2
284
     1
 64
     0
275
    -2
285
     1
 65
     0
276
    -2
286
     1
 66
     0
277
    -2
287
     1
 67
     0
278
    -2
288
     1
 68
     0
279
    -2
289
     1
 69
     0
  0
VISUALSTYLE
  5
F5
102
{ACAD_REACTORS
330
EF
102
}
330
EF
100
AcDbVisualStyle
  2
2dWireframe
 70
     4
177
     3
291
     0
 70
    58
 90
        0
176
     1
 90
        2
176
     1
 90
        1
176
     1
 90
        0
176
     1
 40
0.6
176
     1
 40
30.0
176
     1
 62
     7
420
 16777215
176
     1
 90
        1
176
     1
 90
        4
176
     1
 62
     7
176
     1
 62
   257
176
     1
 90
        1
176
     1
 90
        1
176
     1
 40
1.0
176
     1
 90
        0
176
     1
 62
   257
176
     1
 40
1.0
176
     1
 90
        1
176
     1
 90
        6
176
     1
 90
        2
176
     1
 62
     7
176
     1
 90
        5
176
     1
 90
        0
176
     1
 90
        0
176
     1
290
     0
176
     1
 90
        1
176
     1
 40
0.0
176
     1
 90
        0
176
     1
290
     1
176
     1
290
     1
176
     1
290
     0
176
     1
290
     0
176
     1
290
     0
176
     1
290
     0
176
     1
290
     0
176
     1
290
     0
176
     1
290
     0
176
     1
 90
       50
176
     1
 40
0.0
176
     1
 40
1.0
176
     1
 90
        0
176
     1
 62
    18
176
     1
 90
       50
176
     1
 90
        3
176
     1
 62
     5
420
      255
176
     1
290
     0
176
     1
 90
       50
176
     1
 90
       50
176
     1
 90
       50
176
     1
290
     0
176
     1
 90
       50
176
     1
 62
   256
176
     0
 40
1.0
176
     0
 90
        2
176
     1
  1
strokes_ogs.tif
176
     1
290
     0
176
     1
 40
1.0
176
     1
 40
1.0
176
     1
  0
VISUALSTYLE
  5
A5F
102
{ACAD_REACTORS
330
EF
102
}
330
EF
100
AcDbVisualStyle
  2
3dWireframe
 70
     5
177
     3
291
     0
 70
    58
 90
        0
176
     1
 90
        2
176
     1
 90
        0
176
     1
 90
        0
176
     1
 40
0.6
176
     1
 40
30.0
176
     1
 62
     7
176
     1
 90
        1
176
     1
 90
        4
176
     1
 62
     7
176
     1
 62
   257
176
     1
 90
        1
176
     1
 90
        1
176
     1
 40
1.0
176
     1
 90
        0
176
     1
 62
   257
176
     1
 40
1.0
176
     1
 90
        1
176
     1
 90
        6
176
     1
 90
        2
176
     1
 62
     7
176
     1
 90
        5
176
     1
 90
        0
176
     1
 90
        0
176
     1
290
     0
176
     1
 90
        1
176
     1
 40
0.0
176
     1
 90
        0
176
     1
290
     0
176
     1
290
     1
176
     1
290
     1
176
     1
290
     0
176
     1
290
     0
176
     1
290
     0
176
     1
290
     0
176
     1
290
     0
176
     1
290
     0
176
     1
 90
       50
176
     1
 40
0.0
176
     1
 40
1.0
176
     1
 90
        0
176
     1
 62
    18
176
     1
 90
       50
176
     1
 90
        3
176
     1
 62
     5
420
      255
176
     1
290
     0
176
     1
 90
       50
176
     1
 90
       50
176
     1
 90
       50
176
     1
290
     0
176
     1
 90
       50
176
     1
 62
   256
176
     0
 40
1.0
176
     0
 90
        2
176
     1
  1
strokes_ogs.tif
176
     1
290
     0
176
     1
 40
1.0
176
     1
 40
1.0
176
     1
  0
VISUALSTYLE
  5
F4
102
{ACAD_REACTORS
330
EF
102
}
330
EF
100
AcDbVisualStyle
  2
Basic
 70
     7
177
     3
291
     1
 70
    58
 90
        1
176
     1
 90
        0
176
     1
 90
        1
176
     1
 90
        0
176
     1
 40
0.6
176
     1
 40
30.0
176
     1
 62
     7
420
 16777215
176
     1
 90
        0
176
     1
 90
        4
176
     1
 62
     7
176
     1
 62
   257
176
     1
 90
        1
176
     1
 90
        1
176
     1
 40
1.0
176
     1
 90
        8
176
     1
 62
     7
176
     1
 40
1.0
176
     1
 90
        1
176
     1
 90
        6
176
     1
 90
        2
176
     1
 62
     7
176
     1
 90
        5
176
     1
 90
        0
176
     1
 90
        0
176
     1
290
     0
176
     1
 90
        1
176
     1
 40
0.0
176
     1
 90
        0
176
     1
290
     0
176
     1
290
     1
176
     1
290
     1
176
     1
290
     0
176
     1
290
     0
176
     1
290
     0
176
     1
290
     0
176
     1
290
     0
176
     1
290
     0
176
     1
 90
       50
176
     1
 40
0.0
176
     1
 40
1.0
176
     1
 90
        0
176
     1
 62
    18
176
     1
 90
       50
176
     1
 90
        3
176
     1
 62
     5
420
      255
176
     1
290
     0
176
     1
 90
       50
176
     1
 90
       50
176
     1
 90
       50
176
     1
290
     0
176
     1
 90
       50
176
     1
 62
   256
176
     0
 40
1.0
176
     0
 90
        2
176
     1
  1
strokes_ogs.tif
176
     1
290
     0
176
     1
 40
1.0
176
     1
 40
1.0
176
     1
  0
VISUALSTYLE
  5
FB
102
{ACAD_REACTORS
330
EF
102
}
330
EF
100
AcDbVisualStyle
  2
Brighten
 70
    12
177
     3
291
     1
 70
    58
 90
        2
176
     1
 90
        2
176
     1
 90
        1
176
     1
 90
        0
176
     1
 40
0.6
176
     1
 40
30.0
176
     1
 62
     7
420
 16777215
176
     1
 90
        1
176
     1
 90
        4
176
     1
 62
     7
176
     1
 62
   257
176
     1
 90
        1
176
     1
 90
        1
176
     1
 40
1.0
176
     1
 90
        8
176
     1
 62
     7
176
     1
 40
1.0
176
     1
 90
        1
176
     1
 90
        6
176
     1
 90
        2
176
     1
 62
     7
176
     1
 90
        5
176
     1
 90
        0
176
     1
 90
        0
176
     1
290
     0
176
     1
 90
        1
176
     1
 40
50.0
176
     1
 90
        0
176
     1
290
     0
176
     1
290
     1
176
     1
290
     1
176
     1
290
     0
176
     1
290
     0
176
     1
290
     0
176
     1
290
     0
176
     1
290
     0
176
     1
290
     0
176
     1
 90
       50
176
     1
 40
0.0
176
     1
 40
1.0
176
     1
 90
        0
176
     1
 62
    18
176
     1
 90
       50
176
     1
 90
        3
176
     1
 62
     5
420
      255
176
     1
290
     0
176
     1
 90
       50
176
     1
 90
       50
176
     1
 90
       50
176
     1
290
     0
176
     1
 90
       50
176
     1
 62
   256
176
     0
 40
1.0
176
     0
 90
        2
176
     1
  1
strokes_ogs.tif
176
     1
290
     0
176
     1
 40
1.0
176
     1
 40
1.0
176
     1
  0
VISUALSTYLE
  5
FF
102
{ACAD_REACTORS
330
EF
102
}
330
EF
100
AcDbVisualStyle
  2
ColorChange
 70
    16
177
     3
291
     1
 70
    58
 90
        2
176
     1
 90
        2
176
     1
 90
        3
176
     1
 90
        0
176
     1
 40
0.6
176
     1
 40
30.0
176
     1
 62
     8
420
  8421504
176
     1
 90
        1
176
     1
 90
        4
176
     1
 62
     7
176
     1
 62
   257
176
     1
 90
        1
176
     1
 90
        1
176
     1
 40
1.0
176
     1
 90
        8
176
     1
 62
     8
420
  8421504
176
     1
 40
1.0
176
     1
 90
        1
176
     1
 90
        6
176
     1
 90
        2
176
     1
 62
     7
176
     1
 90
        5
176
     1
 90
        0
176
     1
 90
        0
176
     1
290
     0
176
     1
 90
        1
176
     1
 40
0.0
176
     1
 90
        0
176
     1
290
     0
176
     1
290
     1
176
     1
290
     1
176
     1
290
     0
176
     1
290
     0
176
     1
290
     0
176
     1
290
     0
176
     1
290
     0
176
     1
290
     0
176
     1
 90
       50
176
     1
 40
0.0
176
     1
 40
1.0
176
     1
 90
        0
176
     1
 62
    18
176
     1
 90
       50
176
     1
 90
        3
176
     1
 62
     5
420
      255
176
     1
290
     0
176
     1
 90
       50
176
     1
 90
       50
176
     1
 90
       50
176
     1
290
     0
176
     1
 90
       50
176
     1
 62
   256
176
     0
 40
1.0
176
     0
 90
        2
176
     1
  1
strokes_ogs.tif
176
     1
290
     0
176
     1
 40
1.0
176
     1
 40
1.0
176
     1
  0
VISUALSTYLE
  5
F8
102
{ACAD_REACTORS
330
EF
102
}
330
EF
100
AcDbVisualStyle
  2
Conceptual
 70
     9
177
     3
291
     0
 70
    58
 90
        3
176
     1
 90
        2
176
     1
 90
        1
176
     1
 90
        0
176
     1
 40
0.6
176
     1
 40
30.0
176
     1
 62
     7
420
 16777215
176
     1
 90
        2
176
     1
 90
        2
176
     1
 62
     7
176
     1
 62
   257
176
     1
 90
        1
176
     1
 90
        1
176
     1
 40
40.0
176
     1
 90
        8
176
     1
 62
     7
176
     1
 40
1.0
176
     1
 90
        1
176
     1
 90
        6
176
     1
 90
        2
176
     1
 62
     7
176
     1
 90
        3
176
     1
 90
        0
176
     1
 90
        0
176
     1
290
     0
176
     1
 90
        1
176
     1
 40
0.0
176
     1
 90
        0
176
     1
290
     0
176
     1
290
     1
176
     1
290
     1
176
     1
290
     0
176
     1
290
     0
176
     1
290
     0
176
     1
290
     0
176
     1
290
     0
176
     1
290
     0
176
     1
 90
       50
176
     1
 40
0.0
176
     1
 40
1.0
176
     1
 90
        0
176
     1
 62
    18
176
     1
 90
       50
176
     1
 90
        3
176
     1
 62
     5
420
      255
176
     1
290
     0
176
     1
 90
       50
176
     1
 90
       50
176
     1
 90
       50
176
     1
290
     0
176
     1
 90
       50
176
     1
 62
   256
176
     0
 40
1.0
176
     0
 90
        2
176
     1
  1
strokes_ogs.tif
176
     1
290
     0
176
     1
 40
1.0
176
     1
 40
1.0
176
     1
  0
VISUALSTYLE
  5
FA
102
{ACAD_REACTORS
330
EF
102
}
330
EF
100
AcDbVisualStyle
  2
Dim
 70
    11
177
     3
291
     1
 70
    58
 90
        2
176
     1
 90
        2
176
     1
 90
        1
176
     1
 90
        0
176
     1
 40
0.6
176
     1
 40
30.0
176
     1
 62
     7
420
 16777215
176
     1
 90
        1
176
     1
 90
        4
176
     1
 62
     7
176
     1
 62
   257
176
     1
 90
        1
176
     1
 90
        1
176
     1
 40
1.0
176
     1
 90
        8
176
     1
 62
     7
176
     1
 40
1.0
176
     1
 90
        1
176
     1
 90
        6
176
     1
 90
        2
176
     1
 62
     7
176
     1
 90
        5
176
     1
 90
        0
176
     1
 90
        0
176
     1
290
     0
176
     1
 90
        1
176
     1
 40
-50.0
176
     1
 90
        0
176
     1
290
     0
176
     1
290
     1
176
     1
290
     1
176
     1
290
     0
176
     1
290
     0
176
     1
290
     0
176
     1
290
     0
176
     1
290
     0
176
     1
290
     0
176
     1
 90
       50
176
     1
 40
0.0
176
     1
 40
1.0
176
     1
 90
        0
176
     1
 62
    18
176
     1
 90
       50
176
     1
 90
        3
176
     1
 62
     5
420
      255
176
     1
290
     0
176
     1
 90
       50
176
     1
 90
       50
176
     1
 90
       50
176
     1
290
     0
176
     1
 90
       50
176
     1
 62
   256
176
     0
 40
1.0
176
     0
 90
        2
176
     1
  1
strokes_ogs.tif
176
     1
290
     0
176
     1
 40
1.0
176
     1
 40
1.0
176
     1
  0
VISUALSTYLE
  5
1E6
102
{ACAD_REACTORS
330
EF
102
}
330
EF
100
AcDbVisualStyle
  2
EdgeColorOff
 70
    22
177
     3
291
     1
 70
    58
 90
        2
176
     0
 90
        2
176
     0
 90
        0
176
     0
 90
        0
176
     0
 40
0.6
176
     0
 40
30.0
176
     0
 62
     7
420
 16777215
176
     0
 90
        1
176
     0
 90
        4
176
     0
 62
     7
176
     0
 62
   257
176
     0
 90
        1
176
     0
 90
        1
176
     0
 40
1.0
176
     0
 90
        8
176
     2
 62
     7
176
     0
 40
1.0
176
     0
 90
        1
176
     0
 90
        6
176
     0
 90
        2
176
     0
 62
     7
176
     0
 90
        5
176
     0
 90
        0
176
     0
 90
        0
176
     0
290
     0
176
     0
 90
        1
176
     0
 40
0.0
176
     0
 90
        0
176
     0
290
     0
176
     1
290
     1
176
     1
290
     1
176
     1
290
     0
176
     1
290
     0
176
     1
290
     0
176
     1
290
     0
176
     1
290
     0
176
     1
290
     0
176
     1
 90
       50
176
     1
 40
0.0
176
     1
 40
1.0
176
     1
 90
        0
176
     1
 62
    18
176
     1
 90
       50
176
     1
 90
        3
176
     1
 62
     5
420
      255
176
     1
290
     0
176
     1
 90
       50
176
     1
 90
       50
176
     1
 90
       50
176
     1
290
     0
176
     1
 90
       50
176
     1
 62
   256
176
     0
 40
1.0
176
     0
 90
        2
176
     1
  1
strokes_ogs.tif
176
     1
290
     0
176
     1
 40
1.0
176
     1
 40
1.0
176
     1
  0
VISUALSTYLE
  5
FE
102
{ACAD_REACTORS
330
EF
102
}
330
EF
100
AcDbVisualStyle
  2
Facepattern
 70
    15
177
     3
291
     1
 70
    58
 90
        2
176
     1
 90
        2
176
     1
 90
        1
176
     1
 90
        0
176
     1
 40
0.6
176
     1
 40
30.0
176
     1
 62
     7
420
 16777215
176
     1
 90
        1
176
     1
 90
        4
176
     1
 62
     7
176
     1
 62
   257
176
     1
 90
        1
176
     1
 90
        1
176
     1
 40
1.0
176
     1
 90
        8
176
     1
 62
     7
176
     1
 40
1.0
176
     1
 90
        1
176
     1
 90
        6
176
     1
 90
        2
176
     1
 62
     7
176
     1
 90
        5
176
     1
 90
        0
176
     1
 90
        0
176
     1
290
     0
176
     1
 90
        1
176
     1
 40
0.0
176
     1
 90
        0
176
     1
290
     0
176
     1
290
     1
176
     1
290
     1
176
     1
290
     0
176
     1
290
     0
176
     1
290
     0
176
     1
290
     0
176
     1
290
     0
176
     1
290
     0
176
     1
 90
       50
176
     1
 40
0.0
176
     1
 40
1.0
176
     1
 90
        0
176
     1
 62
    18
176
     1
 90
       50
176
     1
 90
        3
176
     1
 62
     5
420
      255
176
     1
290
     0
176
     1
 90
       50
176
     1
 90
       50
176
     1
 90
       50
176
     1
290
     0
176
     1
 90
       50
176
     1
 62
   256
176
     0
 40
1.0
176
     0
 90
        2
176
     1
  1
strokes_ogs.tif
176
     1
290
     0
176
     1
 40
1.0
176
     1
 40
1.0
176
     1
  0
VISUALSTYLE
  5
F0
102
{ACAD_REACTORS
330
EF
102
}
330
EF
100
AcDbVisualStyle
  2
Flat
 70
     0
177
     3
291
     1
 70
    58
 90
        2
176
     1
 90
        1
176
     1
 90
        1
176
     1
 90
        2
176
     1
 40
0.6
176
     1
 40
30.0
176
     1
 62
     7
420
 16777215
176
     1
 90
        0
176
     1
 90
        0
176
     1
 62
     7
176
     1
 62
   257
176
     1
 90
        1
176
     1
 90
        1
176
     1
 40
1.0
176
     1
 90
        8
176
     1
 62
     7
176
     1
 40
1.0
176
     1
 90
        1
176
     1
 90
        6
176
     1
 90
        2
176
     1
 62
     7
176
     1
 90
        5
176
     1
 90
        0
176
     1
 90
        0
176
     1
290
     0
176
     1
 90
       13
176
     1
 40
0.0
176
     1
 90
        0
176
     1
290
     0
176
     1
290
     1
176
     1
290
     1
176
     1
290
     0
176
     1
290
     0
176
     1
290
     0
176
     1
290
     0
176
     1
290
     0
176
     1
290
     0
176
     1
 90
       50
176
     1
 40
0.0
176
     1
 40
1.0
176
     1
 90
        0
176
     1
 62
    18
176
     1
 90
       50
176
     1
 90
        3
176
     1
 62
     5
420
      255
176
     1
290
     0
176
     1
 90
       50
176
     1
 90
       50
176
     1
 90
       50
176
     1
290
     0
176
     1
 90
       50
176
     1
 62
   256
176
     0
 40
1.0
176
     0
 90
        2
176
     1
  1
strokes_ogs.tif
176
     1
290
     0
176
     1
 40
1.0
176
     1
 40
1.0
176
     1
  0
VISUALSTYLE
  5
F1
102
{ACAD_REACTORS
330
EF
102
}
330
EF
100
AcDbVisualStyle
  2
FlatWithEdges
 70
     1
177
     3
291
     1
 70
    58
 90
        2
176
     1
 90
        1
176
     1
 90
        1
176
     1
 90
        2
176
     1
 40
0.6
176
     1
 40
30.0
176
     1
 62
     7
420
 16777215
176
     1
 90
        1
176
     1
 90
        0
176
     1
 62
     7
176
     1
 62
   257
176
     1
 90
        1
176
     1
 90
        1
176
     1
 40
1.0
176
     1
 90
        0
176
     1
 62
   257
176
     1
 40
1.0
176
     1
 90
        1
176
     1
 90
        6
176
     1
 90
        2
176
     1
 62
     7
176
     1
 90
        5
176
     1
 90
        0
176
     1
 90
        0
176
     1
290
     0
176
     1
 90
       13
176
     1
 40
0.0
176
     1
 90
        0
176
     1
290
     0
176
     1
290
     1
176
     1
290
     1
176
     1
290
     0
176
     1
290
     0
176
     1
290
     0
176
     1
290
     0
176
     1
290
     0
176
     1
290
     0
176
     1
 90
       50
176
     1
 40
0.0
176
     1
 40
1.0
176
     1
 90
        0
176
     1
 62
    18
176
     1
 90
       50
176
     1
 90
        3
176
     1
 62
     5
420
      255
176
     1
290
     0
176
     1
 90
       50
176
     1
 90
       50
176
     1
 90
       50
176
     1
290
     0
176
     1
 90
       50
176
     1
 62
   256
176
     0
 40
1.0
176
     0
 90
        2
176
     1
  1
strokes_ogs.tif
176
     1
290
     0
176
     1
 40
1.0
176
     1
 40
1.0
176
     1
  0
VISUALSTYLE
  5
F2
102
{ACAD_REACTORS
330
EF
102
}
330
EF
100
AcDbVisualStyle
  2
Gouraud
 70
     2
177
     3
291
     1
 70
    58
 90
        2
176
     1
 90
        2
176
     1
 90
        1
176
     1
 90
        2
176
     1
 40
0.6
176
     1
 40
30.0
176
     1
 62
     7
420
 16777215
176
     1
 90
        0
176
     1
 90
        0
176
     1
 62
     7
176
     1
 62
   257
176
     1
 90
        1
176
     1
 90
        1
176
     1
 40
1.0
176
     1
 90
        0
176
     1
 62
     7
176
     1
 40
1.0
176
     1
 90
        1
176
     1
 90
        6
176
     1
 90
        2
176
     1
 62
     7
176
     1
 90
        5
176
     1
 90
        0
176
     1
 90
        0
176
     1
290
     0
176
     1
 90
       13
176
     1
 40
0.0
176
     1
 90
        0
176
     1
290
     0
176
     1
290
     1
176
     1
290
     1
176
     1
290
     0
176
     1
290
     0
176
     1
290
     0
176
     1
290
     0
176
     1
290
     0
176
     1
290
     0
176
     1
 90
       50
176
     1
 40
0.0
176
     1
 40
1.0
176
     1
 90
        0
176
     1
 62
    18
176
     1
 90
       50
176
     1
 90
        3
176
     1
 62
     5
420
      255
176
     1
290
     0
176
     1
 90
       50
176
     1
 90
       50
176
     1
 90
       50
176
     1
290
     0
176
     1
 90
       50
176
     1
 62
   256
176
     0
 40
1.0
176
     0
 90
        2
176
     1
  1
strokes_ogs.tif
176
     1
290
     0
176
     1
 40
1.0
176
     1
 40
1.0
176
     1
  0
VISUALSTYLE
  5
F3
102
{ACAD_REACTORS
330
EF
102
}
330
EF
100
AcDbVisualStyle
  2
GouraudWithEdges
 70
     3
177
     3
291
     1
 70
    58
 90
        2
176
     1
 90
        2
176
     1
 90
        1
176
     1
 90
        2
176
     1
 40
0.6
176
     1
 40
30.0
176
     1
 62
     7
420
 16777215
176
     1
 90
        1
176
     1
 90
        0
176
     1
 62
     7
176
     1
 62
   257
176
     1
 90
        1
176
     1
 90
        1
176
     1
 40
1.0
176
     1
 90
        0
176
     1
 62
   257
176
     1
 40
1.0
176
     1
 90
        1
176
     1
 90
        6
176
     1
 90
        2
176
     1
 62
     7
176
     1
 90
        5
176
     1
 90
        0
176
     1
 90
        0
176
     1
290
     0
176
     1
 90
       13
176
     1
 40
0.0
176
     1
 90
        0
176
     1
290
     0
176
     1
290
     1
176
     1
290
     1
176
     1
290
     0
176
     1
290
     0
176
     1
290
     0
176
     1
290
     0
176
     1
290
     0
176
     1
290
     0
176
     1
 90
       50
176
     1
 40
0.0
176
     1
 40
1.0
176
     1
 90
        0
176
     1
 62
    18
176
     1
 90
       50
176
     1
 90
        3
176
     1
 62
     5
420
      255
176
     1
290
     0
176
     1
 90
       50
176
     1
 90
       50
176
     1
 90
       50
176
     1
290
     0
176
     1
 90
       50
176
     1
 62
   256
176
     0
 40
1.0
176
     0
 90
        2
176
     1
  1
strokes_ogs.tif
176
     1
290
     0
176
     1
 40
1.0
176
     1
 40
1.0
176
     1
  0
VISUALSTYLE
  5
F7
102
{ACAD_REACTORS
330
EF
102
}
330
EF
100
AcDbVisualStyle
  2
Hidden
 70
     6
177
     3
291
     0
 70
    58
 90
        1
176
     1
 90
        2
176
     1
 90
        2
176
     1
 90
        0
176
     1
 40
0.6
176
     1
 40
30.0
176
     1
 62
     7
420
 16777215
176
     1
 90
        2
176
     1
 90
        2
176
     1
 62
     7
176
     1
 62
   257
176
     1
 90
        2
176
     1
 90
        1
176
     1
 40
40.0
176
     1
 90
        0
176
     1
 62
   257
176
     1
 40
1.0
176
     1
 90
        1
176
     1
 90
        6
176
     1
 90
        2
176
     1
 62
     7
176
     1
 90
        3
176
     1
 90
        0
176
     1
 90
        0
176
     1
290
     0
176
     1
 90
        1
176
     1
 40
0.0
176
     1
 90
        0
176
     1
290
     0
176
     1
290
     1
176
     1
290
     1
176
     1
290
     0
176
     1
290
     0
176
     1
290
     0
176
     1
290
     0
176
     1
290
     0
176
     1
290
     0
176
     1
 90
       50
176
     1
 40
0.0
176
     1
 40
1.0
176
     1
 90
        0
176
     1
 62
    18
176
     1
 90
       50
176
     1
 90
        3
176
     1
 62
     5
420
      255
176
     1
290
     0
176
     1
 90
       50
176
     1
 90
       50
176
     1
 90
       50
176
     1
290
     0
176
     1
 90
       50
176
     1
 62
   256
176
     0
 40
1.0
176
     0
 90
        2
176
     1
  1
strokes_ogs.tif
176
     1
290
     0
176
     1
 40
1.0
176
     1
 40
1.0
176
     1
  0
VISUALSTYLE
  5
1E4
102
{ACAD_REACTORS
330
EF
102
}
330
EF
100
AcDbVisualStyle
  2
JitterOff
 70
    20
177
     3
291
     1
 70
    58
 90
        2
176
     0
 90
        2
176
     0
 90
        0
176
     0
 90
        0
176
     0
 40
0.6
176
     0
 40
30.0
176
     0
 62
     7
420
 16777215
176
     0
 90
        1
176
     0
 90
        4
176
     0
 62
     7
176
     0
 62
   257
176
     0
 90
        1
176
     0
 90
        1
176
     0
 40
1.0
176
     0
 90
       10
176
     2
 62
     7
176
     0
 40
1.0
176
     0
 90
        1
176
     0
 90
        6
176
     0
 90
        2
176
     0
 62
     7
176
     0
 90
        5
176
     0
 90
        0
176
     0
 90
        0
176
     0
290
     0
176
     0
 90
        1
176
     0
 40
0.0
176
     0
 90
        0
176
     0
290
     0
176
     1
290
     1
176
     1
290
     1
176
     1
290
     0
176
     1
290
     0
176
     1
290
     0
176
     1
290
     0
176
     1
290
     0
176
     1
290
     0
176
     1
 90
       50
176
     1
 40
0.0
176
     1
 40
1.0
176
     1
 90
        0
176
     1
 62
    18
176
     1
 90
       50
176
     1
 90
        3
176
     1
 62
     5
420
      255
176
     1
290
     0
176
     1
 90
       50
176
     1
 90
       50
176
     1
 90
       50
176
     1
290
     0
176
     1
 90
       50
176
     1
 62
   256
176
     0
 40
1.0
176
     0
 90
        2
176
     1
  1
strokes_ogs.tif
176
     1
290
     0
176
     1
 40
1.0
176
     1
 40
1.0
176
     1
  0
VISUALSTYLE
  5
FD
102
{ACAD_REACTORS
330
EF
102
}
330
EF
100
AcDbVisualStyle
  2
Linepattern
 70
    14
177
     3
291
     1
 70
    58
 90
        2
176
     1
 90
        2
176
     1
 90
        1
176
     1
 90
        0
176
     1
 40
0.6
176
     1
 40
30.0
176
     1
 62
     7
420
 16777215
176
     1
 90
        1
176
     1
 90
        4
176
     1
 62
     7
176
     1
 62
   257
176
     1
 90
        7
176
     1
 90
        7
176
     1
 40
1.0
176
     1
 90
        8
176
     1
 62
     7
176
     1
 40
1.0
176
     1
 90
        1
176
     1
 90
        6
176
     1
 90
        2
176
     1
 62
     7
176
     1
 90
        5
176
     1
 90
        0
176
     1
 90
        0
176
     1
290
     0
176
     1
 90
        1
176
     1
 40
0.0
176
     1
 90
        0
176
     1
290
     0
176
     1
290
     1
176
     1
290
     1
176
     1
290
     0
176
     1
290
     0
176
     1
290
     0
176
     1
290
     0
176
     1
290
     0
176
     1
290
     0
176
     1
 90
       50
176
     1
 40
0.0
176
     1
 40
1.0
176
     1
 90
        0
176
     1
 62
    18
176
     1
 90
       50
176
     1
 90
        3
176
     1
 62
     5
420
      255
176
     1
290
     0
176
     1
 90
       50
176
     1
 90
       50
176
     1
 90
       50
176
     1
290
     0
176
     1
 90
       50
176
     1
 62
   256
176
     0
 40
1.0
176
     0
 90
        2
176
     1
  1
strokes_ogs.tif
176
     1
290
     0
176
     1
 40
1.0
176
     1
 40
1.0
176
     1
  0
VISUALSTYLE
  5
1E5
102
{ACAD_REACTORS
330
EF
102
}
330
EF
100
AcDbVisualStyle
  2
OverhangOff
 70
    21
177
     3
291
     1
 70
    58
 90
        2
176
     0
 90
        2
176
     0
 90
        0
176
     0
 90
        0
176
     0
 40
0.6
176
     0
 40
30.0
176
     0
 62
     7
420
 16777215
176
     0
 90
        1
176
     0
 90
        4
176
     0
 62
     7
176
     0
 62
   257
176
     0
 90
        1
176
     0
 90
        1
176
     0
 40
1.0
176
     0
 90
        9
176
     2
 62
     7
176
     0
 40
1.0
176
     0
 90
        1
176
     0
 90
        6
176
     0
 90
        2
176
     0
 62
     7
176
     0
 90
        5
176
     0
 90
        0
176
     0
 90
        0
176
     0
290
     0
176
     0
 90
        1
176
     0
 40
0.0
176
     0
 90
        0
176
     0
290
     0
176
     1
290
     1
176
     1
290
     1
176
     1
290
     0
176
     1
290
     0
176
     1
290
     0
176
     1
290
     0
176
     1
290
     0
176
     1
290
     0
176
     1
 90
       50
176
     1
 40
0.0
176
     1
 40
1.0
176
     1
 90
        0
176
     1
 62
    18
176
     1
 90
       50
176
     1
 90
        3
176
     1
 62
     5
420
      255
176
     1
290
     0
176
     1
 90
       50
176
     1
 90
       50
176
     1
 90
       50
176
     1
290
     0
176
     1
 90
       50
176
     1
 62
   256
176
     0
 40
1.0
176
     0
 90
        2
176
     1
  1
strokes_ogs.tif
176
     1
290
     0
176
     1
 40
1.0
176
     1
 40
1.0
176
     1
  0
VISUALSTYLE
  5
F9
102
{ACAD_REACTORS
330
EF
102
}
330
EF
100
AcDbVisualStyle
  2
Realistic
 70
     8
177
     3
291
     0
 70
    58
 90
        2
176
     1
 90
        3
176
     1
 90
        0
176
     1
 90
        2
176
     1
 40
0.6
176
     1
 40
30.0
176
     1
 62
     7
420
 16777215
176
     1
 90
        0
176
     1
 90
        0
176
     1
 62
     7
176
     1
 62
   257
176
     1
 90
        1
176
     1
 90
        1
176
     1
 40
1.0
176
     1
 90
        8
176
     1
 62
   257
176
     1
 40
1.0
176
     1
 90
        1
176
     1
 90
        6
176
     1
 90
        2
176
     1
 62
     7
176
     1
 90
        3
176
     1
 90
        0
176
     1
 90
        0
176
     1
290
     0
176
     1
 90
       13
176
     1
 40
0.0
176
     1
 90
        0
176
     1
290
     0
176
     1
290
     1
176
     1
290
     1
176
     1
290
     0
176
     1
290
     0
176
     1
290
     0
176
     1
290
     0
176
     1
290
     0
176
     1
290
     0
176
     1
 90
       50
176
     1
 40
0.0
176
     1
 40
1.0
176
     1
 90
        0
176
     1
 62
    18
176
     1
 90
       50
176
     1
 90
        3
176
     1
 62
     5
420
      255
176
     1
290
     0
176
     1
 90
       50
176
     1
 90
       50
176
     1
 90
       50
176
     1
290
     0
176
     1
 90
       50
176
     1
 62
   256
176
     0
 40
1.0
176
     0
 90
        2
176
     1
  1
strokes_ogs.tif
176
     1
290
     0
176
     1
 40
1.0
176
     1
 40
1.0
176
     1
  0
VISUALSTYLE
  5
1F3
102
{ACAD_REACTORS
330
EF
102
}
330
EF
100
AcDbVisualStyle
  2
Shaded
 70
    27
177
     3
291
     0
 70
    58
 90
        2
176
     1
 90
        2
176
     1
 90
        1
176
     1
 90
        2
176
     1
 40
0.6
176
     1
 40
30.0
176
     1
 62
     7
420
 16777215
176
     1
 90
        0
176
     1
 90
        4
176
     1
 62
     7
176
     1
 62
   257
176
     1
 90
        1
176
     1
 90
        1
176
     1
 40
1.0
176
     1
 90
        8
176
     1
 62
   257
176
     1
 40
1.0
176
     1
 90
        1
176
     1
 90
        6
176
     1
 90
        2
176
     1
 62
     8
420
  7895160
176
     1
 90
        3
176
     1
 90
        0
176
     1
 90
        0
176
     1
290
     0
176
     1
 90
        5
176
     1
 40
0.0
176
     1
 90
        0
176
     1
290
     0
176
     1
290
     1
176
     1
290
     1
176
     1
290
     0
176
     1
290
     0
176
     1
290
     0
176
     1
290
     0
176
     1
290
     0
176
     1
290
     0
176
     1
 90
       50
176
     1
 40
0.0
176
     1
 40
1.0
176
     1
 90
        0
176
     1
 62
    18
176
     1
 90
       50
176
     1
 90
        3
176
     1
 62
     5
420
      255
176
     1
290
     0
176
     1
 90
       50
176
     1
 90
       50
176
     1
 90
       50
176
     1
290
     0
176
     1
 90
       50
176
     1
 62
   256
176
     0
 40
1.0
176
     0
 90
        2
176
     1
  1
strokes_ogs.tif
176
     1
290
     0
176
     1
 40
1.0
176
     1
 40
1.0
176
     1
  0
VISUALSTYLE
  5
1F2
102
{ACAD_REACTORS
330
EF
102
}
330
EF
100
AcDbVisualStyle
  2
Shaded with edges
 70
    26
177
     3
291
     0
 70
    58
 90
        2
176
     1
 90
        2
176
     1
 90
        1
176
     1
 90
        2
176
     1
 40
0.6
176
     1
 40
30.0
176
     1
 62
     7
420
 16777215
176
     1
 90
        1
176
     1
 90
        2
176
     1
 62
     7
176
     1
 62
   257
176
     1
 90
        2
176
     1
 90
        1
176
     1
 40
1.0
176
     1
 90
        8
176
     1
 62
   257
176
     1
 40
1.0
176
     1
 90
        1
176
     1
 90
        6
176
     1
 90
        2
176
     1
 62
     7
176
     1
 90
        3
176
     1
 90
        0
176
     1
 90
        0
176
     1
290
     0
176
     1
 90
        5
176
     1
 40
0.0
176
     1
 90
        0
176
     1
290
     0
176
     1
290
     1
176
     1
290
     1
176
     1
290
     0
176
     1
290
     0
176
     1
290
     0
176
     1
290
     0
176
     1
290
     0
176
     1
290
     0
176
     1
 90
       50
176
     1
 40
0.0
176
     1
 40
1.0
176
     1
 90
        0
176
     1
 62
    18
176
     1
 90
       50
176
     1
 90
        3
176
     1
 62
     5
420
      255
176
     1
290
     0
176
     1
 90
       50
176
     1
 90
       50
176
     1
 90
       50
176
     1
290
     0
176
     1
 90
       50
176
     1
 62
   256
176
     0
 40
1.0
176
     0
 90
        2
176
     1
  1
strokes_ogs.tif
176
     1
290
     0
176
     1
 40
1.0
176
     1
 40
1.0
176
     1
  0
VISUALSTYLE
  5
1EF
102
{ACAD_REACTORS
330
EF
102
}
330
EF
100
AcDbVisualStyle
  2
Shades of Gray
 70
    23
177
     3
291
     0
 70
    58
 90
        2
176
     1
 90
        2
176
     1
 90
        3
176
     1
 90
        0
176
     1
 40
0.6
176
     1
 40
30.0
176
     1
 62
     7
420
 16777215
176
     1
 90
        2
176
     1
 90
        2
176
     1
 62
     7
176
     1
 62
     7
176
     1
 90
        1
176
     1
 90
        1
176
     1
 40
40.0
176
     1
 90
        8
176
     1
 62
     7
176
     1
 40
1.0
176
     1
 90
        1
176
     1
 90
        6
176
     1
 90
        2
176
     1
 62
     7
176
     1
 90
        3
176
     1
 90
        0
176
     1
 90
        0
176
     1
290
     0
176
     1
 90
        1
176
     1
 40
0.0
176
     1
 90
        0
176
     1
290
     0
176
     1
290
     1
176
     1
290
     1
176
     1
290
     0
176
     1
290
     0
176
     1
290
     0
176
     1
290
     0
176
     1
290
     0
176
     1
290
     0
176
     1
 90
       50
176
     1
 40
0.0
176
     1
 40
1.0
176
     1
 90
        0
176
     1
 62
    18
176
     1
 90
       50
176
     1
 90
        3
176
     1
 62
     5
420
      255
176
     1
290
     0
176
     1
 90
       50
176
     1
 90
       50
176
     1
 90
       50
176
     1
290
     0
176
     1
 90
       50
176
     1
 62
   256
176
     0
 40
1.0
176
     0
 90
        2
176
     1
  1
strokes_ogs.tif
176
     1
290
     0
176
     1
 40
1.0
176
     1
 40
1.0
176
     1
  0
VISUALSTYLE
  5
1F0
102
{ACAD_REACTORS
330
EF
102
}
330
EF
100
AcDbVisualStyle
  2
Sketchy
 70
    24
177
     3
291
     0
 70
    58
 90
        1
176
     1
 90
        2
176
     1
 90
        2
176
     1
 90
        0
176
     1
 40
0.6
176
     1
 40
30.0
176
     1
 62
     7
420
 16777215
176
     1
 90
        2
176
     1
 90
        2
176
     1
 62
     7
176
     1
 62
     7
176
     1
 90
        1
176
     1
 90
        1
176
     1
 40
40.0
176
     1
 90
       11
176
     1
 62
     7
176
     1
 40
1.0
176
     1
 90
        1
176
     1
 90
        6
176
     1
 90
        2
176
     1
 62
     7
176
     1
 90
        6
176
     1
 90
        0
176
     1
 90
        0
176
     1
290
     0
176
     1
 90
        1
176
     1
 40
0.0
176
     1
 90
        0
176
     1
290
     0
176
     1
290
     1
176
     1
290
     1
176
     1
290
     0
176
     1
290
     0
176
     1
290
     0
176
     1
290
     0
176
     1
290
     0
176
     1
290
     0
176
     1
 90
       50
176
     1
 40
0.0
176
     1
 40
1.0
176
     1
 90
        0
176
     1
 62
    18
176
     1
 90
       50
176
     1
 90
        3
176
     1
 62
     5
420
      255
176
     1
290
     0
176
     1
 90
       50
176
     1
 90
       50
176
     1
 90
       50
176
     1
290
     0
176
     1
 90
       50
176
     1
 62
   256
176
     0
 40
1.0
176
     0
 90
        2
176
     1
  1
strokes_ogs.tif
176
     1
290
     0
176
     1
 40
1.0
176
     1
 40
1.0
176
     1
  0
VISUALSTYLE
  5
FC
102
{ACAD_REACTORS
330
EF
102
}
330
EF
100
AcDbVisualStyle
  2
Thicken
 70
    13
177
     3
291
     1
 70
    58
 90
        2
176
     1
 90
        2
176
     1
 90
        1
176
     1
 90
        0
176
     1
 40
0.6
176
     1
 40
30.0
176
     1
 62
     7
420
 16777215
176
     1
 90
        1
176
     1
 90
        4
176
     1
 62
     7
176
     1
 62
   257
176
     1
 90
        1
176
     1
 90
        1
176
     1
 40
1.0
176
     1
 90
       12
176
     1
 62
     7
176
     1
 40
1.0
176
     1
 90
        1
176
     1
 90
        6
176
     1
 90
        2
176
     1
 62
     7
176
     1
 90
        5
176
     1
 90
        0
176
     1
 90
        0
176
     1
290
     0
176
     1
 90
        1
176
     1
 40
0.0
176
     1
 90
        0
176
     1
290
     0
176
     1
290
     1
176
     1
290
     1
176
     1
290
     0
176
     1
290
     0
176
     1
290
     0
176
     1
290
     0
176
     1
290
     0
176
     1
290
     0
176
     1
 90
       50
176
     1
 40
0.0
176
     1
 40
1.0
176
     1
 90
        0
176
     1
 62
    18
176
     1
 90
       50
176
     1
 90
        3
176
     1
 62
     5
420
      255
176
     1
290
     0
176
     1
 90
       50
176
     1
 90
       50
176
     1
 90
       50
176
     1
290
     0
176
     1
 90
       50
176
     1
 62
   256
176
     0
 40
1.0
176
     0
 90
        2
176
     1
  1
strokes_ogs.tif
176
     1
290
     0
176
     1
 40
1.0
176
     1
 40
1.0
176
     1
  0
VISUALSTYLE
  5
F6
102
{ACAD_REACTORS
330
EF
102
}
330
EF
100
AcDbVisualStyle
  2
Wireframe
 70
     5
177
     3
291
     0
 70
    58
 90
        0
176
     1
 90
        2
176
     1
 90
        0
176
     1
 90
        0
176
     1
 40
0.6
176
     1
 40
30.0
176
     1
 62
     7
420
 16777215
176
     1
 90
        1
176
     1
 90
        4
176
     1
 62
     7
176
     1
 62
   257
176
     1
 90
        1
176
     1
 90
        1
176
     1
 40
1.0
176
     1
 90
        0
176
     1
 62
   257
176
     1
 40
1.0
176
     1
 90
        1
176
     1
 90
        6
176
     1
 90
        2
176
     1
 62
     7
176
     1
 90
        3
176
     1
 90
        0
176
     1
 90
        0
176
     1
290
     0
176
     1
 90
        1
176
     1
 40
0.0
176
     1
 90
        0
176
     1
290
     0
176
     1
290
     1
176
     1
290
     1
176
     1
290
     0
176
     1
290
     0
176
     1
290
     0
176
     1
290
     0
176
     1
290
     0
176
     1
290
     0
176
     1
 90
       50
176
     1
 40
0.0
176
     1
 40
1.0
176
     1
 90
        0
176
     1
 62
    18
176
     1
 90
       50
176
     1
 90
        3
176
     1
 62
     5
420
      255
176
     1
290
     0
176
     1
 90
       50
176
     1
 90
       50
176
     1
 90
       50
176
     1
290
     0
176
     1
 90
       50
176
     1
 62
   256
176
     0
 40
1.0
176
     0
 90
        2
176
     1
  1
strokes_ogs.tif
176
     1
290
     0
176
     1
 40
1.0
176
     1
 40
1.0
176
     1
  0
VISUALSTYLE
  5
1F1
102
{ACAD_REACTORS
330
EF
102
}
330
EF
100
AcDbVisualStyle
  2
X-Ray
 70
    25
177
     3
291
     0
 70
    58
 90
        2
176
     1
 90
        2
176
     1
 90
        1
176
     1
 90
        1
176
     1
 40
0.5
176
     1
 40
30.0
176
     1
 62
     7
420
 16777215
176
     1
 90
        1
176
     1
 90
        0
176
     1
 62
     7
176
     1
 62
   257
176
     1
 90
        1
176
     1
 90
        1
176
     1
 40
1.0
176
     1
 90
        8
176
     1
 62
     7
176
     1
 40
1.0
176
     1
 90
        1
176
     1
 90
        6
176
     1
 90
        2
176
     1
 62
     7
176
     1
 90
        3
176
     1
 90
        0
176
     1
 90
        0
176
     1
290
     0
176
     1
 90
       13
176
     1
 40
0.0
176
     1
 90
        0
176
     1
290
     0
176
     1
290
     1
176
     1
290
     1
176
     1
290
     0
176
     1
290
     0
176
     1
290
     0
176
     1
290
     0
176
     1
290
     0
176
     1
290
     0
176
     1
 90
       50
176
     1
 40
0.0
176
     1
 40
1.0
176
     1
 90
        0
176
     1
 62
    18
176
     1
 90
       50
176
     1
 90
        3
176
     1
 62
     5
420
      255
176
     1
290
     0
176
     1
 90
       50
176
     1
 90
       50
176
     1
 90
       50
176
     1
290
     0
176
     1
 90
       50
176
     1
 62
   256
176
     0
 40
1.0
176
     0
 90
        2
176
     1
  1
strokes_ogs.tif
176
     1
290
     0
176
     1
 40
1.0
176
     1
 40
1.0
176
     1
  0
DICTIONARYVAR
  5
146
102
{ACAD_REACTORS
330
5E
102
}
330
5E
100
DictionaryVariables
280
     0
  1
1:1
  0
DICTIONARYVAR
  5
259
102
{ACAD_REACTORS
330
5E
102
}
330
5E
100
DictionaryVariables
280
     0
  1
3.500000
  0
DICTIONARYVAR
  5
25A
102
{ACAD_REACTORS
330
5E
102
}
330
5E
100
DictionaryVariables
280
     0
  1
acadiso.lin
  0
DICTIONARYVAR
  5
145
102
{ACAD_REACTORS
330
5E
102
}
330
5E
100
DictionaryVariables
280
     0
  1
STANDARD
  0
DICTIONARYVAR
  5
84
102
{ACAD_REACTORS
330
5E
102
}
330
5E
100
DictionaryVariables
280
     0
  1
STANDARD
  0
DICTIONARYVAR
  5
227
102
{ACAD_REACTORS
330
5E
102
}
330
5E
100
DictionaryVariables
280
     0
  1
Metric50
  0
DICTIONARYVAR
  5
228
102
{ACAD_REACTORS
330
5E
102
}
330
5E
100
DictionaryVariables
280
     0
  1
Metric50
  0
DICTIONARYVAR
  5
5F
102
{ACAD_REACTORS
330
5E
102
}
330
5E
100
DictionaryVariables
280
     0
  1
2
  0
DICTIONARYVAR
  5
63
102
{ACAD_REACTORS
330
5E
102
}
330
5E
100
DictionaryVariables
280
     0
  1
1
  0
DICTIONARYVAR
  5
1AE
102
{ACAD_REACTORS
330
5E
102
}
330
5E
100
DictionaryVariables
280
     0
  1
0
  0
DICTIONARYVAR
  5
1AF
102
{ACAD_REACTORS
330
5E
102
}
330
5E
100
DictionaryVariables
280
     0
  1
0
  0
DICTIONARY
  5
205
330
22
100
AcDbDictionary
280
     1
281
     1
  0
DICTIONARY
  5
1F9
330
ED
100
AcDbDictionary
280
     1
281
     1
  3
FBXASSET
360
1FA
  0
DICTIONARY
  5
1F7
330
EC
100
AcDbDictionary
280
     1
281
     1
  3
FBXASSET
360
1F8
  0
DICTIONARY
  5
173
330
EE
100
AcDbDictionary
280
     1
281
     1
  3
BUMPTILE
360
175
  3
DIFFUSETILE
360
174
  3
FBXASSET
360
1FB
  3
OPACITYTILE
360
176
  3
REFLECTIONTILE
360
177
  0
DICTIONARY
  5
162
330
7F
100
AcDbDictionary
280
     1
281
     1
  3
ACAD_ROUNDTRIP_2008_TABLESTYLE_CELLSTYLEMAP
360
1D55
  0
XRECORD
  5
1FA
102
{ACAD_REACTORS
330
1F9
102
}
330
1F9
100
AcDbXrecord
280
     1
 70
     1
 90
429727718
  1
D62C5603-E3A1-4AEA-B7FB-FE5D8D0755AF
310
504B03040A0000080000CC70623B3DEE336E79000000790000001B0000006175746F6465736B2D64657369676E2D7061636B6167652E786D6C3C3F786D6C2076657273696F6E3D22312E302220656E636F64696E673D227574662D3822203F3E3C666F726D6174733E3C666F726D61743E687474703A2F2F736368656D612E
310
6175746F6465736B2E636F6D2F64657369676E2D7061636B6167652F323030393C2F666F726D61743E3C2F666F726D6174733E504B0304140006080800CC70623BD486FD9CA0000000F4000000130000005B436F6E74656E745F54797065735D2E786D6C7D8EC10E82300C865F65E91D8A1E8C310C0EEA1BF002731658846E
310
D98AC1B77784ABF1D8FE5FBFBF75BBCE937A534CCEB38643598122B6FEE978D0B0485F9C41B54DDD7D022595594E1A469170414C76A4D9A4D207E29CF43ECE46F218070CC6BECC4078ACAA135ACF422C856C0E68EA1BF5669944DDD7BCDE7B1F8E415D77AECB980613C2E4AC91FC167A2B244592486606FC29C8FD7F045B9A
310
EF7053A7E60B504B0304140006080800CC70623B853B8169EB0000007C01000008000000636F72652E786D6C8D90416EC3201045AF62CDB6C206821CC7C244919D9CA01740401C94182C03558F5F9C3852BBEB6A467FFE9B197D7EFC9E1EC5975982F5AE035262288C535E5B377690E21535501C055FBC8FBF6C503839990E
310
5619041F179FE64D52DE45E362569DD7661365082642A11EB9E920A89B99642953CC8E702F67A9EE7234257977194EC9EAE275C4EABCCF5EAD5940D4AC6F0E35A568B8F43562CD7046CD199FD07E60174276A7BE677B5EADB0E0D14EEFFB6A31321A0D82627C4084204C3F096B71DD52F6819B16635EADF63F509AF53FA164
310
5DDCD1EDDD17164090FCC8732078B56691CB33A85CD7DCC40F504B0304140006080800CC70623B55019EA25F0000007C00000007000000636E782E786D6C4DCB3B0E80201045D1AD90E915ED2CF8AC45050C11660C8261F98AB1B07AC9C97D42D718D865D3E909258CFD00CCE24AC6E326A164D74DC0B4128928FF32603847
310
2BA13128B1252AC747C6BAB984FC68F0B87FE8960A5C09FE86CFB69FBA01504B0304140006080800CC70623BDBABAAF470010000D40300000C0000006662782F636F72652E786D6CC553D16E823014FD95A6AF4B694182CC941A83FA05FB810A9511A125A5257EFE2E82712ECEB8A7F100CD39F7F69E734AF9FADC366850B6
310
AF8DCE7018308C942E4C59EB2AC3DE1D498AD15A706B8CFB56869196ADCAF00863C12B6B7C374385D14E6907A836A59A41D9F7CA615434B0C8705F7CAA5606D23BA8E84F41278B93AC54100640439DE0BDB320004D43C63716C7C399D30917DCFBBA9CD9BA8469F5B156168B24CED3F7248AC8769F27244EB73B92EED8862C
310
B7F13E0C179B3C8F979C8ECD82BBBABDAA2BAC924E9558448CBD9330242CFA08E3154B5651FCC6D215639C8EE5774DBE2B5F6CF2B5768B68963BB5F5588420E442FC700B1139D4CB01F450C1E918227C2E09DF070D8140C84E1E9AAB8F1340832A9CB13130A5F1376A908D57309505ECF2A0DF179C4E9D30F5B239B87E3823
310
7A79C6F31DE1A8A5AEC08474B03C7837EAE4938639B44E5932B833D2C6B6B279CDC613877FA26EE21F4A2A4C63EC7F29A2F301D1F9F7A0E37D145F504B0304140006080800CC70623B9C113CC27E0000009D0000000B0000006662782F636E782E786D6C4DCCDF0A83201C86E15B91DFB94BFB330DD428C8FB886521330DA7
310
6397BF1A1DECE883878F57749FCDA1B7892F1BBC047A23808C7F84D9FA55424E0BE6803A256208E9EF06C84F9B91703228B1C690F78B66B34CD9A5439DF5CF0BFBF65E35BCA1B8D6A5C6F540381E886698B5741C695F9503EBA150A2F8958E3DC3EA0B504B0304140006080800CC70623B7DF2F77C2A010000120200003100
310
00006662782F41393633353835312D344632462D344230382D423046372D3739314545314133324237412F636F72652E786D6C8D51DB8EC22014FC15C2939B0D2DB4B45643319AE817EC0F6041255A68B86CFCFC856D4D76DF7CE190393373060EDB3DC707F856CE6B6B7A480A0C81328395DA5C7B18C3057510EC3873D686
310
3F34088C18550F330C39BB3A1BA7051AAC09CA84841A2BD5020AEF55806078A44B0FFD7053A328440C89E1EFC52486BBB8AA8214A99D789CF9E05200300FC927E4FB4D5B375D43103D5527440FB843077C5AA3F5861C8F645F5787F59E95B390B318B55CE45AA638FAA2957BD7248B390B7A7CC51F9C124149C82B8C378810
310
84AB2F42B7B8DD56F413775B8C5999E9FF4471926F8AA236A1AE96B8B3CC434E5839373893369E1FAF30EA395917409EB7F26AF8801C171837A4A6AC9C89E9F9C9B1A58BA30FD6A5EF5DDDCF894B9AD9B6A59C957943A9FCAE2FD5BC4DFE03504B0304140006080800CC70623BAD7543B64E01000033030000300000006662
310
782F41393633353835312D344632462D344230382D423046372D3739314545314133324237412F636E782E786D6CD593CD6EC32010845F0571AD6CE3D48AD20813A9873E410FBD12D82434182C7EAAE6EDBB2424CD25871E7B41D6EC30B3FA84F9E67BB2E40B4234DE8DB46F1925E094D7C6ED479AD3AE5951B2113C789FEE
310
6C943839C1488B4C05DF079FE72A69D8C96C13AAD6B8631503449F83828872B949AC57D26200B826A308D316B4064D6E46FCDA41C05550DC9E483A00797BFD207EFB092A45DE9514C1BBD22178396BD39D891265658C238DEA00936C654E5E433CB65A26D9F6EDB5EBC14EBF49A45CB856E66048291F6939A9A81BB5C89177
310
38143CA680F4AA299D66A042CEB3354A2684DC9D8D178FE0D9B8B41CAAD720F880EE7EF93C0C18769E099ECC04D5A102C8049A8A05632F4DDF376CF1DE0F6BB65C2F8627B65A33C6BB62177CEBBDAD973006829F89F22E814B54F4BC2BE347F8AA8F681390B50FA73F804400B5F542E796F19FF974E7F78DB802FE05E20750
310
4B0304140006080800CC70623BE75B7789680500003C100000340000006662782F41393633353835312D344632462D344230382D423046372D3739314545314133324237412F6F626A656374732E786D6CAD575B8F9B3818FD2B887D06C22499CB8AA1CA655245D5B455A356FB305264C061D8018C6C3393D95FBFC7600890
310
A4CD5EF210B0B1BFEBF98E3F7B1FF6596ABC522E1296DF9BAE3D320D9A872C4AF2F8DE2CE5CEBA358D0FBEC719939D65A691938CDE9B6ADAF4BD98B3B2D05311DD91329583D9D5FC0F438434A7A611A644887B5384CF34233629258BA878B12322891DEFF6B66BD70BFB62634E8AE781D082709A4B588AF91C528CDA28B73F
310
1C998EEF39EABBEFA97FBD6A7C7E9553F9D3D79FE442923C3C523610337627CB87ABE99D359D4CC6D6E4FACAB5E6ABF9D2726FC6A3C5F56271377BB88362213924694B38DD99FE47C48627A1E7D49F5A8BB5E1A74C0A599ED3B0F21F1E56366B89112D681E218F0915D0D6F17AD41FBA2A369DCF6335D62ABBD39779D5DDD1
310
11D4D8DE3CBB96B2E04FB8202E41051754A1AA8E8F76B4C6DFE810B580B1547F4B84911149794252234D024EF8BBE963A95AE27B3D310A9D5C215C7960FAEE415ED75694C6AFB17BCACA5D99A60A9AA65F217B0BFC53292ACB92BF283FAD0D3621576592CB5BED907C2FA8E9DF794E35E97BEA31BED21FEB401ABB94C44839
310
DCACBF0E1C5DA8DA5B2F4DFFD32AD86F543D9E565E7056502E157C00AD2671CD534549AB752FCA9CDA00677A313F04E51B22FF19E57B300579E3C97EB29F682D92935CEC18CF901B7B54FD8C51F362B56FC72FE0B3C1EAE335EDCCBF5AEC39ADB17DC238973F804BA5E6F6BFE7AF1FB32E523BE9F3BD571418E3631DCA4D48
310
5250CF639223210A9446CA30052EDF057BD35F8329C1ECD84552BF0DC8D18BE7BCE23BFE6BD960AB4A7DE79923A103BEBD80F911CBAA2C60DB19B01CF164A5583B772EE6D3FFA56666CBCDA74DC97724A48F9A58967497E489C4D979006FD7A05E227A1EBDD0F737C623387A9C844D3709995625106D157315F8B8392CD4E0
310
A0B9A720C4BE9829CEF37EA1E13111214D53925356365ADA634861B52519DD27A00AEB808EAF0628E6F435519D446F45CF2C9CF5214F0A15B2F6D06B79DA3EE3CBF7F56780D2F4E7EF73A0F5E5B02A38D07DC852C6B7C1FBB6664213E0C39E3EBA7FF4E1AD23EA2829407C85E586727488B751B2DB9502BC7B228A3FD68B6E
310
A65A22397E690AA8D158D7E404EC8CDA235CC3B7D1898680131CEC2CDF2638C65196279577750F15884AEE19F94199155B92B13297978469D4F8D358DF0AEF7631E28DC8F0D9F437D5D39A83B2231A1D52D543813A824EF8D44BCFF2FA6A31BD1E8DAD87F1CCB526B3879935BF59CDADD5C37479BB1CDD4CA7B3556B516589
310
EF352754B706114D9C885EC9131DE6EFEB43D99AFE2391C2F958179413D7CFEF6B1B6DB1E7600F00DE6E5C67454A339A4BA2E0FBA85ED26F045D454F463DBFCE484C2F90F2E5E3666003662ED8F755951A7D1BECD5B30B550B2785C8E7320B7292A4838DDA71BBC863ED7613CAF659337A3354231D4FF4A182A54904C2898C
310
98B28C4AD0CE056CCF332A80986E571EE9DBC305BB5FEB7E509220A58D25CF042D712A806AC0AD0C657FDEF80D2D9CEAA2EE4D1C76F60BFE74219A06527D6F82DF6412526107381E55E353090704D085B52408A8913C4ED159D79BDA71BB4BC506F4831350EB6F975CD22D69BF7AC49B91A2C0A9DDA3D5CA36AD20FC478E37
310
E61844E2352865EBCB61A275A65283CAAA9DD27703B4102F5AF51EF5F573B75CBB5AD38BC845F7A49F82A0966A49C2E3EA5EA0ECD326CD965F1DB402C6FA8B51A4658C5C5E2EC9E214602E55810345408596591009A82E7E7FFACA19EEA299B14A0081A705CB3296EBC14CDF658DCD336EA6D1136881AAEB87B81AB9EE53D5
310
F5EB8BC8362082DA24122F98680A4E7930C01A0079749CEA14382A0783E5EBA5A10F8C098456A03D6A4AEB6BB881E2513747552A5DB22C7EDAF83BD5528081A365F7FF06504B0304140006080000CC70623B000000000000000000000000350000006662782F41393633353835312D344632462D344230382D423046372D37
310
39314545314133324237412F76657274696365732E62696E504B0304140006080800CC70623BF270F1330600000004000000360000006662782F41393633353835312D344632462D344230382D423046372D3739314545314133324237412F747269616E676C65732E62696E636660600000504B0304140006080000CC7062
310
3B000000000000000000000000370000006662782F41393633353835312D344632462D344230382D423046372D3739314545314133324237412F617474726962757465732E62696E504B0304140006080800CC70623B08DA0BD19000000041010000360000006662782F41393633353835312D344632462D344230382D4230
310
46372D3739314545314133324237412F6469726563746F72792E786D6C858F410AC3201045AF22B36F53E9A60B35CBEEBAE80D244E44489C6234F4F835464A48035D0DF398FF9F8AF63D0E6CC63039F212F8F9020C7D47C6792B21C5FE7403D62A1188E2E60C98D7234A5830286103A55745067B9D86B8A3CF9C7F90C11DE6
310
07FB144396D7B6A82D282E9A152AD114D5EF2CB866EEE831B8EEA07A7BB5A8D7D61A2BAAEB7FD5F70921FF497D00504B0304140006080800CC70623BEDD1DC58FD000000A00100003B0000006662782F41393633353835312D344632462D344230382D423046372D3739314545314133324237412F7265736F75726365732F
310
636F72652E786D6C8D504B6E833010BD0A9A6D65B00922041947112427E8052C33A156828DFCA97AFC9A40A576D7CDCCE87D344F8F9FBFE667F689CE6B6B3A6039850C8DB2A336530731DC4903D95970676DF82583CCC8193B5861107C72362E3BA4AC096842428D1D7107A5F7182053CF7474E0D507CE32973124857FE48B
310
540F3961CEF244279DE03EB81420DB9EAC1384436FA353E879B1B182C7A8C75DA3C7F453DF353A1075D537A7BA6464B8F535A99AE14A9A2BBD90E350DD183B5CFABE3AF262350B1EF4FC9351399401471025A527C218A1E53BAB5A5AB765F5469B96525EACF23FA6B88CFF34456DC2A1DCE36E360F82A5202F42F062ED2BAD
310
579969AFDD8A6F504B010214000A0000080000CC70623B3DEE336E79000000790000001B00000000000000000000000000000000006175746F6465736B2D64657369676E2D7061636B6167652E786D6C504B01021400140006080800CC70623BD486FD9CA0000000F40000001300000000000000000000000000B20000005B
310
436F6E74656E745F54797065735D2E786D6C504B01021400140006080800CC70623B853B8169EB0000007C010000080000000000000000000000000083010000636F72652E786D6C504B01021400140006080800CC70623B55019EA25F0000007C000000070000000000000000000000000094020000636E782E786D6C504B
310
01021400140006080800CC70623BDBABAAF470010000D40300000C00000000000000000000000000180300006662782F636F72652E786D6C504B01021400140006080800CC70623B9C113CC27E0000009D0000000B00000000000000000000000000B20400006662782F636E782E786D6C504B01021400140006080800CC70
310
623B7DF2F77C2A010000120200003100000000000000000000000000590500006662782F41393633353835312D344632462D344230382D423046372D3739314545314133324237412F636F72652E786D6C504B01021400140006080800CC70623BAD7543B64E010000330300003000000000000000000000000000D2060000
310
6662782F41393633353835312D344632462D344230382D423046372D3739314545314133324237412F636E782E786D6C504B01021400140006080800CC70623BE75B7789680500003C10000034000000000000000000000000006E0800006662782F41393633353835312D344632462D344230382D423046372D3739314545
310
314133324237412F6F626A656374732E786D6C504B01021400140006080000CC70623B0000000000000000000000003500000000000000000000000000280E00006662782F41393633353835312D344632462D344230382D423046372D3739314545314133324237412F76657274696365732E62696E504B01021400140006
310
080800CC70623BF270F133060000000400000036000000000000000000000000007B0E00006662782F41393633353835312D344632462D344230382D423046372D3739314545314133324237412F747269616E676C65732E62696E504B01021400140006080000CC70623B0000000000000000000000003700000000000000
310
000000000000D50E00006662782F41393633353835312D344632462D344230382D423046372D3739314545314133324237412F617474726962757465732E62696E504B01021400140006080800CC70623B08DA0BD1900000004101000036000000000000000000000000002A0F00006662782F41393633353835312D344632
310
462D344230382D423046372D3739314545314133324237412F6469726563746F72792E786D6C504B01021400140006080800CC70623BEDD1DC58FD000000A00100003B000000000000000000000000000E1000006662782F41393633353835312D344632462D344230382D423046372D3739314545314133324237412F7265
310
736F75726365732F636F72652E786D6C504B0506000000000E000E0080040000641100000000
  0
XRECORD
  5
1F8
102
{ACAD_REACTORS
330
1F7
102
}
330
1F7
100
AcDbXrecord
280
     1
 70
     1
 90
429727718
  1
30362254-06B7-45E0-A893-8CFA70E3D6BC
310
504B03040A0000080000CC70623B3DEE336E79000000790000001B0000006175746F6465736B2D64657369676E2D7061636B6167652E786D6C3C3F786D6C2076657273696F6E3D22312E302220656E636F64696E673D227574662D3822203F3E3C666F726D6174733E3C666F726D61743E687474703A2F2F736368656D612E
310
6175746F6465736B2E636F6D2F64657369676E2D7061636B6167652F323030393C2F666F726D61743E3C2F666F726D6174733E504B0304140006080800CC70623BD486FD9CA0000000F4000000130000005B436F6E74656E745F54797065735D2E786D6C7D8EC10E82300C865F65E91D8A1E8C310C0EEA1BF002731658846E
310
D98AC1B77784ABF1D8FE5FBFBF75BBCE937A534CCEB38643598122B6FEE978D0B0485F9C41B54DDD7D022595594E1A469170414C76A4D9A4D207E29CF43ECE46F218070CC6BECC4078ACAA135ACF422C856C0E68EA1BF5669944DDD7BCDE7B1F8E415D77AECB980613C2E4AC91FC167A2B244592486606FC29C8FD7F045B9A
310
EF7053A7E60B504B0304140006080800CC70623B1EC5D7A3EB0000007C01000008000000636F72652E786D6C8D90416EC3201045AF82665B6103C6756C6122AB4D4ED00B204C5C94182C03558F5F9C3852BBEB6A467FFE9B197D71FC9E6FE8CBACC17AD7032D0820E3B41FAD9B7A48F1820F808E52ACDEC75F36404ECDA687
310
4D0629A6D5A76597B477D1B89855E747B38B2A041301E95B6E7A08FAD3CCAA50296647B8168BD2573599823EBB0CA76447F43862C7BCCF5EAC59410E4DDD9C7973C2755553CCCFA4C603E3040F1565ED3B1FDE4E432BCA0D9622DAF9795FAF464533826484B498524CD807E51D79ED187F21878E10516EF63F505AC67F42C9
310
BA58B1FDDD071640D2FCC87D2045B96591CB3DA85CB7DCE40F504B0304140006080800CC70623B55019EA25F0000007C00000007000000636E782E786D6C4DCB3B0E80201045D1AD90E915ED2CF8AC45050C11660C8261F98AB1B07AC9C97D42D718D865D3E909258CFD00CCE24AC6E326A164D74DC0B4128928FF32603847
310
2BA13128B1252AC747C6BAB984FC68F0B87FE8960A5C09FE86CFB69FBA01504B0304140006080800CC70623B8C9102E971010000D40300000C0000006662782F636F72652E786D6CC5535B6E833010BC8AE5DF0A6C08340F1947A84D4ED00B38C6A128602363A31CBFCB234A53A551FA553EC09AD9F5CE8C31DB9E9B1AF5CA
310
7695D1198E428A91D2D214952E33ECDD315861B4E5CC1AE3BE9561A445A3323CC098B3D21ADFCE9034DA29ED00D5A6503328BA4E398C640D8B0C77F253352214DE4145770A5B214FA2546114020D759C75CE8200340D19DE981F0F6746269C33EFAB6266AB02A655C74A59CCF365BADC27CB5D902ED22848F6340DF238A141
310
BE88E2F57B92BFEDF23523433367AE6A2EEAA455C2A902F398D2751045018D3FA264435F3771F242571B4A1919CA6F9A7C5B3CD9E42BED16F12C776AEB308F40C848FC700B1139D4891EF410CEC810227CC6846F8386402064270EF5C5C709A05E49676C024C61FC95EA45ED154CA5211D1FF4FB8291A913A68E9B83EBBB33
310
E2A7673CDE118E5AE8124C0807CB8377834E366998436B950D7A7746DAD846D4CFD978E0F04FD455FC5D49D2D4C6FE9722321F10997F0F32DC47FE05504B0304140006080800CC70623BFFEA85907E0000009D0000000B0000006662782F636E782E786D6C4DCCD10A83201886E15B91FFDC95D95A811AB6F23E625948A6C3
310
E9D8E5AF46073BFAE0E1E365ED67B3E8ADC3CB78C7815C7240DA3DFC64DCC221C519D7805AC182F7F1EF06C88D9BE6703008B6049F9E274D7A1E938DBB5AE3D6131B2589BA0D3D965551E0B2EA732C9B9A624AAEB41E3A557677029960D9AFB4EF11165F504B0304140006080800CC70623B4FEEA4082C0100001202000031
310
0000006662782F39464131463745442D413632322D343644302D413938332D3331353338454246344243312F636F72652E786D6C8D515B6EC32010BC0AE2AB55850DD871ED0813254D72825EC00192A2C460F1A872FC42ED48ED5F7E00CDCECCCEB26C731F6FE05B39AFADE921293004CA082BB5B9F43086336A21D870E6AC
310
0D7F68109861543DCC30E4ECE26C9C164858139409093556AA051CBC570102714B8F1E7AF1A5C6A11862480C7F2DA6415C878B2A4891CA89C7990F2E050073937C42DE1DB7E4F87ED8A36D4329AA9B3D46DBAEAD504556557BD81DEBDD0761E52CE42C462D17B996298E3E6BE59E35C962CE821E1FF18553435012728A7187
310
0841987E927A8D9B35ADDF70BBC6989599FE4F1427F9A4286A132ABAC49D651EF234CD5CE04CDA78BA3DC2A8FB645D00B9DF8B57E215725C60BCA2A463E54C4CE327C7A65E1C7DB02E7DEFCBF594B864C5CA6CDBD49C957943E9FA5D5FBAF336F90F504B0304140006080800CC70623BAD7543B64E01000033030000300000
310
006662782F39464131463745442D413632322D343644302D413938332D3331353338454246344243312F636E782E786D6CD593CD6EC32010845F0571AD6CE3D48AD20813A9873E410FBD12D82434182C7EAAE6EDBB2424CD25871E7B41D6EC30B3FA84F9E67BB2E40B4234DE8DB46F1925E094D7C6ED479AD3AE5951B2113C
310
789FEE6C943839C1488B4C05DF079FE72A69D8C96C13AAD6B8631503449F83828872B949AC57D26200B826A308D316B4064D6E46FCDA41C05550DC9E483A00797BFD207EFB092A45DE9514C1BBD22178396BD39D891265658C238DEA00936C654E5E433CB65A26D9F6EDB5EBC14EBF49A45CB856E66048291F6939A9A81BB5
310
C8917738143CA680F4AA299D66A042CEB3354A2684DC9D8D178FE0D9B8B41CAAD720F880EE7EF93C0C18769E099ECC04D5A102C8049A8A05632F4DDF376CF1DE0F6BB65C2F8627B65A33C6BB62177CEBBDAD973006829F89F22E814B54F4BC2BE347F8AA8F681390B50FA73F804400B5F542E796F19FF974E7F78DB802FE05
310
E207504B0304140006080800CC70623B16AB87BA640500003C100000340000006662782F39464131463745442D413632322D343644302D413938332D3331353338454246344243312F6F626A656374732E786D6CAD575B6FA33818FD2B887DE6924B3BED8A326A92B68A663B534DD4D13E548A0C38942D60649B369D5FBFC7
310
600890A493BDE42160637FD7F31D7FF63E6FB3D478A55C242CBF3247B66B1A340F5994E4F19559CA8D75611A9F7D8F33263BCB4C232719BD32D5B4E97B316765A1A722BA21652A07B3B7B33F0D11D29C9A46981221AE4C113ED38CD8A4942CA2E2C58E882476BCD9DA23BB5ED8171B73523C0F841684D35CC252CCE79062D4
310
468DFA43D7747CCF51DF7D4FFDEB5593E3AB9CCA9FBEFE241792E4E19EB28198C968BAB8199F5D5A67D3E9C49A9E8F47D6EC76B6B0469F26EEFC7C3EBFBCBEB98462213924694B38DD98FE1D62C393D073EA4FADC5DAF04326852CCF6958F90F0F2B9BB5C48816348F90C7840A68EB78EDF68723159BCEE7891A6B95DDE9D3
310
BCEAEEE8086A6C6F9E5D4B59F0175C10A7A0820BAA5055C7473B5AE3CFDD452D602CD5DF12616444529E90D448938013FE6EFA58AA96F85E4F8C42275708571E98FE6827AF6B2B4AE3D7D83D64E5A64C53054DD3AF90BD06FEA9149565C94FCA0F6B834DC85599E4F2423B24DF0B6AFA979E534DFA9E7A4CC6FA631D486393
310
921829879BF5D781A373557BCB85E97FB90DB62B558F8795179C15944B051F40AB495CF35451D26A4727654E6D8033BD98EF82F21D91FF8AF2DD9982BCF1643BDD4EB516C9492E368C67C88DED563FC36D5EACF66DFF057C3658BDBFA69DF9578B3DA735B64F18C7F20770A9D45CFCF7FCF563D6456A277DBEF78A02637CA2
310
43B90A490AEAB94F72244481D24819A6C0E59B606BFA4B3025981DBB48EAB701D97BF19C577CC77F2D1B6C55A9EF3C732474C0B727303F625995056C3B02963D9EAC146BE78EC5FCEC7FA999EBC5EACBAAE41B12D27B4D2C0BBA49F244E2ECDC81B76B502F113D8F5EE8FB1BE3111CDD4FC2AA9B844CAB1288B68AB90A7CDC
310
1C166AB0D3DC5310625FCC14E779BFD0709F8890A629C9292B1B2DED31A4B0DA928CEE135085754027E3018A397D4D5427D15BD1330B677DC8934285AC3DF45A9EB68FF8F2B8FC0A509AFEECFD0FF2DE25CC6047F7214B195F07EFEB9A094D800F7BFAE8FED187B78EA8A3A400F115961BCAD1215E47C966530AF0EE8128FE
310
58CEBB996A8964FFA529A046635D9353B0336A8F700DDF46271A024E70B0B37C9DE01847591E54DED53D54202AB947E4076556AC49C6CA5C9E1226B7F1A7B1BE15DEED62C41B91E1B3E9AFAAA735036547343A925075041DF0A9979E893B391F8FCFA6967B3EFB644DCF6E5CEBFAE272625DCC6FAF3FB93793C5F90CE1EF57
310
407342756B10D1C489E8953CD1617E5CEECAD6F4EF8914CE5D5D504E5C3F1F9736DA62CFC11E00BCDDB8CC8A9466349744C1F75EBDA4DF09BA8A9E8C7A7E9991989E20E5DBDD6A6003664ED8F7A04A8DBE0DF6EAD9B9AA858342E47399053949D2C146EDB85DE4B176BB0965FBAC19BD19AA918E27FA50C1D22402E144464C
310
59462568E704B6E71915404CB72B8FF4EDE184DDAF753F284990D2C6926782963815403548A70C657FDEF80D2D9CEAA2AE4C1C76F60BFE74219A06527D6582DF6412526107381E55E353090704D085B52408D0933C4ED159D79BDA71BB4BC506F4831350EB6F979CD22D69BF7AC49B91A2C0A9DDA3D5CA36AD20FC478E37E6
310
1844E2352865EBCB6EA275A652E3836BE04EFB400BF1A2556F515F1FBB35B2AB35BD889C744FFA1004B5544B121E57F70215746DD2F5E2C1412B602CBF19455AC6C8E5E9922C4E01E65215385004546899059180EAFCF7A707CE7017CD8CDB0410789AB32C63B91E5CEBBBACB17AC6CD347A022D5075FD106377347AAABA7E
310
7D11590744509B44E205134DC1290F06580320F78E537D3D73540E06CB970B431F185308AD40BBD794D6D77003C5A36E8EAA54BA64597CD8F83BD552A080A365F7FF06504B0304140006080000CC70623B000000000000000000000000350000006662782F39464131463745442D413632322D343644302D413938332D3331
310
353338454246344243312F76657274696365732E62696E504B0304140006080800CC70623BF270F1330600000004000000360000006662782F39464131463745442D413632322D343644302D413938332D3331353338454246344243312F747269616E676C65732E62696E636660600000504B0304140006080000CC70623B
310
000000000000000000000000370000006662782F39464131463745442D413632322D343644302D413938332D3331353338454246344243312F617474726962757465732E62696E504B0304140006080800CC70623B08DA0BD19000000041010000360000006662782F39464131463745442D413632322D343644302D413938
310
332D3331353338454246344243312F6469726563746F72792E786D6C858F410AC3201045AF22B36F53E9A60B35CBEEBAE80D244E44489C6234F4F835464A48035D0DF398FF9F8AF63D0E6CC63039F212F8F9020C7D47C6792B21C5FE7403D62A1188E2E60C98D7234A5830286103A55745067B9D86B8A3CF9C7F90C11DE607
310
FB144396D7B6A82D282E9A152AD114D5EF2CB866EEE831B8EEA07A7BB5A8D7D61A2BAAEB7FD5F70921FF497D00504B0304140006080800CC70623B0D6EF93BFE000000A00100003B0000006662782F39464131463745442D413632322D343644302D413938332D3331353338454246344243312F7265736F75726365732F63
310
6F72652E786D6C8D50596E833010BD0A9ADFCA60B334011947A8694ED00B586642AC041B79A97AFC9A40A5F6AF3F33A3B7689E1E3F7DCD8FEC139DD7D6F4C0720A191A65476DA61E62B892236427C19DB5E1970C322367EC618541F0C9D9B8EC90B226A009093576C41D94DE63804C3DD2D18357379C652E63480A7FCF17A9
310
EE72C29CE5894E3AC17D702940B63D59270887DE46A7D0F36263058F518FBB468FE9A7BE6A7420864373B8D4873369AA8691FA421B3294352543C5CAF65C0F6FEF43CB8BD52C78D0F34F46E550061C419494B6843142CB0F5677F4B52BEB177AEC28E5C52AFF638ACBF84F53D42654E51E77B379102C05791282176B5F693D
310
CB4C7BED567C03504B010214000A0000080000CC70623B3DEE336E79000000790000001B00000000000000000000000000000000006175746F6465736B2D64657369676E2D7061636B6167652E786D6C504B01021400140006080800CC70623BD486FD9CA0000000F40000001300000000000000000000000000B20000005B
310
436F6E74656E745F54797065735D2E786D6C504B01021400140006080800CC70623B1EC5D7A3EB0000007C010000080000000000000000000000000083010000636F72652E786D6C504B01021400140006080800CC70623B55019EA25F0000007C000000070000000000000000000000000094020000636E782E786D6C504B
310
01021400140006080800CC70623B8C9102E971010000D40300000C00000000000000000000000000180300006662782F636F72652E786D6C504B01021400140006080800CC70623BFFEA85907E0000009D0000000B00000000000000000000000000B30400006662782F636E782E786D6C504B01021400140006080800CC70
310
623B4FEEA4082C0100001202000031000000000000000000000000005A0500006662782F39464131463745442D413632322D343644302D413938332D3331353338454246344243312F636F72652E786D6C504B01021400140006080800CC70623BAD7543B64E010000330300003000000000000000000000000000D5060000
310
6662782F39464131463745442D413632322D343644302D413938332D3331353338454246344243312F636E782E786D6C504B01021400140006080800CC70623B16AB87BA640500003C1000003400000000000000000000000000710800006662782F39464131463745442D413632322D343644302D413938332D3331353338
310
454246344243312F6F626A656374732E786D6C504B01021400140006080000CC70623B0000000000000000000000003500000000000000000000000000270E00006662782F39464131463745442D413632322D343644302D413938332D3331353338454246344243312F76657274696365732E62696E504B01021400140006
310
080800CC70623BF270F133060000000400000036000000000000000000000000007A0E00006662782F39464131463745442D413632322D343644302D413938332D3331353338454246344243312F747269616E676C65732E62696E504B01021400140006080000CC70623B0000000000000000000000003700000000000000
310
000000000000D40E00006662782F39464131463745442D413632322D343644302D413938332D3331353338454246344243312F617474726962757465732E62696E504B01021400140006080800CC70623B08DA0BD190000000410100003600000000000000000000000000290F00006662782F39464131463745442D413632
310
322D343644302D413938332D3331353338454246344243312F6469726563746F72792E786D6C504B01021400140006080800CC70623B0D6EF93BFE000000A00100003B000000000000000000000000000D1000006662782F39464131463745442D413632322D343644302D413938332D3331353338454246344243312F7265
310
736F75726365732F636F72652E786D6C504B0506000000000E000E0080040000641100000000
  0
XRECORD
  5
175
102
{ACAD_REACTORS
330
173
102
}
330
173
100
AcDbXrecord
280
     1
270
     1
271
     1
  0
XRECORD
  5
174
102
{ACAD_REACTORS
330
173
102
}
330
173
100
AcDbXrecord
280
     1
270
     1
271
     1
  0
XRECORD
  5
1FB
102
{ACAD_REACTORS
330
173
102
}
330
173
100
AcDbXrecord
280
     1
 70
     0
 90
1673772943
  1
ECE7A1D2-D628-4531-984C-D00F80459256
310
504B03040A0000080000CC70623B3DEE336E79000000790000001B0000006175746F6465736B2D64657369676E2D7061636B6167652E786D6C3C3F786D6C2076657273696F6E3D22312E302220656E636F64696E673D227574662D3822203F3E3C666F726D6174733E3C666F726D61743E687474703A2F2F736368656D612E
310
6175746F6465736B2E636F6D2F64657369676E2D7061636B6167652F323030393C2F666F726D61743E3C2F666F726D6174733E504B0304140006080800CC70623BD486FD9CA0000000F4000000130000005B436F6E74656E745F54797065735D2E786D6C7D8EC10E82300C865F65E91D8A1E8C310C0EEA1BF002731658846E
310
D98AC1B77784ABF1D8FE5FBFBF75BBCE937A534CCEB38643598122B6FEE978D0B0485F9C41B54DDD7D022595594E1A469170414C76A4D9A4D207E29CF43ECE46F218070CC6BECC4078ACAA135ACF422C856C0E68EA1BF5669944DDD7BCDE7B1F8E415D77AECB980613C2E4AC91FC167A2B244592486606FC29C8FD7F045B9A
310
EF7053A7E60B504B0304140006080800CC70623BD9DDAED0EC0000007C01000008000000636F72652E786D6C8D90416EC3201045AF82665B61836D9CD8C2444DD39CA01740405C94182C03558F5F9C3852BBEB6A467FFE9B197D7EF89E6EE8CB2CC17A37002D0820E394D7D68D03A478C17B4007C117EFE32F1B20272733C0
310
2A83E0E3E2D3BC49CABB685CCCAAF3DA6CA20CC14440EA969B0182FA34932C648AD911AEC52CD5558EA6A0CF2EC329598D1E47ACCEFBECC59A050463A7EA5833865FEBDD0E37353BE3EE8DBDE3F6786A48D375FBF6CC78B9C282473B3DEFABC5C86834888A900E538A49F5419B9EB47DD5BC907D4F082F57FB1F28CDFA9F50
310
B22ED6D5F6EE030B20687EE43E10BC5CB3C8E51E54AE6B6EE207504B0304140006080800CC70623B55019EA25F0000007C00000007000000636E782E786D6C4DCB3B0E80201045D1AD90E915ED2CF8AC45050C11660C8261F98AB1B07AC9C97D42D718D865D3E909258CFD00CCE24AC6E326A164D74DC0B4128928FF326038
310
472BA13128B1252AC747C6BAB984FC68F0B87FE8960A5C09FE86CFB69FBA01504B0304140006080800CC70623BA24EB22D72010000D40300000C0000006662782F636F72652E786D6CC5535B6E833010BC8AE5DF0A6C5E49888CA3A6694ED00B38E05014B091B1518EDFE511A5A9D228FD2A1F60CDEC7A67C6986DCE4D8D7A
310
69BA4AAB0C073EC548AA5C17952A33ECECD15B61B4E1CC686DBF9561A44423333CC098B3D268D7CE50AE9595CA02AA74216750749DB418E5352C32DCE59FB211BE70162ABA93DF8AFC244AE9073ED050C759670D0840D390E18DF9F1706664C23973AE2A66B62A605A75ACA4C13C4976E1364A12EF355A2EBD384AF65EFA96
310
BC7B8BED2EA6719AAE16FB8491A199335B351775B991C2CA02F390D2D40B028F861F41BCA68B7518BFD0D59A524686F29B26D7164F36B94AD9289CE54E6D1DE6010819891F6E21228B3AD1831EC219194284CF98F06DD01008846CC5A1BEF83801D4CBDC6A1303536877A57A513B0953A94FC707FDBE6064EA84A9E3E6E0FA
310
EE8CF0E9198F7784A316AA0413C2C2F2E0ECA0934D1AE6D05A69BCDE9E91D2A611F573361E38FC1375157F5752AE6B6DFE4B11990F88CCBF0719EE23FF02504B0304140006080800CC70623B408A7D3B7C0000009D0000000B0000006662782F636E782E786D6C4DCCD10A83201886E15B91FFDC552A92A0064DBC8F581632
310
D3703A76F9ABD1C18E3E78F878E5F0D9027ABBFCF2292AE86E2D20171F69F6715550CB827B40839639A5F2770314A7CD293819B45C73AAFB45B35BA61ACAA1C1C7E7855C58C15BC331339661262CC762340413D68D77DA5B42298546CBE6573AF60CEB2F504B0304140006080800CC70623B449FB9BD290100001202000031
310
0000006662782F36394639363044362D344446342D343946362D394244322D3234314243333846323333332F636F72652E786D6C8D515B6EC32010BC0AE22B55850D98B871848994463E412FE002495162B07854397EA176A4F62F3F2C9A9D991D587EB84F37F0AD7D30CEF6905418026DA553C65E7A98E219ED203808EE9D
310
8B7F6810D871D23D2C3014FCE25D9A57483A1BB58D19B54EE9151C43D0110279CB971E06F9A5A7B11A53CC8C70ADE6515EC78BAE4895DB992778883E0700CB907242D17643D7E2538BD869608875438BBAE38922CAC8F1BDD90DB4691A5E2F42C153326A951B95E398B3D1FE599322163C9AE9115F7A3D46ADA0A018778810
310
84E907617BDCEE297BC5BB3DC6BC2EF47FA234AB2745C9D8D8D035EE220B50105E2F0DC1954B9FB747187D9F9D8FA0CCDB042D5FA0C015C65B42DF78BD10F3F3B363CB56C7109DCFDFBBB97E662ED92EB62D13BC2E1BCAE5777DB9966D8A1F504B0304140006080800CC70623BAD7543B64E01000033030000300000006662
310
782F36394639363044362D344446342D343946362D394244322D3234314243333846323333332F636E782E786D6CD593CD6EC32010845F0571AD6CE3D48AD20813A9873E410FBD12D82434182C7EAAE6EDBB2424CD25871E7B41D6EC30B3FA84F9E67BB2E40B4234DE8DB46F1925E094D7C6ED479AD3AE5951B2113C789FEE
310
6C943839C1488B4C05DF079FE72A69D8C96C13AAD6B8631503449F83828872B949AC57D26200B826A308D316B4064D6E46FCDA41C05550DC9E483A00797BFD207EFB092A45DE9514C1BBD22178396BD39D891265658C238DEA00936C654E5E433CB65A26D9F6EDB5EBC14EBF49A45CB856E66048291F6939A9A81BB5C89177
310
38143CA680F4AA299D66A042CEB3354A2684DC9D8D178FE0D9B8B41CAAD720F880EE7EF93C0C18769E099ECC04D5A102C8049A8A05632F4DDF376CF1DE0F6BB65C2F8627B65A33C6BB62177CEBBDAD973006829F89F22E814B54F4BC2BE347F8AA8F681390B50FA73F804400B5F542E796F19FF974E7F78DB802FE05E20750
310
4B0304140006080800CC70623B8D05915C650500003B100000340000006662782F36394639363044362D344446342D343946362D394244322D3234314243333846323333332F6F626A656374732E786D6CAD575B6FA33814FE2B887D06429276DA1565D4266D158D3A339A6846FB502932E050B66023DB74D2FDF5FB190C01
310
9276B2973C046C8ECFF53B17071F77456EBD502133CEAE6CDF9DD81665314F32965ED995DA3A17B6F5310C04E7AA47665B8C14F4CAD6DB7618A48257A5D94AE89654B91AEDDEDDFC61C998326A5B714EA4BCB265FC440BE2924AF184CA6737218AB8E976E7FA6E4338649B0A523E8D98964450A6A029F619B8588D52FE7039
310
B1BD30F0F4F730D0FF866AF6369557DB33949F31A9088B0F848DD8CCFCF9F2767A76E99CCDE733677E3EF59D9BBB9BA5E37F984D16E78BC5E5F5ED25044B25C0C96822E8D60EEFE11B91C581D77CEA34368A1F5329E68CD1B8B61F16D63A1B8E092D294B10C78C4A48EB593D192E7DED9BDEE7995E1B91FDEDD3ACEA9FE831
310
6A756F9F7D4D79F4274C90A7A04248AA51D5F8C718DAE06FB2F75AC4796EBE65D22A88A22223B995679120E2D50E41AA49C260C046A35368846B0BECD0DFF3EBEB8AD4F835768F69B9ADF25C43D30E6B646F807FAA64AD59F61715C7A54127C4AACA98BA3006A9D792DAE165E0D59B61A01FB3A9F9D838D2DAE62445C86166
310
F37564E842E7DE6A69879FEEA2DD5AE7E371E1A5E025154AC307D06A03D73EB5978C58FFA4C8E9033066E0F3BD53BEC1F39F91BE7B55103791EDE6BBB991A2046172CB4581D8B893FA674DDA17A77B3B7C413D1B511FD2743BFF8A38F03A658705E3ADF8015C3A3417FF3D7E439FF591DA0B5F18BC20C1B8981957AE6392A3
310
F43C640C01D1A0B4728E2DD4F26DB4B3C3152A252A3B4E913CEC1C72F012782FF88EFF8637AA552DBEF76408E8A8DE9E50F9E1CB3A2DA0DB1B6039A893B56063DC5B3E3FFB5F72E67AB9FEB4AEC496C4F4C1149625DD662C53E89D7BF0F6151A046260D1337DFDC94502430F83B0EE07A130A224BCAD7DAE1D9FB6CD422FF6
310
920702629C4BB9AE79C12F243C6432A6794E18E5552BA56B431AAB5D91317302B2B071E86C3A42B1A02F999E24061403B5D0EB639195DA655DD3EBEAB4FB862DDF579F014AD0E73C22F99E28DA57FB98E75C6CA2D74D53086D600F4786E0FE3144B771A8A7B900F03594DB8A633CBC49B2EDB69228BB479CF863B5E807AAAB
310
23872F6DFEB4129B949CA33823F58830E86D65621E10047D9DB34D862E8EAC3C2ABC2F7B2C40D67CDFE01F5545B92105AF983AC54D93D69E56FB8E797F88913F898A9FEC705D3F9D1B54EC8426FB500D40A03BD0119B06E1B95DDC7EB8F6975367793EBD70E66733DFB9BC982F9CE564727731999F5D4ECFCE3B8D6A4DC2A0
310
6D50FD148437D110834A64C6CDDF57FBACB5C307A2A477DFE4939736CFEF2B175371E0E10CF0DD1D5C15654E0BCA14D1E87DD02FF93782A162C0A3D95F1524A52770F972BF1EE9809D13CE7DD599467F8ECE9ADD85CE85A34CD45355448C64F9E8A031DC2D596ACC6E5DD93D9B82DE2EF5CAF81363A8E47996A0DE24564A79
310
4115AACE09C55E14540231FDA13C319787134EBF34E3A022514E5B4D9E0826E25C02D5805B15ABE1BEF51B26383D445DD9E875EE33FE4C22DA16427D65A3BCA92CA6D28DD01DF5DC53330704308475351050232CCD31583787BA75774AFB06E5070DD0C8EF484E19968C5D83BA5B90B244D31E54D55A372320FE4786B7EA58
310
44E135AA5467CB7EA333A61683CC6A8C3257034C10CF46F40EF9F5BE59BE5BD30C3C72D235E95D10345C1D45445A5F0BB47E46A5EBE5570F9380B5FA629579952296A773720405982B9DE04011506178964401AA8BDF1FBF0A8EAB6861DD6580C0E38217056766716DAEB2D6FA0917D3E4116581EADB879C4E7CFFB11EFACD
310
3D641311495D92C8676CB409A72D18610D803CE8A626049E8EC1887CB5B44CC39883690DDA8399B4B9855B481E7D71D4A9D22F96E5BB73BF5793020C02137BF837504B0304140006080000CC70623B000000000000000000000000350000006662782F36394639363044362D344446342D343946362D394244322D32343142
310
43333846323333332F76657274696365732E62696E504B0304140006080800CC70623BF270F1330600000004000000360000006662782F36394639363044362D344446342D343946362D394244322D3234314243333846323333332F747269616E676C65732E62696E636660600000504B0304140006080000CC70623B0000
310
00000000000000000000370000006662782F36394639363044362D344446342D343946362D394244322D3234314243333846323333332F617474726962757465732E62696E504B0304140006080800CC70623B08DA0BD19000000041010000360000006662782F36394639363044362D344446342D343946362D394244322D
310
3234314243333846323333332F6469726563746F72792E786D6C858F410AC3201045AF22B36F53E9A60B35CBEEBAE80D244E44489C6234F4F835464A48035D0DF398FF9F8AF63D0E6CC63039F212F8F9020C7D47C6792B21C5FE7403D62A1188E2E60C98D7234A5830286103A55745067B9D86B8A3CF9C7F90C11DE607FB14
310
4396D7B6A82D282E9A152AD114D5EF2CB866EEE831B8EEA07A7BB5A8D7D61A2BAAEB7FD5F70921FF497D00504B0304140006080800CC70623BCA768048FE000000A00100003B0000006662782F36394639363044362D344446342D343946362D394244322D3234314243333846323333332F7265736F75726365732F636F72
310
652E786D6C8D50596E833010BD0A9ADFCA60D600328E9AA639412F609909B1126CE4A5EAF16B0295DABFFECC8CDEA2797AECF8353F924FB44E193D409E5248504B332A3D0D10FC95B4901C39B3C6F85F3248B49871801506CE266BC2B243D2688FDA47549B11775038871E12F988C7004EDE7016A9083E2ADC3D5D84BC8B09
310
D33C8D74D471E6BC8D0192EDC93A815B742658898E651BCB59086ADC356A8C3FD555A1055ED7E7E254D615792D0F075295F585746FF53B694EE78A565DD736979A65AB9933AFE69F8CD2A2F038022F28ED489E135A7CE4554F9BBEA85E68DB53CAB255FEC71496F19FA6A0B42F8B3DEE6673C0F318E4497096AD7DC5F52C33
310
EEB55BFE0D504B010214000A0000080000CC70623B3DEE336E79000000790000001B00000000000000000000000000000000006175746F6465736B2D64657369676E2D7061636B6167652E786D6C504B01021400140006080800CC70623BD486FD9CA0000000F40000001300000000000000000000000000B20000005B436F
310
6E74656E745F54797065735D2E786D6C504B01021400140006080800CC70623BD9DDAED0EC0000007C010000080000000000000000000000000083010000636F72652E786D6C504B01021400140006080800CC70623B55019EA25F0000007C000000070000000000000000000000000095020000636E782E786D6C504B0102
310
1400140006080800CC70623BA24EB22D72010000D40300000C00000000000000000000000000190300006662782F636F72652E786D6C504B01021400140006080800CC70623B408A7D3B7C0000009D0000000B00000000000000000000000000B50400006662782F636E782E786D6C504B01021400140006080800CC70623B
310
449FB9BD290100001202000031000000000000000000000000005A0500006662782F36394639363044362D344446342D343946362D394244322D3234314243333846323333332F636F72652E786D6C504B01021400140006080800CC70623BAD7543B64E010000330300003000000000000000000000000000D20600006662
310
782F36394639363044362D344446342D343946362D394244322D3234314243333846323333332F636E782E786D6C504B01021400140006080800CC70623B8D05915C650500003B10000034000000000000000000000000006E0800006662782F36394639363044362D344446342D343946362D394244322D32343142433338
310
46323333332F6F626A656374732E786D6C504B01021400140006080000CC70623B0000000000000000000000003500000000000000000000000000250E00006662782F36394639363044362D344446342D343946362D394244322D3234314243333846323333332F76657274696365732E62696E504B010214001400060808
310
00CC70623BF270F13306000000040000003600000000000000000000000000780E00006662782F36394639363044362D344446342D343946362D394244322D3234314243333846323333332F747269616E676C65732E62696E504B01021400140006080000CC70623B00000000000000000000000037000000000000000000
310
00000000D20E00006662782F36394639363044362D344446342D343946362D394244322D3234314243333846323333332F617474726962757465732E62696E504B01021400140006080800CC70623B08DA0BD190000000410100003600000000000000000000000000270F00006662782F36394639363044362D344446342D
310
343946362D394244322D3234314243333846323333332F6469726563746F72792E786D6C504B01021400140006080800CC70623BCA768048FE000000A00100003B000000000000000000000000000B1000006662782F36394639363044362D344446342D343946362D394244322D3234314243333846323333332F7265736F
310
75726365732F636F72652E786D6C504B0506000000000E000E0080040000621100000000
  0
XRECORD
  5
176
102
{ACAD_REACTORS
330
173
102
}
330
173
100
AcDbXrecord
280
     1
270
     1
271
     1
  0
XRECORD
  5
177
102
{ACAD_REACTORS
330
173
102
}
330
173
100
AcDbXrecord
280
     1
270
     1
271
     1
  0
CELLSTYLEMAP
  5
1D55
102
{ACAD_REACTORS
330
162
102
}
330
162
100
AcDbCellStyleMap
 90
        3
300
CELLSTYLE
  1
TABLEFORMAT_BEGIN
 90
        5
170
     1
 91
        0
 92
    32768
 62
   257
 93
        1
300
CONTENTFORMAT
  1
CONTENTFORMAT_BEGIN
 90
        0
 91
        0
 92
      512
 93
        0
300

 40
0.0
140
1.0
 94
        5
 62
     0
340
11
144
6.0
309
CONTENTFORMAT_END
171
     1
301
MARGIN
  1
CELLMARGIN_BEGIN
 40
1.5
 40
1.5
 40
1.5
 40
1.5
 40
0.18
 40
0.18
309
CELLMARGIN_END
 94
        6
 95
        1
302
GRIDFORMAT
  1
GRIDFORMAT_BEGIN
 90
        0
 91
        1
 62
     0
 92
       -2
340
14
 93
        0
 40
1.125
309
GRIDFORMAT_END
 95
        2
302
GRIDFORMAT
  1
GRIDFORMAT_BEGIN
 90
        0
 91
        1
 62
     0
 92
       -2
340
14
 93
        0
 40
1.125
309
GRIDFORMAT_END
 95
        4
302
GRIDFORMAT
  1
GRIDFORMAT_BEGIN
 90
        0
 91
        1
 62
     0
 92
       -2
340
14
 93
        0
 40
1.125
309
GRIDFORMAT_END
 95
        8
302
GRIDFORMAT
  1
GRIDFORMAT_BEGIN
 90
        0
 91
        1
 62
     0
 92
       -2
340
14
 93
        0
 40
1.125
309
GRIDFORMAT_END
 95
       16
302
GRIDFORMAT
  1
GRIDFORMAT_BEGIN
 90
        0
 91
        1
 62
     0
 92
       -2
340
14
 93
        0
 40
1.125
309
GRIDFORMAT_END
 95
       32
302
GRIDFORMAT
  1
GRIDFORMAT_BEGIN
 90
        0
 91
        1
 62
     0
 92
       -2
340
14
 93
        0
 40
1.125
309
GRIDFORMAT_END
309
TABLEFORMAT_END
  1
CELLSTYLE_BEGIN
 90
        1
 91
        1
300
_TITLE
309
CELLSTYLE_END
300
CELLSTYLE
  1
TABLEFORMAT_BEGIN
 90
        5
170
     1
 91
        0
 92
        0
 62
   257
 93
        1
300
CONTENTFORMAT
  1
CONTENTFORMAT_BEGIN
 90
        0
 91
        0
 92
      512
 93
        0
300

 40
0.0
140
1.0
 94
        5
 62
     0
340
11
144
4.5
309
CONTENTFORMAT_END
171
     1
301
MARGIN
  1
CELLMARGIN_BEGIN
 40
1.5
 40
1.5
 40
1.5
 40
1.5
 40
0.18
 40
0.18
309
CELLMARGIN_END
 94
        6
 95
        1
302
GRIDFORMAT
  1
GRIDFORMAT_BEGIN
 90
        0
 91
        1
 62
     0
 92
       -2
340
14
 93
        0
 40
1.125
309
GRIDFORMAT_END
 95
        2
302
GRIDFORMAT
  1
GRIDFORMAT_BEGIN
 90
        0
 91
        1
 62
     0
 92
       -2
340
14
 93
        0
 40
1.125
309
GRIDFORMAT_END
 95
        4
302
GRIDFORMAT
  1
GRIDFORMAT_BEGIN
 90
        0
 91
        1
 62
     0
 92
       -2
340
14
 93
        0
 40
1.125
309
GRIDFORMAT_END
 95
        8
302
GRIDFORMAT
  1
GRIDFORMAT_BEGIN
 90
        0
 91
        1
 62
     0
 92
       -2
340
14
 93
        0
 40
1.125
309
GRIDFORMAT_END
 95
       16
302
GRIDFORMAT
  1
GRIDFORMAT_BEGIN
 90
        0
 91
        1
 62
     0
 92
       -2
340
14
 93
        0
 40
1.125
309
GRIDFORMAT_END
 95
       32
302
GRIDFORMAT
  1
GRIDFORMAT_BEGIN
 90
        0
 91
        1
 62
     0
 92
       -2
340
14
 93
        0
 40
1.125
309
GRIDFORMAT_END
309
TABLEFORMAT_END
  1
CELLSTYLE_BEGIN
 90
        2
 91
        1
300
_HEADER
309
CELLSTYLE_END
300
CELLSTYLE
  1
TABLEFORMAT_BEGIN
 90
        5
170
     1
 91
        0
 92
        0
 62
   257
 93
        1
300
CONTENTFORMAT
  1
CONTENTFORMAT_BEGIN
 90
        0
 91
        0
 92
      512
 93
        0
300

 40
0.0
140
1.0
 94
        2
 62
     0
340
11
144
4.5
309
CONTENTFORMAT_END
171
     1
301
MARGIN
  1
CELLMARGIN_BEGIN
 40
1.5
 40
1.5
 40
1.5
 40
1.5
 40
0.18
 40
0.18
309
CELLMARGIN_END
 94
        6
 95
        1
302
GRIDFORMAT
  1
GRIDFORMAT_BEGIN
 90
        0
 91
        1
 62
     0
 92
       -2
340
14
 93
        0
 40
1.125
309
GRIDFORMAT_END
 95
        2
302
GRIDFORMAT
  1
GRIDFORMAT_BEGIN
 90
        0
 91
        1
 62
     0
 92
       -2
340
14
 93
        0
 40
1.125
309
GRIDFORMAT_END
 95
        4
302
GRIDFORMAT
  1
GRIDFORMAT_BEGIN
 90
        0
 91
        1
 62
     0
 92
       -2
340
14
 93
        0
 40
1.125
309
GRIDFORMAT_END
 95
        8
302
GRIDFORMAT
  1
GRIDFORMAT_BEGIN
 90
        0
 91
        1
 62
     0
 92
       -2
340
14
 93
        0
 40
1.125
309
GRIDFORMAT_END
 95
       16
302
GRIDFORMAT
  1
GRIDFORMAT_BEGIN
 90
        0
 91
        1
 62
     0
 92
       -2
340
14
 93
        0
 40
1.125
309
GRIDFORMAT_END
 95
       32
302
GRIDFORMAT
  1
GRIDFORMAT_BEGIN
 90
        0
 91
        1
 62
     0
 92
       -2
340
14
 93
        0
 40
1.125
309
GRIDFORMAT_END
309
TABLEFORMAT_END
  1
CELLSTYLE_BEGIN
 90
        3
 91
        2
300
_DATA
309
CELLSTYLE_END
  0
ENDSEC
  0
SECTION
  2
ACDSDATA
 70
     2
 71
     8
  0
ACDSSCHEMA
 90
        0
  1
AcDb_Thumbnail_Schema
  2
AcDbDs::ID
280
    10
 91
        8
  2
Thumbnail_Data
280
    15
 91
        0
101
ACDSRECORD
 95
        0
 90
        1
  2
AcDbDs::TreatedAsObjectData
280
     1
291
     1
101
ACDSRECORD
 95
        0
 90
        2
  2
AcDbDs::Legacy
280
     1
291
     1
101
ACDSRECORD
  1
AcDbDs::ID
 90
        3
  2
AcDs:Indexable
280
     1
291
     1
101
ACDSRECORD
  1
AcDbDs::ID
 90
        4
  2
AcDbDs::HandleAttribute
280
     7
282
     1
  0
ACDSSCHEMA
 90
        1
  1
AcDbDs::TreatedAsObjectDataSchema
  2
AcDbDs::TreatedAsObjectData
280
     1
 91
        0
  0
ACDSSCHEMA
 90
        2
  1
AcDbDs::LegacySchema
  2
AcDbDs::Legacy
280
     1
 91
        0
  0
ACDSSCHEMA
 90
        3
  1
AcDbDs::IndexedPropertySchema
  2
AcDs:Indexable
280
     1
 91
        0
  0
ACDSSCHEMA
 90
        4
  1
AcDbDs::HandleAttributeSchema
  2
AcDbDs::HandleAttribute
280
     7
 91
        1
284
     1
  0
ACDSRECORD
 90
        0
  2
AcDbDs::ID
280
    10
320
22
  2
Thumbnail_Data
280
    15
 94
     1656
310
89504E470D0A1A0A0000000D494844520000010000000085080300000083A6D68B00000300504C5445000000FFFFFF0000000000000000000000000000000000000000000000000000000000330000660000990000CC0000FF0033000033330033660033990033CC0033FF0066000066330066660066990066CC0066FF0099
310
000099330099660099990099CC0099FF00CC0000CC3300CC6600CC9900CCCC00CCFF00FF0000FF3300FF6600FF9900FFCC00FFFF3300003300333300663300993300CC3300FF3333003333333333663333993333CC3333FF3366003366333366663366993366CC3366FF3399003399333399663399993399CC3399FF33CC00
310
33CC3333CC6633CC9933CCCC33CCFF33FF0033FF3333FF6633FF9933FFCC33FFFF6600006600336600666600996600CC6600FF6633006633336633666633996633CC6633FF6666006666336666666666996666CC6666FF6699006699336699666699996699CC6699FF66CC0066CC3366CC6666CC9966CCCC66CCFF66FF0066
310
FF3366FF6666FF9966FFCC66FFFF9900009900339900669900999900CC9900FF9933009933339933669933999933CC9933FF9966009966339966669966999966CC9966FF9999009999339999669999999999CC9999FF99CC0099CC3399CC6699CC9999CCCC99CCFF99FF0099FF3399FF6699FF9999FFCC99FFFFCC0000CC00
310
33CC0066CC0099CC00CCCC00FFCC3300CC3333CC3366CC3399CC33CCCC33FFCC6600CC6633CC6666CC6699CC66CCCC66FFCC9900CC9933CC9966CC9999CC99CCCC99FFCCCC00CCCC33CCCC66CCCC99CCCCCCCCCCFFCCFF00CCFF33CCFF66CCFF99CCFFCCCCFFFFFF0000FF0033FF0066FF0099FF00CCFF00FFFF3300FF3333
310
FF3366FF3399FF33CCFF33FFFF6600FF6633FF6666FF6699FF66CCFF66FFFF9900FF9933FF9966FF9999FF99CCFF99FFFFCC00FFCC33FFCC66FFCC99FFCCCCFFCCFFFFFF00FFFF33FFFF66FFFF99FFFFCCFFFFFF0000000D0D0D1A1A1A2828283535354343435050505D5D5D6B6B6B787878868686939393A1A1A1AEAEAEBB
310
BBBBC9C9C9D6D6D6E4E4E4F1F1F1FFFFFF0000000000000000000000000000000000000000000000000000000000003AE5ACE9000003334944415478DAEDDD4D92A4201005606E30D7781BAE540B23E6161ECE83708DDE8F0858503AD363C2C068BEDCF44F4457149F0999B66219C36030180C0683C1501A5FE2502FF7C05C
310
5009204E7F02689EFF8E00042000010840000210A036E04335803720805A00842900BD0029F4664098042A3300E7A10600DF8626806222A0F8A205E07C7D783880F9A38006809407A7BDD0D301B62E28B64289431BC06F967D28CA8062F85100064A000E9D20F0FE95168032FBA12E034ED73D356BC037958F00CA01A012E0
310
3EE7C5FCB738010840000210800004200001084000021080000420C0CDC7A21B2084F629A019603BFC8E5340F714E01A4000028C03187C150C3FFC95B8810030923B45DBDD551A00300C4078AB6CE3FB6AC701E0F01DAEBFA31B03A0C9C2705F8036E37F20004C5F80651040B3F13704F8BBD38236007B01AC6C0C5A02B88E
310
00F8DC23216D8C9A00209D137503C8DF763E02485EA942E0E73AFE08E0BAAE01D8FB9962D8D7D77F340198E72BA7C4AD00C276817CFB280487BEAE1B5C01E033C0CD735780B867661B3B20BB43187867801800D3842D03E6799AA69E00FB71DFC78FEBF5AFFE94C0C50C303E03FA0120ED96C91682CB43F8CC0011009C5BEC
310
FA0A769EAD9DACED0A604CB9124A00E2549203AC09B0BDD2F80CC83A83CB0090032000F45D0352F2EE6B8018A0D88028AB020847A36B1548472C9580CA0CA8E9855CA8C43E037A96C1B8EC957D80B00AD401AC196097AB65B4154056000409902A684D17E0DB4063CD1080430987E83CA02828F2F93802C0ECBB06D38A20E9
310
A7EBFA401F2FFBEA0F60DECF0D887B8745652C3D7AA002C0FA801D0E202BE3A901AA0070AFE5FFC800711F5709B0AC5360B95A45FEC94354A427D5B59746C65401F33E8F41D5E3A4602A3360AD834332207FD73547B0C5C5317BF93F11CDAE0BB4DA2459F712F6F25FF0464902108000042000010840000210800004200001
310
08400002DC782CA27812C0F6D161CE6C1F20967E4847594506A807D886EEC267C8852F3980FD8827AE017EC8293402E4F9EE8A59A1650AF845DD851BE5D30F6990F6341E08E072001797053519709C02872A904D7F158D9032802FE59D60319A8F0C087B685CDC4AE3F6874D3C08E0174AF34F802CC7DD890000000049454E
310
44AE426082
  0
ENDSEC
  0
EOF
