  0
SECTION
  2
HEADER
  9
$ACADVER
  1
AC1032
  9
$ACADMAINTVER
 90
      233
  9
$DWGCODEPAGE
  3
ANSI_932
  9
$LASTSAVEDBY
  1
taketo.kashima
  9
$REQUIREDVERSIONS
160
                 0
  9
$INSBASE
 10
268.4340021441085
 20
176.78614296069
 30
0.0
  9
$EXTMIN
 10
1027.637882706707
 20
-1081.941127341026
 30
0.0
  9
$EXTMAX
 10
1766.446090860609
 20
-444.3594961852504
 30
0.0
  9
$LIMMIN
 10
0.0
 20
0.0
  9
$LIMMAX
 10
554.0
 20
395.0
  9
$ORTHOMODE
 70
     1
  9
$REGENMODE
 70
     1
  9
$FILLMODE
 70
     1
  9
$QTEXTMODE
 70
     0
  9
$MIRRTEXT
 70
     1
  9
$LTSCALE
 40
2.0
  9
$ATTMODE
 70
     1
  9
$TEXTSIZE
 40
10.0
  9
$TRACEWID
 40
0.2
  9
$TEXTSTYLE
  7
KANJI
  9
$CLAYER
  8
C6
  9
$CELTYPE
  6
BYLAYER
  9
$CECOLOR
 62
   256
  9
$CELTSCALE
 40
2.0
  9
$DISPSILH
 70
     0
  9
$DIMSCALE
 40
1.0
  9
$DIMASZ
 40
1.0
  9
$DIMEXO
 40
1.0
  9
$DIMDLI
 40
6.0
  9
$DIMRND
 40
0.0
  9
$DIMDLE
 40
0.0
  9
$DIMEXE
 40
1.0
  9
$DIMTP
 40
0.0
  9
$DIMTM
 40
0.0
  9
$DIMTXT
 40
2.5
  9
$DIMCEN
 40
0.0
  9
$DIMTSZ
 40
0.0
  9
$DIMTOL
 70
     0
  9
$DIMLIM
 70
     0
  9
$DIMTIH
 70
     0
  9
$DIMTOH
 70
     0
  9
$DIMSE1
 70
     0
  9
$DIMSE2
 70
     0
  9
$DIMTAD
 70
     1
  9
$DIMZIN
 70
     8
  9
$DIMBLK
  1

  9
$DIMASO
 70
     1
  9
$DIMSHO
 70
     1
  9
$DIMPOST
  1

  9
$DIMAPOST
  1

  9
$DIMALT
 70
     0
  9
$DIMALTD
 70
     2
  9
$DIMALTF
 40
25.4
  9
$DIMLFAC
 40
1.0
  9
$DIMTOFL
 70
     1
  9
$DIMTVP
 40
0.0
  9
$DIMTIX
 70
     0
  9
$DIMSOXD
 70
     0
  9
$DIMSAH
 70
     1
  9
$DIMBLK1
  1
Y2
  9
$DIMBLK2
  1
Y2
  9
$DIMSTYLE
  2
STANDARD
  9
$DIMCLRD
 70
     0
  9
$DIMCLRE
 70
     0
  9
$DIMCLRT
 70
     0
  9
$DIMTFAC
 40
1.0
  9
$DIMGAP
 40
0.5
  9
$DIMJUST
 70
     0
  9
$DIMSD1
 70
     0
  9
$DIMSD2
 70
     0
  9
$DIMTOLJ
 70
     1
  9
$DIMTZIN
 70
     8
  9
$DIMALTZ
 70
     8
  9
$DIMALTTZ
 70
     8
  9
$DIMUPT
 70
     0
  9
$DIMDEC
 70
     4
  9
$DIMTDEC
 70
     4
  9
$DIMALTU
 70
     2
  9
$DIMALTTD
 70
     2
  9
$DIMTXSTY
  7
KANJI
  9
$DIMAUNIT
 70
     0
  9
$DIMADEC
 70
     0
  9
$DIMALTRND
 40
0.0
  9
$DIMAZIN
 70
     0
  9
$DIMDSEP
 70
    46
  9
$DIMATFIT
 70
     3
  9
$DIMFRAC
 70
     0
  9
$DIMLDRBLK
  1
Y2
  9
$DIMLUNIT
 70
     2
  9
$DIMLWD
 70
    -2
  9
$DIMLWE
 70
    -2
  9
$DIMTMOVE
 70
     0
  9
$DIMFXL
 40
1.0
  9
$DIMFXLON
 70
     0
  9
$DIMJOGANG
 40
0.7853981633974483
  9
$DIMTFILL
 70
     0
  9
$DIMTFILLCLR
 70
     0
  9
$DIMARCSYM
 70
     0
  9
$DIMLTYPE
  6

  9
$DIMLTEX1
  6

  9
$DIMLTEX2
  6

  9
$DIMTXTDIRECTION
 70
     0
  9
$LUNITS
 70
     2
  9
$LUPREC
 70
     4
  9
$SKETCHINC
 40
0.1
  9
$FILLETRAD
 40
0.0
  9
$AUNITS
 70
     0
  9
$AUPREC
 70
     0
  9
$MENU
  1
tcad-s
  9
$ELEVATION
 40
0.0
  9
$PELEVATION
 40
0.0
  9
$THICKNESS
 40
0.0
  9
$LIMCHECK
 70
     0
  9
$CHAMFERA
 40
0.0
  9
$CHAMFERB
 40
0.0
  9
$CHAMFERC
 40
0.0
  9
$CHAMFERD
 40
0.0
  9
$SKPOLY
 70
     0
  9
$TDCREATE
 40
2451522.584085648
  9
$TDUCREATE
 40
2451522.209091400
  9
$TDUPDATE
 40
2460301.687835648
  9
$TDUUPDATE
 40
2460301.312835648
  9
$TDINDWG
 40
0.5774828241
  9
$TDUSRTIMER
 40
0.5774828241
  9
$USRTIMER
 70
     1
  9
$ANGBASE
 50
0.0
  9
$ANGDIR
 70
     0
  9
$PDMODE
 70
     0
  9
$PDSIZE
 40
2.399999999999999
  9
$PLINEWID
 40
0.0
  9
$SPLFRAME
 70
     0
  9
$SPLINETYPE
 70
     6
  9
$SPLINESEGS
 70
     8
  9
$HANDSEED
  5
989F
  9
$SURFTAB1
 70
     6
  9
$SURFTAB2
 70
     6
  9
$SURFTYPE
 70
     6
  9
$SURFU
 70
     6
  9
$SURFV
 70
     6
  9
$UCSBASE
  2

  9
$UCSNAME
  2

  9
$UCSORG
 10
0.0
 20
0.0
 30
0.0
  9
$UCSXDIR
 10
1.0
 20
0.0
 30
0.0
  9
$UCSYDIR
 10
0.0
 20
1.0
 30
0.0
  9
$UCSORTHOREF
  2

  9
$UCSORTHOVIEW
 70
     0
  9
$UCSORGTOP
 10
0.0
 20
0.0
 30
0.0
  9
$UCSORGBOTTOM
 10
0.0
 20
0.0
 30
0.0
  9
$UCSORGLEFT
 10
0.0
 20
0.0
 30
0.0
  9
$UCSORGRIGHT
 10
0.0
 20
0.0
 30
0.0
  9
$UCSORGFRONT
 10
0.0
 20
0.0
 30
0.0
  9
$UCSORGBACK
 10
0.0
 20
0.0
 30
0.0
  9
$PUCSBASE
  2

  9
$PUCSNAME
  2

  9
$PUCSORG
 10
0.0
 20
0.0
 30
0.0
  9
$PUCSXDIR
 10
1.0
 20
0.0
 30
0.0
  9
$PUCSYDIR
 10
0.0
 20
1.0
 30
0.0
  9
$PUCSORTHOREF
  2

  9
$PUCSORTHOVIEW
 70
     0
  9
$PUCSORGTOP
 10
0.0
 20
0.0
 30
0.0
  9
$PUCSORGBOTTOM
 10
0.0
 20
0.0
 30
0.0
  9
$PUCSORGLEFT
 10
0.0
 20
0.0
 30
0.0
  9
$PUCSORGRIGHT
 10
0.0
 20
0.0
 30
0.0
  9
$PUCSORGFRONT
 10
0.0
 20
0.0
 30
0.0
  9
$PUCSORGBACK
 10
0.0
 20
0.0
 30
0.0
  9
$USERI1
 70
     0
  9
$USERI2
 70
     0
  9
$USERI3
 70
     0
  9
$USERI4
 70
     0
  9
$USERI5
 70
     0
  9
$USERR1
 40
0.0
  9
$USERR2
 40
0.0
  9
$USERR3
 40
0.0
  9
$USERR4
 40
0.0
  9
$USERR5
 40
0.0
  9
$WORLDVIEW
 70
     1
  9
$SHADEDGE
 70
     3
  9
$SHADEDIF
 70
    70
  9
$TILEMODE
 70
     1
  9
$MAXACTVP
 70
    16
  9
$PINSBASE
 10
0.0
 20
0.0
 30
0.0
  9
$PLIMCHECK
 70
     0
  9
$PEXTMIN
 10
1.000000000000000E+20
 20
1.000000000000000E+20
 30
1.000000000000000E+20
  9
$PEXTMAX
 10
-1.000000000000000E+20
 20
-1.000000000000000E+20
 30
-1.000000000000000E+20
  9
$PLIMMIN
 10
0.0
 20
0.0
  9
$PLIMMAX
 10
12.0
 20
9.0
  9
$UNITMODE
 70
     0
  9
$VISRETAIN
 70
     0
  9
$PLINEGEN
 70
     0
  9
$PSLTSCALE
 70
     0
  9
$TREEDEPTH
 70
  3020
  9
$CMLSTYLE
  2
STANDARD
  9
$CMLJUST
 70
     0
  9
$CMLSCALE
 40
1.0
  9
$PROXYGRAPHICS
 70
     1
  9
$MEASUREMENT
 70
     1
  9
$CELWEIGHT
370
    -1
  9
$ENDCAPS
280
     0
  9
$JOINSTYLE
280
     0
  9
$LWDISPLAY
290
     0
  9
$INSUNITS
 70
     0
  9
$HYPERLINKBASE
  1

  9
$STYLESHEET
  1
INABA-CAD-Canon.ctb
  9
$XEDIT
290
     1
  9
$CEPSNTYPE
380
     0
  9
$PSTYLEMODE
290
     1
  9
$FINGERPRINTGUID
  2
{C6D00B79-D2C3-44A6-A29E-CB56337F03DA}
  9
$VERSIONGUID
  2
{2681DB59-72A2-B241-A095-0602DD46A9B1}
  9
$EXTNAMES
290
     1
  9
$PSVPSCALE
 40
0.0
  9
$OLESTARTUP
290
     0
  9
$SORTENTS
280
   127
  9
$INDEXCTL
280
     0
  9
$HIDETEXT
280
     0
  9
$XCLIPFRAME
280
     2
  9
$HALOGAP
280
     0
  9
$OBSCOLOR
 70
   257
  9
$OBSLTYPE
280
     0
  9
$INTERSECTIONDISPLAY
280
     0
  9
$INTERSECTIONCOLOR
 70
   257
  9
$DIMASSOC
280
     1
  9
$PROJECTNAME
  1

  9
$CAMERADISPLAY
290
     0
  9
$LENSLENGTH
 40
50.0
  9
$CAMERAHEIGHT
 40
0.0
  9
$STEPSPERSEC
 40
2.0
  9
$STEPSIZE
 40
6.0
  9
$3DDWFPREC
 40
2.0
  9
$PSOLWIDTH
 40
0.25
  9
$PSOLHEIGHT
 40
4.0
  9
$LOFTANG1
 40
1.570796326794896
  9
$LOFTANG2
 40
1.570796326794896
  9
$LOFTMAG1
 40
0.0
  9
$LOFTMAG2
 40
0.0
  9
$LOFTPARAM
 70
     7
  9
$LOFTNORMALS
280
     1
  9
$LATITUDE
 40
37.795
  9
$LONGITUDE
 40
-122.394
  9
$NORTHDIRECTION
 40
0.0
  9
$TIMEZONE
 70
 -8000
  9
$LIGHTGLYPHDISPLAY
280
     1
  9
$TILEMODELIGHTSYNCH
280
     1
  9
$CMATERIAL
347
6638
  9
$SOLIDHIST
280
     0
  9
$SHOWHIST
280
     1
  9
$DWFFRAME
280
     2
  9
$DGNFRAME
280
     0
  9
$REALWORLDSCALE
290
     1
  9
$INTERFERECOLOR
 62
     1
  9
$INTERFEREOBJVS
345
6645
  9
$INTERFEREVPVS
346
90FF
  9
$CSHADOW
280
     0
  9
$SHADOWPLANELOCATION
 40
0.0
  0
ENDSEC
  0
SECTION
  2
CLASSES
  0
CLASS
  1
DICTIONARYVAR
  2
AcDbDictionaryVar
  3
ObjectDBX Classes
 90
        0
 91
       23
280
     0
281
     0
  0
CLASS
  1
ACDBDICTIONARYWDFLT
  2
AcDbDictionaryWithDefault
  3
ObjectDBX Classes
 90
        0
 91
        1
280
     0
281
     0
  0
CLASS
  1
TABLESTYLE
  2
AcDbTableStyle
  3
ObjectDBX Classes
 90
     4095
 91
        1
280
     0
281
     0
  0
CLASS
  1
MATERIAL
  2
AcDbMaterial
  3
ObjectDBX Classes
 90
     1153
 91
        3
280
     0
281
     0
  0
CLASS
  1
VISUALSTYLE
  2
AcDbVisualStyle
  3
ObjectDBX Classes
 90
     4095
 91
       26
280
     0
281
     0
  0
CLASS
  1
SORTENTSTABLE
  2
AcDbSortentsTable
  3
ObjectDBX Classes
 90
        0
 91
        1
280
     0
281
     0
  0
CLASS
  1
DIMASSOC
  2
AcDbDimAssoc
  3
"AcDbDimAssoc|Product Desc:     AcDim ARX App For Dimension|Company:          Autodesk, Inc.|WEB Address:      www.autodesk.com"
 90
        0
 91
        0
280
     0
281
     0
  0
CLASS
  1
SCALE
  2
AcDbScale
  3
ObjectDBX Classes
 90
     1153
 91
       17
280
     0
281
     0
  0
CLASS
  1
MLEADERSTYLE
  2
AcDbMLeaderStyle
  3
ACDB_MLEADERSTYLE_CLASS
 90
     4095
 91
        1
280
     0
281
     0
  0
CLASS
  1
CELLSTYLEMAP
  2
AcDbCellStyleMap
  3
ObjectDBX Classes
 90
     1152
 91
        2
280
     0
281
     0
  0
CLASS
  1
ACDBSECTIONVIEWSTYLE
  2
AcDbSectionViewStyle
  3
ObjectDBX Classes
 90
     1025
 91
        1
280
     0
281
     0
  0
CLASS
  1
ACDBDETAILVIEWSTYLE
  2
AcDbDetailViewStyle
  3
ObjectDBX Classes
 90
     1025
 91
        1
280
     0
281
     0
  0
CLASS
  1
RAPIDRTRENDERSETTINGS
  2
AcDbRapidRTRenderSettings
  3
ObjectDBX Classes
 90
     1024
 91
        7
280
     0
281
     0
  0
ENDSEC
  0
SECTION
  2
TABLES
  0
TABLE
  2
VPORT
  5
8
102
{ACAD_XDICTIONARY
360
6B33
102
}
330
0
100
AcDbSymbolTable
 70
     1
  0
VPORT
  5
90F7
330
8
100
AcDbSymbolTableRecord
100
AcDbViewportTableRecord
  2
*Active
 70
     0
 10
0.0
 20
0.0
 11
1.0
 21
1.0
 12
1737.610123808251
 22
-863.6154343284703
 13
0.0
 23
0.0
 14
1.0
 24
1.0
 15
0.0
 25
0.0
 16
0.0
 26
0.0
 36
1.0
 17
0.0
 27
0.0
 37
0.0
 40
186.0088765482739
 41
2.383141762452107
 42
50.0
 43
0.0
 44
0.0
 50
0.0
 51
0.0
 71
     0
 72
  1000
 73
     1
 74
     1
 75
     0
 76
     0
 77
     0
 78
     1
281
     0
 65
     1
110
0.0
120
0.0
130
0.0
111
1.0
121
0.0
131
0.0
112
0.0
122
1.0
132
0.0
 79
     0
146
0.0
348
6641
 60
     3
 61
     5
292
     1
282
     1
141
0.0
142
0.0
 63
   250
421
  3355443
1001
ACAD_NAV_VCDISPLAY
1070
     3
  0
ENDTAB
  0
TABLE
  2
LTYPE
  5
5
330
0
100
AcDbSymbolTable
 70
     5
  0
LTYPE
  5
11
330
5
100
AcDbSymbolTableRecord
100
AcDbLinetypeTableRecord
  2
BYBLOCK
 70
     0
  3

 72
    65
 73
     0
 40
0.0
  0
LTYPE
  5
12
330
5
100
AcDbSymbolTableRecord
100
AcDbLinetypeTableRecord
  2
BYLAYER
 70
     0
  3

 72
    65
 73
     0
 40
0.0
  0
LTYPE
  5
13
330
5
100
AcDbSymbolTableRecord
100
AcDbLinetypeTableRecord
  2
CONTINUOUS
 70
     0
  3
Solid line
 72
    65
 73
     0
 40
0.0
  0
LTYPE
  5
3C
330
5
100
AcDbSymbolTableRecord
100
AcDbLinetypeTableRecord
  2
CENTER
 70
     0
  3
____ _ ____ _ ____ _ ____ _ ____ _ ____ _ ____ 
 72
    65
 73
     4
 40
2.0
 49
1.25
 74
     0
 49
-0.25
 74
     0
 49
0.25
 74
     0
 49
-0.25
 74
     0
  0
LTYPE
  5
7360
330
5
100
AcDbSymbolTableRecord
100
AcDbLinetypeTableRecord
  2
HIDDEN
 70
     0
  3
Hidden __ __ __ __ __ __ __ __ __ __ __ __ __ __
 72
    65
 73
     2
 40
9.524999999999996
 49
6.349999999999997
 74
     0
 49
-3.174999999999998
 74
     0
  0
ENDTAB
  0
TABLE
  2
LAYER
  5
2
102
{ACAD_XDICTIONARY
360
66E8
102
}
330
0
100
AcDbSymbolTable
 70
     9
  0
LAYER
  5
E
102
{ACAD_XDICTIONARY
360
987C
102
}
330
2
100
AcDbSymbolTableRecord
100
AcDbLayerTableRecord
  2
0
 70
     0
 62
     7
  6
CONTINUOUS
370
    -3
390
47FF
347
663A
348
0
  0
LAYER
  5
43
102
{ACAD_XDICTIONARY
360
987E
102
}
330
2
100
AcDbSymbolTableRecord
100
AcDbLayerTableRecord
  2
C4
 70
     0
 62
     3
  6
CONTINUOUS
370
    -3
390
47FF
347
663A
348
0
  0
LAYER
  5
44
102
{ACAD_XDICTIONARY
360
9880
102
}
330
2
100
AcDbSymbolTableRecord
100
AcDbLayerTableRecord
  2
C5
 70
     0
 62
     4
  6
CONTINUOUS
370
    -3
390
47FF
347
663A
348
0
  0
LAYER
  5
45
102
{ACAD_XDICTIONARY
360
9882
102
}
330
2
100
AcDbSymbolTableRecord
100
AcDbLayerTableRecord
  2
C6
 70
     0
 62
     2
  6
CONTINUOUS
370
    -3
390
47FF
347
663A
348
0
  0
LAYER
  5
4C
102
{ACAD_XDICTIONARY
360
9884
102
}
330
2
100
AcDbSymbolTableRecord
100
AcDbLayerTableRecord
  2
WAKU
 70
     0
 62
     5
  6
CONTINUOUS
370
    -3
390
47FF
347
663A
348
0
  0
LAYER
  5
E1F
330
2
100
AcDbSymbolTableRecord
100
AcDbLayerTableRecord
  2
DEFPOINTS
 70
     0
 62
     7
  6
CONTINUOUS
290
     0
370
    -3
390
47FF
347
663A
348
0
  0
LAYER
  5
28F8
102
{ACAD_XDICTIONARY
360
9886
102
}
330
2
100
AcDbSymbolTableRecord
100
AcDbLayerTableRecord
  2
CENTER
 70
     0
 62
     1
  6
CENTER
370
    -3
390
47FF
347
663A
348
0
  0
LAYER
  5
7361
102
{ACAD_XDICTIONARY
360
7362
102
}
330
2
100
AcDbSymbolTableRecord
100
AcDbLayerTableRecord
  2
隠れ線
 70
     0
 62
     4
  6
HIDDEN
370
    -3
390
47FF
347
663A
348
0
1001
AcAecLayerStandard
1000

1000

  0
LAYER
  5
7364
102
{ACAD_XDICTIONARY
360
7365
102
}
330
2
100
AcDbSymbolTableRecord
100
AcDbLayerTableRecord
  2
1外形線
 70
     0
 62
     3
  6
CONTINUOUS
370
    -3
390
47FF
347
663A
348
0
  0
ENDTAB
  0
TABLE
  2
STYLE
  5
3
330
0
100
AcDbSymbolTable
 70
     3
  0
STYLE
  5
F
330
3
100
AcDbSymbolTableRecord
100
AcDbTextStyleTableRecord
  2
STANDARD
 70
     0
 40
0.0
 41
1.0
 50
0.0
 71
     0
 42
0.2
  3
txt
  4

  0
STYLE
  5
3B
330
3
100
AcDbSymbolTableRecord
100
AcDbTextStyleTableRecord
  2
KANJI
 70
     0
 40
0.0
 41
1.0
 50
0.0
 71
     0
 42
10.0
  3
simplex
  4
bigfont
  0
STYLE
  5
3D68
330
3
100
AcDbSymbolTableRecord
100
AcDbTextStyleTableRecord
  2
ｺﾞｼｯｸ
 70
     0
 40
0.0
 41
1.0
 50
0.0
 71
     0
 42
2.5
  3

  4

1001
ACAD
1000
MS PGothic
1071
    32818
  0
ENDTAB
  0
TABLE
  2
VIEW
  5
6
330
0
100
AcDbSymbolTable
 70
     1
  0
ENDTAB
  0
TABLE
  2
UCS
  5
7
330
0
100
AcDbSymbolTable
 70
     0
  0
ENDTAB
  0
TABLE
  2
APPID
  5
9
330
0
100
AcDbSymbolTable
 70
    13
  0
APPID
  5
10
330
9
100
AcDbSymbolTableRecord
100
AcDbRegAppTableRecord
  2
ACAD
 70
     0
  0
APPID
  5
66E7
330
9
100
AcDbSymbolTableRecord
100
AcDbRegAppTableRecord
  2
ACAD_PSEXT
 70
     0
  0
APPID
  5
7372
330
9
100
AcDbSymbolTableRecord
100
AcDbRegAppTableRecord
  2
AcAecLayerStandard
 70
     0
  0
APPID
  5
7373
330
9
100
AcDbSymbolTableRecord
100
AcDbRegAppTableRecord
  2
ACAD_DSTYLE_DIMRADIAL_EXTENSION
 70
     0
  0
APPID
  5
7374
330
9
100
AcDbSymbolTableRecord
100
AcDbRegAppTableRecord
  2
ACAD_DSTYLE_DIMJAG
 70
     0
  0
APPID
  5
7375
330
9
100
AcDbSymbolTableRecord
100
AcDbRegAppTableRecord
  2
ACAD_DSTYLE_DIMBREAK
 70
     0
  0
APPID
  5
7376
330
9
100
AcDbSymbolTableRecord
100
AcDbRegAppTableRecord
  2
ACAD_DSTYLE_DIMTALN
 70
     0
  0
APPID
  5
7377
330
9
100
AcDbSymbolTableRecord
100
AcDbRegAppTableRecord
  2
ACAD_DSTYLE_DIM_LINETYPE
 70
     0
  0
APPID
  5
7378
330
9
100
AcDbSymbolTableRecord
100
AcDbRegAppTableRecord
  2
ACAD_DSTYLE_DIM_EXT1_LINETYPE
 70
     0
  0
APPID
  5
7379
330
9
100
AcDbSymbolTableRecord
100
AcDbRegAppTableRecord
  2
ACAD_DSTYLE_DIM_EXT2_LINETYPE
 70
     0
  0
APPID
  5
9122
330
9
100
AcDbSymbolTableRecord
100
AcDbRegAppTableRecord
  2
ACAD_EXEMPT_FROM_CAD_STANDARDS
 70
     0
  0
APPID
  5
9679
330
9
100
AcDbSymbolTableRecord
100
AcDbRegAppTableRecord
  2
ACAD_MLEADERVER
 70
     0
  0
APPID
  5
988F
330
9
100
AcDbSymbolTableRecord
100
AcDbRegAppTableRecord
  2
ACAD_NAV_VCDISPLAY
 70
     0
  0
ENDTAB
  0
TABLE
  2
DIMSTYLE
  5
A
330
0
100
AcDbSymbolTable
 70
     3
100
AcDbDimStyleTable
 71
     1
340
E11
  0
DIMSTYLE
105
E11
330
A
100
AcDbSymbolTableRecord
100
AcDbDimStyleTableRecord
  2
STANDARD
 70
     0
 41
1.0
 42
1.0
 43
6.0
 44
1.0
 73
     0
 74
     0
 77
     1
 78
     8
140
2.5
141
0.0
147
0.5
172
     1
173
     1
284
     8
285
     8
286
     8
340
3B
341
39F6
343
39F6
344
39F6
  0
DIMSTYLE
105
3BD6
330
A
100
AcDbSymbolTableRecord
100
AcDbDimStyleTableRecord
  2
STANDARD1
 70
     0
 41
1.0
 42
1.0
 43
6.0
 44
1.0
 73
     0
 74
     0
 77
     1
 78
     8
140
2.5
141
0.0
147
0.5
172
     1
173
     1
284
     8
285
     8
286
     8
340
3B
341
FB2
343
FB2
344
FB2
  0
ENDTAB
  0
TABLE
  2
BLOCK_RECORD
  5
1
330
0
100
AcDbSymbolTable
 70
    20
  0
BLOCK_RECORD
  5
17
102
{ACAD_XDICTIONARY
360
58D0
102
}
330
1
100
AcDbSymbolTableRecord
100
AcDbBlockTableRecord
  2
*MODEL_SPACE
340
4802
 70
     0
280
     1
281
     0
  0
BLOCK_RECORD
  5
14
102
{ACAD_XDICTIONARY
360
58CE
102
}
330
1
100
AcDbSymbolTableRecord
100
AcDbBlockTableRecord
  2
*PAPER_SPACE
340
4803
 70
     0
280
     1
281
     0
  0
BLOCK_RECORD
  5
FB2
330
1
100
AcDbSymbolTableRecord
100
AcDbBlockTableRecord
  2
Y1
340
0
102
{BLKREFS
331
9864
331
9865
331
95BF
331
95C0
331
903E
331
903F
102
}
 70
     0
280
     1
281
     0
  0
BLOCK_RECORD
  5
39F6
330
1
100
AcDbSymbolTableRecord
100
AcDbBlockTableRecord
  2
Y2
340
0
102
{BLKREFS
331
9849
331
984A
331
9852
331
9853
331
985B
331
985C
331
986D
331
986E
331
95B6
331
95B7
331
95C8
331
95C9
331
95D1
331
95D2
331
95DA
331
95DB
331
9063
331
9064
331
90CB
331
90CC
331
8FF5
331
8FF6
331
8FFE
331
8FFF
102
}
 70
     0
280
     1
281
     0
  0
BLOCK_RECORD
  5
3C55
330
1
100
AcDbSymbolTableRecord
100
AcDbBlockTableRecord
  2
A$C23AC5EC5
340
0
 70
     0
280
     1
281
     0
  0
BLOCK_RECORD
  5
3C61
330
1
100
AcDbSymbolTableRecord
100
AcDbBlockTableRecord
  2
A$C128E6753
340
0
 70
     0
280
     1
281
     0
  0
BLOCK_RECORD
  5
8BEA
330
1
100
AcDbSymbolTableRecord
100
AcDbBlockTableRecord
  2
*D4
340
0
 70
     0
280
     1
281
     0
  0
BLOCK_RECORD
  5
8EF1
330
1
100
AcDbSymbolTableRecord
100
AcDbBlockTableRecord
  2
*D5
340
0
 70
     0
280
     1
281
     0
  0
BLOCK_RECORD
  5
8FC8
330
1
100
AcDbSymbolTableRecord
100
AcDbBlockTableRecord
  2
*D6
340
0
 70
     0
280
     1
281
     0
  0
BLOCK_RECORD
  5
8FD4
330
1
100
AcDbSymbolTableRecord
100
AcDbBlockTableRecord
  2
*D7
340
0
 70
     0
280
     1
281
     0
  0
BLOCK_RECORD
  5
90B3
330
1
100
AcDbSymbolTableRecord
100
AcDbBlockTableRecord
  2
*D8
340
0
 70
     0
280
     1
281
     0
  0
BLOCK_RECORD
  5
9577
330
1
100
AcDbSymbolTableRecord
100
AcDbBlockTableRecord
  2
*D9
340
0
 70
     0
280
     1
281
     0
  0
BLOCK_RECORD
  5
9583
330
1
100
AcDbSymbolTableRecord
100
AcDbBlockTableRecord
  2
*D10
340
0
 70
     0
280
     1
281
     0
  0
BLOCK_RECORD
  5
958F
330
1
100
AcDbSymbolTableRecord
100
AcDbBlockTableRecord
  2
*D11
340
0
 70
     0
280
     1
281
     0
  0
BLOCK_RECORD
  5
959B
330
1
100
AcDbSymbolTableRecord
100
AcDbBlockTableRecord
  2
*D12
340
0
 70
     0
280
     1
281
     0
  0
BLOCK_RECORD
  5
95A7
330
1
100
AcDbSymbolTableRecord
100
AcDbBlockTableRecord
  2
*D13
340
0
 70
     0
280
     1
281
     0
  0
BLOCK_RECORD
  5
980A
330
1
100
AcDbSymbolTableRecord
100
AcDbBlockTableRecord
  2
*D14
340
0
 70
     0
280
     1
281
     0
  0
BLOCK_RECORD
  5
9816
330
1
100
AcDbSymbolTableRecord
100
AcDbBlockTableRecord
  2
*D15
340
0
 70
     0
280
     1
281
     0
  0
BLOCK_RECORD
  5
9822
330
1
100
AcDbSymbolTableRecord
100
AcDbBlockTableRecord
  2
*D16
340
0
 70
     0
280
     1
281
     0
  0
BLOCK_RECORD
  5
982E
330
1
100
AcDbSymbolTableRecord
100
AcDbBlockTableRecord
  2
*D17
340
0
 70
     0
280
     1
281
     0
  0
BLOCK_RECORD
  5
983A
330
1
100
AcDbSymbolTableRecord
100
AcDbBlockTableRecord
  2
*D18
340
0
 70
     0
280
     1
281
     0
  0
ENDTAB
  0
ENDSEC
  0
SECTION
  2
BLOCKS
  0
BLOCK
  5
4F
330
17
100
AcDbEntity
  8
0
100
AcDbBlockBegin
  2
*MODEL_SPACE
 70
     0
 10
0.0
 20
0.0
 30
0.0
  3
*MODEL_SPACE
  1

  0
ENDBLK
  5
50
330
17
100
AcDbEntity
  8
0
100
AcDbBlockEnd
  0
BLOCK
  5
4D
330
14
100
AcDbEntity
 67
     1
  8
0
100
AcDbBlockBegin
  2
*PAPER_SPACE
 70
     0
 10
0.0
 20
0.0
 30
0.0
  3
*PAPER_SPACE
  1

  0
ENDBLK
  5
4E
330
14
100
AcDbEntity
 67
     1
  8
0
100
AcDbBlockEnd
  0
BLOCK
  5
1487
330
FB2
100
AcDbEntity
  8
0
 48
2.0
100
AcDbBlockBegin
  2
Y1
 70
     0
 10
0.0
 20
0.0
 30
0.0
  3
Y1
  1

  0
LINE
  5
1488
330
FB2
100
AcDbEntity
  8
0
  6
ByBlock
 62
     0
 48
2.0
100
AcDbLine
 10
-4.000000000000056
 20
-0.0000000000000142
 30
0.0
 11
-0.0000000000000568
 21
0.0
 31
0.0
  0
SOLID
  5
1489
330
FB2
100
AcDbEntity
  8
0
  6
ByBlock
 62
     0
100
AcDbTrace
 10
-1.811110924292108
 20
0.485285709567151
 30
0.0
 11
-1.811110924292108
 21
-0.4852857095673784
 31
0.0
 12
-0.0000000000000568
 22
-0.0000000000000142
 32
0.0
 13
-0.0000000000000568
 23
-0.0000000000000142
 33
0.0
  0
ENDBLK
  5
148A
330
FB2
100
AcDbEntity
  8
0
 48
2.0
100
AcDbBlockEnd
  0
BLOCK
  5
39F7
330
39F6
100
AcDbEntity
  8
0
 48
2.0
100
AcDbBlockBegin
  2
Y2
 70
     0
 10
0.0
 20
0.0
 30
0.0
  3
Y2
  1

  0
SOLID
  5
39F8
330
39F6
100
AcDbEntity
  8
0
  6
ByBlock
 62
     0
100
AcDbTrace
 10
-1.811110924292108
 20
0.485285709567151
 30
0.0
 11
-1.811110924292108
 21
-0.4852857095673784
 31
0.0
 12
-0.0000000000000568
 22
-0.0000000000000142
 32
0.0
 13
-0.0000000000000568
 23
-0.0000000000000142
 33
0.0
  0
ENDBLK
  5
39F9
330
39F6
100
AcDbEntity
  8
0
 48
2.0
100
AcDbBlockEnd
  0
BLOCK
  5
3C5F
330
3C55
100
AcDbEntity
  8
0
 48
2.0
100
AcDbBlockBegin
  2
A$C23AC5EC5
 70
     0
 10
0.0
 20
0.0
 30
0.0
  3
A$C23AC5EC5
  1

  0
LINE
  5
3C56
330
3C55
100
AcDbEntity
  8
WAKU
  6
CENTER
 62
     2
100
AcDbLine
 10
3.99999933591232
 20
1.99999997127486
 30
0.0
 11
-0.0000006640876791
 21
1.99999997127486
 31
0.0
  0
LINE
  5
3C57
330
3C55
100
AcDbEntity
  8
WAKU
  6
CENTER
 62
     2
100
AcDbLine
 10
1.99999933591232
 20
3.99999997127486
 30
0.0
 11
1.99999933591232
 21
-0.0000000287251396
 31
0.0
  0
CIRCLE
  5
3C58
330
3C55
100
AcDbEntity
  8
WAKU
 62
     2
 48
2.0
100
AcDbCircle
 10
1.99999933591232
 20
1.99999997127486
 30
0.0
 40
1.5
  0
LINE
  5
3C59
330
3C55
100
AcDbEntity
  8
WAKU
  6
CENTER
 62
     2
100
AcDbLine
 10
10.75363507944882
 20
1.99999997127486
 30
0.0
 11
4.753635079448827
 21
1.99999997127486
 31
0.0
  0
LINE
  5
3C5A
330
3C55
100
AcDbEntity
  8
WAKU
 62
     2
 48
2.0
100
AcDbLine
 10
5.234421709965204
 20
2.99999997127486
 30
0.0
 11
5.234421709965147
 21
0.9999999712748603
 31
0.0
  0
LINE
  5
3C5B
330
3C55
100
AcDbEntity
  8
WAKU
 62
     2
 48
2.0
100
AcDbLine
 10
10.2344217099652
 20
3.49999997127486
 30
0.0
 11
10.23442170996514
 21
0.4999999712748604
 31
0.0
  0
LINE
  5
3C5C
330
3C55
100
AcDbEntity
  8
WAKU
 62
     2
 48
2.0
100
AcDbLine
 10
10.2344217099652
 20
3.49999997127486
 30
0.0
 11
5.234421709965204
 21
2.99999997127486
 31
0.0
  0
CIRCLE
  5
3C5D
330
3C55
100
AcDbEntity
  8
WAKU
 62
     2
 48
2.0
100
AcDbCircle
 10
1.99999933591232
 20
1.99999997127486
 30
0.0
 40
1.0
  0
LINE
  5
3C5E
330
3C55
100
AcDbEntity
  8
WAKU
 62
     2
 48
2.0
100
AcDbLine
 10
10.23442170996514
 20
0.4999999712748604
 30
0.0
 11
5.234421709965147
 21
0.9999999712748603
 31
0.0
  0
ENDBLK
  5
3C60
330
3C55
100
AcDbEntity
  8
0
 48
2.0
100
AcDbBlockEnd
  0
BLOCK
  5
3D5D
330
3C61
100
AcDbEntity
  8
0
 48
2.0
100
AcDbBlockBegin
  2
A$C128E6753
 70
     0
 10
0.0
 20
0.0
 30
0.0
  3
A$C128E6753
  1

  0
HATCH
  5
3C62
330
3C61
100
AcDbEntity
  8
WAKU
 48
2.0
100
AcDbHatch
 10
0.0
 20
0.0
 30
0.0
210
0.0
220
0.0
230
1.0
  2
SOLID
 70
     1
 71
     0
 91
        2
 92
        7
 72
     0
 73
     1
 93
       59
 10
16.16390526232573
 20
1.387863879078281
 10
17.7832881719508
 20
1.387863879078395
 10
17.7832881719508
 20
1.613099020403296
 10
16.16390526232595
 20
1.613099020403183
 10
16.16390526232595
 20
1.934939643537745
 10
17.85742023442236
 20
1.934939643537973
 10
17.85742023442236
 20
2.127709306108954
 10
16.80860395802762
 20
2.127709306108954
 10
17.13886008365836
 20
2.491766570122763
 10
17.83380809897738
 20
2.491766570122535
 10
17.8338080989775
 20
2.756618405090648
 10
17.31738914699673
 20
2.756618405090648
 10
17.61935945639601
 20
3.08949484892139
 10
17.04821889760905
 20
3.08949484892139
 10
16.76346898034075
 20
2.756618405090648
 10
16.61224696764071
 20
2.756618405090648
 10
16.61224696764071
 20
3.08949484892139
 10
16.10342918350494
 20
3.08949484892139
 10
16.10342918350494
 20
2.756618405090534
 10
15.62118631497145
 20
2.756618405090648
 10
15.62118631497156
 20
3.08949484892139
 10
15.12569263535403
 20
3.08949484892139
 10
15.12569263535403
 20
2.756618405090648
 10
14.94520663102452
 20
2.756618405090648
 10
14.66089077375449
 20
3.08949484892139
 10
14.11405486042878
 20
3.08949484892139
 10
14.11405486042889
 20
3.047303731442298
 10
14.36917906164848
 20
2.756618405090648
 10
13.96856664537011
 20
2.756618405090648
 10
13.96856664537
 20
2.491766570122649
 10
14.59134157954548
 20
2.491766570122649
 10
14.9108617281725
 20
2.127709306108954
 10
13.90531767650083
 20
2.127709306108954
 10
13.90531767650094
 20
1.934939643537973
 10
15.56585572983971
 20
1.934939643537859
 10
15.56585572983982
 20
1.613099020403296
 10
13.99184696523906
 20
1.61309902040341
 10
13.99184696523895
 20
1.387863879078281
 10
15.56585572983982
 20
1.387863879078281
 10
15.56585572983982
 20
1.115430757834474
 10
13.93407347331441
 20
1.115430757834474
 10
13.93407347331441
 20
0.8557199604838388
 10
14.57190257773783
 20
0.8557199604838388
 10
13.98881233800847
 20
0.2428001209661943
 10
13.98881233800858
 20
0.1010431900605226
 10
14.64220576000099
 20
0.101043190060409
 10
15.36445852267462
 20
0.8557199604839524
 10
15.56585572983971
 20
0.8557199604838388
 10
15.56585572983982
 20
0.1046689638886846
 10
16.16390526232595
 20
0.1046689638886846
 10
16.16390526232595
 20
0.8557199604838388
 10
16.37843116176958
 20
0.8557199604839524
 10
17.14385781395884
 20
0.1010431900605226
 10
17.77392451259737
 20
0.101043190060409
 10
17.77392451259749
 20
0.1851751212828958
 10
17.12786640961775
 20
0.8557199604838388
 10
17.84350357390684
 20
0.8557199604838388
 10
17.84350357390696
 20
1.115430757834474
 10
16.16390526232595
 20
1.115430757834474
 97
        0
 92
       23
 72
     0
 73
     1
 93
        4
 10
15.49780195160309
 20
2.12770930610884
 10
16.23063073689564
 20
2.127709306109068
 10
16.5420534215886
 20
2.491766570122535
 10
15.18685398567839
 20
2.491766570122763
 97
        0
 75
     0
 76
     1
 47
0.0291765355850579
 98
        2
 10
15.86922149621176
 20
1.406311922475879
 10
15.86922149621176
 20
1.406311922475879
450
        0
451
        0
460
0.0
461
0.0
452
        0
462
0.0
453
        0
470

  0
LINE
  5
3C63
330
3C61
100
AcDbEntity
  8
WAKU
 48
2.0
100
AcDbLine
 10
17.85742023442236
 20
1.934939643537859
 30
0.0
 11
16.16390526232595
 21
1.934939643537745
 31
0.0
  0
LINE
  5
3C64
330
3C61
100
AcDbEntity
  8
WAKU
 48
2.0
100
AcDbLine
 10
16.16390526232595
 20
1.613099020403296
 30
0.0
 11
17.7832881719508
 21
1.613099020403296
 31
0.0
  0
LINE
  5
3C65
330
3C61
100
AcDbEntity
  8
WAKU
 48
2.0
100
AcDbLine
 10
17.7832881719508
 20
1.387863879078395
 30
0.0
 11
16.16390526232595
 21
1.387863879078281
 31
0.0
  0
LINE
  5
3C66
330
3C61
100
AcDbEntity
  8
WAKU
 48
2.0
100
AcDbLine
 10
16.10342918350494
 20
3.08949484892139
 30
0.0
 11
16.61224696764071
 21
3.08949484892139
 31
0.0
  0
LINE
  5
3C67
330
3C61
100
AcDbEntity
  8
WAKU
 48
2.0
100
AcDbLine
 10
16.37843116176958
 20
0.8557199604838388
 30
0.0
 11
16.16390526232595
 21
0.8557199604838388
 31
0.0
  0
LINE
  5
3C68
330
3C61
100
AcDbEntity
  8
WAKU
 48
2.0
100
AcDbLine
 10
16.16390526232595
 20
1.115430757834474
 30
0.0
 11
17.84350357390696
 21
1.115430757834474
 31
0.0
  0
LINE
  5
3C69
330
3C61
100
AcDbEntity
  8
WAKU
 48
2.0
100
AcDbLine
 10
15.49780195160309
 20
2.127709306108954
 30
0.0
 11
16.23063073689553
 21
2.127709306108954
 31
0.0
  0
LINE
  5
3C6A
330
3C61
100
AcDbEntity
  8
WAKU
 48
2.0
100
AcDbLine
 10
16.5420534215886
 20
2.491766570122649
 30
0.0
 11
15.18685398567839
 21
2.491766570122649
 31
0.0
  0
HATCH
  5
3C6B
330
3C61
100
AcDbEntity
  8
WAKU
 48
2.0
100
AcDbHatch
 10
0.0
 20
0.0
 30
0.0
210
0.0
220
0.0
230
1.0
  2
SOLID
 70
     1
 71
     1
 91
        5
 92
        7
 72
     0
 73
     1
 93
       36
 10
11.72362614000173
 20
1.844138695839548
 10
13.2167123719019
 20
1.844138695839433
 10
13.2167123719019
 20
2.41934809626889
 10
11.72362614000161
 20
2.419348096268889
 10
11.72362614000167
 20
2.740985540018529
 10
13.36030069912664
 20
2.740985540018529
 10
13.36030069912664
 20
2.979102787090708
 10
11.72362614000161
 20
2.97910278709071
 10
11.72362614000173
 20
3.182001940965164
 10
11.15076558700411
 20
3.182001940965164
 10
11.15076558700423
 20
2.97910278709071
 10
9.494399050546292
 20
2.979102787090708
 10
9.494399050546292
 20
2.740985540018527
 10
11.15076558700417
 20
2.740985540018527
 10
11.15076558700406
 20
2.41934809626889
 10
9.713174685571573
 20
2.419348096268892
 10
9.713174685571459
 20
1.844138695839435
 10
11.15076558700423
 20
1.844138695839317
 10
11.15076558700417
 20
1.535623176881474
 10
9.524461098565836
 20
1.535623176881472
 10
9.524461098565836
 20
1.369945033685894
 10
11.15076558700417
 20
1.369945033685896
 10
11.15076558700417
 20
1.069479974553134
 10
9.524461098565836
 20
1.069479974553132
 10
9.524461098565836
 20
0.9048980659824792
 10
11.15076558700417
 20
0.9048980659825893
 10
11.15076558700417
 20
0.6033870995053139
 10
9.52446109856578
 20
0.6033870995053139
 10
9.524461098565893
 20
0.4283917772780815
 10
11.15076558700423
 20
0.4283917772780797
 10
11.15076558700428
 20
0.0306634320410257
 10
11.72362614000173
 20
0.0306634320410257
 10
11.72362614000184
 20
0.4283917772780797
 10
13.36559529183091
 20
0.4283917772780797
 10
13.36559529183091
 20
1.53562317688147
 10
11.72362614000155
 20
1.535623176881472
 97
       36
330
3C7F
330
3CB3
330
3CC2
330
3CC3
330
3CB8
330
3CBC
330
3CB9
330
3CB2
330
3C77
330
3C7D
330
3C73
330
3CB1
330
3C6C
330
3C7C
330
3C6F
330
3CAF
330
3C75
330
3C78
330
3C6E
330
3CAC
330
3C71
330
3C79
330
3C70
330
3CAB
330
3C74
330
3C7A
330
3C72
330
3CBA
330
3CBB
330
3CAA
330
3CBE
330
3CBF
330
3CB6
330
3CA9
330
3C85
330
3CC1
 92
       22
 72
     0
 73
     1
 93
        4
 10
11.72362614000173
 20
1.992841807510894
 10
11.72362614000173
 20
2.26805990796106
 10
12.63176987750768
 20
2.26805990796106
 10
12.63176987750768
 20
1.992841807510899
 97
        4
330
3CB4
330
3CB7
330
3CC0
330
3C81
 92
       22
 72
     0
 73
     1
 93
        4
 10
11.150765587004
 20
1.992841807510901
 10
10.33093820241816
 20
1.992841807510899
 10
10.33093820241811
 20
2.26805990796106
 10
11.15076558700411
 20
2.26805990796106
 97
        4
330
3C6D
330
3C7B
330
3C76
330
3CB0
 92
       22
 72
     0
 73
     1
 93
        4
 10
11.72362614000161
 20
1.369945033685782
 10
12.76245145537211
 20
1.369945033685784
 10
12.76245145537223
 20
1.069479974553132
 10
11.72362614000195
 20
1.069479974553134
 97
        4
330
3C82
330
3CBD
330
3C87
330
3CAE
 92
       22
 72
     0
 73
     1
 93
        4
 10
11.72362614000195
 20
0.9048980659827048
 10
12.76245145537206
 20
0.9048980659825911
 10
12.762451455372
 20
0.6033870995053121
 10
11.72362614000173
 20
0.6033870995053121
 97
        4
330
3C86
330
3C84
330
3CB5
330
3CAD
 75
     0
 76
     1
 47
0.0291765355850579
 98
        5
 10
11.46120034077165
 20
1.931489358996032
 10
11.46120034077165
 20
1.931489358996032
 10
11.46120034077165
 20
1.931489358996032
 10
11.46120034077165
 20
1.931489358996032
 10
11.46120034077165
 20
1.931489358996032
450
        0
451
        0
460
0.0
461
0.0
452
        0
462
0.0
453
        0
470

  0
LINE
  5
3C6C
102
{ACAD_REACTORS
330
3C6B
102
}
330
3C61
100
AcDbEntity
  8
WAKU
 48
2.0
100
AcDbLine
 10
9.713174685571573
 20
2.41934809626889
 30
0.0
 11
11.15076558700406
 21
2.41934809626889
 31
0.0
  0
LINE
  5
3C6D
102
{ACAD_REACTORS
330
3C6B
102
}
330
3C61
100
AcDbEntity
  8
WAKU
 48
2.0
100
AcDbLine
 10
11.15076558700394
 20
1.992841807510899
 30
0.0
 11
10.33093820241816
 21
1.992841807510899
 31
0.0
  0
LINE
  5
3C6E
102
{ACAD_REACTORS
330
3C6B
102
}
330
3C61
100
AcDbEntity
  8
WAKU
 48
2.0
100
AcDbLine
 10
11.15076558700417
 20
1.369945033685894
 30
0.0
 11
9.524461098565836
 21
1.369945033685894
 31
0.0
  0
LINE
  5
3C6F
102
{ACAD_REACTORS
330
3C6B
102
}
330
3C61
100
AcDbEntity
  8
WAKU
 48
2.0
100
AcDbLine
 10
11.15076558700417
 20
1.844138695839319
 30
0.0
 11
9.713174685571459
 21
1.844138695839433
 31
0.0
  0
LINE
  5
3C70
102
{ACAD_REACTORS
330
3C6B
102
}
330
3C61
100
AcDbEntity
  8
WAKU
 48
2.0
100
AcDbLine
 10
11.15076558700417
 20
0.9048980659825929
 30
0.0
 11
9.524461098565836
 21
0.9048980659824792
 31
0.0
  0
LINE
  5
3C71
102
{ACAD_REACTORS
330
3C6B
102
}
330
3C61
100
AcDbEntity
  8
WAKU
 48
2.0
100
AcDbLine
 10
9.524461098565836
 20
1.069479974553132
 30
0.0
 11
11.15076558700417
 21
1.069479974553132
 31
0.0
  0
LINE
  5
3C72
102
{ACAD_REACTORS
330
3C6B
102
}
330
3C61
100
AcDbEntity
  8
WAKU
 48
2.0
100
AcDbLine
 10
11.15076558700428
 20
0.4283917772780797
 30
0.0
 11
9.524461098565836
 21
0.4283917772780797
 31
0.0
  0
LINE
  5
3C73
102
{ACAD_REACTORS
330
3C6B
102
}
330
3C61
100
AcDbEntity
  8
WAKU
 48
2.0
100
AcDbLine
 10
11.15076558700417
 20
2.740985540018527
 30
0.0
 11
9.494399050546292
 21
2.740985540018527
 31
0.0
  0
LINE
  5
3C74
102
{ACAD_REACTORS
330
3C6B
102
}
330
3C61
100
AcDbEntity
  8
WAKU
 48
2.0
100
AcDbLine
 10
9.524461098565836
 20
0.6033870995053121
 30
0.0
 11
11.15076558700417
 21
0.6033870995053121
 31
0.0
  0
LINE
  5
3C75
102
{ACAD_REACTORS
330
3C6B
102
}
330
3C61
100
AcDbEntity
  8
WAKU
 48
2.0
100
AcDbLine
 10
9.524461098565836
 20
1.535623176881472
 30
0.0
 11
11.15076558700406
 21
1.535623176881472
 31
0.0
  0
LINE
  5
3C76
102
{ACAD_REACTORS
330
3C6B
102
}
330
3C61
100
AcDbEntity
  8
WAKU
 48
2.0
100
AcDbLine
 10
10.33093820241816
 20
2.26805990796106
 30
0.0
 11
11.15076558700406
 21
2.26805990796106
 31
0.0
  0
LINE
  5
3C77
102
{ACAD_REACTORS
330
3C6B
102
}
330
3C61
100
AcDbEntity
  8
WAKU
 48
2.0
100
AcDbLine
 10
9.494399050546292
 20
2.97910278709071
 30
0.0
 11
11.15076558700417
 21
2.97910278709071
 31
0.0
  0
LINE
  5
3C78
102
{ACAD_REACTORS
330
3C6B
102
}
330
3C61
100
AcDbEntity
  8
WAKU
 48
2.0
100
AcDbLine
 10
9.524461098565836
 20
1.369945033685894
 30
0.0
 11
9.524461098565836
 21
1.535623176881472
 31
0.0
  0
LINE
  5
3C79
102
{ACAD_REACTORS
330
3C6B
102
}
330
3C61
100
AcDbEntity
  8
WAKU
 48
2.0
100
AcDbLine
 10
9.524461098565836
 20
0.9048980659824792
 30
0.0
 11
9.524461098565836
 21
1.069479974553132
 31
0.0
  0
LINE
  5
3C7A
102
{ACAD_REACTORS
330
3C6B
102
}
330
3C61
100
AcDbEntity
  8
WAKU
 48
2.0
100
AcDbLine
 10
9.524461098565836
 20
0.4283917772780797
 30
0.0
 11
9.524461098565836
 21
0.6033870995053121
 31
0.0
  0
LINE
  5
3C7B
102
{ACAD_REACTORS
330
3C6B
102
}
330
3C61
100
AcDbEntity
  8
WAKU
 48
2.0
100
AcDbLine
 10
10.33093820241816
 20
1.992841807510899
 30
0.0
 11
10.33093820241816
 21
2.26805990796106
 31
0.0
  0
LINE
  5
3C7C
102
{ACAD_REACTORS
330
3C6B
102
}
330
3C61
100
AcDbEntity
  8
WAKU
 48
2.0
100
AcDbLine
 10
9.713174685571459
 20
1.844138695839433
 30
0.0
 11
9.713174685571573
 21
2.41934809626889
 31
0.0
  0
LINE
  5
3C7D
102
{ACAD_REACTORS
330
3C6B
102
}
330
3C61
100
AcDbEntity
  8
WAKU
 48
2.0
100
AcDbLine
 10
9.494399050546292
 20
2.740985540018527
 30
0.0
 11
9.494399050546292
 21
2.97910278709071
 31
0.0
  0
LINE
  5
3C7E
330
3C61
100
AcDbEntity
  8
WAKU
 48
2.0
100
AcDbLine
 10
15.56585572983971
 20
1.934939643537859
 30
0.0
 11
13.90531767650083
 21
1.934939643537859
 31
0.0
  0
LINE
  5
3C7F
102
{ACAD_REACTORS
330
3C6B
102
}
330
3C61
100
AcDbEntity
  8
WAKU
 48
2.0
100
AcDbLine
 10
11.72362614000161
 20
2.41934809626889
 30
0.0
 11
13.2167123719019
 21
2.41934809626889
 31
0.0
  0
LINE
  5
3C80
330
3C61
100
AcDbEntity
  8
WAKU
 48
2.0
100
AcDbLine
 10
13.99184696523906
 20
1.61309902040341
 30
0.0
 11
15.56585572983982
 21
1.613099020403296
 31
0.0
  0
LINE
  5
3C81
102
{ACAD_REACTORS
330
3C6B
102
}
330
3C61
100
AcDbEntity
  8
WAKU
 48
2.0
100
AcDbLine
 10
12.63176987750768
 20
1.992841807510899
 30
0.0
 11
11.72362614000173
 21
1.992841807510899
 31
0.0
  0
LINE
  5
3C82
102
{ACAD_REACTORS
330
3C6B
102
}
330
3C61
100
AcDbEntity
  8
WAKU
 48
2.0
100
AcDbLine
 10
12.76245145537206
 20
1.36994503368578
 30
0.0
 11
11.72362614000161
 21
1.36994503368578
 31
0.0
  0
LINE
  5
3C83
330
3C61
100
AcDbEntity
  8
WAKU
 48
2.0
100
AcDbLine
 10
15.56585572983982
 20
1.387863879078281
 30
0.0
 11
13.99184696523895
 21
1.387863879078281
 31
0.0
  0
LINE
  5
3C84
102
{ACAD_REACTORS
330
3C6B
102
}
330
3C61
100
AcDbEntity
  8
WAKU
 48
2.0
100
AcDbLine
 10
12.76245145537206
 20
0.9048980659825929
 30
0.0
 11
12.76245145537206
 21
0.6033870995053121
 31
0.0
  0
LINE
  5
3C85
102
{ACAD_REACTORS
330
3C6B
102
}
330
3C61
100
AcDbEntity
  8
WAKU
 48
2.0
100
AcDbLine
 10
13.2167123719019
 20
1.844138695839433
 30
0.0
 11
11.72362614000173
 21
1.844138695839546
 31
0.0
  0
LINE
  5
3C86
102
{ACAD_REACTORS
330
3C6B
102
}
330
3C61
100
AcDbEntity
  8
WAKU
 48
2.0
100
AcDbLine
 10
12.76245145537206
 20
0.9048980659825929
 30
0.0
 11
11.72362614000195
 21
0.9048980659827066
 31
0.0
  0
LINE
  5
3C87
102
{ACAD_REACTORS
330
3C6B
102
}
330
3C61
100
AcDbEntity
  8
WAKU
 48
2.0
100
AcDbLine
 10
11.72362614000195
 20
1.069479974553132
 30
0.0
 11
12.76245145537229
 21
1.069479974553132
 31
0.0
  0
LINE
  5
3C88
330
3C61
100
AcDbEntity
  8
WAKU
 48
2.0
100
AcDbLine
 10
15.12569263535403
 20
3.08949484892139
 30
0.0
 11
15.62118631497156
 21
3.08949484892139
 31
0.0
  0
LINE
  5
3C89
330
3C61
100
AcDbEntity
  8
WAKU
 48
2.0
100
AcDbLine
 10
14.57190257773794
 20
0.8557199604838388
 30
0.0
 11
13.93407347331441
 21
0.8557199604838388
 31
0.0
  0
LINE
  5
3C8A
330
3C61
100
AcDbEntity
  8
WAKU
 48
2.0
100
AcDbLine
 10
13.98881233800858
 20
0.242800120966308
 30
0.0
 11
13.98881233800858
 21
0.1010431900605226
 31
0.0
  0
LINE
  5
3C8B
330
3C61
100
AcDbEntity
  8
WAKU
 48
2.0
100
AcDbLine
 10
13.98881233800858
 20
0.242800120966308
 30
0.0
 11
14.57190257773794
 21
0.8557199604838388
 31
0.0
  0
LINE
  5
3C8C
330
3C61
100
AcDbEntity
  8
WAKU
 48
2.0
100
AcDbLine
 10
13.98881233800858
 20
0.1010431900605226
 30
0.0
 11
14.64220576000099
 21
0.1010431900605226
 31
0.0
  0
LINE
  5
3C8D
330
3C61
100
AcDbEntity
  8
WAKU
 48
2.0
100
AcDbLine
 10
15.36445852267451
 20
0.8557199604838388
 30
0.0
 11
14.64220576000099
 21
0.1010431900605226
 31
0.0
  0
LINE
  5
3C8E
330
3C61
100
AcDbEntity
  8
WAKU
 48
2.0
100
AcDbLine
 10
16.16390526232595
 20
1.387863879078281
 30
0.0
 11
16.16390526232595
 21
1.115430757834474
 31
0.0
  0
LINE
  5
3C8F
330
3C61
100
AcDbEntity
  8
WAKU
 48
2.0
100
AcDbLine
 10
15.56585572983982
 20
1.613099020403296
 30
0.0
 11
15.56585572983971
 21
1.934939643537859
 31
0.0
  0
LINE
  5
3C90
330
3C61
100
AcDbEntity
  8
WAKU
 48
2.0
100
AcDbLine
 10
15.56585572983982
 20
1.115430757834474
 30
0.0
 11
15.56585572983982
 21
1.387863879078281
 31
0.0
  0
LINE
  5
3C91
330
3C61
100
AcDbEntity
  8
WAKU
 48
2.0
100
AcDbLine
 10
16.16390526232595
 20
0.8557199604838388
 30
0.0
 11
16.16390526232595
 21
0.1046689638886846
 31
0.0
  0
LINE
  5
3C92
330
3C61
100
AcDbEntity
  8
WAKU
 48
2.0
100
AcDbLine
 10
15.56585572983982
 20
0.8557199604838388
 30
0.0
 11
15.36445852267451
 21
0.8557199604838388
 31
0.0
  0
LINE
  5
3C93
330
3C61
100
AcDbEntity
  8
WAKU
 48
2.0
100
AcDbLine
 10
15.56585572983982
 20
0.1046689638886846
 30
0.0
 11
15.56585572983982
 21
0.8557199604838388
 31
0.0
  0
LINE
  5
3C94
330
3C61
100
AcDbEntity
  8
WAKU
 48
2.0
100
AcDbLine
 10
16.16390526232595
 20
0.1046689638886846
 30
0.0
 11
15.56585572983982
 21
0.1046689638886846
 31
0.0
  0
LINE
  5
3C95
330
3C61
100
AcDbEntity
  8
WAKU
 48
2.0
100
AcDbLine
 10
16.16390526232595
 20
1.934939643537745
 30
0.0
 11
16.16390526232595
 21
1.613099020403296
 31
0.0
  0
LINE
  5
3C96
330
3C61
100
AcDbEntity
  8
WAKU
 48
2.0
100
AcDbLine
 10
13.93407347331441
 20
0.8557199604838388
 30
0.0
 11
13.93407347331441
 21
1.115430757834474
 31
0.0
  0
LINE
  5
3C97
330
3C61
100
AcDbEntity
  8
WAKU
 48
2.0
100
AcDbLine
 10
13.93407347331441
 20
1.115430757834474
 30
0.0
 11
15.56585572983982
 21
1.115430757834474
 31
0.0
  0
LINE
  5
3C98
330
3C61
100
AcDbEntity
  8
WAKU
 48
2.0
100
AcDbLine
 10
13.99184696523895
 20
1.387863879078281
 30
0.0
 11
13.99184696523906
 21
1.61309902040341
 31
0.0
  0
LINE
  5
3C99
330
3C61
100
AcDbEntity
  8
WAKU
 48
2.0
100
AcDbLine
 10
15.62118631497145
 20
2.756618405090648
 30
0.0
 11
16.10342918350494
 21
2.756618405090648
 31
0.0
  0
LINE
  5
3C9A
330
3C61
100
AcDbEntity
  8
WAKU
 48
2.0
100
AcDbLine
 10
16.10342918350494
 20
3.08949484892139
 30
0.0
 11
16.10342918350494
 21
2.756618405090648
 31
0.0
  0
LINE
  5
3C9B
330
3C61
100
AcDbEntity
  8
WAKU
 48
2.0
100
AcDbLine
 10
15.12569263535403
 20
3.08949484892139
 30
0.0
 11
15.12569263535403
 21
2.756618405090648
 31
0.0
  0
LINE
  5
3C9C
330
3C61
100
AcDbEntity
  8
WAKU
 48
2.0
100
AcDbLine
 10
15.62118631497156
 20
3.08949484892139
 30
0.0
 11
15.62118631497145
 21
2.756618405090648
 31
0.0
  0
LINE
  5
3C9D
330
3C61
100
AcDbEntity
  8
WAKU
 48
2.0
100
AcDbLine
 10
14.36917906164825
 20
2.756618405090648
 30
0.0
 11
14.11405486042878
 21
3.047303731442411
 31
0.0
  0
LINE
  5
3C9E
330
3C61
100
AcDbEntity
  8
WAKU
 48
2.0
100
AcDbLine
 10
15.18685398567839
 20
2.491766570122649
 30
0.0
 11
15.49780195160309
 21
2.127709306108954
 31
0.0
  0
LINE
  5
3C9F
330
3C61
100
AcDbEntity
  8
WAKU
 48
2.0
100
AcDbLine
 10
14.59134157954548
 20
2.491766570122649
 30
0.0
 11
13.96856664537
 21
2.491766570122649
 31
0.0
  0
LINE
  5
3CA0
330
3C61
100
AcDbEntity
  8
WAKU
 48
2.0
100
AcDbLine
 10
14.94520663102452
 20
2.756618405090648
 30
0.0
 11
15.12569263535403
 21
2.756618405090648
 31
0.0
  0
LINE
  5
3CA1
330
3C61
100
AcDbEntity
  8
WAKU
 48
2.0
100
AcDbLine
 10
14.11405486042878
 20
3.08949484892139
 30
0.0
 11
14.66089077375449
 21
3.08949484892139
 31
0.0
  0
LINE
  5
3CA2
330
3C61
100
AcDbEntity
  8
WAKU
 48
2.0
100
AcDbLine
 10
13.90531767650083
 20
1.934939643537859
 30
0.0
 11
13.90531767650083
 21
2.127709306108954
 31
0.0
  0
LINE
  5
3CA3
330
3C61
100
AcDbEntity
  8
WAKU
 48
2.0
100
AcDbLine
 10
13.90531767650083
 20
2.127709306108954
 30
0.0
 11
14.9108617281725
 21
2.127709306108954
 31
0.0
  0
LINE
  5
3CA4
330
3C61
100
AcDbEntity
  8
WAKU
 48
2.0
100
AcDbLine
 10
14.11405486042878
 20
3.047303731442411
 30
0.0
 11
14.11405486042878
 21
3.08949484892139
 31
0.0
  0
LINE
  5
3CA5
330
3C61
100
AcDbEntity
  8
WAKU
 48
2.0
100
AcDbLine
 10
14.9108617281725
 20
2.127709306108954
 30
0.0
 11
14.59134157954548
 21
2.491766570122649
 31
0.0
  0
LINE
  5
3CA6
330
3C61
100
AcDbEntity
  8
WAKU
 48
2.0
100
AcDbLine
 10
14.66089077375449
 20
3.08949484892139
 30
0.0
 11
14.94520663102452
 21
2.756618405090648
 31
0.0
  0
LINE
  5
3CA7
330
3C61
100
AcDbEntity
  8
WAKU
 48
2.0
100
AcDbLine
 10
13.96856664537
 20
2.491766570122649
 30
0.0
 11
13.96856664537011
 21
2.756618405090648
 31
0.0
  0
LINE
  5
3CA8
330
3C61
100
AcDbEntity
  8
WAKU
 48
2.0
100
AcDbLine
 10
13.96856664537011
 20
2.756618405090648
 30
0.0
 11
14.36917906164825
 21
2.756618405090648
 31
0.0
  0
LINE
  5
3CA9
102
{ACAD_REACTORS
330
3C6B
102
}
330
3C61
100
AcDbEntity
  8
WAKU
 48
2.0
100
AcDbLine
 10
11.72362614000173
 20
1.844138695839546
 30
0.0
 11
11.72362614000161
 21
1.535623176881472
 31
0.0
  0
LINE
  5
3CAA
102
{ACAD_REACTORS
330
3C6B
102
}
330
3C61
100
AcDbEntity
  8
WAKU
 48
2.0
100
AcDbLine
 10
11.72362614000184
 20
0.4283917772780797
 30
0.0
 11
11.72362614000173
 21
0.030663432041024
 31
0.0
  0
LINE
  5
3CAB
102
{ACAD_REACTORS
330
3C6B
102
}
330
3C61
100
AcDbEntity
  8
WAKU
 48
2.0
100
AcDbLine
 10
11.15076558700417
 20
0.6033870995053121
 30
0.0
 11
11.15076558700417
 21
0.9048980659825929
 31
0.0
  0
LINE
  5
3CAC
102
{ACAD_REACTORS
330
3C6B
102
}
330
3C61
100
AcDbEntity
  8
WAKU
 48
2.0
100
AcDbLine
 10
11.15076558700417
 20
1.069479974553132
 30
0.0
 11
11.15076558700417
 21
1.369945033685894
 31
0.0
  0
LINE
  5
3CAD
102
{ACAD_REACTORS
330
3C6B
102
}
330
3C61
100
AcDbEntity
  8
WAKU
 48
2.0
100
AcDbLine
 10
11.72362614000195
 20
0.9048980659827066
 30
0.0
 11
11.72362614000173
 21
0.6033870995053121
 31
0.0
  0
LINE
  5
3CAE
102
{ACAD_REACTORS
330
3C6B
102
}
330
3C61
100
AcDbEntity
  8
WAKU
 48
2.0
100
AcDbLine
 10
11.72362614000161
 20
1.36994503368578
 30
0.0
 11
11.72362614000195
 21
1.069479974553132
 31
0.0
  0
LINE
  5
3CAF
102
{ACAD_REACTORS
330
3C6B
102
}
330
3C61
100
AcDbEntity
  8
WAKU
 48
2.0
100
AcDbLine
 10
11.15076558700406
 20
1.535623176881472
 30
0.0
 11
11.15076558700417
 21
1.844138695839319
 31
0.0
  0
LINE
  5
3CB0
102
{ACAD_REACTORS
330
3C6B
102
}
330
3C61
100
AcDbEntity
  8
WAKU
 48
2.0
100
AcDbLine
 10
11.15076558700394
 20
1.992841807510899
 30
0.0
 11
11.15076558700406
 21
2.26805990796106
 31
0.0
  0
LINE
  5
3CB1
102
{ACAD_REACTORS
330
3C6B
102
}
330
3C61
100
AcDbEntity
  8
WAKU
 48
2.0
100
AcDbLine
 10
11.15076558700406
 20
2.41934809626889
 30
0.0
 11
11.15076558700417
 21
2.740985540018527
 31
0.0
  0
LINE
  5
3CB2
102
{ACAD_REACTORS
330
3C6B
102
}
330
3C61
100
AcDbEntity
  8
WAKU
 48
2.0
100
AcDbLine
 10
11.15076558700417
 20
2.97910278709071
 30
0.0
 11
11.15076558700417
 21
3.182001940965164
 31
0.0
  0
LINE
  5
3CB3
102
{ACAD_REACTORS
330
3C6B
102
}
330
3C61
100
AcDbEntity
  8
WAKU
 48
2.0
100
AcDbLine
 10
11.72362614000161
 20
2.740985540018527
 30
0.0
 11
11.72362614000161
 21
2.41934809626889
 31
0.0
  0
LINE
  5
3CB4
102
{ACAD_REACTORS
330
3C6B
102
}
330
3C61
100
AcDbEntity
  8
WAKU
 48
2.0
100
AcDbLine
 10
11.72362614000173
 20
2.26805990796106
 30
0.0
 11
11.72362614000173
 21
1.992841807510899
 31
0.0
  0
LINE
  5
3CB5
102
{ACAD_REACTORS
330
3C6B
102
}
330
3C61
100
AcDbEntity
  8
WAKU
 48
2.0
100
AcDbLine
 10
11.72362614000173
 20
0.6033870995053121
 30
0.0
 11
12.76245145537206
 21
0.6033870995053121
 31
0.0
  0
LINE
  5
3CB6
102
{ACAD_REACTORS
330
3C6B
102
}
330
3C61
100
AcDbEntity
  8
WAKU
 48
2.0
100
AcDbLine
 10
11.72362614000161
 20
1.535623176881472
 30
0.0
 11
13.36559529183097
 21
1.535623176881472
 31
0.0
  0
LINE
  5
3CB7
102
{ACAD_REACTORS
330
3C6B
102
}
330
3C61
100
AcDbEntity
  8
WAKU
 48
2.0
100
AcDbLine
 10
11.72362614000173
 20
2.26805990796106
 30
0.0
 11
12.63176987750768
 21
2.26805990796106
 31
0.0
  0
LINE
  5
3CB8
102
{ACAD_REACTORS
330
3C6B
102
}
330
3C61
100
AcDbEntity
  8
WAKU
 48
2.0
100
AcDbLine
 10
11.72362614000161
 20
2.97910278709071
 30
0.0
 11
13.36030069912664
 21
2.97910278709071
 31
0.0
  0
LINE
  5
3CB9
102
{ACAD_REACTORS
330
3C6B
102
}
330
3C61
100
AcDbEntity
  8
WAKU
 48
2.0
100
AcDbLine
 10
11.15076558700417
 20
3.182001940965164
 30
0.0
 11
11.72362614000173
 21
3.182001940965164
 31
0.0
  0
LINE
  5
3CBA
102
{ACAD_REACTORS
330
3C6B
102
}
330
3C61
100
AcDbEntity
  8
WAKU
 48
2.0
100
AcDbLine
 10
11.15076558700428
 20
0.030663432041024
 30
0.0
 11
11.15076558700428
 21
0.4283917772780797
 31
0.0
  0
LINE
  5
3CBB
102
{ACAD_REACTORS
330
3C6B
102
}
330
3C61
100
AcDbEntity
  8
WAKU
 48
2.0
100
AcDbLine
 10
11.72362614000173
 20
0.030663432041024
 30
0.0
 11
11.15076558700428
 21
0.030663432041024
 31
0.0
  0
LINE
  5
3CBC
102
{ACAD_REACTORS
330
3C6B
102
}
330
3C61
100
AcDbEntity
  8
WAKU
 48
2.0
100
AcDbLine
 10
11.72362614000173
 20
3.182001940965164
 30
0.0
 11
11.72362614000161
 21
2.97910278709071
 31
0.0
  0
LINE
  5
3CBD
102
{ACAD_REACTORS
330
3C6B
102
}
330
3C61
100
AcDbEntity
  8
WAKU
 48
2.0
100
AcDbLine
 10
12.76245145537229
 20
1.069479974553132
 30
0.0
 11
12.76245145537206
 21
1.36994503368578
 31
0.0
  0
LINE
  5
3CBE
102
{ACAD_REACTORS
330
3C6B
102
}
330
3C61
100
AcDbEntity
  8
WAKU
 48
2.0
100
AcDbLine
 10
13.36559529183097
 20
0.4283917772780797
 30
0.0
 11
11.72362614000184
 21
0.4283917772780797
 31
0.0
  0
LINE
  5
3CBF
102
{ACAD_REACTORS
330
3C6B
102
}
330
3C61
100
AcDbEntity
  8
WAKU
 48
2.0
100
AcDbLine
 10
13.36559529183097
 20
1.535623176881472
 30
0.0
 11
13.36559529183097
 21
0.4283917772780797
 31
0.0
  0
LINE
  5
3CC0
102
{ACAD_REACTORS
330
3C6B
102
}
330
3C61
100
AcDbEntity
  8
WAKU
 48
2.0
100
AcDbLine
 10
12.63176987750768
 20
2.26805990796106
 30
0.0
 11
12.63176987750768
 21
1.992841807510899
 31
0.0
  0
LINE
  5
3CC1
102
{ACAD_REACTORS
330
3C6B
102
}
330
3C61
100
AcDbEntity
  8
WAKU
 48
2.0
100
AcDbLine
 10
13.2167123719019
 20
2.41934809626889
 30
0.0
 11
13.2167123719019
 21
1.844138695839433
 31
0.0
  0
LINE
  5
3CC2
102
{ACAD_REACTORS
330
3C6B
102
}
330
3C61
100
AcDbEntity
  8
WAKU
 48
2.0
100
AcDbLine
 10
13.36030069912664
 20
2.740985540018527
 30
0.0
 11
11.72362614000161
 21
2.740985540018527
 31
0.0
  0
LINE
  5
3CC3
102
{ACAD_REACTORS
330
3C6B
102
}
330
3C61
100
AcDbEntity
  8
WAKU
 48
2.0
100
AcDbLine
 10
13.36030069912664
 20
2.97910278709071
 30
0.0
 11
13.36030069912664
 21
2.740985540018527
 31
0.0
  0
HATCH
  5
3CC4
330
3C61
100
AcDbEntity
  8
WAKU
 48
2.0
100
AcDbHatch
 10
0.0
 20
0.0
 30
0.0
210
0.0
220
0.0
230
1.0
  2
SOLID
 70
     1
 71
     1
 91
        5
 92
        7
 72
     0
 73
     1
 93
       16
 10
20.45776601204625
 20
1.577443611505374
 10
20.45776601204631
 20
1.852592786029049
 10
19.97963396762878
 20
1.852592786029047
 10
20.2527363118117
 20
2.613862408754698
 10
20.49404263728195
 20
2.6138624087547
 10
20.49404263728195
 20
2.880852936746805
 10
19.70692798201418
 20
2.880852936746803
 10
19.70692798201418
 20
3.158832862746178
 10
19.13857686814759
 20
3.15883286274618
 10
19.13857686814759
 20
2.880852936746805
 10
18.29806464917993
 20
2.880852936746805
 10
18.29806464917993
 20
2.6138624087547
 10
18.46479664435532
 20
2.613862408754695
 10
18.69337397624758
 20
1.852592786029049
 10
18.29099869674775
 20
1.852592786029049
 10
18.2909986967478
 20
1.577443611505374
 97
       16
330
3CD8
330
3CE9
330
3CEE
330
3CEF
330
3CF0
330
3CF1
330
3CF2
330
3CEB
330
3CEC
330
3CED
330
3CDA
330
3CE7
330
3CE6
330
3CE3
330
3CE4
330
3CE5
 92
       23
 72
     0
 73
     1
 93
        4
 10
19.23434236407848
 20
1.852592786029049
 10
19.49215750748397
 20
1.852592786029049
 10
19.78773469236296
 20
2.6138624087547
 10
18.99381172734502
 20
2.613862408754696
 97
        4
330
3CE8
330
3CD7
330
3CEA
330
3CD9
 92
        7
 72
     0
 73
     1
 93
        4
 10
18.38569772790634
 20
1.288626999953862
 10
18.38569772790629
 20
0.122090636724236
 10
20.33181307724186
 20
0.1220906367242378
 10
20.33181307724181
 20
1.28862699995386
 97
        4
330
3CDF
330
3CE2
330
3CE1
330
3CE0
 92
       22
 72
     0
 73
     1
 93
        4
 10
19.82173168365153
 20
1.059781814838968
 10
19.82173168365153
 20
0.3388499090784762
 10
18.87363758207709
 20
0.3388499090784762
 10
18.87363758207698
 20
1.05978181483897
 97
        4
330
3CDC
330
3CDD
330
3CDE
330
3CDB
 92
        7
 72
     0
 73
     1
 93
       29
 10
21.21669214009108
 20
2.810740878952858
 10
21.58553400880788
 20
2.810740878952858
 10
21.67173353896123
 20
2.708434020686812
 10
21.40236000723149
 20
1.986900440961564
 10
21.40236000723144
 20
1.857670311308638
 10
21.54243424373095
 20
1.690748388216062
 10
21.65018365642283
 20
1.475365494212784
 10
21.69328342149981
 20
1.195367535383784
 10
21.69867195245115
 20
0.9422928479402905
 10
21.66095859769217
 20
0.7430633924348271
 10
21.5909214794425
 20
0.6353716177240063
 10
21.42390988976973
 20
0.5869106468132391
 10
21.29201144958182
 20
0.5457139315370921
 10
21.27056684643685
 20
0.4899880495736931
 10
21.29211672897537
 20
0.3822962748629557
 10
21.49272858670958
 20
0.2978739507163901
 10
21.96341932114666
 20
0.317681865454805
 10
22.15452891558635
 20
0.5214222797100554
 10
22.20585549970349
 20
0.8292161567845166
 10
22.16814320526129
 20
1.373058635946797
 10
22.04961885130001
 20
1.760748369487238
 10
21.93648196797363
 20
1.927670292579723
 10
22.15736826399188
 20
2.810740878952858
 10
22.10888102828068
 20
2.96150870812958
 10
22.02268149812699
 20
3.009969679040295
 10
21.76408290766665
 20
3.031508033982388
 10
20.64562025282396
 20
3.031508033982392
 10
20.64562025282402
 20
0.053837345122588
 10
21.21669214009114
 20
0.053837345122588
 97
       29
330
3CD3
330
3CCA
330
3CC9
330
3CD2
330
3CD1
330
3CC8
330
3D10
330
3D0F
330
3D0E
330
3CC7
330
3CD0
330
3CCF
330
3CCE
330
3CCD
330
3CCC
330
3CC6
330
3D0D
330
3D0C
330
3D0B
330
3D0A
330
3D09
330
3D08
330
3D07
330
3D06
330
3D05
330
3CC5
330
3CD6
330
3CD5
330
3CD4
 75
     0
 76
     1
 47
0.0291765355850579
 98
        5
 10
19.05117066965357
 20
1.756430824661038
 10
19.05117066965357
 20
1.756430824661038
 10
18.90521081217929
 20
1.143723204215802
 10
18.90521081217929
 20
1.143723204215802
 10
20.97785648180974
 20
1.377135194500851
450
        0
451
        0
460
0.0
461
0.0
452
        0
462
0.0
453
        0
470

  0
LINE
  5
3CC5
102
{ACAD_REACTORS
330
3CC4
102
}
330
3C61
100
AcDbEntity
  8
WAKU
 48
2.0
100
AcDbLine
 10
21.76408290766659
 20
3.03150803398239
 30
0.0
 11
20.6456202528239
 21
3.03150803398239
 31
0.0
  0
LINE
  5
3CC6
102
{ACAD_REACTORS
330
3CC4
102
}
330
3C61
100
AcDbEntity
  8
WAKU
 48
2.0
100
AcDbLine
 10
21.49272858670958
 20
0.2978739507163937
 30
0.0
 11
21.96341932114666
 21
0.3176818654548015
 31
0.0
  0
LINE
  5
3CC7
102
{ACAD_REACTORS
330
3CC4
102
}
330
3C61
100
AcDbEntity
  8
WAKU
 48
2.0
100
AcDbLine
 10
21.66095859769217
 20
0.7430633924346921
 30
0.0
 11
21.59092147944244
 21
0.6353716177239904
 31
0.0
  0
LINE
  5
3CC8
102
{ACAD_REACTORS
330
3CC4
102
}
330
3C61
100
AcDbEntity
  8
WAKU
 48
2.0
100
AcDbLine
 10
21.54243424373095
 20
1.690748388216093
 30
0.0
 11
21.65018365642283
 21
1.475365494212837
 31
0.0
  0
LINE
  5
3CC9
102
{ACAD_REACTORS
330
3CC4
102
}
330
3C61
100
AcDbEntity
  8
WAKU
 48
2.0
100
AcDbLine
 10
21.67173353896129
 20
2.708434020686809
 30
0.0
 11
21.40236000723149
 21
1.986900440961449
 31
0.0
  0
LINE
  5
3CCA
102
{ACAD_REACTORS
330
3CC4
102
}
330
3C61
100
AcDbEntity
  8
WAKU
 48
2.0
100
AcDbLine
 10
21.58553400880788
 20
2.810740878952856
 30
0.0
 11
21.67173353896129
 21
2.708434020686809
 31
0.0
  0
LINE
  5
3CCB
330
3C61
100
AcDbEntity
  8
WAKU
 48
2.0
100
AcDbLine
 10
17.04821889760905
 20
3.08949484892139
 30
0.0
 11
17.61935945639612
 21
3.08949484892139
 31
0.0
  0
LINE
  5
3CCC
102
{ACAD_REACTORS
330
3CC4
102
}
330
3C61
100
AcDbEntity
  8
WAKU
 48
2.0
100
AcDbLine
 10
21.29211672897537
 20
0.3822962748629379
 30
0.0
 11
21.49272858670958
 21
0.2978739507163937
 31
0.0
  0
LINE
  5
3CCD
102
{ACAD_REACTORS
330
3CC4
102
}
330
3C61
100
AcDbEntity
  8
WAKU
 48
2.0
100
AcDbLine
 10
21.27056684643691
 20
0.4899880495736398
 30
0.0
 11
21.29211672897537
 21
0.3822962748629379
 31
0.0
  0
LINE
  5
3CCE
102
{ACAD_REACTORS
330
3CC4
102
}
330
3C61
100
AcDbEntity
  8
WAKU
 48
2.0
100
AcDbLine
 10
21.29201144958182
 20
0.5457139315370796
 30
0.0
 11
21.27056684643691
 21
0.4899880495736398
 31
0.0
  0
LINE
  5
3CCF
102
{ACAD_REACTORS
330
3CC4
102
}
330
3C61
100
AcDbEntity
  8
WAKU
 48
2.0
100
AcDbLine
 10
21.42390988976996
 20
0.5869106468132941
 30
0.0
 11
21.29201144958182
 21
0.5457139315370796
 31
0.0
  0
LINE
  5
3CD0
102
{ACAD_REACTORS
330
3CC4
102
}
330
3C61
100
AcDbEntity
  8
WAKU
 48
2.0
100
AcDbLine
 10
21.59092147944244
 20
0.6353716177239904
 30
0.0
 11
21.42390988976996
 21
0.5869106468132941
 31
0.0
  0
LINE
  5
3CD1
102
{ACAD_REACTORS
330
3CC4
102
}
330
3C61
100
AcDbEntity
  8
WAKU
 48
2.0
100
AcDbLine
 10
21.40236000723149
 20
1.857670311308538
 30
0.0
 11
21.54243424373095
 21
1.690748388216093
 31
0.0
  0
LINE
  5
3CD2
102
{ACAD_REACTORS
330
3CC4
102
}
330
3C61
100
AcDbEntity
  8
WAKU
 48
2.0
100
AcDbLine
 10
21.40236000723149
 20
1.986900440961449
 30
0.0
 11
21.40236000723149
 21
1.857670311308538
 31
0.0
  0
LINE
  5
3CD3
102
{ACAD_REACTORS
330
3CC4
102
}
330
3C61
100
AcDbEntity
  8
WAKU
 48
2.0
100
AcDbLine
 10
21.21669214009108
 20
2.810740878952856
 30
0.0
 11
21.58553400880788
 21
2.810740878952856
 31
0.0
  0
LINE
  5
3CD4
102
{ACAD_REACTORS
330
3CC4
102
}
330
3C61
100
AcDbEntity
  8
WAKU
 48
2.0
100
AcDbLine
 10
21.21669214009108
 20
0.053837345122588
 30
0.0
 11
21.21669214009108
 21
2.810740878952856
 31
0.0
  0
LINE
  5
3CD5
102
{ACAD_REACTORS
330
3CC4
102
}
330
3C61
100
AcDbEntity
  8
WAKU
 48
2.0
100
AcDbLine
 10
20.6456202528239
 20
0.053837345122588
 30
0.0
 11
21.21669214009108
 21
0.053837345122588
 31
0.0
  0
LINE
  5
3CD6
102
{ACAD_REACTORS
330
3CC4
102
}
330
3C61
100
AcDbEntity
  8
WAKU
 48
2.0
100
AcDbLine
 10
20.6456202528239
 20
3.03150803398239
 30
0.0
 11
20.6456202528239
 21
0.053837345122588
 31
0.0
  0
LINE
  5
3CD7
102
{ACAD_REACTORS
330
3CC4
102
}
330
3C61
100
AcDbEntity
  8
WAKU
 48
2.0
100
AcDbLine
 10
19.78773469236301
 20
2.613862408754698
 30
0.0
 11
18.99381172734496
 21
2.613862408754698
 31
0.0
  0
LINE
  5
3CD8
102
{ACAD_REACTORS
330
3CC4
102
}
330
3C61
100
AcDbEntity
  8
WAKU
 48
2.0
100
AcDbLine
 10
19.97963396762878
 20
1.852592786029049
 30
0.0
 11
20.45776601204631
 21
1.852592786029049
 31
0.0
  0
LINE
  5
3CD9
102
{ACAD_REACTORS
330
3CC4
102
}
330
3C61
100
AcDbEntity
  8
WAKU
 48
2.0
100
AcDbLine
 10
19.23434236407848
 20
1.852592786029049
 30
0.0
 11
19.49215750748402
 21
1.852592786029049
 31
0.0
  0
LINE
  5
3CDA
102
{ACAD_REACTORS
330
3CC4
102
}
330
3C61
100
AcDbEntity
  8
WAKU
 48
2.0
100
AcDbLine
 10
18.46479664435532
 20
2.613862408754698
 30
0.0
 11
18.29806464917993
 21
2.613862408754698
 31
0.0
  0
LINE
  5
3CDB
102
{ACAD_REACTORS
330
3CC4
102
}
330
3C61
100
AcDbEntity
  8
WAKU
 48
2.0
100
AcDbLine
 10
19.82173168365153
 20
1.05978181483897
 30
0.0
 11
18.87363758207704
 21
1.05978181483897
 31
0.0
  0
LINE
  5
3CDC
102
{ACAD_REACTORS
330
3CC4
102
}
330
3C61
100
AcDbEntity
  8
WAKU
 48
2.0
100
AcDbLine
 10
19.82173168365153
 20
0.3388499090784762
 30
0.0
 11
19.82173168365153
 21
1.05978181483897
 31
0.0
  0
LINE
  5
3CDD
102
{ACAD_REACTORS
330
3CC4
102
}
330
3C61
100
AcDbEntity
  8
WAKU
 48
2.0
100
AcDbLine
 10
18.87363758207704
 20
0.3388499090784762
 30
0.0
 11
19.82173168365153
 21
0.3388499090784762
 31
0.0
  0
LINE
  5
3CDE
102
{ACAD_REACTORS
330
3CC4
102
}
330
3C61
100
AcDbEntity
  8
WAKU
 48
2.0
100
AcDbLine
 10
18.87363758207704
 20
1.05978181483897
 30
0.0
 11
18.87363758207704
 21
0.3388499090784762
 31
0.0
  0
LINE
  5
3CDF
102
{ACAD_REACTORS
330
3CC4
102
}
330
3C61
100
AcDbEntity
  8
WAKU
 48
2.0
100
AcDbLine
 10
20.33181307724186
 20
1.288626999953862
 30
0.0
 11
18.38569772790634
 21
1.288626999953862
 31
0.0
  0
LINE
  5
3CE0
102
{ACAD_REACTORS
330
3CC4
102
}
330
3C61
100
AcDbEntity
  8
WAKU
 48
2.0
100
AcDbLine
 10
20.33181307724186
 20
0.1220906367242378
 30
0.0
 11
20.33181307724186
 21
1.288626999953862
 31
0.0
  0
LINE
  5
3CE1
102
{ACAD_REACTORS
330
3CC4
102
}
330
3C61
100
AcDbEntity
  8
WAKU
 48
2.0
100
AcDbLine
 10
18.38569772790634
 20
0.1220906367242378
 30
0.0
 11
20.33181307724186
 21
0.1220906367242378
 31
0.0
  0
LINE
  5
3CE2
102
{ACAD_REACTORS
330
3CC4
102
}
330
3C61
100
AcDbEntity
  8
WAKU
 48
2.0
100
AcDbLine
 10
18.38569772790634
 20
1.288626999953862
 30
0.0
 11
18.38569772790634
 21
0.1220906367242378
 31
0.0
  0
LINE
  5
3CE3
102
{ACAD_REACTORS
330
3CC4
102
}
330
3C61
100
AcDbEntity
  8
WAKU
 48
2.0
100
AcDbLine
 10
18.29099869674775
 20
1.577443611505373
 30
0.0
 11
18.29099869674775
 21
1.852592786029049
 31
0.0
  0
LINE
  5
3CE4
102
{ACAD_REACTORS
330
3CC4
102
}
330
3C61
100
AcDbEntity
  8
WAKU
 48
2.0
100
AcDbLine
 10
20.45776601204631
 20
1.577443611505373
 30
0.0
 11
18.29099869674775
 21
1.577443611505373
 31
0.0
  0
LINE
  5
3CE5
102
{ACAD_REACTORS
330
3CC4
102
}
330
3C61
100
AcDbEntity
  8
WAKU
 48
2.0
100
AcDbLine
 10
20.45776601204631
 20
1.852592786029049
 30
0.0
 11
20.45776601204631
 21
1.577443611505373
 31
0.0
  0
LINE
  5
3CE6
102
{ACAD_REACTORS
330
3CC4
102
}
330
3C61
100
AcDbEntity
  8
WAKU
 48
2.0
100
AcDbLine
 10
18.29099869674775
 20
1.852592786029049
 30
0.0
 11
18.69337397624764
 21
1.852592786029049
 31
0.0
  0
LINE
  5
3CE7
102
{ACAD_REACTORS
330
3CC4
102
}
330
3C61
100
AcDbEntity
  8
WAKU
 48
2.0
100
AcDbLine
 10
18.46479664435532
 20
2.613862408754698
 30
0.0
 11
18.69337397624764
 21
1.852592786029049
 31
0.0
  0
LINE
  5
3CE8
102
{ACAD_REACTORS
330
3CC4
102
}
330
3C61
100
AcDbEntity
  8
WAKU
 48
2.0
100
AcDbLine
 10
18.99381172734496
 20
2.613862408754698
 30
0.0
 11
19.23434236407848
 21
1.852592786029049
 31
0.0
  0
LINE
  5
3CE9
102
{ACAD_REACTORS
330
3CC4
102
}
330
3C61
100
AcDbEntity
  8
WAKU
 48
2.0
100
AcDbLine
 10
20.2527363118117
 20
2.613862408754698
 30
0.0
 11
19.97963396762878
 21
1.852592786029049
 31
0.0
  0
LINE
  5
3CEA
102
{ACAD_REACTORS
330
3CC4
102
}
330
3C61
100
AcDbEntity
  8
WAKU
 48
2.0
100
AcDbLine
 10
19.78773469236301
 20
2.613862408754698
 30
0.0
 11
19.49215750748402
 21
1.852592786029049
 31
0.0
  0
LINE
  5
3CEB
102
{ACAD_REACTORS
330
3CC4
102
}
330
3C61
100
AcDbEntity
  8
WAKU
 48
2.0
100
AcDbLine
 10
19.13857686814759
 20
2.880852936746805
 30
0.0
 11
19.13857686814759
 21
3.15883286274618
 31
0.0
  0
LINE
  5
3CEC
102
{ACAD_REACTORS
330
3CC4
102
}
330
3C61
100
AcDbEntity
  8
WAKU
 48
2.0
100
AcDbLine
 10
18.29806464917993
 20
2.880852936746805
 30
0.0
 11
19.13857686814759
 21
2.880852936746805
 31
0.0
  0
LINE
  5
3CED
102
{ACAD_REACTORS
330
3CC4
102
}
330
3C61
100
AcDbEntity
  8
WAKU
 48
2.0
100
AcDbLine
 10
18.29806464917993
 20
2.613862408754698
 30
0.0
 11
18.29806464917993
 21
2.880852936746805
 31
0.0
  0
LINE
  5
3CEE
102
{ACAD_REACTORS
330
3CC4
102
}
330
3C61
100
AcDbEntity
  8
WAKU
 48
2.0
100
AcDbLine
 10
20.49404263728189
 20
2.613862408754698
 30
0.0
 11
20.2527363118117
 21
2.613862408754698
 31
0.0
  0
LINE
  5
3CEF
102
{ACAD_REACTORS
330
3CC4
102
}
330
3C61
100
AcDbEntity
  8
WAKU
 48
2.0
100
AcDbLine
 10
20.49404263728189
 20
2.880852936746805
 30
0.0
 11
20.49404263728189
 21
2.613862408754698
 31
0.0
  0
LINE
  5
3CF0
102
{ACAD_REACTORS
330
3CC4
102
}
330
3C61
100
AcDbEntity
  8
WAKU
 48
2.0
100
AcDbLine
 10
19.70692798201418
 20
2.880852936746805
 30
0.0
 11
20.49404263728189
 21
2.880852936746805
 31
0.0
  0
LINE
  5
3CF1
102
{ACAD_REACTORS
330
3CC4
102
}
330
3C61
100
AcDbEntity
  8
WAKU
 48
2.0
100
AcDbLine
 10
19.70692798201418
 20
3.15883286274618
 30
0.0
 11
19.70692798201418
 21
2.880852936746805
 31
0.0
  0
LINE
  5
3CF2
102
{ACAD_REACTORS
330
3CC4
102
}
330
3C61
100
AcDbEntity
  8
WAKU
 48
2.0
100
AcDbLine
 10
19.13857686814759
 20
3.15883286274618
 30
0.0
 11
19.70692798201418
 21
3.15883286274618
 31
0.0
  0
LINE
  5
3CF3
330
3C61
100
AcDbEntity
  8
WAKU
 48
2.0
100
AcDbLine
 10
16.37843116176958
 20
0.8557199604838388
 30
0.0
 11
17.14385781395873
 21
0.1010431900605226
 31
0.0
  0
LINE
  5
3CF4
330
3C61
100
AcDbEntity
  8
WAKU
 48
2.0
100
AcDbLine
 10
17.14385781395873
 20
0.1010431900605226
 30
0.0
 11
17.77392451259749
 21
0.1010431900605226
 31
0.0
  0
LINE
  5
3CF5
330
3C61
100
AcDbEntity
  8
WAKU
 48
2.0
100
AcDbLine
 10
17.77392451259749
 20
0.1851751212827821
 30
0.0
 11
17.77392451259749
 21
0.1010431900605226
 31
0.0
  0
LINE
  5
3CF6
330
3C61
100
AcDbEntity
  8
WAKU
 48
2.0
100
AcDbLine
 10
17.12786640961775
 20
0.8557199604838388
 30
0.0
 11
17.77392451259749
 21
0.1851751212827821
 31
0.0
  0
LINE
  5
3CF7
330
3C61
100
AcDbEntity
  8
WAKU
 48
2.0
100
AcDbLine
 10
17.84350357390696
 20
0.8557199604838388
 30
0.0
 11
17.12786640961775
 21
0.8557199604838388
 31
0.0
  0
LINE
  5
3CF8
330
3C61
100
AcDbEntity
  8
WAKU
 48
2.0
100
AcDbLine
 10
17.84350357390696
 20
1.115430757834474
 30
0.0
 11
17.84350357390696
 21
0.8557199604838388
 31
0.0
  0
LINE
  5
3CF9
330
3C61
100
AcDbEntity
  8
WAKU
 48
2.0
100
AcDbLine
 10
17.7832881719508
 20
1.613099020403296
 30
0.0
 11
17.7832881719508
 21
1.387863879078395
 31
0.0
  0
LINE
  5
3CFA
330
3C61
100
AcDbEntity
  8
WAKU
 48
2.0
100
AcDbLine
 10
16.61224696764071
 20
2.756618405090648
 30
0.0
 11
16.76346898034075
 21
2.756618405090648
 31
0.0
  0
LINE
  5
3CFB
330
3C61
100
AcDbEntity
  8
WAKU
 48
2.0
100
AcDbLine
 10
16.61224696764071
 20
3.08949484892139
 30
0.0
 11
16.61224696764071
 21
2.756618405090648
 31
0.0
  0
LINE
  5
3CFC
330
3C61
100
AcDbEntity
  8
WAKU
 48
2.0
100
AcDbLine
 10
16.8086039580275
 20
2.127709306108954
 30
0.0
 11
17.85742023442236
 21
2.127709306108954
 31
0.0
  0
LINE
  5
3CFD
330
3C61
100
AcDbEntity
  8
WAKU
 48
2.0
100
AcDbLine
 10
16.5420534215886
 20
2.491766570122649
 30
0.0
 11
16.23063073689553
 21
2.127709306108954
 31
0.0
  0
LINE
  5
3CFE
330
3C61
100
AcDbEntity
  8
WAKU
 48
2.0
100
AcDbLine
 10
17.13886008365836
 20
2.491766570122649
 30
0.0
 11
16.8086039580275
 21
2.127709306108954
 31
0.0
  0
LINE
  5
3CFF
330
3C61
100
AcDbEntity
  8
WAKU
 48
2.0
100
AcDbLine
 10
17.31738914699673
 20
2.756618405090648
 30
0.0
 11
17.8338080989775
 21
2.756618405090648
 31
0.0
  0
LINE
  5
3D00
330
3C61
100
AcDbEntity
  8
WAKU
 48
2.0
100
AcDbLine
 10
17.61935945639612
 20
3.08949484892139
 30
0.0
 11
17.31738914699673
 21
2.756618405090648
 31
0.0
  0
LINE
  5
3D01
330
3C61
100
AcDbEntity
  8
WAKU
 48
2.0
100
AcDbLine
 10
17.04821889760905
 20
3.08949484892139
 30
0.0
 11
16.76346898034075
 21
2.756618405090648
 31
0.0
  0
LINE
  5
3D02
330
3C61
100
AcDbEntity
  8
WAKU
 48
2.0
100
AcDbLine
 10
17.85742023442236
 20
2.127709306108954
 30
0.0
 11
17.85742023442236
 21
1.934939643537859
 31
0.0
  0
LINE
  5
3D03
330
3C61
100
AcDbEntity
  8
WAKU
 48
2.0
100
AcDbLine
 10
17.8338080989775
 20
2.491766570122649
 30
0.0
 11
17.13886008365836
 21
2.491766570122649
 31
0.0
  0
LINE
  5
3D04
330
3C61
100
AcDbEntity
  8
WAKU
 48
2.0
100
AcDbLine
 10
17.8338080989775
 20
2.756618405090648
 30
0.0
 11
17.8338080989775
 21
2.491766570122649
 31
0.0
  0
LINE
  5
3D05
102
{ACAD_REACTORS
330
3CC4
102
}
330
3C61
100
AcDbEntity
  8
WAKU
 48
2.0
100
AcDbLine
 10
22.02268149812704
 20
3.009969679040295
 30
0.0
 11
21.76408290766659
 21
3.03150803398239
 31
0.0
  0
LINE
  5
3D06
102
{ACAD_REACTORS
330
3CC4
102
}
330
3C61
100
AcDbEntity
  8
WAKU
 48
2.0
100
AcDbLine
 10
22.10888102828068
 20
2.961508708129599
 30
0.0
 11
22.02268149812704
 21
3.009969679040295
 31
0.0
  0
LINE
  5
3D07
102
{ACAD_REACTORS
330
3CC4
102
}
330
3C61
100
AcDbEntity
  8
WAKU
 48
2.0
100
AcDbLine
 10
22.15736826399194
 20
2.810740878952856
 30
0.0
 11
22.10888102828068
 21
2.961508708129599
 31
0.0
  0
LINE
  5
3D08
102
{ACAD_REACTORS
330
3CC4
102
}
330
3C61
100
AcDbEntity
  8
WAKU
 48
2.0
100
AcDbLine
 10
21.93648196797363
 20
1.927670292579705
 30
0.0
 11
22.15736826399194
 21
2.810740878952856
 31
0.0
  0
LINE
  5
3D09
102
{ACAD_REACTORS
330
3CC4
102
}
330
3C61
100
AcDbEntity
  8
WAKU
 48
2.0
100
AcDbLine
 10
22.04961885130007
 20
1.760748369487146
 30
0.0
 11
21.93648196797363
 21
1.927670292579705
 31
0.0
  0
LINE
  5
3D0A
102
{ACAD_REACTORS
330
3CC4
102
}
330
3C61
100
AcDbEntity
  8
WAKU
 48
2.0
100
AcDbLine
 10
22.16814320526129
 20
1.37305863594679
 30
0.0
 11
22.04961885130007
 21
1.760748369487146
 31
0.0
  0
LINE
  5
3D0B
102
{ACAD_REACTORS
330
3CC4
102
}
330
3C61
100
AcDbEntity
  8
WAKU
 48
2.0
100
AcDbLine
 10
22.20585549970343
 20
0.8292161567848097
 30
0.0
 11
22.16814320526129
 21
1.37305863594679
 31
0.0
  0
LINE
  5
3D0C
102
{ACAD_REACTORS
330
3CC4
102
}
330
3C61
100
AcDbEntity
  8
WAKU
 48
2.0
100
AcDbLine
 10
22.15452891558635
 20
0.5214222797100092
 30
0.0
 11
22.20585549970343
 21
0.8292161567848097
 31
0.0
  0
LINE
  5
3D0D
102
{ACAD_REACTORS
330
3CC4
102
}
330
3C61
100
AcDbEntity
  8
WAKU
 48
2.0
100
AcDbLine
 10
21.96341932114666
 20
0.3176818654548015
 30
0.0
 11
22.15452891558635
 21
0.5214222797100092
 31
0.0
  0
LINE
  5
3D0E
102
{ACAD_REACTORS
330
3CC4
102
}
330
3C61
100
AcDbEntity
  8
WAKU
 48
2.0
100
AcDbLine
 10
21.69867195245121
 20
0.9422928479403935
 30
0.0
 11
21.66095859769217
 21
0.7430633924346921
 31
0.0
  0
LINE
  5
3D0F
102
{ACAD_REACTORS
330
3CC4
102
}
330
3C61
100
AcDbEntity
  8
WAKU
 48
2.0
100
AcDbLine
 10
21.69328342149976
 20
1.195367535383297
 30
0.0
 11
21.69867195245121
 21
0.9422928479403935
 31
0.0
  0
LINE
  5
3D10
102
{ACAD_REACTORS
330
3CC4
102
}
330
3C61
100
AcDbEntity
  8
WAKU
 48
2.0
100
AcDbLine
 10
21.65018365642283
 20
1.475365494212837
 30
0.0
 11
21.69328342149976
 21
1.195367535383297
 31
0.0
  0
HATCH
  5
3D11
330
3C61
100
AcDbEntity
  8
WAKU
 48
2.0
100
AcDbHatch
 10
0.0
 20
0.0
 30
0.0
210
0.0
220
0.0
230
1.0
  2
SOLID
 70
     1
 71
     1
 91
        3
 92
        7
 72
     0
 73
     1
 93
       18
 10
6.599169252445165
 20
2.978104279062563
 10
4.861815474328579
 20
2.978104279062563
 10
4.861815474328579
 20
2.725886878707116
 10
5.519817199266356
 20
2.725886878707118
 10
5.771599278801943
 20
2.318459224191654
 10
4.784168461029651
 20
2.318459224191656
 10
4.784168461029651
 20
-0.0000002966870625
 10
5.453874215811595
 20
-0.0000002966870625
 10
5.453874215811595
 20
2.066241823836207
 10
8.899464407136747
 20
2.066241823836206
 10
8.899464407136804
 20
2.318459224191656
 10
8.038551786085122
 20
2.318459224191657
 10
8.277316280569948
 20
2.725886878707115
 10
8.909170548878421
 20
2.725886878707115
 10
8.909170548878478
 20
2.978104279062565
 10
7.181522912503453
 20
2.978104279062565
 10
7.18152291250351
 20
3.240022525121164
 10
6.599169252445165
 20
3.240022525121162
 97
       18
330
3D14
330
3D2C
330
3D2D
330
3D2E
330
3D30
330
3D2F
330
3D21
330
3D2B
330
3D29
330
3D26
330
3D27
330
3D28
330
3D17
330
3D3D
330
3D3A
330
3D3E
330
3D40
330
3D41
 92
       23
 72
     0
 73
     1
 93
        4
 10
7.726438777341513
 20
2.725886878707115
 10
6.099030281016439
 20
2.725886878707116
 10
6.350812360551969
 20
2.318459224191657
 10
7.487674282856573
 20
2.318459224191656
 97
        4
330
3D3F
330
3D15
330
3D2A
330
3D16
 92
        7
 72
     0
 73
     1
 93
       26
 10
7.763875512244851
 20
1.231984823398988
 10
8.880053183970687
 20
1.231984823398988
 10
8.880053183970687
 20
1.51330410544574
 10
7.763875512244851
 20
1.51330410544574
 10
7.763875512244851
 20
1.764944298685691
 10
7.171816770761836
 20
1.764944298685579
 10
7.171816770761893
 20
1.513304105445742
 10
6.385639435714722
 20
1.51330410544574
 10
6.385639435714722
 20
1.794046180376881
 10
5.842110342622675
 20
1.794046180376996
 10
5.842110342622618
 20
1.231984823398988
 10
7.171816770761836
 20
1.231984823398988
 10
7.171816770761893
 20
0.8924611225511398
 10
5.880933849272253
 20
0.8924611225511398
 10
5.880933849272309
 20
0.6402437221956934
 10
7.171816770761836
 20
0.6402437221956916
 10
7.171816770761836
 20
0.2425162579652333
 10
5.842110342622675
 20
0.2425162579652351
 10
5.842110342622675
 20
-0.0000002966870642
 10
8.880053183970687
 20
-0.0000002966870625
 10
8.880053183970687
 20
0.2425162579652351
 10
7.763875512244851
 20
0.2425162579652351
 10
7.763875512244851
 20
0.6402437221956934
 10
8.870347042229127
 20
0.6402437221956934
 10
8.87034704222907
 20
0.8924611225511398
 10
7.763875512244908
 20
0.8924611225511398
 97
       26
330
3D3B
330
3D3C
330
3D35
330
3D39
330
3D12
330
3D20
330
3D25
330
3D22
330
3D23
330
3D24
330
3D1B
330
3D18
330
3D1F
330
3D1E
330
3D1A
330
3D19
330
3D1D
330
3D1C
330
3D13
330
3D36
330
3D33
330
3D32
330
3D37
330
3D38
330
3D34
330
3D31
 75
     0
 76
     1
 47
0.0366028688351672
 98
        3
 10
6.864855714998782
 20
2.896491786289516
 10
6.864855714998782
 20
2.896491786289516
 10
7.670550811896362
 20
1.17615669408633
450
        0
451
        0
460
0.0
461
0.0
452
        0
462
0.0
453
        0
470

  0
LINE
  5
3D12
102
{ACAD_REACTORS
330
3D11
102
}
330
3C61
100
AcDbEntity
  8
WAKU
 48
2.0
100
AcDbLine
 10
7.171816770761836
 20
1.764944298685577
 30
0.0
 11
7.763875512244851
 21
1.764944298685691
 31
0.0
  0
LINE
  5
3D13
102
{ACAD_REACTORS
330
3D11
102
}
330
3C61
100
AcDbEntity
  8
WAKU
 48
2.0
100
AcDbLine
 10
8.880053183970687
 20
-0.0000002966870625
 30
0.0
 11
5.842110342622675
 21
-0.0000002966870625
 31
0.0
  0
LINE
  5
3D14
102
{ACAD_REACTORS
330
3D11
102
}
330
3C61
100
AcDbEntity
  8
WAKU
 48
2.0
100
AcDbLine
 10
7.181522912503453
 20
2.978104279062563
 30
0.0
 11
8.909170548878421
 21
2.978104279062563
 31
0.0
  0
LINE
  5
3D15
102
{ACAD_REACTORS
330
3D11
102
}
330
3C61
100
AcDbEntity
  8
WAKU
 48
2.0
100
AcDbLine
 10
6.350812360552083
 20
2.318459224191656
 30
0.0
 11
7.487674282856403
 21
2.318459224191656
 31
0.0
  0
LINE
  5
3D16
102
{ACAD_REACTORS
330
3D11
102
}
330
3C61
100
AcDbEntity
  8
WAKU
 48
2.0
100
AcDbLine
 10
7.726438777341343
 20
2.725886878707115
 30
0.0
 11
6.099030281016382
 21
2.725886878707115
 31
0.0
  0
LINE
  5
3D17
102
{ACAD_REACTORS
330
3D11
102
}
330
3C61
100
AcDbEntity
  8
WAKU
 48
2.0
100
AcDbLine
 10
8.899464407136804
 20
2.066241823836207
 30
0.0
 11
5.453874215811595
 21
2.066241823836207
 31
0.0
  0
LINE
  5
3D18
102
{ACAD_REACTORS
330
3D11
102
}
330
3C61
100
AcDbEntity
  8
WAKU
 48
2.0
100
AcDbLine
 10
7.171816770761836
 20
1.231984823398988
 30
0.0
 11
7.171816770761836
 21
0.8924611225511398
 31
0.0
  0
LINE
  5
3D19
102
{ACAD_REACTORS
330
3D11
102
}
330
3C61
100
AcDbEntity
  8
WAKU
 48
2.0
100
AcDbLine
 10
7.171816770761836
 20
0.6402437221956916
 30
0.0
 11
7.171816770761836
 21
0.2425162579652351
 31
0.0
  0
LINE
  5
3D1A
102
{ACAD_REACTORS
330
3D11
102
}
330
3C61
100
AcDbEntity
  8
WAKU
 48
2.0
100
AcDbLine
 10
7.171816770761836
 20
0.6402437221956916
 30
0.0
 11
5.880933849272253
 21
0.6402437221956916
 31
0.0
  0
LINE
  5
3D1B
102
{ACAD_REACTORS
330
3D11
102
}
330
3C61
100
AcDbEntity
  8
WAKU
 48
2.0
100
AcDbLine
 10
7.171816770761836
 20
1.231984823398988
 30
0.0
 11
5.842110342622675
 21
1.231984823398988
 31
0.0
  0
LINE
  5
3D1C
102
{ACAD_REACTORS
330
3D11
102
}
330
3C61
100
AcDbEntity
  8
WAKU
 48
2.0
100
AcDbLine
 10
5.842110342622675
 20
-0.0000002966870625
 30
0.0
 11
5.842110342622675
 21
0.2425162579652351
 31
0.0
  0
LINE
  5
3D1D
102
{ACAD_REACTORS
330
3D11
102
}
330
3C61
100
AcDbEntity
  8
WAKU
 48
2.0
100
AcDbLine
 10
5.842110342622675
 20
0.2425162579652351
 30
0.0
 11
7.171816770761836
 21
0.2425162579652351
 31
0.0
  0
LINE
  5
3D1E
102
{ACAD_REACTORS
330
3D11
102
}
330
3C61
100
AcDbEntity
  8
WAKU
 48
2.0
100
AcDbLine
 10
5.880933849272253
 20
0.8924611225511398
 30
0.0
 11
5.880933849272253
 21
0.6402437221956916
 31
0.0
  0
LINE
  5
3D1F
102
{ACAD_REACTORS
330
3D11
102
}
330
3C61
100
AcDbEntity
  8
WAKU
 48
2.0
100
AcDbLine
 10
5.880933849272253
 20
0.8924611225511398
 30
0.0
 11
7.171816770761836
 21
0.8924611225511398
 31
0.0
  0
LINE
  5
3D20
102
{ACAD_REACTORS
330
3D11
102
}
330
3C61
100
AcDbEntity
  8
WAKU
 48
2.0
100
AcDbLine
 10
7.171816770761836
 20
1.764944298685577
 30
0.0
 11
7.171816770761836
 21
1.51330410544574
 31
0.0
  0
LINE
  5
3D21
102
{ACAD_REACTORS
330
3D11
102
}
330
3C61
100
AcDbEntity
  8
WAKU
 48
2.0
100
AcDbLine
 10
5.519817199266356
 20
2.725886878707115
 30
0.0
 11
4.861815474328579
 21
2.725886878707115
 31
0.0
  0
LINE
  5
3D22
102
{ACAD_REACTORS
330
3D11
102
}
330
3C61
100
AcDbEntity
  8
WAKU
 48
2.0
100
AcDbLine
 10
6.385639435714722
 20
1.794046180376881
 30
0.0
 11
6.385639435714722
 21
1.51330410544574
 31
0.0
  0
LINE
  5
3D23
102
{ACAD_REACTORS
330
3D11
102
}
330
3C61
100
AcDbEntity
  8
WAKU
 48
2.0
100
AcDbLine
 10
5.842110342622675
 20
1.794046180376994
 30
0.0
 11
6.385639435714722
 21
1.794046180376881
 31
0.0
  0
LINE
  5
3D24
102
{ACAD_REACTORS
330
3D11
102
}
330
3C61
100
AcDbEntity
  8
WAKU
 48
2.0
100
AcDbLine
 10
5.842110342622675
 20
1.231984823398988
 30
0.0
 11
5.842110342622675
 21
1.794046180376994
 31
0.0
  0
LINE
  5
3D25
102
{ACAD_REACTORS
330
3D11
102
}
330
3C61
100
AcDbEntity
  8
WAKU
 48
2.0
100
AcDbLine
 10
6.385639435714722
 20
1.51330410544574
 30
0.0
 11
7.171816770761836
 21
1.51330410544574
 31
0.0
  0
LINE
  5
3D26
102
{ACAD_REACTORS
330
3D11
102
}
330
3C61
100
AcDbEntity
  8
WAKU
 48
2.0
100
AcDbLine
 10
4.784168461029651
 20
-0.0000002966870625
 30
0.0
 11
4.784168461029651
 21
2.318459224191656
 31
0.0
  0
LINE
  5
3D27
102
{ACAD_REACTORS
330
3D11
102
}
330
3C61
100
AcDbEntity
  8
WAKU
 48
2.0
100
AcDbLine
 10
5.453874215811595
 20
-0.0000002966870625
 30
0.0
 11
4.784168461029651
 21
-0.0000002966870625
 31
0.0
  0
LINE
  5
3D28
102
{ACAD_REACTORS
330
3D11
102
}
330
3C61
100
AcDbEntity
  8
WAKU
 48
2.0
100
AcDbLine
 10
5.453874215811595
 20
2.066241823836207
 30
0.0
 11
5.453874215811595
 21
-0.0000002966870625
 31
0.0
  0
LINE
  5
3D29
102
{ACAD_REACTORS
330
3D11
102
}
330
3C61
100
AcDbEntity
  8
WAKU
 48
2.0
100
AcDbLine
 10
4.784168461029651
 20
2.318459224191656
 30
0.0
 11
5.771599278801943
 21
2.318459224191656
 31
0.0
  0
LINE
  5
3D2A
102
{ACAD_REACTORS
330
3D11
102
}
330
3C61
100
AcDbEntity
  8
WAKU
 48
2.0
100
AcDbLine
 10
6.099030281016382
 20
2.725886878707115
 30
0.0
 11
6.350812360551969
 21
2.318459224191656
 31
0.0
  0
LINE
  5
3D2B
102
{ACAD_REACTORS
330
3D11
102
}
330
3C61
100
AcDbEntity
  8
WAKU
 48
2.0
100
AcDbLine
 10
5.519817199266356
 20
2.725886878707115
 30
0.0
 11
5.771599278801943
 21
2.318459224191656
 31
0.0
  0
LINE
  5
3D2C
102
{ACAD_REACTORS
330
3D11
102
}
330
3C61
100
AcDbEntity
  8
WAKU
 48
2.0
100
AcDbLine
 10
7.181522912503453
 20
3.240022525121162
 30
0.0
 11
7.181522912503453
 21
2.978104279062563
 31
0.0
  0
LINE
  5
3D2D
102
{ACAD_REACTORS
330
3D11
102
}
330
3C61
100
AcDbEntity
  8
WAKU
 48
2.0
100
AcDbLine
 10
6.599169252445165
 20
3.240022525121162
 30
0.0
 11
7.181522912503453
 21
3.240022525121162
 31
0.0
  0
LINE
  5
3D2E
102
{ACAD_REACTORS
330
3D11
102
}
330
3C61
100
AcDbEntity
  8
WAKU
 48
2.0
100
AcDbLine
 10
6.599169252445165
 20
3.240022525121162
 30
0.0
 11
6.599169252445165
 21
2.978104279062563
 31
0.0
  0
LINE
  5
3D2F
102
{ACAD_REACTORS
330
3D11
102
}
330
3C61
100
AcDbEntity
  8
WAKU
 48
2.0
100
AcDbLine
 10
4.861815474328579
 20
2.725886878707115
 30
0.0
 11
4.861815474328579
 21
2.978104279062563
 31
0.0
  0
LINE
  5
3D30
102
{ACAD_REACTORS
330
3D11
102
}
330
3C61
100
AcDbEntity
  8
WAKU
 48
2.0
100
AcDbLine
 10
4.861815474328579
 20
2.978104279062563
 30
0.0
 11
6.599169252445165
 21
2.978104279062563
 31
0.0
  0
LINE
  5
3D31
102
{ACAD_REACTORS
330
3D11
102
}
330
3C61
100
AcDbEntity
  8
WAKU
 48
2.0
100
AcDbLine
 10
7.763875512244851
 20
1.231984823398988
 30
0.0
 11
7.763875512244851
 21
0.8924611225511398
 31
0.0
  0
LINE
  5
3D32
102
{ACAD_REACTORS
330
3D11
102
}
330
3C61
100
AcDbEntity
  8
WAKU
 48
2.0
100
AcDbLine
 10
7.763875512244851
 20
0.6402437221956916
 30
0.0
 11
7.763875512244851
 21
0.2425162579652351
 31
0.0
  0
LINE
  5
3D33
102
{ACAD_REACTORS
330
3D11
102
}
330
3C61
100
AcDbEntity
  8
WAKU
 48
2.0
100
AcDbLine
 10
7.763875512244851
 20
0.2425162579652351
 30
0.0
 11
8.880053183970687
 21
0.2425162579652351
 31
0.0
  0
LINE
  5
3D34
102
{ACAD_REACTORS
330
3D11
102
}
330
3C61
100
AcDbEntity
  8
WAKU
 48
2.0
100
AcDbLine
 10
7.763875512244851
 20
0.8924611225511398
 30
0.0
 11
8.87034704222907
 21
0.8924611225511398
 31
0.0
  0
LINE
  5
3D35
102
{ACAD_REACTORS
330
3D11
102
}
330
3C61
100
AcDbEntity
  8
WAKU
 48
2.0
100
AcDbLine
 10
7.763875512244851
 20
1.51330410544574
 30
0.0
 11
8.880053183970687
 21
1.51330410544574
 31
0.0
  0
LINE
  5
3D36
102
{ACAD_REACTORS
330
3D11
102
}
330
3C61
100
AcDbEntity
  8
WAKU
 48
2.0
100
AcDbLine
 10
8.880053183970687
 20
0.2425162579652351
 30
0.0
 11
8.880053183970687
 21
-0.0000002966870625
 31
0.0
  0
LINE
  5
3D37
102
{ACAD_REACTORS
330
3D11
102
}
330
3C61
100
AcDbEntity
  8
WAKU
 48
2.0
100
AcDbLine
 10
8.87034704222907
 20
0.6402437221956916
 30
0.0
 11
7.763875512244851
 21
0.6402437221956916
 31
0.0
  0
LINE
  5
3D38
102
{ACAD_REACTORS
330
3D11
102
}
330
3C61
100
AcDbEntity
  8
WAKU
 48
2.0
100
AcDbLine
 10
8.87034704222907
 20
0.8924611225511398
 30
0.0
 11
8.87034704222907
 21
0.6402437221956916
 31
0.0
  0
LINE
  5
3D39
102
{ACAD_REACTORS
330
3D11
102
}
330
3C61
100
AcDbEntity
  8
WAKU
 48
2.0
100
AcDbLine
 10
7.763875512244851
 20
1.764944298685691
 30
0.0
 11
7.763875512244851
 21
1.51330410544574
 31
0.0
  0
LINE
  5
3D3A
102
{ACAD_REACTORS
330
3D11
102
}
330
3C61
100
AcDbEntity
  8
WAKU
 48
2.0
100
AcDbLine
 10
8.038551786085065
 20
2.318459224191656
 30
0.0
 11
8.899464407136804
 21
2.318459224191656
 31
0.0
  0
LINE
  5
3D3B
102
{ACAD_REACTORS
330
3D11
102
}
330
3C61
100
AcDbEntity
  8
WAKU
 48
2.0
100
AcDbLine
 10
8.880053183970687
 20
1.231984823398988
 30
0.0
 11
7.763875512244851
 21
1.231984823398988
 31
0.0
  0
LINE
  5
3D3C
102
{ACAD_REACTORS
330
3D11
102
}
330
3C61
100
AcDbEntity
  8
WAKU
 48
2.0
100
AcDbLine
 10
8.880053183970687
 20
1.51330410544574
 30
0.0
 11
8.880053183970687
 21
1.231984823398988
 31
0.0
  0
LINE
  5
3D3D
102
{ACAD_REACTORS
330
3D11
102
}
330
3C61
100
AcDbEntity
  8
WAKU
 48
2.0
100
AcDbLine
 10
8.899464407136804
 20
2.318459224191656
 30
0.0
 11
8.899464407136804
 21
2.066241823836207
 31
0.0
  0
LINE
  5
3D3E
102
{ACAD_REACTORS
330
3D11
102
}
330
3C61
100
AcDbEntity
  8
WAKU
 48
2.0
100
AcDbLine
 10
8.277316280570005
 20
2.725886878707115
 30
0.0
 11
8.038551786085065
 21
2.318459224191656
 31
0.0
  0
LINE
  5
3D3F
102
{ACAD_REACTORS
330
3D11
102
}
330
3C61
100
AcDbEntity
  8
WAKU
 48
2.0
100
AcDbLine
 10
7.726438777341456
 20
2.725886878707115
 30
0.0
 11
7.487674282856517
 21
2.318459224191656
 31
0.0
  0
LINE
  5
3D40
102
{ACAD_REACTORS
330
3D11
102
}
330
3C61
100
AcDbEntity
  8
WAKU
 48
2.0
100
AcDbLine
 10
8.909170548878421
 20
2.725886878707115
 30
0.0
 11
8.277316280570005
 21
2.725886878707115
 31
0.0
  0
LINE
  5
3D41
102
{ACAD_REACTORS
330
3D11
102
}
330
3C61
100
AcDbEntity
  8
WAKU
 48
2.0
100
AcDbLine
 10
8.909170548878421
 20
2.978104279062563
 30
0.0
 11
8.909170548878421
 21
2.725886878707115
 31
0.0
  0
LINE
  5
3D42
102
{ACAD_REACTORS
330
3D5C
102
}
330
3C61
100
AcDbEntity
  8
WAKU
 48
2.0
100
AcDbLine
 10
4.115397439683931
 20
-0.0000002966870625
 30
0.0
 11
-0.0000003248666758
 21
-0.0000002966870625
 31
0.0
  0
LINE
  5
3D43
102
{ACAD_REACTORS
330
3D5C
102
}
330
3C61
100
AcDbEntity
  8
WAKU
 48
2.0
100
AcDbLine
 10
1.901307714044435
 20
2.406902349753202
 30
0.0
 11
1.901307714044321
 21
1.672880782032137
 31
0.0
  0
LINE
  5
3D44
102
{ACAD_REACTORS
330
3D5C
102
}
330
3C61
100
AcDbEntity
  8
WAKU
 48
2.0
100
AcDbLine
 10
1.901307714044435
 20
1.280401336388351
 30
0.0
 11
1.901307714044435
 21
0.4354176349621853
 31
0.0
  0
LINE
  5
3D45
102
{ACAD_REACTORS
330
3D5C
102
}
330
3C61
100
AcDbEntity
  8
WAKU
 48
2.0
100
AcDbLine
 10
1.901307714044435
 20
1.280401336388351
 30
0.0
 11
0.0525925581537763
 21
1.280401336388351
 31
0.0
  0
LINE
  5
3D46
102
{ACAD_REACTORS
330
3D5C
102
}
330
3C61
100
AcDbEntity
  8
WAKU
 48
2.0
100
AcDbLine
 10
1.901307714044435
 20
2.406902349753202
 30
0.0
 11
-0.0000003248666758
 21
2.406902349753202
 31
0.0
  0
LINE
  5
3D47
102
{ACAD_REACTORS
330
3D5C
102
}
330
3C61
100
AcDbEntity
  8
WAKU
 48
2.0
100
AcDbLine
 10
-0.0000003248666758
 20
-0.0000002966870625
 30
0.0
 11
-0.0000003248666758
 21
0.4354176349621924
 31
0.0
  0
LINE
  5
3D48
102
{ACAD_REACTORS
330
3D5C
102
}
330
3C61
100
AcDbEntity
  8
WAKU
 48
2.0
100
AcDbLine
 10
-0.0000003248666758
 20
0.4354176349621924
 30
0.0
 11
1.901307714044435
 21
0.4354176349621853
 31
0.0
  0
LINE
  5
3D49
102
{ACAD_REACTORS
330
3D5C
102
}
330
3C61
100
AcDbEntity
  8
WAKU
 48
2.0
100
AcDbLine
 10
0.0525925581537763
 20
1.672880782032137
 30
0.0
 11
0.0525925581537763
 21
1.280401336388351
 31
0.0
  0
LINE
  5
3D4A
102
{ACAD_REACTORS
330
3D5C
102
}
330
3C61
100
AcDbEntity
  8
WAKU
 48
2.0
100
AcDbLine
 10
0.0525925581537763
 20
1.672880782032137
 30
0.0
 11
1.901307714044321
 21
1.672880782032137
 31
0.0
  0
LINE
  5
3D4B
102
{ACAD_REACTORS
330
3D5C
102
}
330
3C61
100
AcDbEntity
  8
WAKU
 48
2.0
100
AcDbLine
 10
1.901307714044435
 20
3.238155914628123
 30
0.0
 11
1.901307714044435
 21
2.780207329342871
 31
0.0
  0
LINE
  5
3D4C
102
{ACAD_REACTORS
330
3D5C
102
}
330
3C61
100
AcDbEntity
  8
WAKU
 48
2.0
100
AcDbLine
 10
0.6363000374163335
 20
3.238155914628123
 30
0.0
 11
0.6363000374163335
 21
2.780207329342871
 31
0.0
  0
LINE
  5
3D4D
102
{ACAD_REACTORS
330
3D5C
102
}
330
3C61
100
AcDbEntity
  8
WAKU
 48
2.0
100
AcDbLine
 10
-0.0000003248666758
 20
2.406902349753202
 30
0.0
 11
-0.0000003248666758
 21
3.238155914628123
 31
0.0
  0
LINE
  5
3D4E
102
{ACAD_REACTORS
330
3D5C
102
}
330
3C61
100
AcDbEntity
  8
WAKU
 48
2.0
100
AcDbLine
 10
0.6363000374163335
 20
2.780207329342871
 30
0.0
 11
1.901307714044435
 21
2.780207329342871
 31
0.0
  0
LINE
  5
3D4F
102
{ACAD_REACTORS
330
3D5C
102
}
330
3C61
100
AcDbEntity
  8
WAKU
 48
2.0
100
AcDbLine
 10
2.503349539196335
 20
2.406902349753195
 30
0.0
 11
2.503349539196335
 21
1.672880782032137
 31
0.0
  0
LINE
  5
3D50
102
{ACAD_REACTORS
330
3D5C
102
}
330
3C61
100
AcDbEntity
  8
WAKU
 48
2.0
100
AcDbLine
 10
2.503349539196221
 20
1.280401336388351
 30
0.0
 11
2.503349539196335
 21
0.4354176349621924
 31
0.0
  0
LINE
  5
3D51
102
{ACAD_REACTORS
330
3D5C
102
}
330
3C61
100
AcDbEntity
  8
WAKU
 48
2.0
100
AcDbLine
 10
2.503349539196335
 20
0.4354176349621924
 30
0.0
 11
4.115397439683931
 21
0.4354176349621924
 31
0.0
  0
LINE
  5
3D52
102
{ACAD_REACTORS
330
3D5C
102
}
330
3C61
100
AcDbEntity
  8
WAKU
 48
2.0
100
AcDbLine
 10
2.503349539196335
 20
1.672880782032137
 30
0.0
 11
4.102248859835128
 21
1.672880782032137
 31
0.0
  0
LINE
  5
3D53
102
{ACAD_REACTORS
330
3D5C
102
}
330
3C61
100
AcDbEntity
  8
WAKU
 48
2.0
100
AcDbLine
 10
2.503349539196335
 20
2.780207329342871
 30
0.0
 11
4.115397439683931
 21
2.780207329342871
 31
0.0
  0
LINE
  5
3D54
102
{ACAD_REACTORS
330
3D5C
102
}
330
3C61
100
AcDbEntity
  8
WAKU
 48
2.0
100
AcDbLine
 10
4.115397439683931
 20
0.4354176349621924
 30
0.0
 11
4.115397439683931
 21
-0.0000002966870625
 31
0.0
  0
LINE
  5
3D55
102
{ACAD_REACTORS
330
3D5C
102
}
330
3C61
100
AcDbEntity
  8
WAKU
 48
2.0
100
AcDbLine
 10
4.102248859835128
 20
1.280401336388351
 30
0.0
 11
2.503349539196221
 21
1.280401336388351
 31
0.0
  0
LINE
  5
3D56
102
{ACAD_REACTORS
330
3D5C
102
}
330
3C61
100
AcDbEntity
  8
WAKU
 48
2.0
100
AcDbLine
 10
4.102248859835128
 20
1.672880782032137
 30
0.0
 11
4.102248859835128
 21
1.280401336388351
 31
0.0
  0
LINE
  5
3D57
102
{ACAD_REACTORS
330
3D5C
102
}
330
3C61
100
AcDbEntity
  8
WAKU
 48
2.0
100
AcDbLine
 10
2.503349539196335
 20
3.238155914628123
 30
0.0
 11
2.503349539196335
 21
2.780207329342871
 31
0.0
  0
LINE
  5
3D58
102
{ACAD_REACTORS
330
3D5C
102
}
330
3C61
100
AcDbEntity
  8
WAKU
 48
2.0
100
AcDbLine
 10
4.115397439683931
 20
2.406902349753202
 30
0.0
 11
2.503349539196335
 21
2.406902349753195
 31
0.0
  0
LINE
  5
3D59
102
{ACAD_REACTORS
330
3D5C
102
}
330
3C61
100
AcDbEntity
  8
WAKU
 48
2.0
100
AcDbLine
 10
4.115397439683931
 20
2.780207329342871
 30
0.0
 11
4.115397439683931
 21
2.406902349753202
 31
0.0
  0
LINE
  5
3D5A
102
{ACAD_REACTORS
330
3D5C
102
}
330
3C61
100
AcDbEntity
  8
WAKU
 48
2.0
100
AcDbLine
 10
-0.0000003248666758
 20
3.238155914628123
 30
0.0
 11
0.6363000374163335
 21
3.238155914628123
 31
0.0
  0
LINE
  5
3D5B
102
{ACAD_REACTORS
330
3D5C
102
}
330
3C61
100
AcDbEntity
  8
WAKU
 48
2.0
100
AcDbLine
 10
1.901307714044435
 20
3.238155914628123
 30
0.0
 11
2.503349539196335
 21
3.238155914628123
 31
0.0
  0
HATCH
  5
3D5C
330
3C61
100
AcDbEntity
  8
WAKU
 48
2.0
100
AcDbHatch
 10
0.0
 20
0.0
 30
0.0
210
0.0
220
0.0
230
1.0
  2
SOLID
 70
     1
 71
     1
 91
        1
 92
        7
 72
     0
 73
     1
 93
       26
 10
2.503349539196335
 20
2.406902349753195
 10
4.115397439683931
 20
2.406902349753201
 10
4.115397439683874
 20
2.78020732934287
 10
2.503349539196392
 20
2.78020732934287
 10
2.503349539196335
 20
3.238155914628121
 10
1.901307714044378
 20
3.238155914628123
 10
1.901307714044435
 20
2.780207329342871
 10
0.6363000374163335
 20
2.780207329342871
 10
0.6363000374163335
 20
3.238155914628123
 10
-0.0000003248667326
 20
3.238155914628121
 10
-0.0000003248665621
 20
2.406902349753202
 10
1.901307714044492
 20
2.406902349753202
 10
1.901307714044321
 20
1.672880782032136
 10
0.0525925581537763
 20
1.672880782032136
 10
0.0525925581537763
 20
1.280401336388351
 10
1.901307714044378
 20
1.280401336388349
 10
1.901307714044492
 20
0.435417634962187
 10
-0.0000003248667326
 20
0.4354176349621959
 10
-0.0000003248666758
 20
-0.0000002966870625
 10
4.115397439683931
 20
-0.0000002966870625
 10
4.115397439683988
 20
0.4354176349621924
 10
2.503349539196392
 20
0.4354176349621906
 10
2.503349539196165
 20
1.280401336388351
 10
4.102248859835128
 20
1.280401336388351
 10
4.102248859835128
 20
1.672880782032136
 10
2.503349539196392
 20
1.672880782032139
 97
       26
330
3D58
330
3D59
330
3D53
330
3D57
330
3D5B
330
3D4B
330
3D4E
330
3D4C
330
3D5A
330
3D4D
330
3D46
330
3D43
330
3D4A
330
3D49
330
3D45
330
3D44
330
3D48
330
3D47
330
3D42
330
3D54
330
3D51
330
3D50
330
3D55
330
3D56
330
3D52
330
3D4F
 75
     0
 76
     1
 47
0.0150272706290981
 98
        1
 10
2.348301949750577
 20
2.17559421869339
450
        0
451
        0
460
0.0
461
0.0
452
        0
462
0.0
453
        0
470

  0
ENDBLK
  5
3D5E
330
3C61
100
AcDbEntity
  8
0
 48
2.0
100
AcDbBlockEnd
  0
BLOCK
  5
8BF4
330
8BEA
100
AcDbEntity
  8
0
 48
2.0
100
AcDbBlockBegin
  2
*D4
 70
     1
 10
0.0
 20
0.0
 30
0.0
  3
*D4
  1

  0
LINE
  5
903B
330
8BEA
100
AcDbEntity
  8
C6
 62
     0
440
 16777216
 48
2.0
370
    -2
100
AcDbLine
 10
1284.794367788844
 20
-626.7536927753633
 30
0.0
 11
1293.948080787454
 21
-626.7536927753633
 31
0.0
  0
LINE
  5
903C
330
8BEA
100
AcDbEntity
  8
C6
 62
     0
440
 16777216
 48
2.0
370
    -2
100
AcDbLine
 10
1284.794367788844
 20
-677.5093936118025
 30
0.0
 11
1293.948080787454
 21
-677.5093936118025
 31
0.0
  0
LINE
  5
903D
330
8BEA
100
AcDbEntity
  8
C6
 62
     0
440
 16777216
 48
2.0
370
    -2
100
AcDbLine
 10
1292.948080787454
 20
-627.7536927753633
 30
0.0
 11
1292.948080787454
 21
-676.5093936118026
 31
0.0
  0
INSERT
  5
903E
330
8BEA
100
AcDbEntity
  8
C6
 62
     0
440
 16777216
 48
2.0
370
    -2
100
AcDbBlockReference
  2
Y1
 10
1292.948080787454
 20
-626.7536927753633
 30
0.0
 50
90.0
  0
INSERT
  5
903F
330
8BEA
100
AcDbEntity
  8
C6
 62
     0
440
 16777216
 48
2.0
370
    -2
100
AcDbBlockReference
  2
Y1
 10
1292.948080787454
 20
-677.5093936118025
 30
0.0
 50
270.0
  0
MTEXT
  5
9040
330
8BEA
100
AcDbEntity
  8
C6
 62
     0
440
 16777216
 48
2.0
100
AcDbMText
 10
1291.198080787454
 20
-652.1315431935827
 30
0.0
 40
2.5
 41
0.0
 46
0.0
 71
     5
 72
     1
  1
\A1;（51）
  7
KANJI
 11
0.0000000000000001
 21
1.0
 31
0.0
 73
     1
 44
1.0
  0
POINT
  5
9041
330
8BEA
100
AcDbEntity
  8
DEFPOINTS
 62
     0
440
 16777216
 48
2.0
100
AcDbPoint
 10
1283.794367788844
 20
-626.7536927753633
 30
0.0
  0
POINT
  5
9042
330
8BEA
100
AcDbEntity
  8
DEFPOINTS
 62
     0
440
 16777216
 48
2.0
100
AcDbPoint
 10
1283.794367788844
 20
-677.5093936118025
 30
0.0
  0
POINT
  5
9043
330
8BEA
100
AcDbEntity
  8
DEFPOINTS
 62
     0
440
 16777216
 48
2.0
100
AcDbPoint
 10
1292.948080787454
 20
-677.5093936118025
 30
0.0
  0
ENDBLK
  5
8BF5
330
8BEA
100
AcDbEntity
  8
0
 48
2.0
100
AcDbBlockEnd
  0
BLOCK
  5
8EFB
330
8EF1
100
AcDbEntity
  8
0
 48
2.0
100
AcDbBlockBegin
  2
*D5
 70
     1
 10
0.0
 20
0.0
 30
0.0
  3
*D5
  1

  0
LINE
  5
9060
330
8EF1
100
AcDbEntity
  8
C6
 62
     0
440
 16777216
 48
2.0
370
    -2
100
AcDbLine
 10
1198.146563817358
 20
-678.5093936118025
 30
0.0
 11
1198.146563817358
 21
-679.8973669638317
 31
0.0
  0
LINE
  5
9061
330
8EF1
100
AcDbEntity
  8
C6
 62
     0
440
 16777216
 48
2.0
370
    -2
100
AcDbLine
 10
1283.794367788844
 20
-678.5093936118025
 30
0.0
 11
1283.794367788844
 21
-679.8973669638317
 31
0.0
  0
LINE
  5
9062
330
8EF1
100
AcDbEntity
  8
C6
 62
     0
440
 16777216
 48
2.0
370
    -2
100
AcDbLine
 10
1199.146563817358
 20
-678.8973669638316
 30
0.0
 11
1282.794367788844
 21
-678.8973669638316
 31
0.0
  0
INSERT
  5
9063
330
8EF1
100
AcDbEntity
  8
C6
 62
     0
440
 16777216
 48
2.0
370
    -2
100
AcDbBlockReference
  2
Y2
 10
1198.146563817358
 20
-678.8973669638316
 30
0.0
 50
180.0
  0
INSERT
  5
9064
330
8EF1
100
AcDbEntity
  8
C6
 62
     0
440
 16777216
 48
2.0
370
    -2
100
AcDbBlockReference
  2
Y2
 10
1283.794367788844
 20
-678.8973669638316
 30
0.0
  0
MTEXT
  5
9065
330
8EF1
100
AcDbEntity
  8
C6
 62
     0
440
 16777216
 48
2.0
100
AcDbMText
 10
1240.970465803101
 20
-677.1473669638317
 30
0.0
 40
2.5
 41
0.0
 46
0.0
 71
     5
 72
     1
  1
\A1;87
  7
KANJI
 73
     1
 44
1.0
  0
POINT
  5
9066
330
8EF1
100
AcDbEntity
  8
DEFPOINTS
 62
     0
440
 16777216
 48
2.0
100
AcDbPoint
 10
1198.146563817358
 20
-677.5093936118025
 30
0.0
  0
POINT
  5
9067
330
8EF1
100
AcDbEntity
  8
DEFPOINTS
 62
     0
440
 16777216
 48
2.0
100
AcDbPoint
 10
1283.794367788844
 20
-677.5093936118025
 30
0.0
  0
POINT
  5
9068
330
8EF1
100
AcDbEntity
  8
DEFPOINTS
 62
     0
440
 16777216
 48
2.0
100
AcDbPoint
 10
1283.794367788844
 20
-678.8973669638316
 30
0.0
  0
ENDBLK
  5
8EFC
330
8EF1
100
AcDbEntity
  8
0
 48
2.0
100
AcDbBlockEnd
  0
BLOCK
  5
8FD2
330
8FC8
100
AcDbEntity
  8
0
 48
2.0
100
AcDbBlockBegin
  2
*D6
 70
     1
 10
0.0
 20
0.0
 30
0.0
  3
*D6
  1

  0
LINE
  5
8FF2
330
8FC8
100
AcDbEntity
  8
C6
 62
     0
440
 16777216
 48
2.0
370
    -2
100
AcDbLine
 10
1280.755491137119
 20
-506.4734804917629
 30
0.0
 11
1299.309541521111
 21
-506.4734804917629
 31
0.0
  0
LINE
  5
8FF3
330
8FC8
100
AcDbEntity
  8
C6
 62
     0
440
 16777216
 48
2.0
370
    -2
100
AcDbLine
 10
1280.755491137108
 20
-535.3734804917291
 30
0.0
 11
1299.30954152111
 21
-535.3734804917291
 31
0.0
  0
LINE
  5
8FF4
330
8FC8
100
AcDbEntity
  8
C6
 62
     0
440
 16777216
 48
2.0
370
    -2
100
AcDbLine
 10
1298.309541521111
 20
-507.9734804917629
 30
0.0
 11
1298.30954152111
 21
-533.873480491729
 31
0.0
  0
INSERT
  5
8FF5
330
8FC8
100
AcDbEntity
  8
C6
 62
     0
440
 16777216
 48
2.0
370
    -2
100
AcDbBlockReference
  2
Y2
 10
1298.309541521111
 20
-506.4734804917629
 30
0.0
 41
1.5
 42
1.5
 43
1.5
 50
90.0
  0
INSERT
  5
8FF6
330
8FC8
100
AcDbEntity
  8
C6
 62
     0
440
 16777216
 48
2.0
370
    -2
100
AcDbBlockReference
  2
Y2
 10
1298.30954152111
 20
-535.3734804917291
 30
0.0
 41
1.5
 42
1.5
 43
1.5
 50
270.0
  0
MTEXT
  5
8FF7
330
8FC8
100
AcDbEntity
  8
C6
 62
     0
440
 16777216
 48
2.0
100
AcDbMText
 10
1295.55954152111
 20
-520.9234804917458
 30
0.0
 40
3.5
 41
0.0
 46
0.0
 71
     5
 72
     1
  1
\A1;29
  7
KANJI
 11
0.0000000000000001
 21
1.0
 31
0.0
 73
     1
 44
1.0
  0
POINT
  5
8FF8
330
8FC8
100
AcDbEntity
  8
DEFPOINTS
 62
     0
440
 16777216
 48
2.0
100
AcDbPoint
 10
1279.755491137119
 20
-506.4734804917629
 30
0.0
  0
POINT
  5
8FF9
330
8FC8
100
AcDbEntity
  8
DEFPOINTS
 62
     0
440
 16777216
 48
2.0
100
AcDbPoint
 10
1279.755491137108
 20
-535.3734804917289
 30
0.0
  0
POINT
  5
8FFA
330
8FC8
100
AcDbEntity
  8
DEFPOINTS
 62
     0
440
 16777216
 48
2.0
100
AcDbPoint
 10
1298.30954152111
 20
-535.3734804917291
 30
0.0
  0
ENDBLK
  5
8FD3
330
8FC8
100
AcDbEntity
  8
0
 48
2.0
100
AcDbBlockEnd
  0
BLOCK
  5
8FDE
330
8FD4
100
AcDbEntity
  8
0
 48
2.0
100
AcDbBlockBegin
  2
*D7
 70
     1
 10
0.0
 20
0.0
 30
0.0
  3
*D7
  1

  0
LINE
  5
8FFB
330
8FD4
100
AcDbEntity
  8
C6
 62
     0
440
 16777216
 48
2.0
370
    -2
100
AcDbLine
 10
1226.420473713599
 20
-575.2720576911006
 30
0.0
 11
1226.420473713599
 21
-594.0004613597966
 31
0.0
  0
LINE
  5
8FFC
330
8FD4
100
AcDbEntity
  8
C6
 62
     0
440
 16777216
 48
2.0
370
    -2
100
AcDbLine
 10
1255.520467962056
 20
-575.272057691108
 30
0.0
 11
1255.520467962056
 21
-594.0004613597966
 31
0.0
  0
LINE
  5
8FFD
330
8FD4
100
AcDbEntity
  8
C6
 62
     0
440
 16777216
 48
2.0
370
    -2
100
AcDbLine
 10
1227.420473713599
 20
-593.0004613597966
 30
0.0
 11
1254.520467962056
 21
-593.0004613597966
 31
0.0
  0
INSERT
  5
8FFE
330
8FD4
100
AcDbEntity
  8
C6
 62
     0
440
 16777216
 48
2.0
370
    -2
100
AcDbBlockReference
  2
Y2
 10
1226.420473713599
 20
-593.0004613597966
 30
0.0
 50
180.0
  0
INSERT
  5
8FFF
330
8FD4
100
AcDbEntity
  8
C6
 62
     0
440
 16777216
 48
2.0
370
    -2
100
AcDbBlockReference
  2
Y2
 10
1255.520467962056
 20
-593.0004613597966
 30
0.0
  0
MTEXT
  5
9000
330
8FD4
100
AcDbEntity
  8
C6
 62
     0
440
 16777216
 48
2.0
100
AcDbMText
 10
1240.970470837827
 20
-591.0004613597966
 30
0.0
 40
3.0
 41
0.0
 46
0.0
 71
     5
 72
     1
  1
\A1;29
  7
KANJI
 73
     1
 44
1.0
  0
POINT
  5
9001
330
8FD4
100
AcDbEntity
  8
DEFPOINTS
 62
     0
440
 16777216
 48
2.0
100
AcDbPoint
 10
1226.420473713599
 20
-574.2720576911006
 30
0.0
  0
POINT
  5
9002
330
8FD4
100
AcDbEntity
  8
DEFPOINTS
 62
     0
440
 16777216
 48
2.0
100
AcDbPoint
 10
1255.520467962056
 20
-574.272057691108
 30
0.0
  0
POINT
  5
9003
330
8FD4
100
AcDbEntity
  8
DEFPOINTS
 62
     0
440
 16777216
 48
2.0
100
AcDbPoint
 10
1255.520467962056
 20
-593.0004613597966
 30
0.0
  0
ENDBLK
  5
8FDF
330
8FD4
100
AcDbEntity
  8
0
 48
2.0
100
AcDbBlockEnd
  0
BLOCK
  5
90BD
330
90B3
100
AcDbEntity
  8
0
 48
2.0
100
AcDbBlockBegin
  2
*D8
 70
     1
 10
0.0
 20
0.0
 30
0.0
  3
*D8
  1

  0
LINE
  5
90C8
330
90B3
100
AcDbEntity
  8
C6
 62
     0
440
 16777216
 48
2.0
370
    -2
100
AcDbLine
 10
1251.520473346442
 20
-462.656306291125
 30
0.0
 11
1318.0011045796
 21
-462.656306291125
 31
0.0
  0
LINE
  5
90C9
330
90B3
100
AcDbEntity
  8
C6
 62
     0
440
 16777216
 48
2.0
370
    -2
100
AcDbLine
 10
1251.520473346398
 20
-579.1906546923597
 30
0.0
 11
1318.0011045796
 21
-579.1906546923598
 31
0.0
  0
LINE
  5
90CA
330
90B3
100
AcDbEntity
  8
C6
 62
     0
440
 16777216
 48
2.0
370
    -2
100
AcDbLine
 10
1317.001104579601
 20
-463.656306291125
 30
0.0
 11
1317.0011045796
 21
-578.1906546923599
 31
0.0
  0
INSERT
  5
90CB
330
90B3
100
AcDbEntity
  8
C6
 62
     0
440
 16777216
 48
2.0
370
    -2
100
AcDbBlockReference
  2
Y2
 10
1317.001104579601
 20
-462.656306291125
 30
0.0
 50
90.0
  0
INSERT
  5
90CC
330
90B3
100
AcDbEntity
  8
C6
 62
     0
440
 16777216
 48
2.0
370
    -2
100
AcDbBlockReference
  2
Y2
 10
1317.0011045796
 20
-579.1906546923598
 30
0.0
 50
270.0
  0
MTEXT
  5
90CD
330
90B3
100
AcDbEntity
  8
C6
 62
     0
440
 16777216
 48
2.0
100
AcDbMText
 10
1314.7511045796
 20
-520.9234804917421
 30
0.0
 40
3.5
 41
0.0
 46
0.0
 71
     5
 72
     1
  1
\A1;115
  7
KANJI
 11
0.0000000000000001
 21
1.0
 31
0.0
 73
     1
 44
1.0
  0
POINT
  5
90CE
330
90B3
100
AcDbEntity
  8
DEFPOINTS
 62
     0
440
 16777216
 48
2.0
100
AcDbPoint
 10
1250.520473346442
 20
-462.656306291125
 30
0.0
  0
POINT
  5
90CF
330
90B3
100
AcDbEntity
  8
DEFPOINTS
 62
     0
440
 16777216
 48
2.0
100
AcDbPoint
 10
1250.520473346398
 20
-579.1906546923597
 30
0.0
  0
POINT
  5
90D0
330
90B3
100
AcDbEntity
  8
DEFPOINTS
 62
     0
440
 16777216
 48
2.0
100
AcDbPoint
 10
1317.0011045796
 20
-579.1906546923598
 30
0.0
  0
ENDBLK
  5
90BE
330
90B3
100
AcDbEntity
  8
0
 48
2.0
100
AcDbBlockEnd
  0
BLOCK
  5
9578
330
9577
100
AcDbEntity
  8
0
 48
2.0
100
AcDbBlockBegin
  2
*D9
 70
     1
 10
0.0
 20
0.0
 30
0.0
  3
*D9
  1

  0
LINE
  5
95B3
330
9577
100
AcDbEntity
  8
C6
 62
     0
440
 16777216
 48
2.0
370
    -2
100
AcDbLine
 10
1251.520473346442
 20
-803.2379374469011
 30
0.0
 11
1318.0011045796
 21
-803.2379374469011
 31
0.0
  0
LINE
  5
95B4
330
9577
100
AcDbEntity
  8
C6
 62
     0
440
 16777216
 48
2.0
370
    -2
100
AcDbLine
 10
1251.520473346398
 20
-919.7722858481357
 30
0.0
 11
1318.0011045796
 21
-919.7722858481359
 31
0.0
  0
LINE
  5
95B5
330
9577
100
AcDbEntity
  8
C6
 62
     0
440
 16777216
 48
2.0
370
    -2
100
AcDbLine
 10
1317.0011045796
 20
-804.237937446901
 30
0.0
 11
1317.0011045796
 21
-918.7722858481359
 31
0.0
  0
INSERT
  5
95B6
330
9577
100
AcDbEntity
  8
C6
 62
     0
440
 16777216
 48
2.0
370
    -2
100
AcDbBlockReference
  2
Y2
 10
1317.0011045796
 20
-803.2379374469011
 30
0.0
 50
90.0
  0
INSERT
  5
95B7
330
9577
100
AcDbEntity
  8
C6
 62
     0
440
 16777216
 48
2.0
370
    -2
100
AcDbBlockReference
  2
Y2
 10
1317.0011045796
 20
-919.7722858481359
 30
0.0
 50
270.0
  0
MTEXT
  5
95B8
330
9577
100
AcDbEntity
  8
C6
 62
     0
440
 16777216
 48
2.0
100
AcDbMText
 10
1314.7511045796
 20
-861.5051116475182
 30
0.0
 40
3.5
 41
0.0
 46
0.0
 71
     5
 72
     1
  1
\A1;115
  7
KANJI
 11
0.0000000000000001
 21
1.0
 31
0.0
 73
     1
 44
1.0
  0
POINT
  5
95B9
330
9577
100
AcDbEntity
  8
DEFPOINTS
 62
     0
440
 16777216
 48
2.0
100
AcDbPoint
 10
1250.520473346442
 20
-803.2379374469011
 30
0.0
  0
POINT
  5
95BA
330
9577
100
AcDbEntity
  8
DEFPOINTS
 62
     0
440
 16777216
 48
2.0
100
AcDbPoint
 10
1250.520473346398
 20
-919.7722858481357
 30
0.0
  0
POINT
  5
95BB
330
9577
100
AcDbEntity
  8
DEFPOINTS
 62
     0
440
 16777216
 48
2.0
100
AcDbPoint
 10
1317.0011045796
 20
-919.7722858481359
 30
0.0
  0
ENDBLK
  5
9579
330
9577
100
AcDbEntity
  8
0
 48
2.0
100
AcDbBlockEnd
  0
BLOCK
  5
9584
330
9583
100
AcDbEntity
  8
0
 48
2.0
100
AcDbBlockBegin
  2
*D10
 70
     1
 10
0.0
 20
0.0
 30
0.0
  3
*D10
  1

  0
LINE
  5
95BC
330
9583
100
AcDbEntity
  8
C6
 62
     0
440
 16777216
 48
3.0
370
    -2
100
AcDbLine
 10
1284.794367788844
 20
-967.3353239311394
 30
0.0
 11
1293.948080787454
 21
-967.3353239311394
 31
0.0
  0
LINE
  5
95BD
330
9583
100
AcDbEntity
  8
C6
 62
     0
440
 16777216
 48
3.0
370
    -2
100
AcDbLine
 10
1284.794367788844
 20
-1018.091024767578
 30
0.0
 11
1293.948080787454
 21
-1018.091024767578
 31
0.0
  0
LINE
  5
95BE
330
9583
100
AcDbEntity
  8
C6
 62
     0
440
 16777216
 48
3.0
370
    -2
100
AcDbLine
 10
1292.948080787454
 20
-968.3353239311394
 30
0.0
 11
1292.948080787454
 21
-1017.091024767578
 31
0.0
  0
INSERT
  5
95BF
330
9583
100
AcDbEntity
  8
C6
 62
     0
440
 16777216
 48
3.0
370
    -2
100
AcDbBlockReference
  2
Y1
 10
1292.948080787454
 20
-967.3353239311394
 30
0.0
 50
90.0
  0
INSERT
  5
95C0
330
9583
100
AcDbEntity
  8
C6
 62
     0
440
 16777216
 48
3.0
370
    -2
100
AcDbBlockReference
  2
Y1
 10
1292.948080787454
 20
-1018.091024767578
 30
0.0
 50
270.0
  0
MTEXT
  5
95C1
330
9583
100
AcDbEntity
  8
C6
 62
     0
440
 16777216
 48
3.0
100
AcDbMText
 10
1291.198080787454
 20
-992.7131743493587
 30
0.0
 40
2.5
 41
0.0
 46
0.0
 71
     5
 72
     1
  1
\A1;（51）
  7
KANJI
 11
0.0000000000000001
 21
1.0
 31
0.0
 73
     1
 44
1.0
  0
POINT
  5
95C2
330
9583
100
AcDbEntity
  8
DEFPOINTS
 62
     0
440
 16777216
 48
3.0
100
AcDbPoint
 10
1283.794367788844
 20
-967.3353239311394
 30
0.0
  0
POINT
  5
95C3
330
9583
100
AcDbEntity
  8
DEFPOINTS
 62
     0
440
 16777216
 48
3.0
100
AcDbPoint
 10
1283.794367788844
 20
-1018.091024767578
 30
0.0
  0
POINT
  5
95C4
330
9583
100
AcDbEntity
  8
DEFPOINTS
 62
     0
440
 16777216
 48
3.0
100
AcDbPoint
 10
1292.948080787454
 20
-1018.091024767578
 30
0.0
  0
ENDBLK
  5
9585
330
9583
100
AcDbEntity
  8
0
 48
2.0
100
AcDbBlockEnd
  0
BLOCK
  5
9590
330
958F
100
AcDbEntity
  8
0
 48
2.0
100
AcDbBlockBegin
  2
*D11
 70
     1
 10
0.0
 20
0.0
 30
0.0
  3
*D11
  1

  0
LINE
  5
95C5
330
958F
100
AcDbEntity
  8
C6
 62
     0
440
 16777216
 48
2.0
370
    -2
100
AcDbLine
 10
1198.146563817358
 20
-1019.091024767578
 30
0.0
 11
1198.146563817358
 21
-1020.478998119608
 31
0.0
  0
LINE
  5
95C6
330
958F
100
AcDbEntity
  8
C6
 62
     0
440
 16777216
 48
2.0
370
    -2
100
AcDbLine
 10
1283.794367788844
 20
-1019.091024767578
 30
0.0
 11
1283.794367788844
 21
-1020.478998119608
 31
0.0
  0
LINE
  5
95C7
330
958F
100
AcDbEntity
  8
C6
 62
     0
440
 16777216
 48
2.0
370
    -2
100
AcDbLine
 10
1199.146563817358
 20
-1019.478998119607
 30
0.0
 11
1282.794367788844
 21
-1019.478998119607
 31
0.0
  0
INSERT
  5
95C8
330
958F
100
AcDbEntity
  8
C6
 62
     0
440
 16777216
 48
2.0
370
    -2
100
AcDbBlockReference
  2
Y2
 10
1198.146563817358
 20
-1019.478998119607
 30
0.0
 50
180.0
  0
INSERT
  5
95C9
330
958F
100
AcDbEntity
  8
C6
 62
     0
440
 16777216
 48
2.0
370
    -2
100
AcDbBlockReference
  2
Y2
 10
1283.794367788844
 20
-1019.478998119607
 30
0.0
  0
MTEXT
  5
95CA
330
958F
100
AcDbEntity
  8
C6
 62
     0
440
 16777216
 48
2.0
100
AcDbMText
 10
1240.970465803101
 20
-1017.728998119608
 30
0.0
 40
2.5
 41
0.0
 46
0.0
 71
     5
 72
     1
  1
\A1;87
  7
KANJI
 73
     1
 44
1.0
  0
POINT
  5
95CB
330
958F
100
AcDbEntity
  8
DEFPOINTS
 62
     0
440
 16777216
 48
2.0
100
AcDbPoint
 10
1198.146563817358
 20
-1018.091024767578
 30
0.0
  0
POINT
  5
95CC
330
958F
100
AcDbEntity
  8
DEFPOINTS
 62
     0
440
 16777216
 48
2.0
100
AcDbPoint
 10
1283.794367788844
 20
-1018.091024767578
 30
0.0
  0
POINT
  5
95CD
330
958F
100
AcDbEntity
  8
DEFPOINTS
 62
     0
440
 16777216
 48
2.0
100
AcDbPoint
 10
1283.794367788844
 20
-1019.478998119607
 30
0.0
  0
ENDBLK
  5
9591
330
958F
100
AcDbEntity
  8
0
 48
2.0
100
AcDbBlockEnd
  0
BLOCK
  5
959C
330
959B
100
AcDbEntity
  8
0
 48
2.0
100
AcDbBlockBegin
  2
*D12
 70
     1
 10
0.0
 20
0.0
 30
0.0
  3
*D12
  1

  0
LINE
  5
95CE
330
959B
100
AcDbEntity
  8
C6
 62
     0
440
 16777216
 48
2.0
370
    -2
100
AcDbLine
 10
1280.755491137119
 20
-847.0551116475391
 30
0.0
 11
1299.30954152111
 21
-847.0551116475391
 31
0.0
  0
LINE
  5
95CF
330
959B
100
AcDbEntity
  8
C6
 62
     0
440
 16777216
 48
2.0
370
    -2
100
AcDbLine
 10
1280.755491137108
 20
-875.955111647505
 30
0.0
 11
1299.30954152111
 21
-875.955111647505
 31
0.0
  0
LINE
  5
95D0
330
959B
100
AcDbEntity
  8
C6
 62
     0
440
 16777216
 48
2.0
370
    -2
100
AcDbLine
 10
1298.30954152111
 20
-848.555111647539
 30
0.0
 11
1298.30954152111
 21
-874.4551116475051
 31
0.0
  0
INSERT
  5
95D1
330
959B
100
AcDbEntity
  8
C6
 62
     0
440
 16777216
 48
2.0
370
    -2
100
AcDbBlockReference
  2
Y2
 10
1298.30954152111
 20
-847.0551116475391
 30
0.0
 41
1.5
 42
1.5
 43
1.5
 50
90.0
  0
INSERT
  5
95D2
330
959B
100
AcDbEntity
  8
C6
 62
     0
440
 16777216
 48
2.0
370
    -2
100
AcDbBlockReference
  2
Y2
 10
1298.30954152111
 20
-875.955111647505
 30
0.0
 41
1.5
 42
1.5
 43
1.5
 50
270.0
  0
MTEXT
  5
95D3
330
959B
100
AcDbEntity
  8
C6
 62
     0
440
 16777216
 48
2.0
100
AcDbMText
 10
1295.55954152111
 20
-861.5051116475218
 30
0.0
 40
3.5
 41
0.0
 46
0.0
 71
     5
 72
     1
  1
\A1;29
  7
KANJI
 11
0.0000000000000001
 21
1.0
 31
0.0
 73
     1
 44
1.0
  0
POINT
  5
95D4
330
959B
100
AcDbEntity
  8
DEFPOINTS
 62
     0
440
 16777216
 48
2.0
100
AcDbPoint
 10
1279.755491137119
 20
-847.0551116475389
 30
0.0
  0
POINT
  5
95D5
330
959B
100
AcDbEntity
  8
DEFPOINTS
 62
     0
440
 16777216
 48
2.0
100
AcDbPoint
 10
1279.755491137108
 20
-875.955111647505
 30
0.0
  0
POINT
  5
95D6
330
959B
100
AcDbEntity
  8
DEFPOINTS
 62
     0
440
 16777216
 48
2.0
100
AcDbPoint
 10
1298.30954152111
 20
-875.955111647505
 30
0.0
  0
ENDBLK
  5
959D
330
959B
100
AcDbEntity
  8
0
 48
2.0
100
AcDbBlockEnd
  0
BLOCK
  5
95A8
330
95A7
100
AcDbEntity
  8
0
 48
2.0
100
AcDbBlockBegin
  2
*D13
 70
     1
 10
0.0
 20
0.0
 30
0.0
  3
*D13
  1

  0
LINE
  5
95D7
330
95A7
100
AcDbEntity
  8
C6
 62
     0
440
 16777216
 48
2.0
370
    -2
100
AcDbLine
 10
1226.420473713599
 20
-915.8536888468766
 30
0.0
 11
1226.420473713599
 21
-934.5820925155726
 31
0.0
  0
LINE
  5
95D8
330
95A7
100
AcDbEntity
  8
C6
 62
     0
440
 16777216
 48
2.0
370
    -2
100
AcDbLine
 10
1255.520467962056
 20
-915.8536888468841
 30
0.0
 11
1255.520467962056
 21
-934.5820925155726
 31
0.0
  0
LINE
  5
95D9
330
95A7
100
AcDbEntity
  8
C6
 62
     0
440
 16777216
 48
2.0
370
    -2
100
AcDbLine
 10
1227.420473713599
 20
-933.5820925155726
 30
0.0
 11
1254.520467962056
 21
-933.5820925155726
 31
0.0
  0
INSERT
  5
95DA
330
95A7
100
AcDbEntity
  8
C6
 62
     0
440
 16777216
 48
2.0
370
    -2
100
AcDbBlockReference
  2
Y2
 10
1226.420473713599
 20
-933.5820925155726
 30
0.0
 50
180.0
  0
INSERT
  5
95DB
330
95A7
100
AcDbEntity
  8
C6
 62
     0
440
 16777216
 48
2.0
370
    -2
100
AcDbBlockReference
  2
Y2
 10
1255.520467962056
 20
-933.5820925155726
 30
0.0
  0
MTEXT
  5
95DC
330
95A7
100
AcDbEntity
  8
C6
 62
     0
440
 16777216
 48
2.0
100
AcDbMText
 10
1240.970470837827
 20
-931.5820925155726
 30
0.0
 40
3.0
 41
0.0
 46
0.0
 71
     5
 72
     1
  1
\A1;29
  7
KANJI
 73
     1
 44
1.0
  0
POINT
  5
95DD
330
95A7
100
AcDbEntity
  8
DEFPOINTS
 62
     0
440
 16777216
 48
2.0
100
AcDbPoint
 10
1226.420473713599
 20
-914.8536888468767
 30
0.0
  0
POINT
  5
95DE
330
95A7
100
AcDbEntity
  8
DEFPOINTS
 62
     0
440
 16777216
 48
2.0
100
AcDbPoint
 10
1255.520467962056
 20
-914.8536888468841
 30
0.0
  0
POINT
  5
95DF
330
95A7
100
AcDbEntity
  8
DEFPOINTS
 62
     0
440
 16777216
 48
2.0
100
AcDbPoint
 10
1255.520467962056
 20
-933.5820925155726
 30
0.0
  0
ENDBLK
  5
95A9
330
95A7
100
AcDbEntity
  8
0
 48
2.0
100
AcDbBlockEnd
  0
BLOCK
  5
980B
330
980A
100
AcDbEntity
  8
0
 48
2.0
100
AcDbBlockBegin
  2
*D14
 70
     1
 10
0.0
 20
0.0
 30
0.0
  3
*D14
  1

  0
LINE
  5
9846
330
980A
100
AcDbEntity
  8
C6
 62
     0
440
 16777216
 48
2.0
370
    -2
100
AcDbLine
 10
1704.049386478615
 20
-847.0551116475395
 30
0.0
 11
1722.603436862607
 21
-847.0551116475395
 31
0.0
  0
LINE
  5
9847
330
980A
100
AcDbEntity
  8
C6
 62
     0
440
 16777216
 48
2.0
370
    -2
100
AcDbLine
 10
1704.049386478604
 20
-875.9551116475053
 30
0.0
 11
1722.603436862607
 21
-875.9551116475053
 31
0.0
  0
LINE
  5
9848
330
980A
100
AcDbEntity
  8
C6
 62
     0
440
 16777216
 48
2.0
370
    -2
100
AcDbLine
 10
1721.603436862607
 20
-848.5551116475393
 30
0.0
 11
1721.603436862607
 21
-874.4551116475054
 31
0.0
  0
INSERT
  5
9849
330
980A
100
AcDbEntity
  8
C6
 62
     0
440
 16777216
 48
2.0
370
    -2
100
AcDbBlockReference
  2
Y2
 10
1721.603436862607
 20
-847.0551116475395
 30
0.0
 41
1.5
 42
1.5
 43
1.5
 50
90.0
  0
INSERT
  5
984A
330
980A
100
AcDbEntity
  8
C6
 62
     0
440
 16777216
 48
2.0
370
    -2
100
AcDbBlockReference
  2
Y2
 10
1721.603436862607
 20
-875.9551116475053
 30
0.0
 41
1.5
 42
1.5
 43
1.5
 50
270.0
  0
MTEXT
  5
984B
330
980A
100
AcDbEntity
  8
C6
 62
     0
440
 16777216
 48
2.0
100
AcDbMText
 10
1718.853436862607
 20
-861.5051116475227
 30
0.0
 40
3.5
 41
0.0
 46
0.0
 71
     5
 72
     1
  1
\A1;29
  7
KANJI
 11
0.0000000000000001
 21
1.0
 31
0.0
 73
     1
 44
1.0
  0
POINT
  5
984C
330
980A
100
AcDbEntity
  8
DEFPOINTS
 62
     0
440
 16777216
 48
2.0
100
AcDbPoint
 10
1703.049386478616
 20
-847.0551116475395
 30
0.0
  0
POINT
  5
984D
330
980A
100
AcDbEntity
  8
DEFPOINTS
 62
     0
440
 16777216
 48
2.0
100
AcDbPoint
 10
1703.049386478604
 20
-875.9551116475053
 30
0.0
  0
POINT
  5
984E
330
980A
100
AcDbEntity
  8
DEFPOINTS
 62
     0
440
 16777216
 48
2.0
100
AcDbPoint
 10
1721.603436862607
 20
-875.9551116475053
 30
0.0
  0
ENDBLK
  5
980C
330
980A
100
AcDbEntity
  8
0
 48
2.0
100
AcDbBlockEnd
  0
BLOCK
  5
9817
330
9816
100
AcDbEntity
  8
0
 48
2.0
100
AcDbBlockBegin
  2
*D15
 70
     1
 10
0.0
 20
0.0
 30
0.0
  3
*D15
  1

  0
LINE
  5
984F
330
9816
100
AcDbEntity
  8
C6
 62
     0
440
 16777216
 48
2.0
370
    -2
100
AcDbLine
 10
1649.714369055095
 20
-915.8536888468766
 30
0.0
 11
1649.714369055095
 21
-934.5820925155726
 31
0.0
  0
LINE
  5
9850
330
9816
100
AcDbEntity
  8
C6
 62
     0
440
 16777216
 48
2.0
370
    -2
100
AcDbLine
 10
1678.814363303551
 20
-915.8536888468841
 30
0.0
 11
1678.814363303551
 21
-934.5820925155726
 31
0.0
  0
LINE
  5
9851
330
9816
100
AcDbEntity
  8
C6
 62
     0
440
 16777216
 48
2.0
370
    -2
100
AcDbLine
 10
1650.714369055094
 20
-933.5820925155726
 30
0.0
 11
1677.814363303551
 21
-933.5820925155726
 31
0.0
  0
INSERT
  5
9852
330
9816
100
AcDbEntity
  8
C6
 62
     0
440
 16777216
 48
2.0
370
    -2
100
AcDbBlockReference
  2
Y2
 10
1649.714369055095
 20
-933.5820925155726
 30
0.0
 50
180.0
  0
INSERT
  5
9853
330
9816
100
AcDbEntity
  8
C6
 62
     0
440
 16777216
 48
2.0
370
    -2
100
AcDbBlockReference
  2
Y2
 10
1678.814363303551
 20
-933.5820925155726
 30
0.0
  0
MTEXT
  5
9854
330
9816
100
AcDbEntity
  8
C6
 62
     0
440
 16777216
 48
2.0
100
AcDbMText
 10
1664.264366179323
 20
-931.5820925155726
 30
0.0
 40
3.0
 41
0.0
 46
0.0
 71
     5
 72
     1
  1
\A1;29
  7
KANJI
 73
     1
 44
1.0
  0
POINT
  5
9855
330
9816
100
AcDbEntity
  8
DEFPOINTS
 62
     0
440
 16777216
 48
2.0
100
AcDbPoint
 10
1649.714369055095
 20
-914.8536888468767
 30
0.0
  0
POINT
  5
9856
330
9816
100
AcDbEntity
  8
DEFPOINTS
 62
     0
440
 16777216
 48
2.0
100
AcDbPoint
 10
1678.814363303551
 20
-914.8536888468841
 30
0.0
  0
POINT
  5
9857
330
9816
100
AcDbEntity
  8
DEFPOINTS
 62
     0
440
 16777216
 48
2.0
100
AcDbPoint
 10
1678.814363303551
 20
-933.5820925155726
 30
0.0
  0
ENDBLK
  5
9818
330
9816
100
AcDbEntity
  8
0
 48
2.0
100
AcDbBlockEnd
  0
BLOCK
  5
9823
330
9822
100
AcDbEntity
  8
0
 48
2.0
100
AcDbBlockBegin
  2
*D16
 70
     1
 10
0.0
 20
0.0
 30
0.0
  3
*D16
  1

  0
LINE
  5
9858
330
9822
100
AcDbEntity
  8
C6
 62
     0
440
 16777216
 48
2.0
370
    -2
100
AcDbLine
 10
1674.814368687939
 20
-803.2379374469014
 30
0.0
 11
1741.294999921097
 21
-803.2379374469014
 31
0.0
  0
LINE
  5
9859
330
9822
100
AcDbEntity
  8
C6
 62
     0
440
 16777216
 48
2.0
370
    -2
100
AcDbLine
 10
1674.814368687895
 20
-919.7722858481363
 30
0.0
 11
1741.294999921097
 21
-919.7722858481363
 31
0.0
  0
LINE
  5
985A
330
9822
100
AcDbEntity
  8
C6
 62
     0
440
 16777216
 48
2.0
370
    -2
100
AcDbLine
 10
1740.294999921097
 20
-804.2379374469014
 30
0.0
 11
1740.294999921097
 21
-918.7722858481363
 31
0.0
  0
INSERT
  5
985B
330
9822
100
AcDbEntity
  8
C6
 62
     0
440
 16777216
 48
2.0
370
    -2
100
AcDbBlockReference
  2
Y2
 10
1740.294999921097
 20
-803.2379374469014
 30
0.0
 50
90.0
  0
INSERT
  5
985C
330
9822
100
AcDbEntity
  8
C6
 62
     0
440
 16777216
 48
2.0
370
    -2
100
AcDbBlockReference
  2
Y2
 10
1740.294999921097
 20
-919.7722858481363
 30
0.0
 50
270.0
  0
MTEXT
  5
985D
330
9822
100
AcDbEntity
  8
C6
 62
     0
440
 16777216
 48
2.0
100
AcDbMText
 10
1738.044999921096
 20
-861.5051116475191
 30
0.0
 40
3.5
 41
0.0
 46
0.0
 71
     5
 72
     1
  1
\A1;115
  7
KANJI
 11
0.0000000000000001
 21
1.0
 31
0.0
 73
     1
 44
1.0
  0
POINT
  5
985E
330
9822
100
AcDbEntity
  8
DEFPOINTS
 62
     0
440
 16777216
 48
2.0
100
AcDbPoint
 10
1673.814368687938
 20
-803.2379374469014
 30
0.0
  0
POINT
  5
985F
330
9822
100
AcDbEntity
  8
DEFPOINTS
 62
     0
440
 16777216
 48
2.0
100
AcDbPoint
 10
1673.814368687895
 20
-919.7722858481363
 30
0.0
  0
POINT
  5
9860
330
9822
100
AcDbEntity
  8
DEFPOINTS
 62
     0
440
 16777216
 48
2.0
100
AcDbPoint
 10
1740.294999921097
 20
-919.7722858481363
 30
0.0
  0
ENDBLK
  5
9824
330
9822
100
AcDbEntity
  8
0
 48
2.0
100
AcDbBlockEnd
  0
BLOCK
  5
982F
330
982E
100
AcDbEntity
  8
0
 48
2.0
100
AcDbBlockBegin
  2
*D17
 70
     1
 10
0.0
 20
0.0
 30
0.0
  3
*D17
  1

  0
LINE
  5
9861
330
982E
100
AcDbEntity
  8
C6
 62
     0
440
 16777216
 48
3.0
370
    -2
100
AcDbLine
 10
1708.08826313034
 20
-967.3353239311397
 30
0.0
 11
1717.241976128951
 21
-967.3353239311397
 31
0.0
  0
LINE
  5
9862
330
982E
100
AcDbEntity
  8
C6
 62
     0
440
 16777216
 48
3.0
370
    -2
100
AcDbLine
 10
1708.08826313034
 20
-1018.091024767579
 30
0.0
 11
1717.241976128951
 21
-1018.091024767579
 31
0.0
  0
LINE
  5
9863
330
982E
100
AcDbEntity
  8
C6
 62
     0
440
 16777216
 48
3.0
370
    -2
100
AcDbLine
 10
1716.24197612895
 20
-968.3353239311397
 30
0.0
 11
1716.24197612895
 21
-1017.091024767579
 31
0.0
  0
INSERT
  5
9864
330
982E
100
AcDbEntity
  8
C6
 62
     0
440
 16777216
 48
3.0
370
    -2
100
AcDbBlockReference
  2
Y1
 10
1716.24197612895
 20
-967.3353239311397
 30
0.0
 50
90.0
  0
INSERT
  5
9865
330
982E
100
AcDbEntity
  8
C6
 62
     0
440
 16777216
 48
3.0
370
    -2
100
AcDbBlockReference
  2
Y1
 10
1716.24197612895
 20
-1018.091024767579
 30
0.0
 50
270.0
  0
MTEXT
  5
9866
330
982E
100
AcDbEntity
  8
C6
 62
     0
440
 16777216
 48
3.0
100
AcDbMText
 10
1714.49197612895
 20
-992.7131743493596
 30
0.0
 40
2.5
 41
0.0
 46
0.0
 71
     5
 72
     1
  1
\A1;（51）
  7
KANJI
 11
0.0000000000000001
 21
1.0
 31
0.0
 73
     1
 44
1.0
  0
POINT
  5
9867
330
982E
100
AcDbEntity
  8
DEFPOINTS
 62
     0
440
 16777216
 48
3.0
100
AcDbPoint
 10
1707.08826313034
 20
-967.3353239311397
 30
0.0
  0
POINT
  5
9868
330
982E
100
AcDbEntity
  8
DEFPOINTS
 62
     0
440
 16777216
 48
3.0
100
AcDbPoint
 10
1707.08826313034
 20
-1018.091024767579
 30
0.0
  0
POINT
  5
9869
330
982E
100
AcDbEntity
  8
DEFPOINTS
 62
     0
440
 16777216
 48
3.0
100
AcDbPoint
 10
1716.24197612895
 20
-1018.091024767579
 30
0.0
  0
ENDBLK
  5
9830
330
982E
100
AcDbEntity
  8
0
 48
2.0
100
AcDbBlockEnd
  0
BLOCK
  5
983B
330
983A
100
AcDbEntity
  8
0
 48
2.0
100
AcDbBlockBegin
  2
*D18
 70
     1
 10
0.0
 20
0.0
 30
0.0
  3
*D18
  1

  0
LINE
  5
986A
330
983A
100
AcDbEntity
  8
C6
 62
     0
440
 16777216
 48
2.0
370
    -2
100
AcDbLine
 10
1621.440459158853
 20
-1019.091024767578
 30
0.0
 11
1621.440459158853
 21
-1020.478998119608
 31
0.0
  0
LINE
  5
986B
330
983A
100
AcDbEntity
  8
C6
 62
     0
440
 16777216
 48
2.0
370
    -2
100
AcDbLine
 10
1707.088263130339
 20
-1019.091024767578
 30
0.0
 11
1707.088263130339
 21
-1020.478998119608
 31
0.0
  0
LINE
  5
986C
330
983A
100
AcDbEntity
  8
C6
 62
     0
440
 16777216
 48
2.0
370
    -2
100
AcDbLine
 10
1622.440459158854
 20
-1019.478998119607
 30
0.0
 11
1706.088263130339
 21
-1019.478998119607
 31
0.0
  0
INSERT
  5
986D
330
983A
100
AcDbEntity
  8
C6
 62
     0
440
 16777216
 48
2.0
370
    -2
100
AcDbBlockReference
  2
Y2
 10
1621.440459158853
 20
-1019.478998119607
 30
0.0
 50
180.0
  0
INSERT
  5
986E
330
983A
100
AcDbEntity
  8
C6
 62
     0
440
 16777216
 48
2.0
370
    -2
100
AcDbBlockReference
  2
Y2
 10
1707.088263130339
 20
-1019.478998119607
 30
0.0
  0
MTEXT
  5
986F
330
983A
100
AcDbEntity
  8
C6
 62
     0
440
 16777216
 48
2.0
100
AcDbMText
 10
1664.264361144596
 20
-1017.728998119608
 30
0.0
 40
2.5
 41
0.0
 46
0.0
 71
     5
 72
     1
  1
\A1;87
  7
KANJI
 73
     1
 44
1.0
  0
POINT
  5
9870
330
983A
100
AcDbEntity
  8
DEFPOINTS
 62
     0
440
 16777216
 48
2.0
100
AcDbPoint
 10
1621.440459158853
 20
-1018.091024767578
 30
0.0
  0
POINT
  5
9871
330
983A
100
AcDbEntity
  8
DEFPOINTS
 62
     0
440
 16777216
 48
2.0
100
AcDbPoint
 10
1707.088263130339
 20
-1018.091024767578
 30
0.0
  0
POINT
  5
9872
330
983A
100
AcDbEntity
  8
DEFPOINTS
 62
     0
440
 16777216
 48
2.0
100
AcDbPoint
 10
1707.088263130339
 20
-1019.478998119607
 30
0.0
  0
ENDBLK
  5
983C
330
983A
100
AcDbEntity
  8
0
 48
2.0
100
AcDbBlockEnd
  0
ENDSEC
  0
SECTION
  2
ENTITIES
  0
LINE
  5
9699
330
17
100
AcDbEntity
  8
1外形線
 48
0.1
100
AcDbLine
 10
1673.814361144598
 20
-959.6942092710762
 30
0.0
 11
1654.714361144599
 21
-959.6942092710762
 31
0.0
  0
LINE
  5
969A
330
17
100
AcDbEntity
  8
1外形線
 48
0.1
100
AcDbLine
 10
1654.714361144599
 20
-960.3726477480016
 30
0.0
 11
1673.814361144586
 21
-960.3726477479996
 31
0.0
  0
LINE
  5
969B
330
17
100
AcDbEntity
  8
1外形線
 48
0.1
100
AcDbLine
 10
1649.714361144599
 20
-963.0151891303178
 30
0.0
 11
1678.814361144599
 21
-963.0151891303178
 31
0.0
  0
LINE
  5
969C
330
17
100
AcDbEntity
  8
1外形線
 48
0.1
100
AcDbLine
 10
1649.714361144599
 20
-963.0151891303178
 30
0.0
 11
1649.714361144599
 21
-972.6132482754577
 31
0.0
  0
ARC
  5
969D
330
17
100
AcDbEntity
  8
1外形線
 48
0.1
100
AcDbCircle
 10
1655.181479223858
 20
-965.8219320732516
 30
0.0
 40
6.145501284701745
100
AcDbArc
 50
94.35924293156988
 51
152.8246618588287
  0
LINE
  5
969E
330
17
100
AcDbEntity
  8
1外形線
 48
0.1
100
AcDbLine
 10
1678.814361144599
 20
-963.0151891303178
 30
0.0
 11
1678.814361144599
 21
-972.6132482754577
 31
0.0
  0
LINE
  5
969F
330
17
100
AcDbEntity
  8
1外形線
 48
0.1
100
AcDbLine
 10
1649.714361144599
 20
-972.6132482754577
 30
0.0
 11
1678.814361144599
 21
-972.6132482754577
 31
0.0
  0
ARC
  5
96A0
330
17
100
AcDbEntity
  8
1外形線
 48
0.1
100
AcDbCircle
 10
1656.728485703608
 20
-970.2351745746703
 30
0.0
 40
10.06608827429732
100
AcDbArc
 50
101.5422275905879
 51
134.1714172760504
  0
LINE
  5
96A1
330
17
100
AcDbEntity
  8
1外形線
 48
3.0
100
AcDbLine
 10
1668.814361144599
 20
-979.7229327398765
 30
0.0
 11
1673.795334635062
 21
-979.2871540261387
 31
0.0
  0
LINE
  5
96A2
330
17
100
AcDbEntity
  8
1外形線
 48
3.0
100
AcDbLine
 10
1678.357917512098
 20
-973.8508443347875
 30
0.0
 11
1668.814361144599
 21
-975.2493515154759
 31
0.0
  0
LINE
  5
96A3
330
17
100
AcDbEntity
  8
1外形線
 48
3.0
100
AcDbLine
 10
1668.814361144599
 20
-975.2493515154759
 30
0.0
 11
1668.814361144599
 21
-979.7229327398765
 31
0.0
  0
LINE
  5
96A4
330
17
100
AcDbEntity
  8
1外形線
 48
3.0
100
AcDbLine
 10
1668.814361144599
 20
-975.2493515154759
 30
0.0
 11
1661.714361144601
 21
-975.2493515154759
 31
0.0
  0
LINE
  5
96A5
330
17
100
AcDbEntity
  8
1外形線
 48
3.0
100
AcDbLine
 10
1659.714361144601
 20
-977.2493515154776
 30
0.0
 11
1659.714361144601
 21
-979.1104921414364
 31
0.0
  0
ARC
  5
96A6
330
17
100
AcDbEntity
  8
1外形線
 48
3.0
100
AcDbCircle
 10
1661.714361144601
 20
-977.2493515154776
 30
0.0
 40
2.0
100
AcDbArc
 50
90.0
 51
180.0
  0
LINE
  5
96A7
330
17
100
AcDbEntity
  8
1外形線
 48
3.0
100
AcDbLine
 10
1678.814361144599
 20
-972.6132482754577
 30
0.0
 11
1649.714361144601
 21
-972.6132482754577
 31
0.0
  0
LINE
  5
96A8
330
17
100
AcDbEntity
  8
1外形線
 48
3.0
100
AcDbLine
 10
1649.714361144601
 20
-972.6132482754577
 30
0.0
 11
1649.714361144601
 21
-993.1131743493608
 31
0.0
  0
ARC
  5
96A9
330
17
100
AcDbEntity
  8
1外形線
 48
3.0
100
AcDbCircle
 10
1667.016439110664
 20
-968.9649706672392
 30
0.0
 40
12.34912522511022
100
AcDbArc
 50
303.2941381831255
 51
342.816794935812
  0
LINE
  5
96AA
330
17
100
AcDbEntity
  8
1外形線
 48
0.1
100
AcDbLine
 10
1649.714361144601
 20
-978.434442632871
 30
0.0
 11
1659.714361144601
 21
-978.434442632871
 31
0.0
  0
ARC
  5
96AB
330
17
100
AcDbEntity
  8
1外形線
 48
3.0
100
AcDbCircle
 10
1661.714361144601
 20
-979.1104921414364
 30
0.0
 40
2.0
100
AcDbArc
 50
180.0
 51
270.0
  0
LINE
  5
96AC
330
17
100
AcDbEntity
  8
1外形線
 48
3.0
100
AcDbLine
 10
1668.814361144599
 20
-981.1104921414365
 30
0.0
 11
1661.714361144601
 21
-981.1104921414365
 31
0.0
  0
LINE
  5
96AD
330
17
100
AcDbEntity
  8
1外形線
 48
0.1
100
AcDbLine
 10
1678.814361144599
 20
-984.0195498686064
 30
0.0
 11
1678.814361144599
 21
-993.1131743493608
 31
0.0
  0
ARC
  5
96AE
330
17
100
AcDbEntity
  8
1外形線
 48
0.1
100
AcDbCircle
 10
1668.887291947033
 20
-999.5020145598257
 30
0.0
 40
18.39166701982438
100
AcDbArc
 50
57.33276038424158
 51
90.22720279367467
  0
LINE
  5
96AF
330
17
100
AcDbEntity
  8
1外形線
 48
0.1
100
AcDbLine
 10
1649.714361144601
 20
-993.1131743493608
 30
0.0
 11
1678.814361144599
 21
-993.1131743493608
 31
0.0
  0
LINE
  5
96B0
330
17
100
AcDbEntity
  8
1外形線
 48
0.1
100
AcDbLine
 10
1649.714361144601
 20
-987.6964417508082
 30
0.0
 11
1678.814361144599
 21
-987.6964417508082
 31
0.0
  0
LINE
  5
96B1
330
17
100
AcDbEntity
  8
1外形線
 48
0.1
100
AcDbLine
 10
1678.814361144599
 20
-984.0195498686064
 30
0.0
 11
1649.714361144601
 21
-984.0195498686099
 31
0.0
  0
ARC
  5
96B2
330
17
100
AcDbEntity
  8
1外形線
 48
0.1
100
AcDbCircle
 10
1673.347243065341
 20
-965.8219320732516
 30
0.0
 40
6.145501284701745
100
AcDbArc
 50
27.17533814117555
 51
85.64075706843011
  0
ARC
  5
96B3
330
17
100
AcDbEntity
  8
1外形線
 48
0.1
100
AcDbCircle
 10
1671.80023658559
 20
-970.2351745746703
 30
0.0
 40
10.06608827429732
100
AcDbArc
 50
45.82858272394794
 51
78.4577724094121
  0
LINE
  5
96B5
330
17
100
AcDbEntity
  8
1外形線
 48
2.0
100
AcDbLine
 10
1656.9643611446
 20
-993.1131743493608
 30
0.0
 11
1671.564361144599
 21
-993.1131743493608
 31
0.0
  0
LINE
  5
96BA
330
17
100
AcDbEntity
  8
1外形線
 48
5.0
100
AcDbLine
 10
1625.755924797013
 20
-970.9540074826147
 30
0.0
 11
1627.090006773331
 21
-980.4464820193645
 31
0.0
  0
ARC
  5
96BB
330
17
100
AcDbEntity
  8
1外形線
 48
5.0
100
AcDbCircle
 10
1624.765656752446
 20
-971.0931807555954
 30
0.0
 40
1.0
100
AcDbArc
 50
8.000023427289203
 51
52.9999529842661
  0
LINE
  5
96BC
330
17
100
AcDbEntity
  8
1外形線
 48
5.0
100
AcDbLine
 10
1626.354275881647
 20
-980.9597054395847
 30
0.0
 11
1624.963742979824
 21
-971.0655497319342
 31
0.0
  0
ARC
  5
96BD
330
17
100
AcDbEntity
  8
1外形線
 48
5.0
100
AcDbCircle
 10
1624.76566055401
 20
-971.0931785680251
 30
0.0
 40
0.2
100
AcDbArc
 50
8.000000000040035
 51
53.00000000009566
  0
LINE
  5
96BE
330
17
100
AcDbEntity
  8
1外形線
 48
5.0
100
AcDbLine
 10
1624.88602355864
 20
-970.9334514660142
 30
0.0
 11
1620.959007140336
 21
-967.9742323391794
 31
0.0
  0
LINE
  5
96BF
330
17
100
AcDbEntity
  8
1外形線
 48
5.0
100
AcDbLine
 10
1620.959007140336
 20
-967.9742323391758
 30
0.0
 11
1621.440459158853
 21
-967.3353239311394
 31
0.0
  0
LINE
  5
96C0
330
17
100
AcDbEntity
  8
1外形線
 48
5.0
100
AcDbLine
 10
1621.440459158853
 20
-967.3353239311394
 30
0.0
 11
1625.367472430946
 21
-970.2945457393827
 31
0.0
  0
LINE
  5
96C1
330
17
100
AcDbEntity
  8
1外形線
 48
2.0
100
AcDbLine
 10
1631.150521156196
 20
-982.6240228848321
 30
0.0
 11
1630.842074823668
 21
-982.4586117003166
 31
0.0
  0
ARC
  5
96C2
330
17
100
AcDbEntity
  8
1外形線
 48
2.0
100
AcDbCircle
 10
1630.394355741308
 20
-984.0340632620275
 30
0.0
 40
1.6
100
AcDbArc
 50
331.7965790216396
 51
61.79657902147027
  0
LINE
  5
96C3
330
17
100
AcDbEntity
  8
1外形線
 48
2.0
100
AcDbLine
 10
1635.829153830608
 20
-986.0408188116046
 30
0.0
 11
1631.993569235761
 21
-983.9839015320142
 31
0.0
  0
ARC
  5
96C4
330
17
100
AcDbEntity
  8
1外形線
 48
2.0
100
AcDbCircle
 10
1638.192170752147
 20
-981.6344426328717
 30
0.0
 40
5.0
100
AcDbArc
 50
241.7965790216766
 51
278.0000000000402
  0
LINE
  5
96C5
330
17
100
AcDbEntity
  8
1外形線
 48
3.0
100
AcDbLine
 10
1630.772438448752
 20
-983.3290430734306
 30
0.0
 11
1626.354275881684
 21
-980.9597054398212
 31
0.0
  0
ARC
  5
96C6
330
17
100
AcDbEntity
  8
1外形線
 48
3.0
100
AcDbCircle
 10
1630.394355741308
 20
-984.0340632620275
 30
0.0
 40
0.8
100
AcDbArc
 50
331.7965790216396
 51
61.79657902167661
  0
LINE
  5
96C7
330
17
100
AcDbEntity
  8
1外形線
 48
3.0
100
AcDbLine
 10
1630.842074823668
 20
-982.4586117003166
 30
0.0
 11
1627.090006773331
 21
-980.4464820193645
 31
0.0
  0
LINE
  5
96C9
330
17
100
AcDbEntity
  8
1外形線
 48
3.0
100
AcDbLine
 10
1649.714361144601
 20
-990.9344392695587
 30
0.0
 11
1647.60441527827
 21
-989.8125611521347
 31
0.0
  0
LINE
  5
96CB
330
17
100
AcDbEntity
  8
1外形線
 48
3.0
100
AcDbLine
 10
1649.714361144601
 20
-990.0283832290027
 30
0.0
 11
1647.979992528504
 21
-989.1062030778478
 31
0.0
  0
LINE
  5
96CC
330
17
100
AcDbEntity
  8
1外形線
 48
3.0
100
AcDbLine
 10
1647.60441527827
 20
-989.8125611521347
 30
0.0
 11
1642.187126598495
 21
-986.9321376670615
 31
0.0
  0
ARC
  5
96CD
330
17
100
AcDbEntity
  8
1外形線
 48
3.0
100
AcDbCircle
 10
1640.215346034798
 20
-990.640517557072
 30
0.0
 40
4.2
100
AcDbArc
 50
62.00000000008142
 51
98.00000000004025
  0
LINE
  5
96CE
330
17
100
AcDbEntity
  8
1外形線
 48
3.0
100
AcDbLine
 10
1647.979992528504
 20
-989.1062030778478
 30
0.0
 11
1642.562703848729
 21
-986.2257795927755
 31
0.0
  0
ARC
  5
96CF
330
17
100
AcDbEntity
  8
1外形線
 48
3.0
100
AcDbCircle
 10
1640.215346034798
 20
-990.640517557072
 30
0.0
 40
5.0
100
AcDbArc
 50
62.00000000008142
 51
98.00000000004025
  0
LINE
  5
96D0
330
17
100
AcDbEntity
  8
1外形線
 48
3.0
100
AcDbLine
 10
1638.888036256947
 20
-986.585782976582
 30
0.0
 11
1639.630819010767
 21
-986.4813916683553
 31
0.0
  0
LINE
  5
96D1
330
17
100
AcDbEntity
  8
1外形線
 48
3.0
100
AcDbLine
 10
1638.776697776178
 20
-985.7935685215855
 30
0.0
 11
1639.519480529998
 21
-985.6891772133634
 31
0.0
  0
ARC
  5
96D2
330
17
100
AcDbEntity
  8
1外形線
 48
3.0
100
AcDbCircle
 10
1638.192170752147
 20
-981.6344426328717
 30
0.0
 40
4.2
100
AcDbArc
 50
241.7965790214703
 51
278.0000000000402
  0
LINE
  5
96D3
330
17
100
AcDbEntity
  8
1外形線
 48
2.0
100
AcDbLine
 10
1692.321485751148
 20
-985.3357986230069
 30
0.0
 11
1697.686647465525
 21
-982.4586117003166
 31
0.0
  0
LINE
  5
96D4
330
17
100
AcDbEntity
  8
1外形線
 48
2.0
100
AcDbLine
 10
1691.848882366837
 20
-984.4545233872588
 30
0.0
 11
1697.214044081215
 21
-981.5773364645677
 31
0.0
  0
LINE
  5
96D5
330
17
100
AcDbEntity
  8
1外形線
 48
2.0
100
AcDbLine
 10
1692.699568458592
 20
-986.0408188116046
 30
0.0
 11
1698.064730172962
 21
-983.1636318889207
 31
0.0
  0
ARC
  5
96D6
330
17
100
AcDbEntity
  8
1外形線
 48
2.0
100
AcDbCircle
 10
1690.336551537046
 20
-981.6344426328717
 30
0.0
 40
5.0
100
AcDbArc
 50
261.9999999999598
 51
298.2034209783234
  0
LINE
  5
96D7
330
17
100
AcDbEntity
  8
1外形線
 48
3.0
100
AcDbLine
 10
1698.064730172962
 20
-983.1636318889207
 30
0.0
 11
1702.174446407516
 21
-980.9597054398212
 31
0.0
  0
LINE
  5
96D8
330
17
100
AcDbEntity
  8
1外形線
 48
3.0
100
AcDbLine
 10
1697.686647465525
 20
-982.4586117003166
 30
0.0
 11
1701.438715515869
 21
-980.4464820193645
 31
0.0
  0
LINE
  5
96D9
330
17
100
AcDbEntity
  8
1外形線
 48
3.0
100
AcDbLine
 10
1697.214044081178
 20
-981.5773364645895
 30
0.0
 11
1699.203562732633
 21
-980.5104155523579
 31
0.0
  0
ARC
  5
96DA
330
17
100
AcDbEntity
  8
1外形線
 48
3.0
100
AcDbCircle
 10
1699.67616611698
 20
-981.3916907880841
 30
0.0
 40
1.0
100
AcDbArc
 50
28.20342098090279
 51
118.2034209808807
  0
LINE
  5
96DC
330
17
100
AcDbEntity
  8
1外形線
 48
3.0
100
AcDbLine
 10
1678.814361144599
 20
-990.9344392695558
 30
0.0
 11
1680.924307010922
 21
-989.8125611521347
 31
0.0
  0
LINE
  5
96DE
330
17
100
AcDbEntity
  8
1外形線
 48
3.0
100
AcDbLine
 10
1678.814361144599
 20
-990.0283832290027
 30
0.0
 11
1680.548729760696
 21
-989.1062030778478
 31
0.0
  0
LINE
  5
96E0
330
17
100
AcDbEntity
  8
1外形線
 48
3.0
100
AcDbLine
 10
1678.814361144599
 20
-988.8958131783139
 30
0.0
 11
1680.079258197911
 21
-988.2232554849863
 31
0.0
  0
LINE
  5
96E1
330
17
100
AcDbEntity
  8
1外形線
 48
3.0
100
AcDbLine
 10
1680.924307010922
 20
-989.8125611521347
 30
0.0
 11
1686.341595690697
 21
-986.9321376670615
 31
0.0
  0
ARC
  5
96E2
330
17
100
AcDbEntity
  8
1外形線
 48
3.0
100
AcDbCircle
 10
1688.313376254402
 20
-990.640517557072
 30
0.0
 40
4.2
100
AcDbArc
 50
81.99999999995975
 51
117.9999999999186
  0
LINE
  5
96E3
330
17
100
AcDbEntity
  8
1外形線
 48
3.0
100
AcDbLine
 10
1680.548729760696
 20
-989.1062030778478
 30
0.0
 11
1685.966018440471
 21
-986.2257795927755
 31
0.0
  0
LINE
  5
96E4
330
17
100
AcDbEntity
  8
1外形線
 48
3.0
100
AcDbLine
 10
1680.079258197911
 20
-988.2232554849863
 30
0.0
 11
1685.496546877686
 21
-985.3428319999178
 31
0.0
  0
ARC
  5
96E5
330
17
100
AcDbEntity
  8
1外形線
 48
3.0
100
AcDbCircle
 10
1688.313376254402
 20
-990.640517557072
 30
0.0
 40
5.0
100
AcDbArc
 50
81.99999999995975
 51
117.9999999999186
  0
ARC
  5
96E6
330
17
100
AcDbEntity
  8
1外形線
 48
3.0
100
AcDbCircle
 10
1688.313376254402
 20
-990.640517557072
 30
0.0
 40
6.0
100
AcDbArc
 50
81.99999999995975
 51
117.9999999999186
  0
LINE
  5
96E7
330
17
100
AcDbEntity
  8
1外形線
 48
3.0
100
AcDbLine
 10
1689.640686032246
 20
-986.585782976582
 30
0.0
 11
1688.897903278434
 21
-986.4813916683553
 31
0.0
  0
LINE
  5
96E8
330
17
100
AcDbEntity
  8
1外形線
 48
3.0
100
AcDbLine
 10
1689.752024513014
 20
-985.793568521589
 30
0.0
 11
1689.009241759202
 21
-985.6891772133634
 31
0.0
  0
LINE
  5
96E9
330
17
100
AcDbEntity
  8
1外形線
 48
3.0
100
AcDbLine
 10
1689.891197613979
 20
-984.8033004528435
 30
0.0
 11
1689.148414860159
 21
-984.6989091446232
 31
0.0
  0
ARC
  5
96EA
330
17
100
AcDbEntity
  8
1外形線
 48
3.0
100
AcDbCircle
 10
1690.336551537046
 20
-981.6344426328717
 30
0.0
 40
4.2
100
AcDbArc
 50
261.9999999999598
 51
298.2034209783234
  0
ARC
  5
96EB
330
17
100
AcDbEntity
  8
1外形線
 48
3.0
100
AcDbCircle
 10
1690.336551537046
 20
-981.6344426328717
 30
0.0
 40
3.2
100
AcDbArc
 50
261.9999999999598
 51
298.2034209783234
  0
LINE
  5
96F0
330
17
100
AcDbEntity
  8
1外形線
 48
3.0
100
AcDbLine
 10
1647.324393964576
 20
-989.6636711785761
 30
0.0
 11
1647.69997121481
 21
-988.957313104291
 31
0.0
  0
LINE
  5
96F2
330
17
100
AcDbEntity
  8
1外形線
 48
3.0
100
AcDbLine
 10
1701.438715515869
 20
-980.4464820193645
 30
0.0
 11
1701.438715515869
 21
-980.4464820193645
 31
0.0
  0
LINE
  5
96F5
330
17
100
AcDbEntity
  8
1外形線
 48
2.0
100
AcDbLine
 10
1636.679839922362
 20
-984.4545233872588
 30
0.0
 11
1631.314678207978
 21
-981.5773364645677
 31
0.0
  0
LINE
  5
96F6
330
17
100
AcDbEntity
  8
1外形線
 48
3.0
100
AcDbLine
 10
1631.314678208015
 20
-981.5773364645895
 30
0.0
 11
1629.325159556567
 21
-980.5104155523579
 31
0.0
  0
ARC
  5
96F7
330
17
100
AcDbEntity
  8
1外形線
 48
3.0
100
AcDbCircle
 10
1628.85255617222
 20
-981.3916907880841
 30
0.0
 40
1.0
100
AcDbArc
 50
61.79657901911927
 51
151.7965790190972
  0
LINE
  5
96F9
330
17
100
AcDbEntity
  8
1外形線
 48
3.0
100
AcDbLine
 10
1649.714361144601
 20
-988.8958131783139
 30
0.0
 11
1648.449464091289
 21
-988.2232554849863
 31
0.0
  0
LINE
  5
96FA
330
17
100
AcDbEntity
  8
1外形線
 48
3.0
100
AcDbLine
 10
1648.449464091289
 20
-988.2232554849863
 30
0.0
 11
1643.032175411514
 21
-985.3428319999178
 31
0.0
  0
ARC
  5
96FB
330
17
100
AcDbEntity
  8
1外形線
 48
3.0
100
AcDbCircle
 10
1640.215346034798
 20
-990.640517557072
 30
0.0
 40
6.0
100
AcDbArc
 50
62.00000000008142
 51
98.00000000004025
  0
ARC
  5
96FC
330
17
100
AcDbEntity
  8
1外形線
 48
3.0
100
AcDbCircle
 10
1638.192170752147
 20
-981.6344426328717
 30
0.0
 40
3.2
100
AcDbArc
 50
241.7965790214703
 51
278.0000000000402
  0
LINE
  5
96FD
330
17
100
AcDbEntity
  8
1外形線
 48
3.0
100
AcDbLine
 10
1638.637524675221
 20
-984.8033004528435
 30
0.0
 11
1639.380307429033
 21
-984.6989091446232
 31
0.0
  0
LINE
  5
96FF
330
17
100
AcDbEntity
  8
1外形線
 48
5.0
100
AcDbLine
 10
1702.77279749218
 20
-970.9540074826147
 30
0.0
 11
1701.438715515869
 21
-980.4464820193645
 31
0.0
  0
ARC
  5
9700
330
17
100
AcDbEntity
  8
1外形線
 48
5.0
100
AcDbCircle
 10
1703.763065536746
 20
-971.0931807555954
 30
0.0
 40
1.0
100
AcDbArc
 50
127.0000470157339
 51
171.9999765727108
  0
LINE
  5
9701
330
17
100
AcDbEntity
  8
1外形線
 48
5.0
100
AcDbLine
 10
1702.174446407553
 20
-980.9597054395847
 30
0.0
 11
1703.564979309376
 21
-971.0655497319342
 31
0.0
  0
ARC
  5
9702
330
17
100
AcDbEntity
  8
1外形線
 48
5.0
100
AcDbCircle
 10
1703.763061735189
 20
-971.0931785680251
 30
0.0
 40
0.2
100
AcDbArc
 50
126.9999999999043
 51
171.9999999999599
  0
LINE
  5
9703
330
17
100
AcDbEntity
  8
1外形線
 48
5.0
100
AcDbLine
 10
1703.64269873056
 20
-970.9334514660142
 30
0.0
 11
1707.569715148864
 21
-967.9742323391794
 31
0.0
  0
LINE
  5
9704
330
17
100
AcDbEntity
  8
1外形線
 48
5.0
100
AcDbLine
 10
1707.569715148864
 20
-967.9742323391758
 30
0.0
 11
1707.088263130339
 21
-967.3353239311394
 31
0.0
  0
LINE
  5
9705
330
17
100
AcDbEntity
  8
1外形線
 48
5.0
100
AcDbLine
 10
1707.088263130339
 20
-967.3353239311394
 30
0.0
 11
1703.161249858254
 21
-970.2945457393827
 31
0.0
  0
LINE
  5
9706
330
17
100
AcDbEntity
  8
1外形線
 48
3.0
100
AcDbLine
 10
1630.437741258167
 20
-985.6459125286448
 30
0.0
 11
1631.099375929901
 21
-984.4121459694717
 31
0.0
  0
LINE
  5
9707
330
17
100
AcDbEntity
  8
1外形線
 48
3.0
100
AcDbLine
 10
1631.142761446761
 20
-986.0239952360892
 30
0.0
 11
1631.804396118503
 21
-984.7902286769206
 31
0.0
  0
LINE
  5
9708
330
17
100
AcDbEntity
  8
1外形線
 48
3.0
100
AcDbLine
 10
1631.142761446768
 20
-986.0239952360892
 30
0.0
 11
1630.437741258167
 21
-985.6459125286448
 31
0.0
  0
LINE
  5
9709
330
17
100
AcDbEntity
  8
1外形線
 48
3.0
100
AcDbLine
 10
1631.150521156196
 20
-982.6240228848321
 30
0.0
 11
1636.207236538052
 21
-985.3357986230069
 31
0.0
  0
ARC
  5
970A
330
17
100
AcDbEntity
  8
1外形線
 48
2.0
100
AcDbCircle
 10
1698.134366547892
 20
-984.0340632620275
 30
0.0
 40
1.6
100
AcDbArc
 50
178.2034209784489
 51
208.2034209783603
  0
ARC
  5
970B
330
17
100
AcDbEntity
  8
1外形線
 48
3.0
100
AcDbCircle
 10
1698.134366547892
 20
-984.0340632620275
 30
0.0
 40
0.8
100
AcDbArc
 50
118.2034209783234
 51
208.2034209783603
  0
LINE
  5
970C
330
17
100
AcDbEntity
  8
1外形線
 48
3.0
100
AcDbLine
 10
1698.090981031026
 20
-985.6459125286448
 30
0.0
 11
1697.429346359298
 21
-984.4121459694717
 31
0.0
  0
LINE
  5
970D
330
17
100
AcDbEntity
  8
1外形線
 48
3.0
100
AcDbLine
 10
1697.385960842432
 20
-986.0239952360892
 30
0.0
 11
1696.724326170697
 21
-984.7902286769206
 31
0.0
  0
LINE
  5
970E
330
17
100
AcDbEntity
  8
1外形線
 48
3.0
100
AcDbLine
 10
1697.385960842432
 20
-986.0239952360892
 30
0.0
 11
1698.090981031026
 21
-985.6459125286448
 31
0.0
  0
LINE
  5
970F
330
17
100
AcDbEntity
  8
1外形線
 48
2.0
100
AcDbLine
 10
1676.597482884375
 20
-993.3131743493616
 30
0.0
 11
1651.931239404817
 21
-993.3131743493616
 31
0.0
  0
ARC
  5
9711
330
17
100
AcDbEntity
  8
1外形線
 48
2.0
100
AcDbCircle
 10
1656.9643611446
 20
-993.3131743493616
 30
0.0
 40
0.2
100
AcDbArc
 50
90.0
 51
180.0
  0
LINE
  5
9712
330
17
100
AcDbEntity
  8
1外形線
 48
2.0
100
AcDbLine
 10
1676.398020482105
 20
-994.1131743493617
 30
0.0
 11
1652.130701807095
 21
-994.1131743493617
 31
0.0
  0
LINE
  5
9713
330
17
100
AcDbEntity
  8
1外形線
 48
2.0
100
AcDbLine
 10
1658.122782871134
 20
-995.1131743493608
 30
0.0
 11
1652.380029809938
 21
-995.1131743493608
 31
0.0
  0
ARC
  5
9714
330
17
100
AcDbEntity
  8
1外形線
 48
2.0
100
AcDbCircle
 10
1658.122782871134
 20
-994.1131743493617
 30
0.0
 40
1.0
100
AcDbArc
 50
270.0
 51
0.0
  0
LINE
  5
9715
330
17
100
AcDbEntity
  8
1外形線
 48
5.0
100
AcDbLine
 10
1702.77279749218
 20
-1014.472341216108
 30
0.0
 11
1701.438715515869
 21
-1004.979866679358
 31
0.0
  0
ARC
  5
9716
330
17
100
AcDbEntity
  8
1外形線
 48
5.0
100
AcDbCircle
 10
1703.763065536746
 20
-1014.333167943125
 30
0.0
 40
1.0
100
AcDbArc
 50
188.0000234272892
 51
232.9999529842661
  0
LINE
  5
9717
330
17
100
AcDbEntity
  8
1外形線
 48
5.0
100
AcDbLine
 10
1702.174446407553
 20
-1004.466643259137
 30
0.0
 11
1703.564979309376
 21
-1014.360798966788
 31
0.0
  0
ARC
  5
9718
330
17
100
AcDbEntity
  8
1外形線
 48
5.0
100
AcDbCircle
 10
1703.763061735189
 20
-1014.333170130696
 30
0.0
 40
0.2
100
AcDbArc
 50
188.00000000004
 51
233.0000000000957
  0
LINE
  5
9719
330
17
100
AcDbEntity
  8
1外形線
 48
5.0
100
AcDbLine
 10
1703.64269873056
 20
-1014.492897232702
 30
0.0
 11
1707.569715148864
 21
-1017.452116359541
 31
0.0
  0
LINE
  5
971A
330
17
100
AcDbEntity
  8
1外形線
 48
5.0
100
AcDbLine
 10
1707.569715148864
 20
-1017.452116359542
 30
0.0
 11
1707.088263130339
 21
-1018.091024767578
 31
0.0
  0
LINE
  5
971B
330
17
100
AcDbEntity
  8
1外形線
 48
5.0
100
AcDbLine
 10
1707.088263130339
 20
-1018.091024767578
 30
0.0
 11
1703.161249858254
 21
-1015.131802959335
 31
0.0
  0
LINE
  5
971C
330
17
100
AcDbEntity
  8
1外形線
 48
2.0
100
AcDbLine
 10
1697.378201132996
 20
-1002.802325813886
 30
0.0
 11
1697.686647465525
 21
-1002.967736998406
 31
0.0
  0
ARC
  5
971D
330
17
100
AcDbEntity
  8
1外形線
 48
2.0
100
AcDbCircle
 10
1698.134366547892
 20
-1001.392285436694
 30
0.0
 40
1.6
100
AcDbArc
 50
151.7965790216396
 51
241.7965790214703
  0
LINE
  5
971E
330
17
100
AcDbEntity
  8
1外形線
 48
2.0
100
AcDbLine
 10
1692.699568458592
 20
-999.3855298871178
 30
0.0
 11
1696.535153053439
 21
-1001.442447166708
 31
0.0
  0
ARC
  5
971F
330
17
100
AcDbEntity
  8
1外形線
 48
2.0
100
AcDbCircle
 10
1690.336551537046
 20
-1003.79190606585
 30
0.0
 40
5.0
100
AcDbArc
 50
61.79657902167661
 51
98.00000000004025
  0
LINE
  5
9720
330
17
100
AcDbEntity
  8
1外形線
 48
3.0
100
AcDbLine
 10
1697.756283840448
 20
-1002.097305625293
 30
0.0
 11
1702.174446407516
 21
-1004.466643258901
 31
0.0
  0
ARC
  5
9721
330
17
100
AcDbEntity
  8
1外形線
 48
3.0
100
AcDbCircle
 10
1698.134366547892
 20
-1001.392285436694
 30
0.0
 40
0.8
100
AcDbArc
 50
151.7965790216396
 51
241.7965790216766
  0
LINE
  5
9722
330
17
100
AcDbEntity
  8
1外形線
 48
3.0
100
AcDbLine
 10
1697.686647465525
 20
-1002.967736998406
 30
0.0
 11
1701.438715515869
 21
-1004.979866679358
 31
0.0
  0
LINE
  5
9723
330
17
100
AcDbEntity
  8
1外形線
 48
3.0
100
AcDbLine
 10
1676.597482884375
 20
-993.3131743493616
 30
0.0
 11
1680.924307010922
 21
-995.6137875465868
 31
0.0
  0
LINE
  5
9724
330
17
100
AcDbEntity
  8
1外形線
 48
3.0
100
AcDbLine
 10
1676.398020482105
 20
-994.1131743493617
 30
0.0
 11
1680.548729760696
 21
-996.3201456208738
 31
0.0
  0
LINE
  5
9725
330
17
100
AcDbEntity
  8
1外形線
 48
3.0
100
AcDbLine
 10
1680.924307010922
 20
-995.6137875465868
 30
0.0
 11
1686.341595690697
 21
-998.4942110316572
 31
0.0
  0
ARC
  5
9726
330
17
100
AcDbEntity
  8
1外形線
 48
3.0
100
AcDbCircle
 10
1688.313376254402
 20
-994.7858311416496
 30
0.0
 40
4.2
100
AcDbArc
 50
242.0000000000814
 51
278.0000000000402
  0
LINE
  5
9727
330
17
100
AcDbEntity
  8
1外形線
 48
3.0
100
AcDbLine
 10
1680.548729760696
 20
-996.3201456208738
 30
0.0
 11
1685.966018440471
 21
-999.2005691059423
 31
0.0
  0
ARC
  5
9728
330
17
100
AcDbEntity
  8
1外形線
 48
3.0
100
AcDbCircle
 10
1688.313376254402
 20
-994.7858311416496
 30
0.0
 40
5.0
100
AcDbArc
 50
242.0000000000814
 51
278.0000000000402
  0
LINE
  5
9729
330
17
100
AcDbEntity
  8
1外形線
 48
3.0
100
AcDbLine
 10
1689.640686032246
 20
-998.8405657221413
 30
0.0
 11
1688.897903278434
 21
-998.9449570303651
 31
0.0
  0
LINE
  5
972A
330
17
100
AcDbEntity
  8
1外形線
 48
3.0
100
AcDbLine
 10
1689.752024513014
 20
-999.6327801771341
 30
0.0
 11
1689.009241759202
 21
-999.7371714853581
 31
0.0
  0
ARC
  5
972B
330
17
100
AcDbEntity
  8
1外形線
 48
3.0
100
AcDbCircle
 10
1690.336551537046
 20
-1003.791906065846
 30
0.0
 40
4.2
100
AcDbArc
 50
61.79657902147027
 51
98.00000000004025
  0
LINE
  5
972C
330
17
100
AcDbEntity
  8
1外形線
 48
2.0
100
AcDbLine
 10
1636.207236538052
 20
-1000.090550075714
 30
0.0
 11
1630.842074823668
 21
-1002.967736998406
 31
0.0
  0
LINE
  5
972D
330
17
100
AcDbEntity
  8
1外形線
 48
2.0
100
AcDbLine
 10
1636.679839922362
 20
-1000.971825311459
 30
0.0
 11
1631.314678207978
 21
-1003.849012234153
 31
0.0
  0
LINE
  5
972E
330
17
100
AcDbEntity
  8
1外形線
 48
2.0
100
AcDbLine
 10
1635.829153830608
 20
-999.3855298871178
 30
0.0
 11
1630.463992116238
 21
-1002.262716809799
 31
0.0
  0
ARC
  5
972F
330
17
100
AcDbEntity
  8
1外形線
 48
2.0
100
AcDbCircle
 10
1638.192170752147
 20
-1003.791906065846
 30
0.0
 40
5.0
100
AcDbArc
 50
81.99999999995975
 51
118.2034209783234
  0
LINE
  5
9730
330
17
100
AcDbEntity
  8
1外形線
 48
3.0
100
AcDbLine
 10
1630.463992116238
 20
-1002.262716809799
 30
0.0
 11
1626.354275881684
 21
-1004.466643258901
 31
0.0
  0
LINE
  5
9731
330
17
100
AcDbEntity
  8
1外形線
 48
3.0
100
AcDbLine
 10
1630.842074823668
 20
-1002.967736998406
 30
0.0
 11
1627.090006773331
 21
-1004.979866679358
 31
0.0
  0
LINE
  5
9732
330
17
100
AcDbEntity
  8
1外形線
 48
3.0
100
AcDbLine
 10
1631.314678208015
 20
-1003.849012234132
 30
0.0
 11
1629.325159556567
 21
-1004.91593314636
 31
0.0
  0
ARC
  5
9733
330
17
100
AcDbEntity
  8
1外形線
 48
3.0
100
AcDbCircle
 10
1628.85255617222
 20
-1004.034657910634
 30
0.0
 40
1.0
100
AcDbArc
 50
208.2034209809028
 51
298.2034209808807
  0
LINE
  5
9734
330
17
100
AcDbEntity
  8
1外形線
 48
3.0
100
AcDbLine
 10
1651.931239404817
 20
-993.3131743493616
 30
0.0
 11
1647.60441527827
 21
-995.6137875465868
 31
0.0
  0
LINE
  5
9735
330
17
100
AcDbEntity
  8
1外形線
 48
3.0
100
AcDbLine
 10
1652.130701807095
 20
-994.1131743493617
 30
0.0
 11
1647.979992528504
 21
-996.3201456208738
 31
0.0
  0
LINE
  5
9736
330
17
100
AcDbEntity
  8
1外形線
 48
3.0
100
AcDbLine
 10
1652.380029809938
 20
-995.1131743493608
 30
0.0
 11
1648.449464091289
 21
-997.2030932137315
 31
0.0
  0
LINE
  5
9737
330
17
100
AcDbEntity
  8
1外形線
 48
3.0
100
AcDbLine
 10
1647.60441527827
 20
-995.6137875465868
 30
0.0
 11
1642.187126598495
 21
-998.4942110316572
 31
0.0
  0
ARC
  5
9738
330
17
100
AcDbEntity
  8
1外形線
 48
3.0
100
AcDbCircle
 10
1640.215346034798
 20
-994.7858311416496
 30
0.0
 40
4.2
100
AcDbArc
 50
261.9999999999598
 51
297.9999999999185
  0
LINE
  5
9739
330
17
100
AcDbEntity
  8
1外形線
 48
3.0
100
AcDbLine
 10
1647.979992528504
 20
-996.3201456208738
 30
0.0
 11
1642.562703848729
 21
-999.2005691059423
 31
0.0
  0
LINE
  5
973A
330
17
100
AcDbEntity
  8
1外形線
 48
3.0
100
AcDbLine
 10
1648.449464091289
 20
-997.2030932137315
 30
0.0
 11
1643.032175411514
 21
-1000.083516698804
 31
0.0
  0
ARC
  5
973B
330
17
100
AcDbEntity
  8
1外形線
 48
3.0
100
AcDbCircle
 10
1640.215346034798
 20
-994.7858311416496
 30
0.0
 40
5.0
100
AcDbArc
 50
261.9999999999598
 51
297.9999999999185
  0
ARC
  5
973C
330
17
100
AcDbEntity
  8
1外形線
 48
3.0
100
AcDbCircle
 10
1640.215346034798
 20
-994.7858311416496
 30
0.0
 40
6.0
100
AcDbArc
 50
261.9999999999598
 51
297.9999999999185
  0
LINE
  5
973D
330
17
100
AcDbEntity
  8
1外形線
 48
3.0
100
AcDbLine
 10
1638.888036256947
 20
-998.8405657221413
 30
0.0
 11
1639.630819010767
 21
-998.9449570303651
 31
0.0
  0
LINE
  5
973E
330
17
100
AcDbEntity
  8
1外形線
 48
3.0
100
AcDbLine
 10
1638.776697776178
 20
-999.6327801771341
 30
0.0
 11
1639.519480529998
 21
-999.7371714853581
 31
0.0
  0
LINE
  5
973F
330
17
100
AcDbEntity
  8
1外形線
 48
3.0
100
AcDbLine
 10
1638.637524675221
 20
-1000.623048245874
 30
0.0
 11
1639.380307429033
 21
-1000.727439554101
 31
0.0
  0
ARC
  5
9740
330
17
100
AcDbEntity
  8
1外形線
 48
3.0
100
AcDbCircle
 10
1638.192170752147
 20
-1003.791906065846
 30
0.0
 40
4.2
100
AcDbArc
 50
81.99999999995975
 51
118.2034209785297
  0
ARC
  5
9741
330
17
100
AcDbEntity
  8
1外形線
 48
3.0
100
AcDbCircle
 10
1638.192170752147
 20
-1003.791906065846
 30
0.0
 40
3.2
100
AcDbArc
 50
81.99999999995975
 51
118.2034209785297
  0
LINE
  5
9742
330
17
100
AcDbEntity
  8
1外形線
 48
3.0
100
AcDbLine
 10
1681.204328324616
 20
-995.7626775201481
 30
0.0
 11
1680.82875107439
 21
-996.4690355944341
 31
0.0
  0
LINE
  5
9743
330
17
100
AcDbEntity
  8
1外形線
 48
3.0
100
AcDbLine
 10
1659.122782871134
 20
-994.1131743493617
 30
0.0
 11
1659.122782871134
 21
-994.1131743493617
 31
0.0
  0
LINE
  5
9744
330
17
100
AcDbEntity
  8
1外形線
 48
3.0
100
AcDbLine
 10
1627.090006773331
 20
-1004.979866679358
 30
0.0
 11
1627.090006773331
 21
-1004.979866679358
 31
0.0
  0
LINE
  5
9745
330
17
100
AcDbEntity
  8
1外形線
 48
2.0
100
AcDbLine
 10
1670.405939418065
 20
-995.1131743493608
 30
0.0
 11
1676.148692479262
 21
-995.1131743493608
 31
0.0
  0
ARC
  5
9746
330
17
100
AcDbEntity
  8
1外形線
 48
2.0
100
AcDbCircle
 10
1670.405939418065
 20
-994.1131743493617
 30
0.0
 40
1.0
100
AcDbArc
 50
180.0
 51
270.0
  0
LINE
  5
9747
330
17
100
AcDbEntity
  8
1外形線
 48
2.0
100
AcDbLine
 10
1691.848882366837
 20
-1000.971825311459
 30
0.0
 11
1697.214044081222
 21
-1003.849012234153
 31
0.0
  0
LINE
  5
9748
330
17
100
AcDbEntity
  8
1外形線
 48
3.0
100
AcDbLine
 10
1697.214044081178
 20
-1003.849012234132
 30
0.0
 11
1699.203562732633
 21
-1004.91593314636
 31
0.0
  0
ARC
  5
9749
330
17
100
AcDbEntity
  8
1外形線
 48
3.0
100
AcDbCircle
 10
1699.67616611698
 20
-1004.034657910634
 30
0.0
 40
1.0
100
AcDbArc
 50
241.7965790191193
 51
331.7965790190972
  0
LINE
  5
974A
330
17
100
AcDbEntity
  8
1外形線
 48
3.0
100
AcDbLine
 10
1676.148692479262
 20
-995.1131743493608
 30
0.0
 11
1680.079258197911
 21
-997.2030932137315
 31
0.0
  0
LINE
  5
974B
330
17
100
AcDbEntity
  8
1外形線
 48
3.0
100
AcDbLine
 10
1680.079258197911
 20
-997.2030932137315
 30
0.0
 11
1685.496546877686
 21
-1000.083516698804
 31
0.0
  0
ARC
  5
974C
330
17
100
AcDbEntity
  8
1外形線
 48
3.0
100
AcDbCircle
 10
1688.313376254402
 20
-994.7858311416496
 30
0.0
 40
6.0
100
AcDbArc
 50
242.0000000000814
 51
278.0000000000402
  0
ARC
  5
974D
330
17
100
AcDbEntity
  8
1外形線
 48
3.0
100
AcDbCircle
 10
1690.336551537046
 20
-1003.791906065846
 30
0.0
 40
3.2
100
AcDbArc
 50
61.79657902147027
 51
98.00000000004025
  0
LINE
  5
974E
330
17
100
AcDbEntity
  8
1外形線
 48
3.0
100
AcDbLine
 10
1689.891197613979
 20
-1000.623048245874
 30
0.0
 11
1689.148414860159
 21
-1000.727439554101
 31
0.0
  0
LINE
  5
974F
330
17
100
AcDbEntity
  8
1外形線
 48
3.0
100
AcDbLine
 10
1671.764361144596
 20
-993.3131743493616
 30
0.0
 11
1671.764361144596
 21
-993.3131743493616
 31
0.0
  0
ARC
  5
9750
330
17
100
AcDbEntity
  8
1外形線
 48
3.0
100
AcDbCircle
 10
1671.564361144599
 20
-993.3131743493616
 30
0.0
 40
0.2
100
AcDbArc
 50
0.0
 51
90.0
  0
LINE
  5
9751
330
17
100
AcDbEntity
  8
1外形線
 48
3.0
100
AcDbLine
 10
1656.764361144596
 20
-993.3131743493616
 30
0.0
 11
1656.764361144596
 21
-993.3131743493616
 31
0.0
  0
LINE
  5
9752
330
17
100
AcDbEntity
  8
1外形線
 48
5.0
100
AcDbLine
 10
1625.755924797013
 20
-1014.472341216108
 30
0.0
 11
1627.090006773331
 21
-1004.979866679358
 31
0.0
  0
ARC
  5
9753
330
17
100
AcDbEntity
  8
1外形線
 48
5.0
100
AcDbCircle
 10
1624.765656752446
 20
-1014.333167943125
 30
0.0
 40
1.0
100
AcDbArc
 50
307.0000470157339
 51
351.9999765726053
  0
LINE
  5
9754
330
17
100
AcDbEntity
  8
1外形線
 48
5.0
100
AcDbLine
 10
1626.354275881647
 20
-1004.466643259137
 30
0.0
 11
1624.963742979824
 21
-1014.360798966788
 31
0.0
  0
ARC
  5
9755
330
17
100
AcDbEntity
  8
1外形線
 48
5.0
100
AcDbCircle
 10
1624.76566055401
 20
-1014.333170130696
 30
0.0
 40
0.2
100
AcDbArc
 50
306.9999999999043
 51
351.9999999999599
  0
LINE
  5
9756
330
17
100
AcDbEntity
  8
1外形線
 48
5.0
100
AcDbLine
 10
1624.88602355864
 20
-1014.492897232702
 30
0.0
 11
1620.959007140336
 21
-1017.452116359541
 31
0.0
  0
LINE
  5
9757
330
17
100
AcDbEntity
  8
1外形線
 48
5.0
100
AcDbLine
 10
1620.959007140336
 20
-1017.452116359542
 30
0.0
 11
1621.440459158853
 21
-1018.091024767578
 31
0.0
  0
LINE
  5
9758
330
17
100
AcDbEntity
  8
1外形線
 48
5.0
100
AcDbLine
 10
1621.440459158853
 20
-1018.091024767578
 30
0.0
 11
1625.367472430946
 21
-1015.131802959335
 31
0.0
  0
LINE
  5
9759
330
17
100
AcDbEntity
  8
1外形線
 48
3.0
100
AcDbLine
 10
1698.090981031026
 20
-999.7804361700767
 30
0.0
 11
1697.429346359298
 21
-1001.014202729246
 31
0.0
  0
LINE
  5
975A
330
17
100
AcDbEntity
  8
1外形線
 48
3.0
100
AcDbLine
 10
1697.385960842432
 20
-999.4023534626277
 30
0.0
 11
1696.724326170697
 21
-1000.636120021798
 31
0.0
  0
LINE
  5
975B
330
17
100
AcDbEntity
  8
1外形線
 48
3.0
100
AcDbLine
 10
1697.385960842432
 20
-999.4023534626277
 30
0.0
 11
1698.090981031026
 21
-999.7804361700767
 31
0.0
  0
LINE
  5
975C
330
17
100
AcDbEntity
  8
1外形線
 48
3.0
100
AcDbLine
 10
1697.378201132996
 20
-1002.802325813886
 30
0.0
 11
1692.321485751148
 21
-1000.090550075714
 31
0.0
  0
ARC
  5
975D
330
17
100
AcDbEntity
  8
1外形線
 48
2.0
100
AcDbCircle
 10
1630.394355741308
 20
-1001.392285436694
 30
0.0
 40
1.6
100
AcDbArc
 50
358.2034209784489
 51
28.20342097836036
  0
ARC
  5
975E
330
17
100
AcDbEntity
  8
1外形線
 48
3.0
100
AcDbCircle
 10
1630.394355741308
 20
-1001.392285436694
 30
0.0
 40
0.8
100
AcDbArc
 50
298.2034209783234
 51
28.20342097836036
  0
LINE
  5
975F
330
17
100
AcDbEntity
  8
1外形線
 48
3.0
100
AcDbLine
 10
1630.437741258167
 20
-999.7804361700767
 30
0.0
 11
1631.099375929901
 21
-1001.014202729246
 31
0.0
  0
LINE
  5
9760
330
17
100
AcDbEntity
  8
1外形線
 48
3.0
100
AcDbLine
 10
1631.142761446761
 20
-999.4023534626277
 30
0.0
 11
1631.804396118503
 21
-1000.636120021798
 31
0.0
  0
LINE
  5
9761
330
17
100
AcDbEntity
  8
1外形線
 48
3.0
100
AcDbLine
 10
1631.142761446768
 20
-999.4023534626277
 30
0.0
 11
1630.437741258167
 21
-999.7804361700767
 31
0.0
  0
LINE
  5
9764
330
17
100
AcDbEntity
  8
1外形線
 48
3.0
100
AcDbLine
 10
1660.764361144596
 20
-994.1131743493617
 30
0.0
 11
1660.764361144596
 21
-995.3131743493615
 31
0.0
  0
LINE
  5
9765
330
17
100
AcDbEntity
  8
1外形線
 48
3.0
100
AcDbLine
 10
1667.764361144596
 20
-994.1131743493617
 30
0.0
 11
1667.764361144596
 21
-995.3131743493615
 31
0.0
  0
LINE
  5
9766
330
17
100
AcDbEntity
  8
1外形線
 48
3.0
100
AcDbLine
 10
1660.764361144596
 20
-995.3131743493615
 30
0.0
 11
1667.764361144596
 21
-995.3131743493615
 31
0.0
  0
LINE
  5
976F
330
17
100
AcDbEntity
  8
1外形線
 48
2.0
100
AcDbLine
 10
1649.714368717468
 20
-914.0669020425532
 30
0.0
 11
1649.714366263473
 21
-872.5010480546059
 31
0.0
  0
LINE
  5
9770
330
17
100
AcDbEntity
  8
1外形線
 48
2.0
100
AcDbLine
 10
1649.714364761179
 20
-847.0551094422599
 30
0.0
 11
1649.714364140022
 21
-836.5339415302619
 31
0.0
  0
LINE
  5
9771
330
17
100
AcDbEntity
  8
1外形線
 48
2.0
100
AcDbLine
 10
1678.814171634349
 20
-886.3542675798649
 30
0.0
 11
1678.814198106251
 21
-875.954988038646
 31
0.0
  0
LINE
  5
9772
330
17
100
AcDbEntity
  8
1外形線
 48
2.0
100
AcDbLine
 10
1678.814264046969
 20
-850.0506934909772
 30
0.0
 11
1678.814371327496
 21
-807.9063780202183
 31
0.0
  0
ARC
  5
9774
330
17
100
AcDbEntity
  8
1外形線
 48
2.0
100
AcDbCircle
 10
1662.714416957149
 20
-894.4908201435948
 30
0.0
 40
3.0
100
AcDbArc
 50
87.71494466382218
 51
179.9998731570839
  0
ELLIPSE
  5
9776
330
17
100
AcDbEntity
  8
1外形線
 48
5.0
100
AcDbEllipse
 10
1673.314591745486
 20
-888.4105001774781
 30
0.0
 11
-6.166587884678175
 21
-2.656655545470794
 31
0.0
210
0.0
220
0.0
230
0.9999999999999998
 40
0.3211913581845101
 41
0.6251929459917857
 42
2.306879638789554
  0
ELLIPSE
  5
9777
330
17
100
AcDbEntity
  8
1外形線
 48
5.0
100
AcDbEllipse
 10
1673.381953546288
 20
-888.2080807682408
 30
0.0
 11
-6.687865430548601
 21
-2.566954477112905
 31
0.0
210
0.0
220
0.0
230
1.0
 40
0.2536168685415952
 41
0.7263586555423425
 42
2.203149152678017
  0
LINE
  5
9778
330
17
100
AcDbEntity
  8
1外形線
 48
2.0
100
AcDbLine
 10
1668.814498396793
 20
-891.2536348738823
 30
0.0
 11
1662.834031501282
 21
-891.0229774967641
 31
0.0
  0
ARC
  5
9779
330
17
100
AcDbEntity
  8
1外形線
 48
2.0
100
AcDbCircle
 10
1662.714417998154
 20
-894.0205919832999
 30
0.0
 40
3.0
100
AcDbArc
 50
87.71494466382218
 51
179.9998731570839
  0
LINE
  5
977A
330
17
100
AcDbEntity
  8
1外形線
 48
2.0
100
AcDbLine
 10
1668.813806620117
 20
-891.7238354718296
 30
0.0
 11
1662.834030460277
 21
-891.493205657059
 31
0.0
  0
LINE
  5
977B
330
17
100
AcDbEntity
  8
1外形線
 48
2.0
100
AcDbLine
 10
1649.714369055095
 20
-808.1565344481598
 30
0.0
 11
1678.814370690711
 21
-808.1565344481525
 31
0.0
  0
LINE
  5
977C
330
17
100
AcDbEntity
  8
1外形線
 48
2.0
100
AcDbLine
 10
1649.714369178493
 20
-810.4060449915763
 30
0.0
 11
1678.814364964467
 21
-810.406044991569
 31
0.0
  0
LINE
  5
977D
330
17
100
AcDbEntity
  8
1外形線
 48
2.0
100
AcDbLine
 10
1668.814348011055
 20
-815.9078032122984
 30
0.0
 11
1668.81430123033
 21
-828.8018529730758
 31
0.0
  0
ARC
  5
977E
330
17
100
AcDbEntity
  8
1外形線
 48
2.0
100
AcDbCircle
 10
1665.814301230354
 20
-828.8018419624854
 30
0.0
 40
3.0
100
AcDbArc
 50
267.7149446638221
 51
359.9997897132164
  0
LINE
  5
977F
330
17
100
AcDbEntity
  8
1外形線
 48
2.0
100
AcDbLine
 10
1659.714315247313
 20
-814.2825010047733
 30
0.0
 11
1659.714315709292
 21
-814.9433532100726
 31
0.0
  0
ELLIPSE
  5
9780
330
17
100
AcDbEntity
  8
1外形線
 48
2.0
100
AcDbEllipse
 10
1652.47773062387
 20
-809.6594628248118
 30
0.0
 11
-4.203331560107031
 21
5.29406175497823
 31
0.0
210
0.0
220
0.0
230
-1.0
 40
0.3944135813477965
 41
4.649399962458688
 42
4.880880845058046
  0
LINE
  5
9781
330
17
100
AcDbEntity
  8
1外形線
 48
2.0
100
AcDbLine
 10
1666.705033057868
 20
-813.9107818452909
 30
0.0
 11
1659.71431580241
 21
-814.2825009743887
 31
0.0
  0
ARC
  5
9782
330
17
100
AcDbEntity
  8
1外形線
 48
2.0
100
AcDbCircle
 10
1666.814348011086
 20
-815.9077921710036
 30
0.0
 40
2.0
100
AcDbArc
 50
359.9996836902043
 51
93.13320409409705
  0
ELLIPSE
  5
9783
330
17
100
AcDbEntity
  8
1外形線
 48
5.0
100
AcDbEllipse
 10
1655.192080727207
 20
-834.4092649746958
 30
0.0
 11
-5.868698723494679
 21
-2.638667823719267
 31
0.0
210
0.0
220
0.0
230
1.0
 40
0.3458172022079958
 41
3.692658432798533
 42
5.51899461049525
  0
ELLIPSE
  5
9784
330
17
100
AcDbEntity
  8
1外形線
 48
5.0
100
AcDbEllipse
 10
1655.536761586496
 20
-838.9823350261645
 30
0.0
 11
-8.961888325901233
 21
-5.129303758612656
 31
0.0
210
0.0
220
0.0
230
1.0
 40
0.5975536799263757
 41
3.925995347147551
 42
4.94514085970202
  0
LINE
  5
9785
330
17
100
AcDbEntity
  8
1外形線
 48
2.0
100
AcDbLine
 10
1659.714238979048
 20
-831.5687997960262
 30
0.0
 11
1665.694687727223
 21
-831.7994564490177
 31
0.0
  0
LINE
  5
9786
330
17
100
AcDbEntity
  8
1外形線
 48
2.0
100
AcDbLine
 10
1659.714238979053
 20
-831.0985715941928
 30
0.0
 11
1665.694689453051
 21
-831.3292283160439
 31
0.0
  0
ARC
  5
9787
330
17
100
AcDbEntity
  8
1外形線
 48
2.0
100
AcDbCircle
 10
1665.814302956182
 20
-828.3316138295116
 30
0.0
 40
3.0
100
AcDbArc
 50
267.7149446638221
 51
359.9997897132164
  0
LINE
  5
9788
330
17
100
AcDbEntity
  8
1外形線
 48
2.0
100
AcDbLine
 10
1649.71437235468
 20
-810.4060449915763
 30
0.0
 11
1649.714368687937
 21
-807.9062200210131
 31
0.0
  0
LINE
  5
9789
330
17
100
AcDbEntity
  8
1外形線
 48
2.0
100
AcDbLine
 10
1671.814363527229
 20
-812.370423123365
 30
0.0
 11
1671.814305559506
 21
-842.5858924705712
 31
0.0
  0
LINE
  5
978A
330
17
100
AcDbEntity
  8
1外形線
 48
2.0
100
AcDbLine
 10
1675.814345255094
 20
-812.370423123365
 30
0.0
 11
1675.814292552423
 21
-842.5840988464546
 31
0.0
  0
ARC
  5
978B
330
17
100
AcDbEntity
  8
1外形線
 48
3.0
100
AcDbCircle
 10
1673.814298653826
 20
-842.5840988464546
 30
0.0
 40
1.999993898593857
100
AcDbArc
 50
180.0
 51
0.0
  0
ARC
  5
978C
330
17
100
AcDbEntity
  8
1外形線
 48
3.0
100
AcDbCircle
 10
1673.814354922368
 20
-813.7041358349986
 30
0.0
 40
2.403904153207671
100
AcDbArc
 50
33.69770492279189
 51
146.3022950772081
  0
ARC
  5
978D
330
17
100
AcDbEntity
  8
1外形線
100
AcDbCircle
 10
1676.814171634357
 20
-886.354261846985
 30
0.0
 40
2.0
100
AcDbArc
 50
301.5252003430865
 51
359.9998357650915
  0
ARC
  5
978E
330
17
100
AcDbEntity
  8
1外形線
100
AcDbCircle
 10
1676.814171067141
 20
-886.5521552554323
 30
0.0
 40
2.0
100
AcDbArc
 50
309.530903555448
 51
359.9998357648831
  0
ARC
  5
978F
330
17
100
AcDbEntity
  8
1外形線
100
AcDbCircle
 10
1651.714364140022
 20
-836.5339413482683
 30
0.0
 40
2.0
100
AcDbArc
 50
127.8467530614332
 51
180.0000052137305
  0
ARC
  5
9790
330
17
100
AcDbEntity
  8
1外形線
100
AcDbCircle
 10
1651.714364123048
 20
-836.347401153816
 30
0.0
 40
2.0
100
AcDbArc
 50
134.049206076461
 51
180.0000052137305
  0
LINE
  5
9791
330
17
100
AcDbEntity
  8
1外形線
 48
3.0
100
AcDbLine
 10
1659.714315247313
 20
-814.9433532100651
 30
0.0
 11
1650.658410369784
 21
-811.6472733902979
 31
0.0
  0
LINE
  5
9792
330
17
100
AcDbEntity
  8
1外形線
 48
0.1
100
AcDbLine
 10
1678.614181639243
 20
-881.4261305499885
 30
0.0
 11
1649.714366723271
 21
-881.4261305499885
 31
0.0
  0
LINE
  5
9793
330
17
100
AcDbEntity
  8
1外形線
 48
0.1
100
AcDbLine
 10
1678.614252686287
 20
-841.584092745049
 30
0.0
 11
1675.614294991441
 21
-841.584092745049
 31
0.0
  0
LINE
  5
9794
330
17
100
AcDbEntity
  8
1外形線
 48
0.1
100
AcDbLine
 10
1671.614307421388
 20
-841.584092745049
 30
0.0
 11
1656.714463368956
 21
-841.5840927450487
 31
0.0
  0
LINE
  5
9795
330
17
100
AcDbEntity
  8
1外形線
 48
0.1
100
AcDbLine
 10
1652.714475571769
 20
-841.5840927450485
 30
0.0
 11
1649.714364438177
 21
-841.5840927450485
 31
0.0
  0
ARC
  5
9796
330
17
100
AcDbEntity
  8
1外形線
 48
3.0
100
AcDbCircle
 10
1673.814298653828
 20
-880.426124448582
 30
0.0
 40
1.999993898593857
100
AcDbArc
 50
0.0
 51
180.0
  0
LINE
  5
9797
330
17
100
AcDbEntity
  8
1外形線
 48
0.1
100
AcDbLine
 10
1675.814292552423
 20
-880.426124448582
 30
0.0
 11
1675.814292552423
 21
-881.0051116475188
 31
0.0
  0
LINE
  5
9798
330
17
100
AcDbEntity
  8
1外形線
 48
0.1
100
AcDbLine
 10
1671.814304755233
 20
-880.426124448582
 30
0.0
 11
1671.814304755233
 21
-881.0051116475188
 31
0.0
  0
ARC
  5
9799
330
17
100
AcDbEntity
  8
1外形線
 48
3.0
100
AcDbCircle
 10
1654.714469470363
 20
-842.5840988464546
 30
0.0
 40
1.999993898593857
100
AcDbArc
 50
180.0
 51
0.0
  0
LINE
  5
979A
330
17
100
AcDbEntity
  8
1外形線
 48
0.1
100
AcDbLine
 10
1652.714475571768
 20
-842.5840988464546
 30
0.0
 11
1652.714475571768
 21
-842.0051116475178
 31
0.0
  0
LINE
  5
979B
330
17
100
AcDbEntity
  8
1外形線
 48
0.1
100
AcDbLine
 10
1656.714463368956
 20
-842.5840988464546
 30
0.0
 11
1656.714463368956
 21
-842.0051116475178
 31
0.0
  0
LINE
  5
979C
330
17
100
AcDbEntity
  8
1外形線
 48
0.1
100
AcDbLine
 10
1671.814304755233
 20
-881.0051116475188
 30
0.0
 11
1671.814304755233
 21
-885.5363802802106
 31
0.0
  0
LINE
  5
979D
330
17
100
AcDbEntity
  8
1外形線
 48
0.1
100
AcDbLine
 10
1675.814292552423
 20
-881.0051116475188
 30
0.0
 11
1675.814292552423
 21
-885.5363802802125
 31
0.0
  0
ARC
  5
979E
330
17
100
AcDbEntity
  8
1外形線
 48
3.0
100
AcDbCircle
 10
1673.814298653828
 20
-884.0102899989481
 30
0.0
 40
2.515735904458928
100
AcDbArc
 50
217.3453505255637
 51
322.6546494743693
  0
LINE
  5
979F
330
17
100
AcDbEntity
  8
1外形線
 48
0.1
100
AcDbLine
 10
1652.714475571768
 20
-842.0051116475178
 30
0.0
 11
1652.714475571768
 21
-837.4738430148259
 31
0.0
  0
LINE
  5
97A0
330
17
100
AcDbEntity
  8
1外形線
 48
0.1
100
AcDbLine
 10
1656.714463368956
 20
-842.0051116475178
 30
0.0
 11
1656.714463368959
 21
-837.4738430148241
 31
0.0
  0
ARC
  5
97A1
330
17
100
AcDbEntity
  8
1外形線
 48
3.0
100
AcDbCircle
 10
1654.714469470364
 20
-838.9999332960885
 30
0.0
 40
2.515735904458928
100
AcDbArc
 50
37.34535052563069
 51
142.6546494744363
  0
LINE
  5
97A2
330
17
100
AcDbEntity
  8
1外形線
 48
0.1
100
AcDbLine
 10
1652.714475571769
 20
-841.5840927450485
 30
0.0
 11
1656.714463368957
 21
-841.5840927450485
 31
0.0
  0
LINE
  5
97A3
330
17
100
AcDbEntity
  8
1外形線
 48
0.1
100
AcDbLine
 10
1675.614294413339
 20
-841.5840927450485
 30
0.0
 11
1671.61430678945
 21
-841.5840927450485
 31
0.0
  0
ARC
  5
97A4
330
17
100
AcDbEntity
  8
1外形線
 48
3.0
100
AcDbCircle
 10
1654.714469470363
 20
-880.426124448582
 30
0.0
 40
1.999993898593857
100
AcDbArc
 50
0.0
 51
180.0
  0
LINE
  5
97A5
330
17
100
AcDbEntity
  8
1外形線
 48
0.1
100
AcDbLine
 10
1667.26436707148
 20
-809.2812897198568
 30
0.0
 11
1667.26436707148
 21
-809.7311918285445
 31
0.0
  0
LINE
  5
97A6
330
17
100
AcDbEntity
  8
1外形線
 48
0.1
100
AcDbLine
 10
1661.264367071478
 20
-809.2812897198568
 30
0.0
 11
1661.264367071478
 21
-809.7311918285445
 31
0.0
  0
LINE
  5
97A7
330
17
100
AcDbEntity
  8
1外形線
 48
0.1
100
AcDbLine
 10
1661.264367071478
 20
-809.2812897198568
 30
0.0
 11
1667.26436707148
 21
-809.2812897198568
 31
0.0
  0
LINE
  5
97A8
330
17
100
AcDbEntity
  8
1外形線
 48
0.1
100
AcDbLine
 10
1661.264367071478
 20
-809.7311918285445
 30
0.0
 11
1667.26436707148
 21
-809.7311918285445
 31
0.0
  0
LINE
  5
97A9
330
17
100
AcDbEntity
  8
1外形線
 48
2.0
100
AcDbLine
 10
1654.714353601307
 20
-919.7722724876904
 30
0.0
 11
1673.814368687902
 21
-919.7722858481355
 31
0.0
  0
LINE
  5
97AA
330
17
100
AcDbEntity
  8
1外形線
 48
2.0
100
AcDbLine
 10
1654.714354551975
 20
-919.2908271493898
 30
0.0
 11
1673.814368687898
 21
-919.2908405098355
 31
0.0
  0
ARC
  5
97AB
330
17
100
AcDbEntity
  8
1外形線
 48
5.0
100
AcDbCircle
 10
1673.803450125263
 20
-914.7488058987574
 30
0.0
 40
5.023491815143738
100
AcDbArc
 50
270.1245325110407
 51
355.9453887253918
  0
ARC
  5
97AC
330
17
100
AcDbEntity
  8
1外形線
 48
5.0
100
AcDbCircle
 10
1673.770878887849
 20
-914.1599383968742
 30
0.0
 40
5.131086420583796
100
AcDbArc
 50
270.4856304543812
 51
349.3977892853654
  0
ARC
  5
97AD
330
17
100
AcDbEntity
  8
1外形線
 48
5.0
100
AcDbCircle
 10
1654.759343524374
 20
-914.158148711601
 30
0.0
 40
5.132875602759358
100
AcDbArc
 50
190.6187971059879
 51
269.497803678173
  0
LINE
  5
97AE
330
17
100
AcDbEntity
  8
1外形線
 48
2.0
100
AcDbLine
 10
1649.714369055095
 20
-914.8536888468767
 30
0.0
 11
1678.814363303551
 21
-914.8536888468841
 31
0.0
  0
LINE
  5
97AF
330
17
100
AcDbEntity
  8
1外形線
 48
2.0
100
AcDbLine
 10
1649.714369178493
 20
-912.6041783034603
 30
0.0
 11
1678.814314915772
 21
-912.6041783034676
 31
0.0
  0
LINE
  5
97B0
330
17
100
AcDbEntity
  8
1外形線
 48
2.0
100
AcDbLine
 10
1649.71437235468
 20
-912.6041783034603
 30
0.0
 11
1649.714368687937
 21
-915.1040032740233
 31
0.0
  0
LINE
  5
97B1
330
17
100
AcDbEntity
  8
1外形線
 48
0.1
100
AcDbLine
 10
1667.264342047135
 20
-913.7289335751798
 30
0.0
 11
1667.264342047135
 21
-913.2790314664921
 31
0.0
  0
LINE
  5
97B2
330
17
100
AcDbEntity
  8
1外形線
 48
0.1
100
AcDbLine
 10
1661.264342047131
 20
-913.7289335751798
 30
0.0
 11
1661.264342047131
 21
-913.2790314664921
 31
0.0
  0
LINE
  5
97B3
330
17
100
AcDbEntity
  8
1外形線
 48
0.1
100
AcDbLine
 10
1661.264342047131
 20
-913.7289335751798
 30
0.0
 11
1667.264342047135
 21
-913.7289335751798
 31
0.0
  0
LINE
  5
97B4
330
17
100
AcDbEntity
  8
1外形線
 48
0.1
100
AcDbLine
 10
1661.264342047131
 20
-913.2790314664921
 30
0.0
 11
1667.264342047135
 21
-913.2790314664921
 31
0.0
  0
LINE
  5
97B5
330
17
100
AcDbEntity
  8
1外形線
 48
2.0
100
AcDbLine
 10
1656.714184835285
 20
-910.6398001716716
 30
0.0
 11
1656.714243607281
 21
-880.0051055461121
 31
0.0
  0
LINE
  5
97B6
330
17
100
AcDbEntity
  8
1外形線
 48
2.0
100
AcDbLine
 10
1652.714203107419
 20
-910.6398001716716
 30
0.0
 11
1652.714255810093
 21
-880.0051055461121
 31
0.0
  0
ARC
  5
97B7
330
17
100
AcDbEntity
  8
1外形線
 48
3.0
100
AcDbCircle
 10
1654.714193440144
 20
-909.306087460038
 30
0.0
 40
2.403904153207671
100
AcDbArc
 50
213.6977049228065
 51
326.3022950771936
  0
LINE
  5
97B8
330
17
100
AcDbEntity
  8
1外形線
 48
2.0
100
AcDbLine
 10
1668.814368715901
 20
-908.7167744300909
 30
0.0
 11
1668.814368261574
 21
-908.0668700849642
 31
0.0
  0
ELLIPSE
  5
97B9
330
17
100
AcDbEntity
  8
1外形線
 48
2.0
100
AcDbEllipse
 10
1676.050953346998
 20
-913.3507604702248
 30
0.0
 11
4.203331560107031
 21
-5.29406175497823
 31
0.0
210
0.0
220
0.0
230
-1.0
 40
0.3944135813477965
 41
4.649399962458688
 42
4.880880845058046
  0
LINE
  5
97BA
330
17
100
AcDbEntity
  8
1外形線
 48
2.0
100
AcDbLine
 10
1661.823650912998
 20
-909.0994414497476
 30
0.0
 11
1668.814368715901
 21
-908.7167744300909
 31
0.0
  0
ARC
  5
97BB
330
17
100
AcDbEntity
  8
1外形線
 48
2.0
100
AcDbCircle
 10
1661.714335959782
 20
-907.102431124033
 30
0.0
 40
2.0
100
AcDbArc
 50
179.9996836902043
 51
273.133204094097
  0
LINE
  5
97BC
330
17
100
AcDbEntity
  8
1外形線
 48
3.0
100
AcDbLine
 10
1668.814368723554
 20
-908.0668700849715
 30
0.0
 11
1677.870273601081
 21
-911.3629499047387
 31
0.0
  0
LINE
  5
97BD
330
17
100
AcDbEntity
  8
1外形線
 48
0.1
100
AcDbLine
 10
1659.714335959814
 20
-907.1024200827382
 30
0.0
 11
1659.714335959814
 21
-894.0205853418204
 31
0.0
  0
LINE
  5
97BE
330
17
100
AcDbEntity
  8
1外形線
 48
0.1
100
AcDbLine
 10
1678.814368687905
 20
-915.1040032740151
 30
0.0
 11
1678.814314915772
 21
-912.6041783034676
 31
0.0
  0
ARC
  5
97BF
330
17
100
AcDbEntity
  8
1外形線
 48
5.0
100
AcDbCircle
 10
1654.725261748963
 20
-914.7488188707436
 30
0.0
 40
5.023465460148225
100
AcDbArc
 50
184.0544842564411
 51
269.875585625268
  0
LINE
  5
97C0
330
17
100
AcDbEntity
  8
1外形線
 48
2.0
100
AcDbLine
 10
1654.714353601307
 20
-803.2379508073463
 30
0.0
 11
1673.814368687902
 21
-803.2379374469011
 31
0.0
  0
LINE
  5
97C1
330
17
100
AcDbEntity
  8
1外形線
 48
2.0
100
AcDbLine
 10
1654.714354551975
 20
-803.7193961456468
 30
0.0
 11
1673.814368687898
 21
-803.7193827852011
 31
0.0
  0
ARC
  5
97C2
330
17
100
AcDbEntity
  8
1外形線
 48
5.0
100
AcDbCircle
 10
1673.803450125263
 20
-808.2614173962792
 30
0.0
 40
5.023491815143738
100
AcDbArc
 50
4.054611274608211
 51
89.87546748895931
  0
ARC
  5
97C3
330
17
100
AcDbEntity
  8
1外形線
 48
5.0
100
AcDbCircle
 10
1673.770878887849
 20
-808.8502848981624
 30
0.0
 40
5.131086420583796
100
AcDbArc
 50
10.60221071463456
 51
89.51436954561886
  0
ARC
  5
97C4
330
17
100
AcDbEntity
  8
1外形線
 48
5.0
100
AcDbCircle
 10
1654.759343524374
 20
-808.8520745834356
 30
0.0
 40
5.132875602759358
100
AcDbArc
 50
90.50219632182699
 51
169.381202894012
  0
ARC
  5
97C5
330
17
100
AcDbEntity
  8
1外形線
 48
5.0
100
AcDbCircle
 10
1654.725261748963
 20
-808.261404424293
 30
0.0
 40
5.023465460148225
100
AcDbArc
 50
90.12441437473198
 51
175.9455157435589
  0
LINE
  5
97C6
330
17
100
AcDbEntity
  8
1外形線
 48
2.0
370
   200
100
AcDbLine
 10
1625.479335810603
 20
-847.0551116475499
 30
0.0
 11
1675.645306395279
 21
-847.0551070826486
 31
0.0
  0
LINE
  5
97C7
330
17
100
AcDbEntity
  8
1外形線
 48
2.0
370
   200
100
AcDbLine
 10
1652.994076864819
 20
-875.9549140267399
 30
0.0
 11
1703.052560030159
 21
-875.9550575165294
 31
0.0
  0
CIRCLE
  5
97C8
330
17
100
AcDbEntity
  8
1外形線
 48
2.0
370
   200
100
AcDbCircle
 10
1664.264361144604
 20
-861.5051116475234
 30
0.0
 40
3.0
  0
LINE
  5
97C9
330
17
100
AcDbEntity
  8
1外形線
 48
2.0
370
   200
100
AcDbLine
 10
1625.479335810596
 20
-875.9551116475041
 30
0.0
 11
1627.090006773334
 21
-875.9551109540144
 31
0.0
  0
LINE
  5
97CA
330
17
100
AcDbEntity
  8
1外形線
 48
2.0
370
   200
100
AcDbLine
 10
1620.811066596932
 20
-852.0550965609062
 30
0.0
 11
1620.811053236484
 21
-870.955111647504
 31
0.0
  0
LINE
  5
97CB
330
17
100
AcDbEntity
  8
1外形線
 48
2.0
370
   200
100
AcDbLine
 10
1627.090006773341
 20
-847.055111477891
 30
0.0
 11
1627.090006773334
 21
-875.9551109540144
 31
0.0
  0
LINE
  5
97CC
330
17
100
AcDbEntity
  8
1外形線
 48
2.0
370
   200
100
AcDbLine
 10
1632.59176499406
 20
-857.0551323243861
 30
0.0
 11
1645.525652511333
 21
-857.0551609577606
 31
0.0
  0
ARC
  5
97CD
330
17
100
AcDbEntity
  8
1外形線
 48
2.0
370
   200
100
AcDbCircle
 10
1645.055417709562
 20
-860.0551599167493
 30
0.0
 40
3.0
100
AcDbArc
 50
357.7149446638222
 51
89.99987315708386
  0
LINE
  5
97CE
330
17
100
AcDbEntity
  8
1外形線
 48
2.0
370
   200
100
AcDbLine
 10
1628.436830742124
 20
-854.0551168082119
 30
0.0
 11
1657.130701807193
 21
-854.0552063285568
 31
0.0
  0
LINE
  5
97CF
330
17
100
AcDbEntity
  8
1外形線
 48
2.0
370
   200
100
AcDbLine
 10
1628.436830449529
 20
-850.0551346123748
 30
0.0
 11
1657.130701807193
 21
-850.055218531369
 31
0.0
  0
LINE
  5
97D0
330
17
100
AcDbEntity
  8
1外形線
 48
2.0
370
   200
100
AcDbLine
 10
1621.292511935233
 20
-852.0550975115284
 30
0.0
 11
1621.292498574785
 21
-870.955111647504
 31
0.0
  0
ARC
  5
97D1
330
17
100
AcDbEntity
  8
1外形線
 48
5.0
100
AcDbCircle
 10
1625.558828671645
 20
-871.2016064007285
 30
0.0
 40
4.754169879809503
100
AcDbArc
 50
177.0279891666344
 51
269.0419320698218
  0
ARC
  5
97D2
330
17
100
AcDbEntity
  8
1外形線
 48
5.0
100
AcDbCircle
 10
1626.423400687745
 20
-870.9116218474509
 30
0.0
 40
5.131086420583796
100
AcDbArc
 50
180.4856304543811
 51
259.397789285359
  0
ARC
  5
97D3
330
17
100
AcDbEntity
  8
1外形線
 48
5.0
100
AcDbCircle
 10
1625.559918202187
 20
-851.809620711535
 30
0.0
 40
4.755191895323444
100
AcDbArc
 50
90.97099171871409
 51
182.9590781637955
  0
ARC
  5
97D4
330
17
100
AcDbEntity
  8
1外形線
 48
5.0
100
AcDbCircle
 10
1626.425190373022
 20
-852.1000864839743
 30
0.0
 40
5.132875602759358
100
AcDbArc
 50
100.6187971059783
 51
179.497803678173
  0
LINE
  5
97D5
330
17
100
AcDbEntity
  8
1外形線
 48
2.0
370
   200
100
AcDbLine
 10
1630.966462786538
 20
-865.9551650881285
 30
0.0
 11
1631.627314991834
 21
-865.9551646261506
 31
0.0
  0
LINE
  5
97D6
330
17
100
AcDbEntity
  8
1外形線
 48
2.0
370
   200
100
AcDbLine
 10
1630.594743627051
 20
-859.1644472775724
 30
0.0
 11
1630.966462756154
 21
-865.955164533033
 31
0.0
  0
ARC
  5
97D7
330
17
100
AcDbEntity
  8
1外形線
 48
2.0
370
   200
100
AcDbCircle
 10
1632.591753952765
 20
-859.0551323243571
 30
0.0
 40
2.0
100
AcDbArc
 50
89.99968369020427
 51
183.1332040940937
  0
LINE
  5
97D8
330
17
100
AcDbEntity
  8
1外形線
 48
2.0
370
   200
100
AcDbLine
 10
1652.1307018072
 20
-847.0551097683392
 30
0.0
 11
1652.130701807098
 21
-875.7589577098142
 31
0.0
  0
ELLIPSE
  5
97D9
330
17
100
AcDbEntity
  8
1外形線
 48
5.0
100
AcDbEllipse
 10
1651.135737675678
 20
-870.4553347050868
 30
0.0
 11
-2.656655545470795
 21
6.166587884678174
 31
0.0
210
0.0
220
0.0
230
1.0
 40
0.3211913581845101
 41
0.6251929459917856
 42
2.306879638789556
  0
ELLIPSE
  5
97DA
330
17
100
AcDbEntity
  8
1外形線
 48
5.0
100
AcDbEllipse
 10
1651.338157084912
 20
-870.5226965058873
 30
0.0
 11
-2.566954477112907
 21
6.687865430548601
 31
0.0
210
0.0
220
0.0
230
1.0
 40
0.2536168685415952
 41
0.7263586555423425
 42
2.203149152678017
  0
LINE
  5
97DB
330
17
100
AcDbEntity
  8
1外形線
 48
2.0
370
   200
100
AcDbLine
 10
1648.292602979269
 20
-865.9552413563933
 30
0.0
 11
1648.523260356389
 21
-860.1747744608811
 31
0.0
  0
ARC
  5
97DC
330
17
100
AcDbEntity
  8
1外形線
 48
2.0
370
   200
100
AcDbCircle
 10
1645.525645869857
 20
-860.0551609577532
 30
0.0
 40
3.0
100
AcDbArc
 50
357.7149446638222
 51
89.99987315708386
  0
LINE
  5
97DD
330
17
100
AcDbEntity
  8
1外形線
 48
2.0
370
   200
100
AcDbLine
 10
1647.822374777435
 20
-865.9552413563915
 30
0.0
 11
1648.053032196094
 21
-860.174773419877
 31
0.0
  0
LINE
  5
97DE
330
17
100
AcDbEntity
  8
1外形線
 48
2.0
370
   200
100
AcDbLine
 10
1625.479335810603
 20
-847.0551116475499
 30
0.0
 11
1625.479335810592
 21
-875.9551116475041
 31
0.0
  0
LINE
  5
97DF
330
17
100
AcDbEntity
  8
1外形線
 48
2.0
370
   200
100
AcDbLine
 10
1707.717655692275
 20
-852.0550965609062
 30
0.0
 11
1707.717669052723
 21
-870.955111647504
 31
0.0
  0
LINE
  5
97E0
330
17
100
AcDbEntity
  8
1外形線
 48
2.0
370
   200
100
AcDbLine
 10
1707.236210353974
 20
-852.0550975115757
 30
0.0
 11
1707.236223714422
 21
-870.955111647504
 31
0.0
  0
ARC
  5
97E1
330
17
100
AcDbEntity
  8
1外形線
 48
5.0
100
AcDbCircle
 10
1702.969893617563
 20
-871.2016064007285
 30
0.0
 40
4.754169879809503
100
AcDbArc
 50
270.9580679301782
 51
2.972010833365597
  0
ARC
  5
97E2
330
17
100
AcDbEntity
  8
1外形線
 48
5.0
100
AcDbCircle
 10
1702.105321601462
 20
-870.9116218474509
 30
0.0
 40
5.131086420583796
100
AcDbArc
 50
280.602210714641
 51
359.5143695456189
  0
ARC
  5
97E3
330
17
100
AcDbEntity
  8
1外形線
 48
5.0
100
AcDbCircle
 10
1702.96880408702
 20
-851.809620711535
 30
0.0
 40
4.755191895323444
100
AcDbArc
 50
357.0409218362044
 51
89.02900828128593
  0
ARC
  5
97E4
330
17
100
AcDbEntity
  8
1外形線
 48
5.0
100
AcDbCircle
 10
1702.103531916186
 20
-852.1000864839743
 30
0.0
 40
5.132875602759358
100
AcDbArc
 50
0.5021963218270038
 51
79.38120289402168
  0
LINE
  5
97E5
330
17
100
AcDbEntity
  8
1外形線
 48
2.0
370
   200
100
AcDbLine
 10
1703.049386478604
 20
-847.0551116475499
 30
0.0
 11
1703.049386478611
 21
-875.9550575082275
 31
0.0
  0
LINE
  5
97E6
330
17
100
AcDbEntity
  8
1外形線
 48
2.0
370
   200
100
AcDbLine
 10
1701.438715515865
 20
-847.055112138095
 30
0.0
 11
1701.438715515873
 21
-875.9550532789935
 31
0.0
  0
LINE
  5
97E7
330
17
100
AcDbEntity
  8
1外形線
 48
2.0
370
   200
100
AcDbLine
 10
1695.936957295147
 20
-865.9550909706567
 30
0.0
 11
1683.190854758006
 21
-865.9550441899327
 31
0.0
  0
ARC
  5
97E8
330
17
100
AcDbEntity
  8
1外形線
 48
2.0
370
   200
100
AcDbCircle
 10
1683.1908657686
 20
-862.9550441899528
 30
0.0
 40
3.0
100
AcDbArc
 50
177.7149446638221
 51
269.9997897132164
  0
LINE
  5
97E9
330
17
100
AcDbEntity
  8
1外形線
 48
2.0
370
   200
100
AcDbLine
 10
1697.562259502669
 20
-857.0550582069145
 30
0.0
 11
1696.901407297373
 21
-857.0550586688923
 31
0.0
  0
ELLIPSE
  5
97EA
330
17
100
AcDbEntity
  8
1外形線
 48
2.0
370
   200
100
AcDbEllipse
 10
1702.185297682634
 20
-849.8184735834721
 30
0.0
 11
5.29406175497823
 21
4.203331560107031
 31
0.0
210
0.0
220
0.0
230
-1.0
 40
0.3944135813477965
 41
4.649399962458689
 42
4.880880845058048
  0
LINE
  5
97EB
330
17
100
AcDbEntity
  8
1外形線
 48
2.0
370
   200
100
AcDbLine
 10
1697.933978662157
 20
-863.8457760174706
 30
0.0
 11
1697.562259533053
 21
-857.05505876201
 31
0.0
  0
ARC
  5
97EC
330
17
100
AcDbEntity
  8
1外形線
 48
2.0
370
   200
100
AcDbCircle
 10
1695.936968336442
 20
-863.9550909706859
 30
0.0
 40
2.0
100
AcDbArc
 50
269.9996836902043
 51
3.133204094093758
  0
LINE
  5
97ED
330
17
100
AcDbEntity
  8
1外形線
 48
2.0
370
   200
100
AcDbLine
 10
1676.398020482007
 20
-847.2021576020589
 30
0.0
 11
1676.398020482109
 21
-875.9549877830568
 31
0.0
  0
ELLIPSE
  5
97EE
330
17
100
AcDbEntity
  8
1外形線
 48
5.0
100
AcDbEllipse
 10
1677.583442756386
 20
-852.5328236868071
 30
0.0
 11
-2.638667823719266
 21
5.868698723494678
 31
0.0
210
0.0
220
0.0
230
1.0
 40
0.3458172022079959
 41
3.692658432798534
 42
5.518994610495253
  0
ELLIPSE
  5
97EF
330
17
100
AcDbEntity
  8
1外形線
 48
5.0
100
AcDbEllipse
 10
1673.010372704917
 20
-852.8775045460943
 30
0.0
 11
-5.129303758612657
 21
8.961888325901233
 31
0.0
210
0.0
220
0.0
230
1.0
 40
0.5975536799263756
 41
3.925995347147552
 42
4.94514085970202
  0
LINE
  5
97F0
330
17
100
AcDbEntity
  8
1外形線
 48
2.0
370
   200
100
AcDbLine
 10
1680.423907935055
 20
-857.0549819386497
 30
0.0
 11
1680.193251282068
 21
-862.8354306868249
 31
0.0
  0
LINE
  5
97F1
330
17
100
AcDbEntity
  8
1外形線
 48
2.0
370
   200
100
AcDbLine
 10
1680.894136136888
 20
-857.0549819386515
 30
0.0
 11
1680.663479415034
 21
-862.8354324126567
 31
0.0
  0
ARC
  5
97F2
330
17
100
AcDbEntity
  8
1外形線
 48
2.0
370
   200
100
AcDbCircle
 10
1683.66109390157
 20
-862.9550459157826
 30
0.0
 40
3.0
100
AcDbArc
 50
177.7149446638221
 51
269.9997897132164
  0
LINE
  5
97F3
330
17
100
AcDbEntity
  8
1外形線
 48
2.0
370
   200
100
AcDbLine
 10
1701.438715515865
 20
-847.0551140100715
 30
0.0
 11
1703.049386478615
 21
-847.0551116475389
 31
0.0
  0
ARC
  5
97F4
330
17
100
AcDbEntity
  8
1外形線
 48
3.0
100
AcDbCircle
 10
1657.130701807193
 20
-852.0552124299619
 30
0.0
 40
1.999993898593857
100
AcDbArc
 50
270.0
 51
90.0
  0
LINE
  5
97F5
330
17
100
AcDbEntity
  8
1外形線
 48
2.0
370
   200
100
AcDbLine
 10
1700.091891343553
 20
-868.9551060733347
 30
0.0
 11
1671.405933316662
 21
-868.955047714834
 31
0.0
  0
LINE
  5
97F6
330
17
100
AcDbEntity
  8
1外形線
 48
2.0
370
   200
100
AcDbLine
 10
1700.091891733275
 20
-872.9550888988388
 30
0.0
 11
1671.405933316662
 21
-872.9550355120219
 31
0.0
  0
ARC
  5
97F7
330
17
100
AcDbEntity
  8
1外形線
 48
3.0
100
AcDbCircle
 10
1671.405933316662
 20
-870.955041613427
 30
0.0
 40
1.999993898593857
100
AcDbArc
 50
90.0
 51
270.0
  0
ARC
  5
97F8
330
17
100
AcDbEntity
  8
1外形線
 48
3.0
100
AcDbCircle
 10
1696.028697203415
 20
-870.9550978819688
 30
0.0
 40
4.528743076730491
100
AcDbArc
 50
333.7925996473473
 51
26.20740035265261
  0
ARC
  5
97F9
330
17
100
AcDbEntity
  8
1外形線
 48
3.0
100
AcDbCircle
 10
1632.500025085792
 20
-852.0551254130742
 30
0.0
 40
4.528743076730491
100
AcDbArc
 50
153.7925996473473
 51
206.2074003526526
  0
CIRCLE
  5
97FA
330
17
100
AcDbEntity
  8
1外形線
 48
3.0
100
AcDbCircle
 10
1664.264361144604
 20
-861.5051116475214
 30
0.0
 40
6.5
  0
ARC
  5
97FB
330
17
100
AcDbEntity
  8
1外形線
100
AcDbCircle
 10
1653.191976006153
 20
-873.9549145939626
 30
0.0
 40
2.0
100
AcDbArc
 50
211.5252003430951
 51
269.9998357650915
  0
ARC
  5
97FC
330
17
100
AcDbEntity
  8
1外形線
100
AcDbCircle
 10
1652.994082597706
 20
-873.9549140267472
 30
0.0
 40
2.0
100
AcDbArc
 50
219.5309035554611
 51
269.9998357648831
  0
ARC
  5
97FD
330
17
100
AcDbEntity
  8
1外形線
100
AcDbCircle
 10
1675.458766382817
 20
-849.0551070996234
 30
0.0
 40
2.0
100
AcDbArc
 50
37.84675306145024
 51
90.00000521373053
  0
ARC
  5
97FE
330
17
100
AcDbEntity
  8
1外形線
100
AcDbCircle
 10
1675.645306577273
 20
-849.0551070826485
 30
0.0
 40
2.0
100
AcDbArc
 50
44.049206076479
 51
90.00000521373053
  0
LINE
  5
97FF
330
17
100
AcDbEntity
  8
1外形線
 48
3.0
100
AcDbLine
 10
1696.901407297377
 20
-857.0550582069145
 30
0.0
 11
1700.197487117144
 21
-847.9991533293841
 31
0.0
  0
LINE
  5
9800
330
17
100
AcDbEntity
  8
1外形線
 48
2.0
370
   200
100
AcDbLine
 10
1630.966462786542
 20
-865.9551650881503
 30
0.0
 11
1631.627314991838
 21
-865.9551646261725
 31
0.0
  0
ELLIPSE
  5
9801
330
17
100
AcDbEntity
  8
1外形線
 48
2.0
370
   200
100
AcDbEllipse
 10
1626.343424606581
 20
-873.1917497115965
 30
0.0
 11
-5.294061754975747
 21
-4.203331560110156
 31
0.0
210
0.0
220
0.0
230
-1.0
 40
0.3944135813477964
 41
4.649399962458689
 42
4.880880845058048
  0
LINE
  5
9802
330
17
100
AcDbEntity
  8
1外形線
 48
3.0
100
AcDbLine
 10
1631.627314991834
 20
-865.9551650881503
 30
0.0
 11
1628.33123517207
 21
-875.0110699656826
 31
0.0
  0
LWPOLYLINE
  5
9879
330
17
100
AcDbEntity
  8
C6
 48
2.0
100
AcDbPolyline
 90
        4
 70
     1
 43
0.0
 10
1576.443782739639
 20
-761.3134562717241
 10
1749.668173801827
 20
-761.3134562717241
 10
1749.668173801827
 20
-1035.80913004891
 10
1576.443782739639
 20
-1035.80913004891
  0
TEXT
  5
987B
330
17
100
AcDbEntity
  8
C6
 48
2.0
100
AcDbText
 10
1586.68271505848
 20
-780.1419992062883
 30
0.0
 40
10.0
  1
FL-W
  7
KANJI
100
AcDbText
  0
ENDSEC
  0
SECTION
  2
OBJECTS
  0
DICTIONARY
  5
C
330
0
100
AcDbDictionary
281
     1
  3
ACAD_CIP_PREVIOUS_PRODUCT_INFO
350
9687
  3
ACAD_COLOR
350
6118
  3
ACAD_DETAILVIEWSTYLE
350
9680
  3
ACAD_GROUP
350
D
  3
ACAD_LAYOUT
350
4800
  3
ACAD_MATERIAL
350
6117
  3
ACAD_MLEADERSTYLE
350
911B
  3
ACAD_MLINESTYLE
350
1A
  3
ACAD_PLOTSETTINGS
350
4801
  3
ACAD_PLOTSTYLENAME
350
47FE
  3
ACAD_RENDER_ACTIVE_RAPIDRT_SETTINGS
350
9690
  3
ACAD_RENDER_RAPIDRT_SETTINGS
350
9689
  3
ACAD_SCALELIST
350
9109
  3
ACAD_SECTIONVIEWSTYLE
350
967E
  3
ACAD_TABLESTYLE
350
6119
  3
ACAD_VISUALSTYLE
350
663B
  3
ACDB_RECOMPOSE_DATA
350
989E
  3
ACDBVARIABLEDICTIONARY
350
51
  0
DICTIONARY
  5
6B33
330
8
100
AcDbDictionary
280
     1
281
     1
  0
DICTIONARY
  5
66E8
330
2
100
AcDbDictionary
280
     1
281
     1
  3
ACAD_LAYERSTATES
360
66E9
  0
DICTIONARY
  5
987C
330
E
100
AcDbDictionary
280
     1
281
     1
  3
ADSK_XREC_LAYER_RECONCILED
360
987D
  0
DICTIONARY
  5
987E
330
43
100
AcDbDictionary
280
     1
281
     1
  3
ADSK_XREC_LAYER_RECONCILED
360
987F
  0
DICTIONARY
  5
9880
330
44
100
AcDbDictionary
280
     1
281
     1
  3
ADSK_XREC_LAYER_RECONCILED
360
9881
  0
DICTIONARY
  5
9882
330
45
100
AcDbDictionary
280
     1
281
     1
  3
ADSK_XREC_LAYER_RECONCILED
360
9883
  0
DICTIONARY
  5
9884
330
4C
100
AcDbDictionary
280
     1
281
     1
  3
ADSK_XREC_LAYER_RECONCILED
360
9885
  0
DICTIONARY
  5
9886
330
28F8
100
AcDbDictionary
280
     1
281
     1
  3
ADSK_XREC_LAYER_RECONCILED
360
9887
  0
DICTIONARY
  5
7362
330
7361
100
AcDbDictionary
280
     1
281
     1
  3
ADSK_XREC_LAYER_RECONCILED
360
7363
  0
DICTIONARY
  5
7365
330
7364
100
AcDbDictionary
280
     1
281
     1
  3
ADSK_XREC_LAYER_RECONCILED
360
7366
  0
DICTIONARY
  5
58D0
330
17
100
AcDbDictionary
280
     1
281
     1
  3
ACAD_LAYOUTSELFREF
360
58D1
  3
ACAD_SORTENTS
360
8EAF
  0
DICTIONARY
  5
58CE
330
14
100
AcDbDictionary
280
     1
281
     1
  3
ACAD_LAYOUTSELFREF
360
58CF
  0
XRECORD
  5
9687
102
{ACAD_REACTORS
330
C
102
}
330
C
100
AcDbXrecord
280
     1
300
ACD
300
2023
300

  0
DICTIONARY
  5
6118
102
{ACAD_REACTORS
330
C
102
}
330
C
100
AcDbDictionary
281
     1
  0
DICTIONARY
  5
9680
102
{ACAD_REACTORS
330
C
102
}
330
C
100
AcDbDictionary
281
     1
  3
Metric50
350
9681
  0
DICTIONARY
  5
D
102
{ACAD_REACTORS
330
C
102
}
330
C
100
AcDbDictionary
281
     1
  0
DICTIONARY
  5
4800
102
{ACAD_REACTORS
330
C
102
}
330
C
100
AcDbDictionary
281
     1
  3
Model
350
4802
  3
ﾚｲｱｳﾄ1
350
4803
  0
DICTIONARY
  5
6117
102
{ACAD_REACTORS
330
C
102
}
330
C
100
AcDbDictionary
281
     1
  3
ByBlock
350
6639
  3
ByLayer
350
6638
  3
Global
350
663A
  0
DICTIONARY
  5
911B
102
{ACAD_REACTORS
330
C
102
}
330
C
100
AcDbDictionary
281
     1
  3
Standard
350
911C
  0
DICTIONARY
  5
1A
102
{ACAD_REACTORS
330
C
102
}
330
C
100
AcDbDictionary
281
     1
  3
STANDARD
350
1B
  0
DICTIONARY
  5
4801
102
{ACAD_REACTORS
330
C
102
}
330
C
100
AcDbDictionary
281
     1
  0
ACDBDICTIONARYWDFLT
  5
47FE
102
{ACAD_REACTORS
330
C
102
}
330
C
100
AcDbDictionary
281
     1
  3
Normal
350
47FF
100
AcDbDictionaryWithDefault
340
47FF
  0
RAPIDRTRENDERSETTINGS
  5
9690
102
{ACAD_REACTORS
330
C
102
}
330
C
100
AcDbRenderSettings
 90
        2
  1
中
290
     1
290
     0
290
     1
290
     1
  1

  1
5 レンダリング レベルを適用
 90
        0
100
AcDbRapidRTRenderSettings
 90
        3
 70
     0
 90
        5
 90
        1
 70
     1
 70
     2
 40
3.0
 40
3.0
290
     1
  0
DICTIONARY
  5
9689
102
{ACAD_REACTORS
330
C
102
}
330
C
100
AcDbDictionary
281
     1
  3
オーバーナイト品質
350
968F
  3
コーヒー ブレイク品質
350
968D
  3
ランチ タイム品質
350
968E
  3
中
350
968B
  3
低
350
968A
  3
高
350
968C
  0
DICTIONARY
  5
9109
102
{ACAD_REACTORS
330
C
102
}
330
C
100
AcDbDictionary
281
     1
  3
A0
350
910A
  3
A1
350
910B
  3
A2
350
910C
  3
A3
350
910D
  3
A4
350
910E
  3
A5
350
910F
  3
A6
350
9110
  3
A7
350
9111
  3
A8
350
9112
  3
A9
350
9113
  3
B0
350
9114
  3
B1
350
9115
  3
B2
350
9116
  3
B3
350
9117
  3
B4
350
9118
  3
B5
350
9119
  3
B6
350
911A
  0
DICTIONARY
  5
967E
102
{ACAD_REACTORS
330
C
102
}
330
C
100
AcDbDictionary
281
     1
  3
Metric50
350
967F
  0
DICTIONARY
  5
6119
102
{ACAD_REACTORS
330
C
102
}
330
C
100
AcDbDictionary
281
     1
  3
Standard
350
611A
  0
DICTIONARY
  5
663B
102
{ACAD_REACTORS
330
C
102
}
330
C
100
AcDbDictionary
281
     1
  3
2dWireframe
350
6641
  3
3D Hidden
350
6643
  3
3dWireframe
350
6642
  3
Basic
350
6640
  3
Brighten
350
6647
  3
ColorChange
350
664B
  3
Conceptual
350
6644
  3
Dim
350
6646
  3
EdgeColorOff
350
9108
  3
Facepattern
350
664A
  3
Flat
350
663C
  3
FlatWithEdges
350
663D
  3
Gouraud
350
663E
  3
GouraudWithEdges
350
663F
  3
Hidden
350
9100
  3
JitterOff
350
9106
  3
Linepattern
350
6649
  3
OverhangOff
350
9107
  3
Realistic
350
6645
  3
Shaded
350
9105
  3
Shaded with edges
350
9104
  3
Shades of Gray
350
9101
  3
Sketchy
350
9102
  3
Thicken
350
6648
  3
Wireframe
350
90FF
  3
X-Ray
350
9103
  0
XRECORD
  5
989E
102
{ACAD_REACTORS
330
C
102
}
330
C
100
AcDbXrecord
280
     1
 90
        1
330
611A
  0
DICTIONARY
  5
51
102
{ACAD_REACTORS
330
C
102
}
330
C
100
AcDbDictionary
281
     1
  3
CANNOSCALE
350
967B
  3
CMLEADERSTYLE
350
967A
  3
CTABLESTYLE
350
61E4
  3
CVIEWDETAILSTYLE
350
9897
  3
CVIEWSECTIONSTYLE
350
9898
  3
DIMADEC
350
52
  3
DIMASSOC
350
61E5
  3
INDEXCTL
350
6B68
  3
LAYEREVAL
350
989B
  3
LAYERNOTIFY
350
989C
  3
LIGHTINGUNITS
350
989A
  3
MSLTSCALE
350
9899
  3
PROJECTNAME
350
61E6
  3
SORTENTS
350
6B67
  0
DICTIONARY
  5
66E9
102
{ACAD_REACTORS
330
66E8
102
}
330
66E8
100
AcDbDictionary
281
     1
  0
XRECORD
  5
987D
102
{ACAD_REACTORS
330
987C
102
}
330
987C
100
AcDbXrecord
280
     1
290
     1
  0
XRECORD
  5
987F
102
{ACAD_REACTORS
330
987E
102
}
330
987E
100
AcDbXrecord
280
     1
290
     1
  0
XRECORD
  5
9881
102
{ACAD_REACTORS
330
9880
102
}
330
9880
100
AcDbXrecord
280
     1
290
     1
  0
XRECORD
  5
9883
102
{ACAD_REACTORS
330
9882
102
}
330
9882
100
AcDbXrecord
280
     1
290
     1
  0
XRECORD
  5
9885
102
{ACAD_REACTORS
330
9884
102
}
330
9884
100
AcDbXrecord
280
     1
290
     1
  0
XRECORD
  5
9887
102
{ACAD_REACTORS
330
9886
102
}
330
9886
100
AcDbXrecord
280
     1
290
     1
  0
XRECORD
  5
7363
102
{ACAD_REACTORS
330
7362
102
}
330
7362
100
AcDbXrecord
280
     1
290
     1
  0
XRECORD
  5
7366
102
{ACAD_REACTORS
330
7365
102
}
330
7365
100
AcDbXrecord
280
     1
290
     1
  0
XRECORD
  5
58D1
102
{ACAD_REACTORS
330
58D0
102
}
330
58D0
100
AcDbXrecord
280
     1
340
17
  0
SORTENTSTABLE
  5
8EAF
102
{ACAD_REACTORS
330
58D0
102
}
330
58D0
100
AcDbSortentsTable
330
17
  0
XRECORD
  5
58CF
102
{ACAD_REACTORS
330
58CE
102
}
330
58CE
100
AcDbXrecord
280
     1
340
14
  0
ACDBDETAILVIEWSTYLE
  5
9681
102
{ACAD_REACTORS
330
9680
102
}
330
9680
100
AcDbModelDocViewStyle
 70
     0
  3
Metric50
290
     1
300
Metric50
 90
        0
100
AcDbDetailViewStyle
 70
     0
 71
     0
 90
        3
 71
     1
340
F
 62
   256
 40
5.0
340
0
 62
   256
 40
5.0
300

 40
0.0
280
     1
 71
     2
340
13
 90
       25
 62
   256
 71
     3
340
F
 62
   256
 40
5.0
 90
        0
 40
15.0
 90
        1
300
%<\AcVar ViewDetailId>% (%<\AcVar ViewScale \f "%sn">%)
 71
     4
340
13
 90
       25
 62
   256
340
13
 90
       25
 62
   256
280
     0
  0
LAYOUT
  5
4802
102
{ACAD_REACTORS
330
4800
102
}
330
4800
100
AcDbPlotSettings
  1

  2
PrimoPDF
  4
A3
  6

 40
3.174999952316284
 41
3.174999952316284
 42
3.17498779296875
 43
3.17498779296875
 44
297.0106506347656
 45
419.9889831542968
 46
-3.169668555259704
 47
-3.180502295494079
 48
1027.637882706707
 49
-1081.941127341026
140
1447.637882706707
141
-784.9411273410265
142
1.0
143
1.0
 70
 11940
 72
     1
 73
     1
 74
     4
  7
INABA-CAD-Canon.ctb
 75
     0
147
0.9787980514744717
 76
     0
 77
     2
 78
   300
148
-1027.637882706707
149
1081.941127341026
100
AcDbLayout
  1
Model
 70
     1
 71
     0
 10
0.0
 20
0.0
 11
12.0
 21
9.0
 12
0.0
 22
0.0
 32
0.0
 14
0.0
 24
0.0
 34
0.0
 15
0.0
 25
0.0
 35
0.0
146
0.0
 13
0.0
 23
0.0
 33
0.0
 16
1.0
 26
0.0
 36
0.0
 17
0.0
 27
1.0
 37
0.0
 76
     0
330
17
331
90F7
1001
ACAD_PSEXT
1000
PrimoPDF
1000
PrimoPDF
1000
PrimoPort:
1000

1070
     0
  0
LAYOUT
  5
4803
102
{ACAD_REACTORS
330
4800
102
}
330
4800
100
AcDbPlotSettings
  1

  2
NSCC 3350（図面用）
  4

  6

 40
0.0
 41
0.0
 42
0.0
 43
0.0
 44
0.0
 45
0.0
 46
0.0
 47
0.0
 48
0.0
 49
0.0
140
0.0
141
0.0
142
1.0
143
1.0
 70
   688
 72
     0
 73
     0
 74
     5
  7
INABA-CAD-Canon.ctb
 75
    16
147
1.0
 76
     0
 77
     2
 78
   300
148
0.0
149
0.0
100
AcDbLayout
  1
ﾚｲｱｳﾄ1
 70
     0
 71
     1
 10
0.0
 20
0.0
 11
12.0
 21
9.0
 12
0.0
 22
0.0
 32
0.0
 14
1.000000000000000E+20
 24
1.000000000000000E+20
 34
1.000000000000000E+20
 15
-1.000000000000000E+20
 25
-1.000000000000000E+20
 35
-1.000000000000000E+20
146
0.0
 13
0.0
 23
0.0
 33
0.0
 16
1.0
 26
0.0
 36
0.0
 17
0.0
 27
1.0
 37
0.0
 76
     0
330
14
  0
MATERIAL
  5
6639
102
{ACAD_REACTORS
330
6117
102
}
330
6117
100
AcDbMaterial
  1
ByBlock
 73
     1
 78
     1
172
     1
176
     1
270
     1
274
     1
 94
       63
  0
MATERIAL
  5
6638
102
{ACAD_REACTORS
330
6117
102
}
330
6117
100
AcDbMaterial
  1
ByLayer
 73
     1
 78
     1
172
     1
176
     1
270
     1
274
     1
 94
       63
  0
MATERIAL
  5
663A
102
{ACAD_REACTORS
330
6117
102
}
330
6117
100
AcDbMaterial
  1
Global
 73
     1
 78
     1
172
     1
176
     1
270
     1
274
     1
 94
       63
  0
MLEADERSTYLE
  5
911C
102
{ACAD_REACTORS
330
911B
102
}
330
911B
100
AcDbMLeaderStyle
179
     2
170
     2
171
     1
172
     0
 90
        2
 40
0.0
 41
0.0
173
     1
 91
-1056964608
340
11
 92
       -2
290
     1
 42
2.0
291
     1
 43
0.36
  3
Standard
 44
4.0
300

342
F
174
     1
178
     6
175
     1
176
     0
 93
-1056964608
 45
4.0
292
     0
297
     0
 46
4.0
 94
-1056964608
 47
1.0
 49
1.0
140
1.0
293
     1
141
0.0
294
     1
177
     0
142
1.0
295
     0
296
     0
143
0.125
271
     0
272
     9
273
     9
298
     0
  0
MLINESTYLE
  5
1B
102
{ACAD_REACTORS
330
1A
102
}
330
1A
100
AcDbMlineStyle
  2
STANDARD
 70
     0
  3

 62
   256
 51
90.0
 52
90.0
 71
     2
 49
0.5
 62
   256
  6
BYLAYER
 49
-0.5
 62
   256
  6
BYLAYER
  0
ACDBPLACEHOLDER
  5
47FF
102
{ACAD_REACTORS
330
47FE
102
}
330
47FE
  0
RAPIDRTRENDERSETTINGS
  5
968F
102
{ACAD_REACTORS
330
9689
102
}
330
9689
100
AcDbRenderSettings
 90
        2
  1
オーバーナイト品質
290
     1
290
     0
290
     1
290
     1
  1

  1
12 時間のレンダリング
 90
        5
100
AcDbRapidRTRenderSettings
 90
        3
 70
     1
 90
        1
 90
      720
 70
     2
 70
     2
 40
3.0
 40
3.0
290
     1
  0
RAPIDRTRENDERSETTINGS
  5
968D
102
{ACAD_REACTORS
330
9689
102
}
330
9689
100
AcDbRenderSettings
 90
        2
  1
コーヒー ブレイク品質
290
     1
290
     0
290
     1
290
     1
  1

  1
10 分のレンダリング
 90
        3
100
AcDbRapidRTRenderSettings
 90
        3
 70
     1
 90
        1
 90
       10
 70
     1
 70
     2
 40
3.0
 40
3.0
290
     1
  0
RAPIDRTRENDERSETTINGS
  5
968E
102
{ACAD_REACTORS
330
9689
102
}
330
9689
100
AcDbRenderSettings
 90
        2
  1
ランチ タイム品質
290
     1
290
     0
290
     1
290
     1
  1

  1
60 分のレンダリング
 90
        4
100
AcDbRapidRTRenderSettings
 90
        3
 70
     1
 90
        1
 90
       60
 70
     2
 70
     2
 40
3.0
 40
3.0
290
     1
  0
RAPIDRTRENDERSETTINGS
  5
968B
102
{ACAD_REACTORS
330
9689
102
}
330
9689
100
AcDbRenderSettings
 90
        2
  1
中
290
     1
290
     0
290
     1
290
     1
  1

  1
5 レンダリング レベルを適用
 90
        1
100
AcDbRapidRTRenderSettings
 90
        3
 70
     0
 90
        5
 90
        1
 70
     1
 70
     2
 40
3.0
 40
3.0
290
     1
  0
RAPIDRTRENDERSETTINGS
  5
968A
102
{ACAD_REACTORS
330
9689
102
}
330
9689
100
AcDbRenderSettings
 90
        2
  1
低
290
     1
290
     0
290
     1
290
     1
  1

  1
1 レンダリング レベルを適用
 90
        0
100
AcDbRapidRTRenderSettings
 90
        3
 70
     0
 90
        1
 90
        1
 70
     0
 70
     2
 40
3.0
 40
3.0
290
     1
  0
RAPIDRTRENDERSETTINGS
  5
968C
102
{ACAD_REACTORS
330
9689
102
}
330
9689
100
AcDbRenderSettings
 90
        2
  1
高
290
     1
290
     0
290
     1
290
     1
  1

  1
10 レンダリング レベルを適用
 90
        2
100
AcDbRapidRTRenderSettings
 90
        3
 70
     0
 90
       10
 90
        1
 70
     2
 70
     2
 40
3.0
 40
3.0
290
     1
  0
SCALE
  5
910A
102
{ACAD_REACTORS
330
9109
102
}
330
9109
100
AcDbScale
 70
     0
300
1:1
140
1.0
141
1.0
290
     1
  0
SCALE
  5
910B
102
{ACAD_REACTORS
330
9109
102
}
330
9109
100
AcDbScale
 70
     0
300
1:2
140
1.0
141
2.0
290
     0
  0
SCALE
  5
910C
102
{ACAD_REACTORS
330
9109
102
}
330
9109
100
AcDbScale
 70
     0
300
1:4
140
1.0
141
4.0
290
     0
  0
SCALE
  5
910D
102
{ACAD_REACTORS
330
9109
102
}
330
9109
100
AcDbScale
 70
     0
300
1:5
140
1.0
141
5.0
290
     0
  0
SCALE
  5
910E
102
{ACAD_REACTORS
330
9109
102
}
330
9109
100
AcDbScale
 70
     0
300
1:8
140
1.0
141
8.0
290
     0
  0
SCALE
  5
910F
102
{ACAD_REACTORS
330
9109
102
}
330
9109
100
AcDbScale
 70
     0
300
1:10
140
1.0
141
10.0
290
     0
  0
SCALE
  5
9110
102
{ACAD_REACTORS
330
9109
102
}
330
9109
100
AcDbScale
 70
     0
300
1:16
140
1.0
141
16.0
290
     0
  0
SCALE
  5
9111
102
{ACAD_REACTORS
330
9109
102
}
330
9109
100
AcDbScale
 70
     0
300
1:20
140
1.0
141
20.0
290
     0
  0
SCALE
  5
9112
102
{ACAD_REACTORS
330
9109
102
}
330
9109
100
AcDbScale
 70
     0
300
1:30
140
1.0
141
30.0
290
     0
  0
SCALE
  5
9113
102
{ACAD_REACTORS
330
9109
102
}
330
9109
100
AcDbScale
 70
     0
300
1:40
140
1.0
141
40.0
290
     0
  0
SCALE
  5
9114
102
{ACAD_REACTORS
330
9109
102
}
330
9109
100
AcDbScale
 70
     0
300
1:50
140
1.0
141
50.0
290
     0
  0
SCALE
  5
9115
102
{ACAD_REACTORS
330
9109
102
}
330
9109
100
AcDbScale
 70
     0
300
1:100
140
1.0
141
100.0
290
     0
  0
SCALE
  5
9116
102
{ACAD_REACTORS
330
9109
102
}
330
9109
100
AcDbScale
 70
     0
300
2:1
140
2.0
141
1.0
290
     0
  0
SCALE
  5
9117
102
{ACAD_REACTORS
330
9109
102
}
330
9109
100
AcDbScale
 70
     0
300
4:1
140
4.0
141
1.0
290
     0
  0
SCALE
  5
9118
102
{ACAD_REACTORS
330
9109
102
}
330
9109
100
AcDbScale
 70
     0
300
8:1
140
8.0
141
1.0
290
     0
  0
SCALE
  5
9119
102
{ACAD_REACTORS
330
9109
102
}
330
9109
100
AcDbScale
 70
     0
300
10:1
140
10.0
141
1.0
290
     0
  0
SCALE
  5
911A
102
{ACAD_REACTORS
330
9109
102
}
330
9109
100
AcDbScale
 70
     0
300
100:1
140
100.0
141
1.0
290
     0
  0
ACDBSECTIONVIEWSTYLE
  5
967F
102
{ACAD_REACTORS
330
967E
102
}
330
967E
100
AcDbModelDocViewStyle
 70
     0
  3
Metric50
290
     1
300
Metric50
 90
        0
100
AcDbSectionViewStyle
 70
     0
 71
     0
 90
      102
 71
     1
340
F
 62
   256
 40
5.0
340
0
340
0
 62
   256
 40
5.0
300
I, O, Q, S, X, Z
 40
10.0
 90
        0
 40
2.5
 90
        0
 71
     2
340
13
 90
       25
 62
   256
340
13
 90
       50
 62
   256
 40
5.0
 40
2.5
 40
5.0
 71
     3
340
F
 62
   256
 40
5.0
 90
        0
 40
15.0
 90
        1
300
%<\AcVar ViewSectionStartId>%-%<\AcVar ViewSectionEndId>% (%<\AcVar ViewScale \f "%sn">%)
 71
     4
 62
   256
 62
   257
300
ANSI31
 40
1.0
 90
        0
290
     0
290
     0
 90
        6
 40
0.0
 40
1.570796326794896
 40
0.2617993877991494
 40
1.308996938995747
 40
-0.2617993877991494
 40
1.832595714594046
  0
TABLESTYLE
  5
611A
102
{ACAD_XDICTIONARY
360
9635
102
}
102
{ACAD_REACTORS
330
6119
102
}
330
6119
100
AcDbTableStyle
280
     0
  3
Standard
 70
     0
 71
     0
 40
1.5
 41
1.5
280
     0
281
     0
  7
STANDARD
140
4.5
170
     2
 62
     0
 63
     7
283
     0
 90
        4
 91
        0
  1

274
    -2
284
     1
 64
     0
275
    -2
285
     1
 65
     0
276
    -2
286
     1
 66
     0
277
    -2
287
     1
 67
     0
278
    -2
288
     1
 68
     0
279
    -2
289
     1
 69
     0
  7
STANDARD
140
6.0
170
     5
 62
     0
 63
     7
283
     0
 90
        4
 91
        0
  1

274
    -2
284
     1
 64
     0
275
    -2
285
     1
 65
     0
276
    -2
286
     1
 66
     0
277
    -2
287
     1
 67
     0
278
    -2
288
     1
 68
     0
279
    -2
289
     1
 69
     0
  7
STANDARD
140
4.5
170
     5
 62
     0
 63
     7
283
     0
 90
        4
 91
        0
  1

274
    -2
284
     1
 64
     0
275
    -2
285
     1
 65
     0
276
    -2
286
     1
 66
     0
277
    -2
287
     1
 67
     0
278
    -2
288
     1
 68
     0
279
    -2
289
     1
 69
     0
  0
VISUALSTYLE
  5
6641
102
{ACAD_REACTORS
330
663B
102
}
330
663B
100
AcDbVisualStyle
  2
2dWireframe
 70
     4
177
     3
291
     0
 70
    58
 90
        0
176
     1
 90
        2
176
     1
 90
        0
176
     1
 90
        0
176
     1
 40
0.6
176
     1
 40
30.0
176
     1
 62
     7
176
     1
 90
        1
176
     1
 90
        4
176
     1
 62
     7
176
     1
 62
   257
176
     1
 90
        1
176
     1
 90
        1
176
     1
 40
1.0
176
     1
 90
        0
176
     1
 62
   257
176
     1
 40
1.0
176
     1
 90
        1
176
     1
 90
        6
176
     1
 90
        2
176
     1
 62
     7
176
     1
 90
        5
176
     1
 90
        0
176
     1
 90
        0
176
     1
290
     0
176
     1
 90
        1
176
     1
 40
0.0
176
     1
 90
        0
176
     1
290
     1
176
     1
290
     1
176
     1
290
     0
176
     1
290
     0
176
     1
290
     0
176
     1
290
     0
176
     1
290
     0
176
     1
290
     0
176
     1
290
     0
176
     1
 90
       50
176
     1
 40
0.0
176
     1
 40
1.0
176
     1
 90
        0
176
     1
 62
    18
420
        0
176
     1
 90
       50
176
     1
 90
        3
176
     1
 62
     5
420
      255
176
     1
290
     0
176
     1
 90
       50
176
     1
 90
       50
176
     1
 90
       50
176
     1
290
     0
176
     1
 90
       50
176
     1
 62
   256
176
     0
 40
1.0
176
     0
 90
        2
176
     1
  1
strokes_ogs.tif
176
     1
290
     0
176
     1
 40
1.0
176
     1
 40
1.0
176
     1
1001
ACAD
1000
AcRTDxfName
1000
VISUALSTYLE
1000
AcRTDxfName
1000
VISUALSTYLE
1000
AcRTDxfName
1000
VISUALSTYLE
1000
AcRTDxfName
1000
VISUALSTYLE
1000
AcRTDxfName
1000
VISUALSTYLE
  0
VISUALSTYLE
  5
6643
102
{ACAD_REACTORS
330
663B
102
}
330
663B
100
AcDbVisualStyle
  2
3D Hidden
 70
     6
177
     3
291
     0
 70
    58
 90
        1
176
     1
 90
        2
176
     1
 90
        2
176
     1
 90
        0
176
     1
 40
0.6
176
     1
 40
30.0
176
     1
 62
     7
176
     1
 90
        2
176
     1
 90
        2
176
     1
 62
     7
176
     1
 62
   257
176
     1
 90
        2
176
     1
 90
        1
176
     1
 40
40.0
176
     1
 90
        0
176
     1
 62
   257
176
     1
 40
1.0
176
     1
 90
        1
176
     1
 90
        6
176
     1
 90
        2
176
     1
 62
     7
176
     1
 90
        3
176
     1
 90
        0
176
     1
 90
        0
176
     1
290
     0
176
     1
 90
        1
176
     1
 40
0.0
176
     1
 90
        0
176
     1
290
     0
176
     1
290
     1
176
     1
290
     1
176
     1
290
     0
176
     1
290
     0
176
     1
290
     0
176
     1
290
     0
176
     1
290
     0
176
     1
290
     0
176
     1
 90
       50
176
     1
 40
0.0
176
     1
 40
1.0
176
     1
 90
        0
176
     1
 62
    18
420
        0
176
     1
 90
       50
176
     1
 90
        3
176
     1
 62
     5
420
      255
176
     1
290
     0
176
     1
 90
       50
176
     1
 90
       50
176
     1
 90
       50
176
     1
290
     0
176
     1
 90
       50
176
     1
 62
   256
176
     0
 40
1.0
176
     0
 90
        2
176
     1
  1
strokes_ogs.tif
176
     1
290
     0
176
     1
 40
1.0
176
     1
 40
1.0
176
     1
1001
ACAD
1000
AcRTDxfName
1000
VISUALSTYLE
1000
AcRTDxfName
1000
VISUALSTYLE
1000
AcRTDxfName
1000
VISUALSTYLE
1000
AcRTDxfName
1000
VISUALSTYLE
1000
AcRTDxfName
1000
VISUALSTYLE
  0
VISUALSTYLE
  5
6642
102
{ACAD_REACTORS
330
663B
102
}
330
663B
100
AcDbVisualStyle
  2
3dWireframe
 70
     5
177
     3
291
     0
 70
    58
 90
        0
176
     1
 90
        2
176
     1
 90
        0
176
     1
 90
        0
176
     1
 40
0.6
176
     1
 40
30.0
176
     1
 62
     7
176
     1
 90
        1
176
     1
 90
        4
176
     1
 62
     7
176
     1
 62
   257
176
     1
 90
        1
176
     1
 90
        1
176
     1
 40
1.0
176
     1
 90
        0
176
     1
 62
   257
176
     1
 40
1.0
176
     1
 90
        1
176
     1
 90
        6
176
     1
 90
        2
176
     1
 62
     7
176
     1
 90
        5
176
     1
 90
        0
176
     1
 90
        0
176
     1
290
     0
176
     1
 90
        1
176
     1
 40
0.0
176
     1
 90
        0
176
     1
290
     0
176
     1
290
     1
176
     1
290
     1
176
     1
290
     0
176
     1
290
     0
176
     1
290
     0
176
     1
290
     0
176
     1
290
     0
176
     1
290
     0
176
     1
 90
       50
176
     1
 40
0.0
176
     1
 40
1.0
176
     1
 90
        0
176
     1
 62
    18
420
        0
176
     1
 90
       50
176
     1
 90
        3
176
     1
 62
     5
420
      255
176
     1
290
     0
176
     1
 90
       50
176
     1
 90
       50
176
     1
 90
       50
176
     1
290
     0
176
     1
 90
       50
176
     1
 62
   256
176
     0
 40
1.0
176
     0
 90
        2
176
     1
  1
strokes_ogs.tif
176
     1
290
     0
176
     1
 40
1.0
176
     1
 40
1.0
176
     1
1001
ACAD
1000
AcRTDxfName
1000
VISUALSTYLE
1000
AcRTDxfName
1000
VISUALSTYLE
1000
AcRTDxfName
1000
VISUALSTYLE
1000
AcRTDxfName
1000
VISUALSTYLE
1000
AcRTDxfName
1000
VISUALSTYLE
  0
VISUALSTYLE
  5
6640
102
{ACAD_REACTORS
330
663B
102
}
330
663B
100
AcDbVisualStyle
  2
Basic
 70
     7
177
     3
291
     1
 70
    58
 90
        1
176
     1
 90
        0
176
     1
 90
        1
176
     1
 90
        0
176
     1
 40
0.6
176
     1
 40
30.0
176
     1
 62
     7
176
     1
 90
        0
176
     1
 90
        4
176
     1
 62
     7
176
     1
 62
   257
176
     1
 90
        1
176
     1
 90
        1
176
     1
 40
1.0
176
     1
 90
        8
176
     1
 62
     7
176
     1
 40
1.0
176
     1
 90
        1
176
     1
 90
        6
176
     1
 90
        2
176
     1
 62
     7
176
     1
 90
        5
176
     1
 90
        0
176
     1
 90
        0
176
     1
290
     0
176
     1
 90
        1
176
     1
 40
0.0
176
     1
 90
        0
176
     1
290
     0
176
     1
290
     1
176
     1
290
     1
176
     1
290
     0
176
     1
290
     0
176
     1
290
     0
176
     1
290
     0
176
     1
290
     0
176
     1
290
     0
176
     1
 90
       50
176
     1
 40
0.0
176
     1
 40
1.0
176
     1
 90
        0
176
     1
 62
    18
420
        0
176
     1
 90
       50
176
     1
 90
        3
176
     1
 62
     5
420
      255
176
     1
290
     0
176
     1
 90
       50
176
     1
 90
       50
176
     1
 90
       50
176
     1
290
     0
176
     1
 90
       50
176
     1
 62
   256
176
     0
 40
1.0
176
     0
 90
        2
176
     1
  1
strokes_ogs.tif
176
     1
290
     0
176
     1
 40
1.0
176
     1
 40
1.0
176
     1
1001
ACAD
1000
AcRTDxfName
1000
VISUALSTYLE
1000
AcRTDxfName
1000
VISUALSTYLE
1000
AcRTDxfName
1000
VISUALSTYLE
1000
AcRTDxfName
1000
VISUALSTYLE
1000
AcRTDxfName
1000
VISUALSTYLE
  0
VISUALSTYLE
  5
6647
102
{ACAD_REACTORS
330
663B
102
}
330
663B
100
AcDbVisualStyle
  2
Brighten
 70
    12
177
     3
291
     1
 70
    58
 90
        2
176
     1
 90
        2
176
     1
 90
        0
176
     1
 90
        0
176
     1
 40
0.6
176
     1
 40
30.0
176
     1
 62
     7
176
     1
 90
        1
176
     1
 90
        4
176
     1
 62
     7
176
     1
 62
   257
176
     1
 90
        1
176
     1
 90
        1
176
     1
 40
1.0
176
     1
 90
        8
176
     1
 62
     7
176
     1
 40
1.0
176
     1
 90
        1
176
     1
 90
        6
176
     1
 90
        2
176
     1
 62
     7
176
     1
 90
        5
176
     1
 90
        0
176
     1
 90
        0
176
     1
290
     0
176
     1
 90
        1
176
     1
 40
50.0
176
     1
 90
        0
176
     1
290
     0
176
     1
290
     1
176
     1
290
     1
176
     1
290
     0
176
     1
290
     0
176
     1
290
     0
176
     1
290
     0
176
     1
290
     0
176
     1
290
     0
176
     1
 90
       50
176
     1
 40
0.0
176
     1
 40
1.0
176
     1
 90
        0
176
     1
 62
    18
420
        0
176
     1
 90
       50
176
     1
 90
        3
176
     1
 62
     5
420
      255
176
     1
290
     0
176
     1
 90
       50
176
     1
 90
       50
176
     1
 90
       50
176
     1
290
     0
176
     1
 90
       50
176
     1
 62
   256
176
     0
 40
1.0
176
     0
 90
        2
176
     1
  1
strokes_ogs.tif
176
     1
290
     0
176
     1
 40
1.0
176
     1
 40
1.0
176
     1
1001
ACAD
1000
AcRTDxfName
1000
VISUALSTYLE
1000
AcRTDxfName
1000
VISUALSTYLE
1000
AcRTDxfName
1000
VISUALSTYLE
1000
AcRTDxfName
1000
VISUALSTYLE
1000
AcRTDxfName
1000
VISUALSTYLE
  0
VISUALSTYLE
  5
664B
102
{ACAD_REACTORS
330
663B
102
}
330
663B
100
AcDbVisualStyle
  2
ColorChange
 70
    16
177
     3
291
     1
 70
    58
 90
        2
176
     1
 90
        2
176
     1
 90
        3
176
     1
 90
        0
176
     1
 40
0.6
176
     1
 40
30.0
176
     1
 62
     8
176
     1
 90
        1
176
     1
 90
        4
176
     1
 62
     7
176
     1
 62
   257
176
     1
 90
        1
176
     1
 90
        1
176
     1
 40
1.0
176
     1
 90
        8
176
     1
 62
     8
176
     1
 40
1.0
176
     1
 90
        1
176
     1
 90
        6
176
     1
 90
        2
176
     1
 62
     7
176
     1
 90
        5
176
     1
 90
        0
176
     1
 90
        0
176
     1
290
     0
176
     1
 90
        1
176
     1
 40
0.0
176
     1
 90
        0
176
     1
290
     0
176
     1
290
     1
176
     1
290
     1
176
     1
290
     0
176
     1
290
     0
176
     1
290
     0
176
     1
290
     0
176
     1
290
     0
176
     1
290
     0
176
     1
 90
       50
176
     1
 40
0.0
176
     1
 40
1.0
176
     1
 90
        0
176
     1
 62
    18
420
        0
176
     1
 90
       50
176
     1
 90
        3
176
     1
 62
     5
420
      255
176
     1
290
     0
176
     1
 90
       50
176
     1
 90
       50
176
     1
 90
       50
176
     1
290
     0
176
     1
 90
       50
176
     1
 62
   256
176
     0
 40
1.0
176
     0
 90
        2
176
     1
  1
strokes_ogs.tif
176
     1
290
     0
176
     1
 40
1.0
176
     1
 40
1.0
176
     1
1001
ACAD
1000
AcRTDxfName
1000
VISUALSTYLE
1000
AcRTDxfName
1000
VISUALSTYLE
1000
AcRTDxfName
1000
VISUALSTYLE
1000
AcRTDxfName
1000
VISUALSTYLE
1000
AcRTDxfName
1000
VISUALSTYLE
  0
VISUALSTYLE
  5
6644
102
{ACAD_REACTORS
330
663B
102
}
330
663B
100
AcDbVisualStyle
  2
Conceptual
 70
     9
177
     3
291
     0
 70
    58
 90
        3
176
     1
 90
        2
176
     1
 90
        0
176
     1
 90
        0
176
     1
 40
0.6
176
     1
 40
30.0
176
     1
 62
     7
176
     1
 90
        2
176
     1
 90
        2
176
     1
 62
     7
176
     1
 62
   257
176
     1
 90
        1
176
     1
 90
        1
176
     1
 40
40.0
176
     1
 90
        8
176
     1
 62
     7
176
     1
 40
1.0
176
     1
 90
        1
176
     1
 90
        6
176
     1
 90
        2
176
     1
 62
     7
176
     1
 90
        3
176
     1
 90
        0
176
     1
 90
        0
176
     1
290
     0
176
     1
 90
        1
176
     1
 40
0.0
176
     1
 90
        0
176
     1
290
     0
176
     1
290
     1
176
     1
290
     1
176
     1
290
     0
176
     1
290
     0
176
     1
290
     0
176
     1
290
     0
176
     1
290
     0
176
     1
290
     0
176
     1
 90
       50
176
     1
 40
0.0
176
     1
 40
1.0
176
     1
 90
        0
176
     1
 62
    18
420
        0
176
     1
 90
       50
176
     1
 90
        3
176
     1
 62
     5
420
      255
176
     1
290
     0
176
     1
 90
       50
176
     1
 90
       50
176
     1
 90
       50
176
     1
290
     0
176
     1
 90
       50
176
     1
 62
   256
176
     0
 40
1.0
176
     0
 90
        2
176
     1
  1
strokes_ogs.tif
176
     1
290
     0
176
     1
 40
1.0
176
     1
 40
1.0
176
     1
1001
ACAD
1000
AcRTDxfName
1000
VISUALSTYLE
1000
AcRTDxfName
1000
VISUALSTYLE
1000
AcRTDxfName
1000
VISUALSTYLE
1000
AcRTDxfName
1000
VISUALSTYLE
1000
AcRTDxfName
1000
VISUALSTYLE
  0
VISUALSTYLE
  5
6646
102
{ACAD_REACTORS
330
663B
102
}
330
663B
100
AcDbVisualStyle
  2
Dim
 70
    11
177
     3
291
     1
 70
    58
 90
        2
176
     1
 90
        2
176
     1
 90
        0
176
     1
 90
        0
176
     1
 40
0.6
176
     1
 40
30.0
176
     1
 62
     7
176
     1
 90
        1
176
     1
 90
        4
176
     1
 62
     7
176
     1
 62
   257
176
     1
 90
        1
176
     1
 90
        1
176
     1
 40
1.0
176
     1
 90
        8
176
     1
 62
     7
176
     1
 40
1.0
176
     1
 90
        1
176
     1
 90
        6
176
     1
 90
        2
176
     1
 62
     7
176
     1
 90
        5
176
     1
 90
        0
176
     1
 90
        0
176
     1
290
     0
176
     1
 90
        1
176
     1
 40
-50.0
176
     1
 90
        0
176
     1
290
     0
176
     1
290
     1
176
     1
290
     1
176
     1
290
     0
176
     1
290
     0
176
     1
290
     0
176
     1
290
     0
176
     1
290
     0
176
     1
290
     0
176
     1
 90
       50
176
     1
 40
0.0
176
     1
 40
1.0
176
     1
 90
        0
176
     1
 62
    18
420
        0
176
     1
 90
       50
176
     1
 90
        3
176
     1
 62
     5
420
      255
176
     1
290
     0
176
     1
 90
       50
176
     1
 90
       50
176
     1
 90
       50
176
     1
290
     0
176
     1
 90
       50
176
     1
 62
   256
176
     0
 40
1.0
176
     0
 90
        2
176
     1
  1
strokes_ogs.tif
176
     1
290
     0
176
     1
 40
1.0
176
     1
 40
1.0
176
     1
1001
ACAD
1000
AcRTDxfName
1000
VISUALSTYLE
1000
AcRTDxfName
1000
VISUALSTYLE
1000
AcRTDxfName
1000
VISUALSTYLE
1000
AcRTDxfName
1000
VISUALSTYLE
1000
AcRTDxfName
1000
VISUALSTYLE
  0
VISUALSTYLE
  5
9108
102
{ACAD_REACTORS
330
663B
102
}
330
663B
100
AcDbVisualStyle
  2
EdgeColorOff
 70
    22
177
     3
291
     1
 70
    58
 90
        2
176
     0
 90
        2
176
     0
 90
        0
176
     0
 90
        0
176
     0
 40
0.6
176
     0
 40
30.0
176
     0
 62
     7
176
     0
 90
        1
176
     0
 90
        4
176
     0
 62
     7
176
     0
 62
   257
176
     0
 90
        1
176
     0
 90
        1
176
     0
 40
1.0
176
     0
 90
        8
176
     2
 62
     7
176
     0
 40
1.0
176
     0
 90
        1
176
     0
 90
        6
176
     0
 90
        2
176
     0
 62
     7
176
     0
 90
        5
176
     0
 90
        0
176
     0
 90
        0
176
     0
290
     0
176
     0
 90
        1
176
     0
 40
0.0
176
     0
 90
        0
176
     0
290
     0
176
     0
290
     1
176
     0
290
     1
176
     0
290
     0
176
     0
290
     0
176
     0
290
     0
176
     1
290
     0
176
     1
290
     0
176
     1
290
     0
176
     1
 90
       50
176
     1
 40
0.0
176
     1
 40
1.0
176
     1
 90
        0
176
     1
 62
    18
420
        0
176
     1
 90
       50
176
     1
 90
        3
176
     1
 62
     5
420
      255
176
     1
290
     0
176
     1
 90
       50
176
     1
 90
       50
176
     1
 90
       50
176
     1
290
     0
176
     1
 90
       50
176
     1
 62
   256
176
     0
 40
1.0
176
     0
 90
        2
176
     1
  1
strokes_ogs.tif
176
     1
290
     0
176
     1
 40
1.0
176
     1
 40
1.0
176
     1
  0
VISUALSTYLE
  5
664A
102
{ACAD_REACTORS
330
663B
102
}
330
663B
100
AcDbVisualStyle
  2
Facepattern
 70
    15
177
     3
291
     1
 70
    58
 90
        2
176
     1
 90
        2
176
     1
 90
        0
176
     1
 90
        0
176
     1
 40
0.6
176
     1
 40
30.0
176
     1
 62
     7
176
     1
 90
        1
176
     1
 90
        4
176
     1
 62
     7
176
     1
 62
   257
176
     1
 90
        1
176
     1
 90
        1
176
     1
 40
1.0
176
     1
 90
        8
176
     1
 62
     7
176
     1
 40
1.0
176
     1
 90
        1
176
     1
 90
        6
176
     1
 90
        2
176
     1
 62
     7
176
     1
 90
        5
176
     1
 90
        0
176
     1
 90
        0
176
     1
290
     0
176
     1
 90
        1
176
     1
 40
0.0
176
     1
 90
        0
176
     1
290
     0
176
     1
290
     1
176
     1
290
     1
176
     1
290
     0
176
     1
290
     0
176
     1
290
     0
176
     1
290
     0
176
     1
290
     0
176
     1
290
     0
176
     1
 90
       50
176
     1
 40
0.0
176
     1
 40
1.0
176
     1
 90
        0
176
     1
 62
    18
420
        0
176
     1
 90
       50
176
     1
 90
        3
176
     1
 62
     5
420
      255
176
     1
290
     0
176
     1
 90
       50
176
     1
 90
       50
176
     1
 90
       50
176
     1
290
     0
176
     1
 90
       50
176
     1
 62
   256
176
     0
 40
1.0
176
     0
 90
        2
176
     1
  1
strokes_ogs.tif
176
     1
290
     0
176
     1
 40
1.0
176
     1
 40
1.0
176
     1
1001
ACAD
1000
AcRTDxfName
1000
VISUALSTYLE
1000
AcRTDxfName
1000
VISUALSTYLE
1000
AcRTDxfName
1000
VISUALSTYLE
1000
AcRTDxfName
1000
VISUALSTYLE
1000
AcRTDxfName
1000
VISUALSTYLE
  0
VISUALSTYLE
  5
663C
102
{ACAD_REACTORS
330
663B
102
}
330
663B
100
AcDbVisualStyle
  2
Flat
 70
     0
177
     3
291
     1
 70
    58
 90
        2
176
     1
 90
        1
176
     1
 90
        1
176
     1
 90
        2
176
     1
 40
0.6
176
     1
 40
30.0
176
     1
 62
     7
176
     1
 90
        0
176
     1
 90
        4
176
     1
 62
     7
176
     1
 62
   257
176
     1
 90
        1
176
     1
 90
        1
176
     1
 40
1.0
176
     1
 90
        8
176
     1
 62
     7
176
     1
 40
1.0
176
     1
 90
        1
176
     1
 90
        6
176
     1
 90
        2
176
     1
 62
     7
176
     1
 90
        5
176
     1
 90
        0
176
     1
 90
        0
176
     1
290
     0
176
     1
 90
       13
176
     1
 40
0.0
176
     1
 90
        0
176
     1
290
     0
176
     1
290
     1
176
     1
290
     1
176
     1
290
     0
176
     1
290
     0
176
     1
290
     0
176
     1
290
     0
176
     1
290
     0
176
     1
290
     0
176
     1
 90
       50
176
     1
 40
0.0
176
     1
 40
1.0
176
     1
 90
        0
176
     1
 62
    18
420
        0
176
     1
 90
       50
176
     1
 90
        3
176
     1
 62
     5
420
      255
176
     1
290
     0
176
     1
 90
       50
176
     1
 90
       50
176
     1
 90
       50
176
     1
290
     0
176
     1
 90
       50
176
     1
 62
   256
176
     0
 40
1.0
176
     0
 90
        2
176
     1
  1
strokes_ogs.tif
176
     1
290
     0
176
     1
 40
1.0
176
     1
 40
1.0
176
     1
1001
ACAD
1000
AcRTDxfName
1000
VISUALSTYLE
1000
AcRTDxfName
1000
VISUALSTYLE
1000
AcRTDxfName
1000
VISUALSTYLE
1000
AcRTDxfName
1000
VISUALSTYLE
1000
AcRTDxfName
1000
VISUALSTYLE
  0
VISUALSTYLE
  5
663D
102
{ACAD_REACTORS
330
663B
102
}
330
663B
100
AcDbVisualStyle
  2
FlatWithEdges
 70
     1
177
     3
291
     1
 70
    58
 90
        2
176
     1
 90
        1
176
     1
 90
        1
176
     1
 90
        2
176
     1
 40
0.6
176
     1
 40
30.0
176
     1
 62
     7
176
     1
 90
        1
176
     1
 90
        4
176
     1
 62
     7
176
     1
 62
   257
176
     1
 90
        1
176
     1
 90
        1
176
     1
 40
1.0
176
     1
 90
        0
176
     1
 62
   257
176
     1
 40
1.0
176
     1
 90
        1
176
     1
 90
        6
176
     1
 90
        2
176
     1
 62
     7
176
     1
 90
        5
176
     1
 90
        0
176
     1
 90
        0
176
     1
290
     0
176
     1
 90
       13
176
     1
 40
0.0
176
     1
 90
        0
176
     1
290
     0
176
     1
290
     1
176
     1
290
     1
176
     1
290
     0
176
     1
290
     0
176
     1
290
     0
176
     1
290
     0
176
     1
290
     0
176
     1
290
     0
176
     1
 90
       50
176
     1
 40
0.0
176
     1
 40
1.0
176
     1
 90
        0
176
     1
 62
    18
420
        0
176
     1
 90
       50
176
     1
 90
        3
176
     1
 62
     5
420
      255
176
     1
290
     0
176
     1
 90
       50
176
     1
 90
       50
176
     1
 90
       50
176
     1
290
     0
176
     1
 90
       50
176
     1
 62
   256
176
     0
 40
1.0
176
     0
 90
        2
176
     1
  1
strokes_ogs.tif
176
     1
290
     0
176
     1
 40
1.0
176
     1
 40
1.0
176
     1
1001
ACAD
1000
AcRTDxfName
1000
VISUALSTYLE
1000
AcRTDxfName
1000
VISUALSTYLE
1000
AcRTDxfName
1000
VISUALSTYLE
1000
AcRTDxfName
1000
VISUALSTYLE
1000
AcRTDxfName
1000
VISUALSTYLE
  0
VISUALSTYLE
  5
663E
102
{ACAD_REACTORS
330
663B
102
}
330
663B
100
AcDbVisualStyle
  2
Gouraud
 70
     2
177
     3
291
     1
 70
    58
 90
        2
176
     1
 90
        2
176
     1
 90
        1
176
     1
 90
        2
176
     1
 40
0.6
176
     1
 40
30.0
176
     1
 62
     7
176
     1
 90
        0
176
     1
 90
        4
176
     1
 62
     7
176
     1
 62
   257
176
     1
 90
        1
176
     1
 90
        1
176
     1
 40
1.0
176
     1
 90
        0
176
     1
 62
     7
176
     1
 40
1.0
176
     1
 90
        1
176
     1
 90
        6
176
     1
 90
        2
176
     1
 62
     7
176
     1
 90
        5
176
     1
 90
        0
176
     1
 90
        0
176
     1
290
     0
176
     1
 90
       13
176
     1
 40
0.0
176
     1
 90
        0
176
     1
290
     0
176
     1
290
     1
176
     1
290
     1
176
     1
290
     0
176
     1
290
     0
176
     1
290
     0
176
     1
290
     0
176
     1
290
     0
176
     1
290
     0
176
     1
 90
       50
176
     1
 40
0.0
176
     1
 40
1.0
176
     1
 90
        0
176
     1
 62
    18
420
        0
176
     1
 90
       50
176
     1
 90
        3
176
     1
 62
     5
420
      255
176
     1
290
     0
176
     1
 90
       50
176
     1
 90
       50
176
     1
 90
       50
176
     1
290
     0
176
     1
 90
       50
176
     1
 62
   256
176
     0
 40
1.0
176
     0
 90
        2
176
     1
  1
strokes_ogs.tif
176
     1
290
     0
176
     1
 40
1.0
176
     1
 40
1.0
176
     1
1001
ACAD
1000
AcRTDxfName
1000
VISUALSTYLE
1000
AcRTDxfName
1000
VISUALSTYLE
1000
AcRTDxfName
1000
VISUALSTYLE
1000
AcRTDxfName
1000
VISUALSTYLE
1000
AcRTDxfName
1000
VISUALSTYLE
  0
VISUALSTYLE
  5
663F
102
{ACAD_REACTORS
330
663B
102
}
330
663B
100
AcDbVisualStyle
  2
GouraudWithEdges
 70
     3
177
     3
291
     1
 70
    58
 90
        2
176
     1
 90
        2
176
     1
 90
        1
176
     1
 90
        2
176
     1
 40
0.6
176
     1
 40
30.0
176
     1
 62
     7
176
     1
 90
        1
176
     1
 90
        4
176
     1
 62
     7
176
     1
 62
   257
176
     1
 90
        1
176
     1
 90
        1
176
     1
 40
1.0
176
     1
 90
        0
176
     1
 62
   257
176
     1
 40
1.0
176
     1
 90
        1
176
     1
 90
        6
176
     1
 90
        2
176
     1
 62
     7
176
     1
 90
        5
176
     1
 90
        0
176
     1
 90
        0
176
     1
290
     0
176
     1
 90
       13
176
     1
 40
0.0
176
     1
 90
        0
176
     1
290
     0
176
     1
290
     1
176
     1
290
     1
176
     1
290
     0
176
     1
290
     0
176
     1
290
     0
176
     1
290
     0
176
     1
290
     0
176
     1
290
     0
176
     1
 90
       50
176
     1
 40
0.0
176
     1
 40
1.0
176
     1
 90
        0
176
     1
 62
    18
420
        0
176
     1
 90
       50
176
     1
 90
        3
176
     1
 62
     5
420
      255
176
     1
290
     0
176
     1
 90
       50
176
     1
 90
       50
176
     1
 90
       50
176
     1
290
     0
176
     1
 90
       50
176
     1
 62
   256
176
     0
 40
1.0
176
     0
 90
        2
176
     1
  1
strokes_ogs.tif
176
     1
290
     0
176
     1
 40
1.0
176
     1
 40
1.0
176
     1
1001
ACAD
1000
AcRTDxfName
1000
VISUALSTYLE
1000
AcRTDxfName
1000
VISUALSTYLE
1000
AcRTDxfName
1000
VISUALSTYLE
1000
AcRTDxfName
1000
VISUALSTYLE
1000
AcRTDxfName
1000
VISUALSTYLE
  0
VISUALSTYLE
  5
9100
102
{ACAD_REACTORS
330
663B
102
}
330
663B
100
AcDbVisualStyle
  2
Hidden
 70
     6
177
     3
291
     0
 70
    58
 90
        1
176
     1
 90
        2
176
     1
 90
        2
176
     1
 90
        0
176
     1
 40
0.6
176
     1
 40
30.0
176
     1
 62
     7
176
     1
 90
        2
176
     1
 90
        2
176
     1
 62
     7
176
     1
 62
   257
176
     1
 90
        2
176
     1
 90
        1
176
     1
 40
40.0
176
     1
 90
        0
176
     1
 62
   257
176
     1
 40
1.0
176
     1
 90
        1
176
     1
 90
        6
176
     1
 90
        2
176
     1
 62
     7
176
     1
 90
        3
176
     1
 90
        0
176
     1
 90
        0
176
     1
290
     0
176
     1
 90
        1
176
     1
 40
0.0
176
     1
 90
        0
176
     1
290
     0
176
     1
290
     1
176
     1
290
     1
176
     1
290
     0
176
     1
290
     0
176
     1
290
     0
176
     1
290
     0
176
     1
290
     0
176
     1
290
     0
176
     1
 90
       50
176
     1
 40
0.0
176
     1
 40
1.0
176
     1
 90
        0
176
     1
 62
    18
420
        0
176
     1
 90
       50
176
     1
 90
        3
176
     1
 62
     5
420
      255
176
     1
290
     0
176
     1
 90
       50
176
     1
 90
       50
176
     1
 90
       50
176
     1
290
     0
176
     1
 90
       50
176
     1
 62
   256
176
     0
 40
1.0
176
     0
 90
        2
176
     1
  1
strokes_ogs.tif
176
     1
290
     0
176
     1
 40
1.0
176
     1
 40
1.0
176
     1
  0
VISUALSTYLE
  5
9106
102
{ACAD_REACTORS
330
663B
102
}
330
663B
100
AcDbVisualStyle
  2
JitterOff
 70
    20
177
     3
291
     1
 70
    58
 90
        2
176
     0
 90
        2
176
     0
 90
        0
176
     0
 90
        0
176
     0
 40
0.6
176
     0
 40
30.0
176
     0
 62
     7
176
     0
 90
        1
176
     0
 90
        4
176
     0
 62
     7
176
     0
 62
   257
176
     0
 90
        1
176
     0
 90
        1
176
     0
 40
1.0
176
     0
 90
       10
176
     2
 62
     7
176
     0
 40
1.0
176
     0
 90
        1
176
     0
 90
        6
176
     0
 90
        2
176
     0
 62
     7
176
     0
 90
        5
176
     0
 90
        0
176
     0
 90
        0
176
     0
290
     0
176
     0
 90
        1
176
     0
 40
0.0
176
     0
 90
        0
176
     0
290
     0
176
     0
290
     1
176
     0
290
     1
176
     0
290
     0
176
     0
290
     0
176
     0
290
     0
176
     1
290
     0
176
     1
290
     0
176
     1
290
     0
176
     1
 90
       50
176
     1
 40
0.0
176
     1
 40
1.0
176
     1
 90
        0
176
     1
 62
    18
420
        0
176
     1
 90
       50
176
     1
 90
        3
176
     1
 62
     5
420
      255
176
     1
290
     0
176
     1
 90
       50
176
     1
 90
       50
176
     1
 90
       50
176
     1
290
     0
176
     1
 90
       50
176
     1
 62
   256
176
     0
 40
1.0
176
     0
 90
        2
176
     1
  1
strokes_ogs.tif
176
     1
290
     0
176
     1
 40
1.0
176
     1
 40
1.0
176
     1
  0
VISUALSTYLE
  5
6649
102
{ACAD_REACTORS
330
663B
102
}
330
663B
100
AcDbVisualStyle
  2
Linepattern
 70
    14
177
     3
291
     1
 70
    58
 90
        2
176
     1
 90
        2
176
     1
 90
        0
176
     1
 90
        0
176
     1
 40
0.6
176
     1
 40
30.0
176
     1
 62
     7
176
     1
 90
        1
176
     1
 90
        4
176
     1
 62
     7
176
     1
 62
   257
176
     1
 90
        7
176
     1
 90
        7
176
     1
 40
1.0
176
     1
 90
        8
176
     1
 62
     7
176
     1
 40
1.0
176
     1
 90
        1
176
     1
 90
        6
176
     1
 90
        2
176
     1
 62
     7
176
     1
 90
        5
176
     1
 90
        0
176
     1
 90
        0
176
     1
290
     0
176
     1
 90
        1
176
     1
 40
0.0
176
     1
 90
        0
176
     1
290
     0
176
     1
290
     1
176
     1
290
     1
176
     1
290
     0
176
     1
290
     0
176
     1
290
     0
176
     1
290
     0
176
     1
290
     0
176
     1
290
     0
176
     1
 90
       50
176
     1
 40
0.0
176
     1
 40
1.0
176
     1
 90
        0
176
     1
 62
    18
420
        0
176
     1
 90
       50
176
     1
 90
        3
176
     1
 62
     5
420
      255
176
     1
290
     0
176
     1
 90
       50
176
     1
 90
       50
176
     1
 90
       50
176
     1
290
     0
176
     1
 90
       50
176
     1
 62
   256
176
     0
 40
1.0
176
     0
 90
        2
176
     1
  1
strokes_ogs.tif
176
     1
290
     0
176
     1
 40
1.0
176
     1
 40
1.0
176
     1
1001
ACAD
1000
AcRTDxfName
1000
VISUALSTYLE
1000
AcRTDxfName
1000
VISUALSTYLE
1000
AcRTDxfName
1000
VISUALSTYLE
1000
AcRTDxfName
1000
VISUALSTYLE
1000
AcRTDxfName
1000
VISUALSTYLE
  0
VISUALSTYLE
  5
9107
102
{ACAD_REACTORS
330
663B
102
}
330
663B
100
AcDbVisualStyle
  2
OverhangOff
 70
    21
177
     3
291
     1
 70
    58
 90
        2
176
     0
 90
        2
176
     0
 90
        0
176
     0
 90
        0
176
     0
 40
0.6
176
     0
 40
30.0
176
     0
 62
     7
176
     0
 90
        1
176
     0
 90
        4
176
     0
 62
     7
176
     0
 62
   257
176
     0
 90
        1
176
     0
 90
        1
176
     0
 40
1.0
176
     0
 90
        9
176
     2
 62
     7
176
     0
 40
1.0
176
     0
 90
        1
176
     0
 90
        6
176
     0
 90
        2
176
     0
 62
     7
176
     0
 90
        5
176
     0
 90
        0
176
     0
 90
        0
176
     0
290
     0
176
     0
 90
        1
176
     0
 40
0.0
176
     0
 90
        0
176
     0
290
     0
176
     0
290
     1
176
     0
290
     1
176
     0
290
     0
176
     0
290
     0
176
     0
290
     0
176
     1
290
     0
176
     1
290
     0
176
     1
290
     0
176
     1
 90
       50
176
     1
 40
0.0
176
     1
 40
1.0
176
     1
 90
        0
176
     1
 62
    18
420
        0
176
     1
 90
       50
176
     1
 90
        3
176
     1
 62
     5
420
      255
176
     1
290
     0
176
     1
 90
       50
176
     1
 90
       50
176
     1
 90
       50
176
     1
290
     0
176
     1
 90
       50
176
     1
 62
   256
176
     0
 40
1.0
176
     0
 90
        2
176
     1
  1
strokes_ogs.tif
176
     1
290
     0
176
     1
 40
1.0
176
     1
 40
1.0
176
     1
  0
VISUALSTYLE
  5
6645
102
{ACAD_REACTORS
330
663B
102
}
330
663B
100
AcDbVisualStyle
  2
Realistic
 70
     8
177
     3
291
     0
 70
    58
 90
        2
176
     1
 90
        2
176
     1
 90
        0
176
     1
 90
        0
176
     1
 40
0.6
176
     1
 40
30.0
176
     1
 62
     7
176
     1
 90
        1
176
     1
 90
        0
176
     1
 62
     7
176
     1
 62
   257
176
     1
 90
        1
176
     1
 90
        1
176
     1
 40
1.0
176
     1
 90
        8
176
     1
 62
     8
176
     1
 40
1.0
176
     1
 90
        1
176
     1
 90
        6
176
     1
 90
        2
176
     1
 62
     7
176
     1
 90
        5
176
     1
 90
        0
176
     1
 90
        0
176
     1
290
     0
176
     1
 90
       13
176
     1
 40
0.0
176
     1
 90
        0
176
     1
290
     0
176
     1
290
     1
176
     1
290
     1
176
     1
290
     0
176
     1
290
     0
176
     1
290
     0
176
     1
290
     0
176
     1
290
     0
176
     1
290
     0
176
     1
 90
       50
176
     1
 40
0.0
176
     1
 40
1.0
176
     1
 90
        0
176
     1
 62
    18
420
        0
176
     1
 90
       50
176
     1
 90
        3
176
     1
 62
     5
420
      255
176
     1
290
     0
176
     1
 90
       50
176
     1
 90
       50
176
     1
 90
       50
176
     1
290
     0
176
     1
 90
       50
176
     1
 62
   256
176
     0
 40
1.0
176
     0
 90
        2
176
     1
  1
strokes_ogs.tif
176
     1
290
     0
176
     1
 40
1.0
176
     1
 40
1.0
176
     1
1001
ACAD
1000
AcRTDxfName
1000
VISUALSTYLE
1000
AcRTDxfName
1000
VISUALSTYLE
1000
AcRTDxfName
1000
VISUALSTYLE
1000
AcRTDxfName
1000
VISUALSTYLE
1000
AcRTDxfName
1000
VISUALSTYLE
  0
VISUALSTYLE
  5
9105
102
{ACAD_REACTORS
330
663B
102
}
330
663B
100
AcDbVisualStyle
  2
Shaded
 70
    27
177
     3
291
     0
 70
    58
 90
        2
176
     1
 90
        2
176
     1
 90
        1
176
     1
 90
        2
176
     1
 40
0.6
176
     1
 40
30.0
176
     1
 62
     7
176
     1
 90
        0
176
     1
 90
        4
176
     1
 62
     7
176
     1
 62
   257
176
     1
 90
        1
176
     1
 90
        1
176
     1
 40
1.0
176
     1
 90
        8
176
     1
 62
   257
176
     1
 40
1.0
176
     1
 90
        1
176
     1
 90
        6
176
     1
 90
        2
176
     1
 62
     8
176
     1
 90
        3
176
     1
 90
        0
176
     1
 90
        0
176
     1
290
     0
176
     1
 90
        5
176
     1
 40
0.0
176
     1
 90
        0
176
     1
290
     0
176
     1
290
     1
176
     1
290
     1
176
     1
290
     0
176
     1
290
     0
176
     1
290
     0
176
     1
290
     0
176
     1
290
     0
176
     1
290
     0
176
     1
 90
       50
176
     1
 40
0.0
176
     1
 40
1.0
176
     1
 90
        0
176
     1
 62
    18
420
        0
176
     1
 90
       50
176
     1
 90
        3
176
     1
 62
     5
420
      255
176
     1
290
     0
176
     1
 90
       50
176
     1
 90
       50
176
     1
 90
       50
176
     1
290
     0
176
     1
 90
       50
176
     1
 62
   256
176
     0
 40
1.0
176
     0
 90
        2
176
     1
  1
strokes_ogs.tif
176
     1
290
     0
176
     1
 40
1.0
176
     1
 40
1.0
176
     1
  0
VISUALSTYLE
  5
9104
102
{ACAD_REACTORS
330
663B
102
}
330
663B
100
AcDbVisualStyle
  2
Shaded with edges
 70
    26
177
     3
291
     0
 70
    58
 90
        2
176
     1
 90
        2
176
     1
 90
        1
176
     1
 90
        2
176
     1
 40
0.6
176
     1
 40
30.0
176
     1
 62
     7
176
     1
 90
        1
176
     1
 90
        2
176
     1
 62
     7
176
     1
 62
   257
176
     1
 90
        2
176
     1
 90
        1
176
     1
 40
1.0
176
     1
 90
        8
176
     1
 62
   257
176
     1
 40
1.0
176
     1
 90
        1
176
     1
 90
        6
176
     1
 90
        2
176
     1
 62
     7
176
     1
 90
        3
176
     1
 90
        0
176
     1
 90
        0
176
     1
290
     0
176
     1
 90
        5
176
     1
 40
0.0
176
     1
 90
        0
176
     1
290
     0
176
     1
290
     1
176
     1
290
     1
176
     1
290
     0
176
     1
290
     0
176
     1
290
     0
176
     1
290
     0
176
     1
290
     0
176
     1
290
     0
176
     1
 90
       50
176
     1
 40
0.0
176
     1
 40
1.0
176
     1
 90
        0
176
     1
 62
    18
420
        0
176
     1
 90
       50
176
     1
 90
        3
176
     1
 62
     5
420
      255
176
     1
290
     0
176
     1
 90
       50
176
     1
 90
       50
176
     1
 90
       50
176
     1
290
     0
176
     1
 90
       50
176
     1
 62
   256
176
     0
 40
1.0
176
     0
 90
        2
176
     1
  1
strokes_ogs.tif
176
     1
290
     0
176
     1
 40
1.0
176
     1
 40
1.0
176
     1
  0
VISUALSTYLE
  5
9101
102
{ACAD_REACTORS
330
663B
102
}
330
663B
100
AcDbVisualStyle
  2
Shades of Gray
 70
    23
177
     3
291
     0
 70
    58
 90
        2
176
     1
 90
        2
176
     1
 90
        3
176
     1
 90
        0
176
     1
 40
0.6
176
     1
 40
30.0
176
     1
 62
     7
176
     1
 90
        2
176
     1
 90
        2
176
     1
 62
     7
176
     1
 62
     7
176
     1
 90
        1
176
     1
 90
        1
176
     1
 40
40.0
176
     1
 90
        8
176
     1
 62
     7
176
     1
 40
1.0
176
     1
 90
        1
176
     1
 90
        6
176
     1
 90
        2
176
     1
 62
     7
176
     1
 90
        3
176
     1
 90
        0
176
     1
 90
        0
176
     1
290
     0
176
     1
 90
        1
176
     1
 40
0.0
176
     1
 90
        0
176
     1
290
     0
176
     1
290
     1
176
     1
290
     1
176
     1
290
     0
176
     1
290
     0
176
     1
290
     0
176
     1
290
     0
176
     1
290
     0
176
     1
290
     0
176
     1
 90
       50
176
     1
 40
0.0
176
     1
 40
1.0
176
     1
 90
        0
176
     1
 62
    18
420
        0
176
     1
 90
       50
176
     1
 90
        3
176
     1
 62
     5
420
      255
176
     1
290
     0
176
     1
 90
       50
176
     1
 90
       50
176
     1
 90
       50
176
     1
290
     0
176
     1
 90
       50
176
     1
 62
   256
176
     0
 40
1.0
176
     0
 90
        2
176
     1
  1
strokes_ogs.tif
176
     1
290
     0
176
     1
 40
1.0
176
     1
 40
1.0
176
     1
  0
VISUALSTYLE
  5
9102
102
{ACAD_REACTORS
330
663B
102
}
330
663B
100
AcDbVisualStyle
  2
Sketchy
 70
    24
177
     3
291
     0
 70
    58
 90
        1
176
     1
 90
        2
176
     1
 90
        2
176
     1
 90
        0
176
     1
 40
0.6
176
     1
 40
30.0
176
     1
 62
     7
176
     1
 90
        2
176
     1
 90
        2
176
     1
 62
     7
176
     1
 62
     7
176
     1
 90
        1
176
     1
 90
        1
176
     1
 40
40.0
176
     1
 90
       11
176
     1
 62
     7
176
     1
 40
1.0
176
     1
 90
        1
176
     1
 90
        6
176
     1
 90
        2
176
     1
 62
     7
176
     1
 90
        6
176
     1
 90
        0
176
     1
 90
        0
176
     1
290
     0
176
     1
 90
        1
176
     1
 40
0.0
176
     1
 90
        0
176
     1
290
     0
176
     1
290
     1
176
     1
290
     1
176
     1
290
     0
176
     1
290
     0
176
     1
290
     0
176
     1
290
     0
176
     1
290
     0
176
     1
290
     0
176
     1
 90
       50
176
     1
 40
0.0
176
     1
 40
1.0
176
     1
 90
        0
176
     1
 62
    18
420
        0
176
     1
 90
       50
176
     1
 90
        3
176
     1
 62
     5
420
      255
176
     1
290
     0
176
     1
 90
       50
176
     1
 90
       50
176
     1
 90
       50
176
     1
290
     0
176
     1
 90
       50
176
     1
 62
   256
176
     0
 40
1.0
176
     0
 90
        2
176
     1
  1
strokes_ogs.tif
176
     1
290
     0
176
     1
 40
1.0
176
     1
 40
1.0
176
     1
  0
VISUALSTYLE
  5
6648
102
{ACAD_REACTORS
330
663B
102
}
330
663B
100
AcDbVisualStyle
  2
Thicken
 70
    13
177
     3
291
     1
 70
    58
 90
        2
176
     1
 90
        2
176
     1
 90
        0
176
     1
 90
        0
176
     1
 40
0.6
176
     1
 40
30.0
176
     1
 62
     7
176
     1
 90
        1
176
     1
 90
        4
176
     1
 62
     7
176
     1
 62
   257
176
     1
 90
        1
176
     1
 90
        1
176
     1
 40
1.0
176
     1
 90
       12
176
     1
 62
     7
176
     1
 40
1.0
176
     1
 90
        1
176
     1
 90
        6
176
     1
 90
        2
176
     1
 62
     7
176
     1
 90
        5
176
     1
 90
        0
176
     1
 90
        0
176
     1
290
     0
176
     1
 90
        1
176
     1
 40
0.0
176
     1
 90
        0
176
     1
290
     0
176
     1
290
     1
176
     1
290
     1
176
     1
290
     0
176
     1
290
     0
176
     1
290
     0
176
     1
290
     0
176
     1
290
     0
176
     1
290
     0
176
     1
 90
       50
176
     1
 40
0.0
176
     1
 40
1.0
176
     1
 90
        0
176
     1
 62
    18
420
        0
176
     1
 90
       50
176
     1
 90
        3
176
     1
 62
     5
420
      255
176
     1
290
     0
176
     1
 90
       50
176
     1
 90
       50
176
     1
 90
       50
176
     1
290
     0
176
     1
 90
       50
176
     1
 62
   256
176
     0
 40
1.0
176
     0
 90
        2
176
     1
  1
strokes_ogs.tif
176
     1
290
     0
176
     1
 40
1.0
176
     1
 40
1.0
176
     1
1001
ACAD
1000
AcRTDxfName
1000
VISUALSTYLE
1000
AcRTDxfName
1000
VISUALSTYLE
1000
AcRTDxfName
1000
VISUALSTYLE
1000
AcRTDxfName
1000
VISUALSTYLE
1000
AcRTDxfName
1000
VISUALSTYLE
  0
VISUALSTYLE
  5
90FF
102
{ACAD_REACTORS
330
663B
102
}
330
663B
100
AcDbVisualStyle
  2
Wireframe
 70
     5
177
     3
291
     0
 70
    58
 90
        0
176
     1
 90
        2
176
     1
 90
        0
176
     1
 90
        0
176
     1
 40
0.6
176
     1
 40
30.0
176
     1
 62
     7
176
     1
 90
        1
176
     1
 90
        4
176
     1
 62
     7
176
     1
 62
   257
176
     1
 90
        1
176
     1
 90
        1
176
     1
 40
1.0
176
     1
 90
        0
176
     1
 62
   257
176
     1
 40
1.0
176
     1
 90
        1
176
     1
 90
        6
176
     1
 90
        2
176
     1
 62
     7
176
     1
 90
        3
176
     1
 90
        0
176
     1
 90
        0
176
     1
290
     0
176
     1
 90
        1
176
     1
 40
0.0
176
     1
 90
        0
176
     1
290
     0
176
     1
290
     1
176
     1
290
     1
176
     1
290
     0
176
     1
290
     0
176
     1
290
     0
176
     1
290
     0
176
     1
290
     0
176
     1
290
     0
176
     1
 90
       50
176
     1
 40
0.0
176
     1
 40
1.0
176
     1
 90
        0
176
     1
 62
    18
420
        0
176
     1
 90
       50
176
     1
 90
        3
176
     1
 62
     5
420
      255
176
     1
290
     0
176
     1
 90
       50
176
     1
 90
       50
176
     1
 90
       50
176
     1
290
     0
176
     1
 90
       50
176
     1
 62
   256
176
     0
 40
1.0
176
     0
 90
        2
176
     1
  1
strokes_ogs.tif
176
     1
290
     0
176
     1
 40
1.0
176
     1
 40
1.0
176
     1
  0
VISUALSTYLE
  5
9103
102
{ACAD_REACTORS
330
663B
102
}
330
663B
100
AcDbVisualStyle
  2
X-Ray
 70
    25
177
     3
291
     0
 70
    58
 90
        2
176
     1
 90
        2
176
     1
 90
        1
176
     1
 90
        1
176
     1
 40
0.5
176
     1
 40
30.0
176
     1
 62
     7
176
     1
 90
        1
176
     1
 90
        0
176
     1
 62
     7
176
     1
 62
   257
176
     1
 90
        1
176
     1
 90
        1
176
     1
 40
1.0
176
     1
 90
        8
176
     1
 62
     7
176
     1
 40
1.0
176
     1
 90
        1
176
     1
 90
        6
176
     1
 90
        2
176
     1
 62
     7
176
     1
 90
        3
176
     1
 90
        0
176
     1
 90
        0
176
     1
290
     0
176
     1
 90
       13
176
     1
 40
0.0
176
     1
 90
        0
176
     1
290
     0
176
     1
290
     1
176
     1
290
     1
176
     1
290
     0
176
     1
290
     0
176
     1
290
     0
176
     1
290
     0
176
     1
290
     0
176
     1
290
     0
176
     1
 90
       50
176
     1
 40
0.0
176
     1
 40
1.0
176
     1
 90
        0
176
     1
 62
    18
420
        0
176
     1
 90
       50
176
     1
 90
        3
176
     1
 62
     5
420
      255
176
     1
290
     0
176
     1
 90
       50
176
     1
 90
       50
176
     1
 90
       50
176
     1
290
     0
176
     1
 90
       50
176
     1
 62
   256
176
     0
 40
1.0
176
     0
 90
        2
176
     1
  1
strokes_ogs.tif
176
     1
290
     0
176
     1
 40
1.0
176
     1
 40
1.0
176
     1
  0
DICTIONARYVAR
  5
967B
102
{ACAD_REACTORS
330
51
102
}
330
51
100
DictionaryVariables
280
     0
  1
1:1
  0
DICTIONARYVAR
  5
967A
102
{ACAD_REACTORS
330
51
102
}
330
51
100
DictionaryVariables
280
     0
  1
STANDARD
  0
DICTIONARYVAR
  5
61E4
102
{ACAD_REACTORS
330
51
102
}
330
51
100
DictionaryVariables
280
     0
  1
STANDARD
  0
DICTIONARYVAR
  5
9897
102
{ACAD_REACTORS
330
51
102
}
330
51
100
DictionaryVariables
280
     0
  1
Metric50
  0
DICTIONARYVAR
  5
9898
102
{ACAD_REACTORS
330
51
102
}
330
51
100
DictionaryVariables
280
     0
  1
Metric50
  0
DICTIONARYVAR
  5
52
102
{ACAD_REACTORS
330
51
102
}
330
51
100
DictionaryVariables
280
     0
  1
0
  0
DICTIONARYVAR
  5
61E5
102
{ACAD_REACTORS
330
51
102
}
330
51
100
DictionaryVariables
280
     0
  1
1
  0
DICTIONARYVAR
  5
6B68
102
{ACAD_REACTORS
330
51
102
}
330
51
100
DictionaryVariables
280
     0
  1
0
  0
DICTIONARYVAR
  5
989B
102
{ACAD_REACTORS
330
51
102
}
330
51
100
DictionaryVariables
280
     0
  1
1
  0
DICTIONARYVAR
  5
989C
102
{ACAD_REACTORS
330
51
102
}
330
51
100
DictionaryVariables
280
     0
  1
15
  0
DICTIONARYVAR
  5
989A
102
{ACAD_REACTORS
330
51
102
}
330
51
100
DictionaryVariables
280
     0
  1
0
  0
DICTIONARYVAR
  5
9899
102
{ACAD_REACTORS
330
51
102
}
330
51
100
DictionaryVariables
280
     0
  1
0
  0
DICTIONARYVAR
  5
61E6
102
{ACAD_REACTORS
330
51
102
}
330
51
100
DictionaryVariables
280
     0
  1

  0
DICTIONARYVAR
  5
6B67
102
{ACAD_REACTORS
330
51
102
}
330
51
100
DictionaryVariables
280
     0
  1
127
  0
DICTIONARY
  5
9635
330
611A
100
AcDbDictionary
280
     1
281
     1
  3
ACAD_ROUNDTRIP_2008_TABLESTYLE_CELLSTYLEMAP
360
989D
  0
CELLSTYLEMAP
  5
989D
102
{ACAD_REACTORS
330
9635
102
}
330
9635
100
AcDbCellStyleMap
 90
        3
300
CELLSTYLE
  1
TABLEFORMAT_BEGIN
 90
        5
170
     1
 91
        0
 92
    32768
 62
   257
 93
        1
300
CONTENTFORMAT
  1
CONTENTFORMAT_BEGIN
 90
        0
 91
        0
 92
        4
 93
        0
300

 40
0.0
140
1.0
 94
        5
 62
     0
340
F
144
6.0
309
CONTENTFORMAT_END
171
     1
301
MARGIN
  1
CELLMARGIN_BEGIN
 40
1.5
 40
1.5
 40
1.5
 40
1.5
 40
0.18
 40
0.18
309
CELLMARGIN_END
 94
        6
 95
        1
302
GRIDFORMAT
  1
GRIDFORMAT_BEGIN
 90
        0
 91
        1
 62
     0
 92
       -2
340
0
 93
        0
 40
0.045
309
GRIDFORMAT_END
 95
        2
302
GRIDFORMAT
  1
GRIDFORMAT_BEGIN
 90
        0
 91
        1
 62
     0
 92
       -2
340
0
 93
        0
 40
0.045
309
GRIDFORMAT_END
 95
        4
302
GRIDFORMAT
  1
GRIDFORMAT_BEGIN
 90
        0
 91
        1
 62
     0
 92
       -2
340
0
 93
        0
 40
0.045
309
GRIDFORMAT_END
 95
        8
302
GRIDFORMAT
  1
GRIDFORMAT_BEGIN
 90
        0
 91
        1
 62
     0
 92
       -2
340
0
 93
        0
 40
0.045
309
GRIDFORMAT_END
 95
       16
302
GRIDFORMAT
  1
GRIDFORMAT_BEGIN
 90
        0
 91
        1
 62
     0
 92
       -2
340
0
 93
        0
 40
0.045
309
GRIDFORMAT_END
 95
       32
302
GRIDFORMAT
  1
GRIDFORMAT_BEGIN
 90
        0
 91
        1
 62
     0
 92
       -2
340
0
 93
        0
 40
0.045
309
GRIDFORMAT_END
309
TABLEFORMAT_END
  1
CELLSTYLE_BEGIN
 90
        1
 91
        1
300
_TITLE
309
CELLSTYLE_END
300
CELLSTYLE
  1
TABLEFORMAT_BEGIN
 90
        5
170
     1
 91
        0
 92
        0
 62
   257
 93
        1
300
CONTENTFORMAT
  1
CONTENTFORMAT_BEGIN
 90
        0
 91
        0
 92
        4
 93
        0
300

 40
0.0
140
1.0
 94
        5
 62
     0
340
F
144
4.5
309
CONTENTFORMAT_END
171
     1
301
MARGIN
  1
CELLMARGIN_BEGIN
 40
1.5
 40
1.5
 40
1.5
 40
1.5
 40
0.18
 40
0.18
309
CELLMARGIN_END
 94
        6
 95
        1
302
GRIDFORMAT
  1
GRIDFORMAT_BEGIN
 90
        0
 91
        1
 62
     0
 92
       -2
340
0
 93
        0
 40
0.045
309
GRIDFORMAT_END
 95
        2
302
GRIDFORMAT
  1
GRIDFORMAT_BEGIN
 90
        0
 91
        1
 62
     0
 92
       -2
340
0
 93
        0
 40
0.045
309
GRIDFORMAT_END
 95
        4
302
GRIDFORMAT
  1
GRIDFORMAT_BEGIN
 90
        0
 91
        1
 62
     0
 92
       -2
340
0
 93
        0
 40
0.045
309
GRIDFORMAT_END
 95
        8
302
GRIDFORMAT
  1
GRIDFORMAT_BEGIN
 90
        0
 91
        1
 62
     0
 92
       -2
340
0
 93
        0
 40
0.045
309
GRIDFORMAT_END
 95
       16
302
GRIDFORMAT
  1
GRIDFORMAT_BEGIN
 90
        0
 91
        1
 62
     0
 92
       -2
340
0
 93
        0
 40
0.045
309
GRIDFORMAT_END
 95
       32
302
GRIDFORMAT
  1
GRIDFORMAT_BEGIN
 90
        0
 91
        1
 62
     0
 92
       -2
340
0
 93
        0
 40
0.045
309
GRIDFORMAT_END
309
TABLEFORMAT_END
  1
CELLSTYLE_BEGIN
 90
        2
 91
        1
300
_HEADER
309
CELLSTYLE_END
300
CELLSTYLE
  1
TABLEFORMAT_BEGIN
 90
        5
170
     1
 91
        0
 92
        0
 62
   257
 93
        1
300
CONTENTFORMAT
  1
CONTENTFORMAT_BEGIN
 90
        0
 91
        0
 92
        4
 93
        0
300

 40
0.0
140
1.0
 94
        2
 62
     0
340
F
144
4.5
309
CONTENTFORMAT_END
171
     1
301
MARGIN
  1
CELLMARGIN_BEGIN
 40
1.5
 40
1.5
 40
1.5
 40
1.5
 40
0.18
 40
0.18
309
CELLMARGIN_END
 94
        6
 95
        1
302
GRIDFORMAT
  1
GRIDFORMAT_BEGIN
 90
        0
 91
        1
 62
     0
 92
       -2
340
0
 93
        0
 40
0.045
309
GRIDFORMAT_END
 95
        2
302
GRIDFORMAT
  1
GRIDFORMAT_BEGIN
 90
        0
 91
        1
 62
     0
 92
       -2
340
0
 93
        0
 40
0.045
309
GRIDFORMAT_END
 95
        4
302
GRIDFORMAT
  1
GRIDFORMAT_BEGIN
 90
        0
 91
        1
 62
     0
 92
       -2
340
0
 93
        0
 40
0.045
309
GRIDFORMAT_END
 95
        8
302
GRIDFORMAT
  1
GRIDFORMAT_BEGIN
 90
        0
 91
        1
 62
     0
 92
       -2
340
0
 93
        0
 40
0.045
309
GRIDFORMAT_END
 95
       16
302
GRIDFORMAT
  1
GRIDFORMAT_BEGIN
 90
        0
 91
        1
 62
     0
 92
       -2
340
0
 93
        0
 40
0.045
309
GRIDFORMAT_END
 95
       32
302
GRIDFORMAT
  1
GRIDFORMAT_BEGIN
 90
        0
 91
        1
 62
     0
 92
       -2
340
0
 93
        0
 40
0.045
309
GRIDFORMAT_END
309
TABLEFORMAT_END
  1
CELLSTYLE_BEGIN
 90
        3
 91
        2
300
_DATA
309
CELLSTYLE_END
  0
ENDSEC
  0
SECTION
  2
ACDSDATA
 70
     2
 71
     8
  0
ACDSSCHEMA
 90
        0
  1
AcDb_Thumbnail_Schema
  2
AcDbDs::ID
280
    10
 91
        8
  2
Thumbnail_Data
280
    15
 91
        0
101
ACDSRECORD
 95
        0
 90
        1
  2
AcDbDs::TreatedAsObjectData
280
     1
291
     1
101
ACDSRECORD
 95
        0
 90
        2
  2
AcDbDs::Legacy
280
     1
291
     1
101
ACDSRECORD
  1
AcDbDs::ID
 90
        3
  2
AcDs:Indexable
280
     1
291
     1
101
ACDSRECORD
  1
AcDbDs::ID
 90
        4
  2
AcDbDs::HandleAttribute
280
     7
282
     1
  0
ACDSSCHEMA
 90
        1
  1
AcDbDs::TreatedAsObjectDataSchema
  2
AcDbDs::TreatedAsObjectData
280
     1
 91
        0
  0
ACDSSCHEMA
 90
        2
  1
AcDbDs::LegacySchema
  2
AcDbDs::Legacy
280
     1
 91
        0
  0
ACDSSCHEMA
 90
        3
  1
AcDbDs::IndexedPropertySchema
  2
AcDs:Indexable
280
     1
 91
        0
  0
ACDSSCHEMA
 90
        4
  1
AcDbDs::HandleAttributeSchema
  2
AcDbDs::HandleAttribute
280
     7
 91
        1
284
     1
  0
ACDSRECORD
 90
        0
  2
AcDbDs::ID
280
    10
320
4802
  2
Thumbnail_Data
280
    15
 94
     1628
310
89504E470D0A1A0A0000000D49484452000001000000006B0803000000AFE8AC7900000300504C5445000000FFFFFF0000000000000000000000000000000000000000000000000000000000330000660000990000CC0000FF0033000033330033660033990033CC0033FF0066000066330066660066990066CC0066FF0099
310
000099330099660099990099CC0099FF00CC0000CC3300CC6600CC9900CCCC00CCFF00FF0000FF3300FF6600FF9900FFCC00FFFF3300003300333300663300993300CC3300FF3333003333333333663333993333CC3333FF3366003366333366663366993366CC3366FF3399003399333399663399993399CC3399FF33CC00
310
33CC3333CC6633CC9933CCCC33CCFF33FF0033FF3333FF6633FF9933FFCC33FFFF6600006600336600666600996600CC6600FF6633006633336633666633996633CC6633FF6666006666336666666666996666CC6666FF6699006699336699666699996699CC6699FF66CC0066CC3366CC6666CC9966CCCC66CCFF66FF0066
310
FF3366FF6666FF9966FFCC66FFFF9900009900339900669900999900CC9900FF9933009933339933669933999933CC9933FF9966009966339966669966999966CC9966FF9999009999339999669999999999CC9999FF99CC0099CC3399CC6699CC9999CCCC99CCFF99FF0099FF3399FF6699FF9999FFCC99FFFFCC0000CC00
310
33CC0066CC0099CC00CCCC00FFCC3300CC3333CC3366CC3399CC33CCCC33FFCC6600CC6633CC6666CC6699CC66CCCC66FFCC9900CC9933CC9966CC9999CC99CCCC99FFCCCC00CCCC33CCCC66CCCC99CCCCCCCCCCFFCCFF00CCFF33CCFF66CCFF99CCFFCCCCFFFFFF0000FF0033FF0066FF0099FF00CCFF00FFFF3300FF3333
310
FF3366FF3399FF33CCFF33FFFF6600FF6633FF6666FF6699FF66CCFF66FFFF9900FF9933FF9966FF9999FF99CCFF99FFFFCC00FFCC33FFCC66FFCC99FFCCCCFFCCFFFFFF00FFFF33FFFF66FFFF99FFFFCCFFFFFF0000000D0D0D1A1A1A2828283535354343435050505D5D5D6B6B6B787878868686939393A1A1A1AEAEAEBB
310
BBBBC9C9C9D6D6D6E4E4E4F1F1F1FFFFFF0000000000000000000000000000000000000000000000000000000000003AE5ACE9000003174944415478DAED9C5B72C3200C45B503B6A11FEFFFAF2BD1621ACCC3BCDC9814661449B7D3BAED741A38BE0841B0000E3C754010559791081C081222C0CF7945FF6DEE3991160017
310
899300151D5501A0445103B833815800C10E54F75507807CAB5B0043130803409DDAEE6A1A0263C72B0700BD279401E8E2823E00B509C40541F7FA0872652C747427690E70BD801CC40BC5117099409E037A9DB6382F2E01380E3A8E43640C708D0B9A211018F8DEBFBEF80120CF016F00C449C0DF7F12E8003FD40B00BE83
310
178452A7050406C1D201D7AC1F53E270A17A4214380D5E81308DFA7071F9A72349E23408CE4DFD3E78467216F056042693C964BA9D589F49C9F6C97FFFEC2B01C4DBFBF75D960EE0ADCD450380B892F88621F04926E884C580C9B5008028009FDC7F690E981EE3B2008403221359CA3480F00AC81B40D3BE9500D000F00690
310
5AB80D005C0790D806C1DD00C000F006B07F0880E620186E3F6B0000BB6701009B06B902C0B27D390B5C03002B65BB310400B97D7115BF1A800F838C01403A329C8F4B2F0690FE355300902C80C901B41600409C0690A9037E1283F50022E19009204707E48661F9C4C04200F9D6379301AB3CA06C1EAD0780DC01642D9F06
310
FBC9902F00CD1B22DB53E1D172D01CC02A08C244EB3E02F06CDB80C766C89ED5A001600D606A807E18039803501C0429E640CA01287E6B8C66DB23EDCDD1B8FA550C60F6D41AD9F90003201180F62140CF1B2414805E07843C0837C6802F382243E3059B920D91E2824F1282E94DD1F275986F8AE293764D38003B0720DBE5
310
30F9B66D00804508409E004E06DEFA4D21A51500AAF704EB6322BCCE07BCFADF55925A03006FDE17E103E07C20F6F5D9D4125B330B147DC666FB99DD09917D00AA73120C01944DDD3204C6E910BBD520EE0A82D52B705E0EEF9A066F7E64B91FB025111AE59DCC005CD5E476A4C2C390C307C0FCF3ACB62566000CC0CCA092
310
F7F4B8FC5A62564D6E544D4E930306D5E45229258DC5D4A43BA029A7D747F1B29A9CD021004D31B5713539C141105251BD0C00EA626AE283E06D3539770643AB2637F28CE42CE09F35444C2693C9643299BE43BF795052E79CCE76140000000049454E44AE426082
  0
ENDSEC
  0
EOF
