  0
SECTION
  2
HEADER
  9
$ACADVER
  1
AC1032
  9
$ACADMAINTVER
 90
      233
  9
$DWGCODEPAGE
  3
ANSI_932
  9
$LASTSAVEDBY
  1
taketo.kashima
  9
$REQUIREDVERSIONS
160
                 0
  9
$INSBASE
 10
268.4340021441085
 20
176.78614296069
 30
0.0
  9
$EXTMIN
 10
1027.637882706707
 20
-741.3594961852504
 30
0.0
  9
$EXTMAX
 10
1822.224603524552
 20
-444.3594961852504
 30
0.0
  9
$LIMMIN
 10
0.0
 20
0.0
  9
$LIMMAX
 10
554.0
 20
395.0
  9
$ORTHOMODE
 70
     1
  9
$REGENMODE
 70
     1
  9
$FILLMODE
 70
     1
  9
$QTEXTMODE
 70
     0
  9
$MIRRTEXT
 70
     1
  9
$LTSCALE
 40
2.0
  9
$ATTMODE
 70
     1
  9
$TEXTSIZE
 40
10.0
  9
$TRACEWID
 40
0.2
  9
$TEXTSTYLE
  7
KANJI
  9
$CLAYER
  8
C6
  9
$CELTYPE
  6
BYLAYER
  9
$CECOLOR
 62
   256
  9
$CELTSCALE
 40
2.0
  9
$DISPSILH
 70
     0
  9
$DIMSCALE
 40
1.0
  9
$DIMASZ
 40
1.0
  9
$DIMEXO
 40
1.0
  9
$DIMDLI
 40
6.0
  9
$DIMRND
 40
0.0
  9
$DIMDLE
 40
0.0
  9
$DIMEXE
 40
1.0
  9
$DIMTP
 40
0.0
  9
$DIMTM
 40
0.0
  9
$DIMTXT
 40
2.5
  9
$DIMCEN
 40
0.0
  9
$DIMTSZ
 40
0.0
  9
$DIMTOL
 70
     0
  9
$DIMLIM
 70
     0
  9
$DIMTIH
 70
     0
  9
$DIMTOH
 70
     0
  9
$DIMSE1
 70
     0
  9
$DIMSE2
 70
     0
  9
$DIMTAD
 70
     1
  9
$DIMZIN
 70
     8
  9
$DIMBLK
  1

  9
$DIMASO
 70
     1
  9
$DIMSHO
 70
     1
  9
$DIMPOST
  1

  9
$DIMAPOST
  1

  9
$DIMALT
 70
     0
  9
$DIMALTD
 70
     2
  9
$DIMALTF
 40
25.4
  9
$DIMLFAC
 40
1.0
  9
$DIMTOFL
 70
     1
  9
$DIMTVP
 40
0.0
  9
$DIMTIX
 70
     0
  9
$DIMSOXD
 70
     0
  9
$DIMSAH
 70
     1
  9
$DIMBLK1
  1
Y2
  9
$DIMBLK2
  1
Y2
  9
$DIMSTYLE
  2
STANDARD
  9
$DIMCLRD
 70
     0
  9
$DIMCLRE
 70
     0
  9
$DIMCLRT
 70
     0
  9
$DIMTFAC
 40
1.0
  9
$DIMGAP
 40
0.5
  9
$DIMJUST
 70
     0
  9
$DIMSD1
 70
     0
  9
$DIMSD2
 70
     0
  9
$DIMTOLJ
 70
     1
  9
$DIMTZIN
 70
     8
  9
$DIMALTZ
 70
     8
  9
$DIMALTTZ
 70
     8
  9
$DIMUPT
 70
     0
  9
$DIMDEC
 70
     4
  9
$DIMTDEC
 70
     4
  9
$DIMALTU
 70
     2
  9
$DIMALTTD
 70
     2
  9
$DIMTXSTY
  7
KANJI
  9
$DIMAUNIT
 70
     0
  9
$DIMADEC
 70
     0
  9
$DIMALTRND
 40
0.0
  9
$DIMAZIN
 70
     0
  9
$DIMDSEP
 70
    46
  9
$DIMATFIT
 70
     3
  9
$DIMFRAC
 70
     0
  9
$DIMLDRBLK
  1
Y2
  9
$DIMLUNIT
 70
     2
  9
$DIMLWD
 70
    -2
  9
$DIMLWE
 70
    -2
  9
$DIMTMOVE
 70
     0
  9
$DIMFXL
 40
1.0
  9
$DIMFXLON
 70
     0
  9
$DIMJOGANG
 40
0.7853981633974483
  9
$DIMTFILL
 70
     0
  9
$DIMTFILLCLR
 70
     0
  9
$DIMARCSYM
 70
     0
  9
$DIMLTYPE
  6

  9
$DIMLTEX1
  6

  9
$DIMLTEX2
  6

  9
$DIMTXTDIRECTION
 70
     0
  9
$LUNITS
 70
     2
  9
$LUPREC
 70
     4
  9
$SKETCHINC
 40
0.1
  9
$FILLETRAD
 40
0.0
  9
$AUNITS
 70
     0
  9
$AUPREC
 70
     0
  9
$MENU
  1
tcad-s
  9
$ELEVATION
 40
0.0
  9
$PELEVATION
 40
0.0
  9
$THICKNESS
 40
0.0
  9
$LIMCHECK
 70
     0
  9
$CHAMFERA
 40
0.0
  9
$CHAMFERB
 40
0.0
  9
$CHAMFERC
 40
0.0
  9
$CHAMFERD
 40
0.0
  9
$SKPOLY
 70
     0
  9
$TDCREATE
 40
2451522.584085648
  9
$TDUCREATE
 40
2451522.209091400
  9
$TDUPDATE
 40
2460336.458541667
  9
$TDUUPDATE
 40
2460336.083541667
  9
$TDINDWG
 40
0.7973584838
  9
$TDUSRTIMER
 40
0.7973584838
  9
$USRTIMER
 70
     1
  9
$ANGBASE
 50
0.0
  9
$ANGDIR
 70
     0
  9
$PDMODE
 70
     0
  9
$PDSIZE
 40
2.399999999999999
  9
$PLINEWID
 40
0.0
  9
$SPLFRAME
 70
     0
  9
$SPLINETYPE
 70
     6
  9
$SPLINESEGS
 70
     8
  9
$HANDSEED
  5
E250
  9
$SURFTAB1
 70
     6
  9
$SURFTAB2
 70
     6
  9
$SURFTYPE
 70
     6
  9
$SURFU
 70
     6
  9
$SURFV
 70
     6
  9
$UCSBASE
  2

  9
$UCSNAME
  2

  9
$UCSORG
 10
0.0
 20
0.0
 30
0.0
  9
$UCSXDIR
 10
1.0
 20
0.0
 30
0.0
  9
$UCSYDIR
 10
0.0
 20
1.0
 30
0.0
  9
$UCSORTHOREF
  2

  9
$UCSORTHOVIEW
 70
     0
  9
$UCSORGTOP
 10
0.0
 20
0.0
 30
0.0
  9
$UCSORGBOTTOM
 10
0.0
 20
0.0
 30
0.0
  9
$UCSORGLEFT
 10
0.0
 20
0.0
 30
0.0
  9
$UCSORGRIGHT
 10
0.0
 20
0.0
 30
0.0
  9
$UCSORGFRONT
 10
0.0
 20
0.0
 30
0.0
  9
$UCSORGBACK
 10
0.0
 20
0.0
 30
0.0
  9
$PUCSBASE
  2

  9
$PUCSNAME
  2

  9
$PUCSORG
 10
0.0
 20
0.0
 30
0.0
  9
$PUCSXDIR
 10
1.0
 20
0.0
 30
0.0
  9
$PUCSYDIR
 10
0.0
 20
1.0
 30
0.0
  9
$PUCSORTHOREF
  2

  9
$PUCSORTHOVIEW
 70
     0
  9
$PUCSORGTOP
 10
0.0
 20
0.0
 30
0.0
  9
$PUCSORGBOTTOM
 10
0.0
 20
0.0
 30
0.0
  9
$PUCSORGLEFT
 10
0.0
 20
0.0
 30
0.0
  9
$PUCSORGRIGHT
 10
0.0
 20
0.0
 30
0.0
  9
$PUCSORGFRONT
 10
0.0
 20
0.0
 30
0.0
  9
$PUCSORGBACK
 10
0.0
 20
0.0
 30
0.0
  9
$USERI1
 70
     0
  9
$USERI2
 70
     0
  9
$USERI3
 70
     0
  9
$USERI4
 70
     0
  9
$USERI5
 70
     0
  9
$USERR1
 40
0.0
  9
$USERR2
 40
0.0
  9
$USERR3
 40
0.0
  9
$USERR4
 40
0.0
  9
$USERR5
 40
0.0
  9
$WORLDVIEW
 70
     1
  9
$SHADEDGE
 70
     3
  9
$SHADEDIF
 70
    70
  9
$TILEMODE
 70
     1
  9
$MAXACTVP
 70
    16
  9
$PINSBASE
 10
0.0
 20
0.0
 30
0.0
  9
$PLIMCHECK
 70
     0
  9
$PEXTMIN
 10
1.000000000000000E+20
 20
1.000000000000000E+20
 30
1.000000000000000E+20
  9
$PEXTMAX
 10
-1.000000000000000E+20
 20
-1.000000000000000E+20
 30
-1.000000000000000E+20
  9
$PLIMMIN
 10
0.0
 20
0.0
  9
$PLIMMAX
 10
12.0
 20
9.0
  9
$UNITMODE
 70
     0
  9
$VISRETAIN
 70
     0
  9
$PLINEGEN
 70
     0
  9
$PSLTSCALE
 70
     0
  9
$TREEDEPTH
 70
  3020
  9
$CMLSTYLE
  2
STANDARD
  9
$CMLJUST
 70
     0
  9
$CMLSCALE
 40
1.0
  9
$PROXYGRAPHICS
 70
     1
  9
$MEASUREMENT
 70
     1
  9
$CELWEIGHT
370
    -1
  9
$ENDCAPS
280
     0
  9
$JOINSTYLE
280
     0
  9
$LWDISPLAY
290
     0
  9
$INSUNITS
 70
     0
  9
$HYPERLINKBASE
  1

  9
$STYLESHEET
  1
INABA-CAD-Canon.ctb
  9
$XEDIT
290
     1
  9
$CEPSNTYPE
380
     0
  9
$PSTYLEMODE
290
     1
  9
$FINGERPRINTGUID
  2
{C6D00B79-D2C3-44A6-A29E-CB56337F03DA}
  9
$VERSIONGUID
  2
{E6CD9B94-DAC8-2A43-970D-A23F0C20C4ED}
  9
$EXTNAMES
290
     1
  9
$PSVPSCALE
 40
0.0
  9
$OLESTARTUP
290
     0
  9
$SORTENTS
280
   127
  9
$INDEXCTL
280
     0
  9
$HIDETEXT
280
     0
  9
$XCLIPFRAME
280
     2
  9
$HALOGAP
280
     0
  9
$OBSCOLOR
 70
   257
  9
$OBSLTYPE
280
     0
  9
$INTERSECTIONDISPLAY
280
     0
  9
$INTERSECTIONCOLOR
 70
   257
  9
$DIMASSOC
280
     1
  9
$PROJECTNAME
  1

  9
$CAMERADISPLAY
290
     0
  9
$LENSLENGTH
 40
50.0
  9
$CAMERAHEIGHT
 40
0.0
  9
$STEPSPERSEC
 40
2.0
  9
$STEPSIZE
 40
6.0
  9
$3DDWFPREC
 40
2.0
  9
$PSOLWIDTH
 40
0.25
  9
$PSOLHEIGHT
 40
4.0
  9
$LOFTANG1
 40
1.570796326794896
  9
$LOFTANG2
 40
1.570796326794896
  9
$LOFTMAG1
 40
0.0
  9
$LOFTMAG2
 40
0.0
  9
$LOFTPARAM
 70
     7
  9
$LOFTNORMALS
280
     1
  9
$LATITUDE
 40
37.795
  9
$LONGITUDE
 40
-122.394
  9
$NORTHDIRECTION
 40
0.0
  9
$TIMEZONE
 70
 -8000
  9
$LIGHTGLYPHDISPLAY
280
     1
  9
$TILEMODELIGHTSYNCH
280
     1
  9
$CMATERIAL
347
6638
  9
$SOLIDHIST
280
     0
  9
$SHOWHIST
280
     1
  9
$DWFFRAME
280
     2
  9
$DGNFRAME
280
     0
  9
$REALWORLDSCALE
290
     1
  9
$INTERFERECOLOR
 62
     1
  9
$INTERFEREOBJVS
345
6645
  9
$INTERFEREVPVS
346
E049
  9
$CSHADOW
280
     0
  9
$SHADOWPLANELOCATION
 40
0.0
  0
ENDSEC
  0
SECTION
  2
CLASSES
  0
CLASS
  1
DICTIONARYVAR
  2
AcDbDictionaryVar
  3
ObjectDBX Classes
 90
        0
 91
       42
280
     0
281
     0
  0
CLASS
  1
ACDBDICTIONARYWDFLT
  2
AcDbDictionaryWithDefault
  3
ObjectDBX Classes
 90
        0
 91
        1
280
     0
281
     0
  0
CLASS
  1
TABLESTYLE
  2
AcDbTableStyle
  3
ObjectDBX Classes
 90
     4095
 91
        1
280
     0
281
     0
  0
CLASS
  1
MATERIAL
  2
AcDbMaterial
  3
ObjectDBX Classes
 90
     1153
 91
        3
280
     0
281
     0
  0
CLASS
  1
VISUALSTYLE
  2
AcDbVisualStyle
  3
ObjectDBX Classes
 90
     4095
 91
       26
280
     0
281
     0
  0
CLASS
  1
SORTENTSTABLE
  2
AcDbSortentsTable
  3
ObjectDBX Classes
 90
        0
 91
        1
280
     0
281
     0
  0
CLASS
  1
DIMASSOC
  2
AcDbDimAssoc
  3
"AcDbDimAssoc|Product Desc:     AcDim ARX App For Dimension|Company:          Autodesk, Inc.|WEB Address:      www.autodesk.com"
 90
        0
 91
        0
280
     0
281
     0
  0
CLASS
  1
SCALE
  2
AcDbScale
  3
ObjectDBX Classes
 90
     1153
 91
       17
280
     0
281
     0
  0
CLASS
  1
MLEADERSTYLE
  2
AcDbMLeaderStyle
  3
ACDB_MLEADERSTYLE_CLASS
 90
     4095
 91
        1
280
     0
281
     0
  0
CLASS
  1
ACDBSECTIONVIEWSTYLE
  2
AcDbSectionViewStyle
  3
ObjectDBX Classes
 90
     1025
 91
        1
280
     0
281
     0
  0
CLASS
  1
ACDBDETAILVIEWSTYLE
  2
AcDbDetailViewStyle
  3
ObjectDBX Classes
 90
     1025
 91
        1
280
     0
281
     0
  0
CLASS
  1
CELLSTYLEMAP
  2
AcDbCellStyleMap
  3
ObjectDBX Classes
 90
     1152
 91
        1
280
     0
281
     0
  0
ENDSEC
  0
SECTION
  2
TABLES
  0
TABLE
  2
VPORT
  5
8
102
{ACAD_XDICTIONARY
360
6B33
102
}
330
0
100
AcDbSymbolTable
 70
     1
  0
VPORT
  5
E041
330
8
100
AcDbSymbolTableRecord
100
AcDbViewportTableRecord
  2
*Active
 70
     0
 10
0.0
 20
0.0
 11
1.0
 21
1.0
 12
1716.072548580206
 22
-536.2032937259689
 13
0.0
 23
0.0
 14
1.0
 24
1.0
 15
0.0
 25
0.0
 16
0.0
 26
0.0
 36
1.0
 17
0.0
 27
0.0
 37
0.0
 40
157.0000547488766
 41
2.574754901960784
 42
50.0
 43
0.0
 44
0.0
 50
0.0
 51
0.0
 71
     0
 72
  1000
 73
     1
 74
     1
 75
     0
 76
     0
 77
     0
 78
     1
281
     0
 65
     1
110
0.0
120
0.0
130
0.0
111
1.0
121
0.0
131
0.0
112
0.0
122
1.0
132
0.0
 79
     0
146
0.0
348
6641
 60
     3
 61
     5
292
     1
282
     1
141
0.0
142
0.0
 63
   250
421
  3355443
1001
ACAD_NAV_VCDISPLAY
1070
     3
  0
ENDTAB
  0
TABLE
  2
LTYPE
  5
5
330
0
100
AcDbSymbolTable
 70
     5
  0
LTYPE
  5
11
330
5
100
AcDbSymbolTableRecord
100
AcDbLinetypeTableRecord
  2
BYBLOCK
 70
     0
  3

 72
    65
 73
     0
 40
0.0
  0
LTYPE
  5
12
330
5
100
AcDbSymbolTableRecord
100
AcDbLinetypeTableRecord
  2
BYLAYER
 70
     0
  3

 72
    65
 73
     0
 40
0.0
  0
LTYPE
  5
13
330
5
100
AcDbSymbolTableRecord
100
AcDbLinetypeTableRecord
  2
CONTINUOUS
 70
     0
  3
Solid line
 72
    65
 73
     0
 40
0.0
  0
LTYPE
  5
3C
330
5
100
AcDbSymbolTableRecord
100
AcDbLinetypeTableRecord
  2
CENTER
 70
     0
  3
____ _ ____ _ ____ _ ____ _ ____ _ ____ _ ____ 
 72
    65
 73
     4
 40
2.0
 49
1.25
 74
     0
 49
-0.25
 74
     0
 49
0.25
 74
     0
 49
-0.25
 74
     0
  0
LTYPE
  5
C910
330
5
100
AcDbSymbolTableRecord
100
AcDbLinetypeTableRecord
  2
PHANTOM
 70
     0
  3
Phantom ______  __  __  ______  __  __  ______
 72
    65
 73
     6
 40
63.5
 49
31.75
 74
     0
 49
-6.349999999999999
 74
     0
 49
6.349999999999999
 74
     0
 49
-6.349999999999999
 74
     0
 49
6.349999999999999
 74
     0
 49
-6.349999999999999
 74
     0
  0
ENDTAB
  0
TABLE
  2
LAYER
  5
2
102
{ACAD_XDICTIONARY
360
66E8
102
}
330
0
100
AcDbSymbolTable
 70
     8
  0
LAYER
  5
E
102
{ACAD_XDICTIONARY
360
E072
102
}
330
2
100
AcDbSymbolTableRecord
100
AcDbLayerTableRecord
  2
0
 70
     0
 62
     7
  6
CONTINUOUS
370
    -3
390
47FF
347
663A
348
0
  0
LAYER
  5
44
102
{ACAD_XDICTIONARY
360
E074
102
}
330
2
100
AcDbSymbolTableRecord
100
AcDbLayerTableRecord
  2
C5
 70
     0
 62
     4
  6
CONTINUOUS
370
    -3
390
47FF
347
663A
348
0
  0
LAYER
  5
45
102
{ACAD_XDICTIONARY
360
E076
102
}
330
2
100
AcDbSymbolTableRecord
100
AcDbLayerTableRecord
  2
C6
 70
     0
 62
     2
  6
CONTINUOUS
370
    -3
390
47FF
347
663A
348
0
  0
LAYER
  5
4C
102
{ACAD_XDICTIONARY
360
E078
102
}
330
2
100
AcDbSymbolTableRecord
100
AcDbLayerTableRecord
  2
WAKU
 70
     0
 62
     5
  6
CONTINUOUS
370
    -3
390
47FF
347
663A
348
0
  0
LAYER
  5
E1F
330
2
100
AcDbSymbolTableRecord
100
AcDbLayerTableRecord
  2
DEFPOINTS
 70
     0
 62
     7
  6
CONTINUOUS
290
     0
370
    -3
390
47FF
347
663A
348
0
  0
LAYER
  5
7364
102
{ACAD_XDICTIONARY
360
7365
102
}
330
2
100
AcDbSymbolTableRecord
100
AcDbLayerTableRecord
  2
1外形線
 70
     0
 62
     3
  6
CONTINUOUS
370
    -3
390
47FF
347
663A
348
0
  0
LAYER
  5
C911
102
{ACAD_XDICTIONARY
360
C912
102
}
330
2
100
AcDbSymbolTableRecord
100
AcDbLayerTableRecord
  2
2寸法線
 70
     0
 62
     2
  6
CONTINUOUS
370
    -3
390
47FF
347
663A
348
0
  0
LAYER
  5
C914
102
{ACAD_XDICTIONARY
360
C915
102
}
330
2
100
AcDbSymbolTableRecord
100
AcDbLayerTableRecord
  2
6図枠
 70
     0
 62
     7
  6
CONTINUOUS
370
    -3
390
47FF
347
663A
348
0
  0
ENDTAB
  0
TABLE
  2
STYLE
  5
3
330
0
100
AcDbSymbolTable
 70
     3
  0
STYLE
  5
F
330
3
100
AcDbSymbolTableRecord
100
AcDbTextStyleTableRecord
  2
STANDARD
 70
     0
 40
0.0
 41
1.0
 50
0.0
 71
     0
 42
0.2
  3
txt
  4

  0
STYLE
  5
3B
330
3
100
AcDbSymbolTableRecord
100
AcDbTextStyleTableRecord
  2
KANJI
 70
     0
 40
0.0
 41
1.0
 50
0.0
 71
     0
 42
10.0
  3
simplex
  4
bigfont
  0
STYLE
  5
3D68
330
3
100
AcDbSymbolTableRecord
100
AcDbTextStyleTableRecord
  2
ｺﾞｼｯｸ
 70
     0
 40
0.0
 41
1.0
 50
0.0
 71
     0
 42
2.5
  3
MS PGothic.ttf
  4

1001
ACAD
1000
MS PGothic
1071
    32818
  0
ENDTAB
  0
TABLE
  2
VIEW
  5
6
330
0
100
AcDbSymbolTable
 70
     2
  0
ENDTAB
  0
TABLE
  2
UCS
  5
7
330
0
100
AcDbSymbolTable
 70
     0
  0
ENDTAB
  0
TABLE
  2
APPID
  5
9
330
0
100
AcDbSymbolTable
 70
    12
  0
APPID
  5
10
330
9
100
AcDbSymbolTableRecord
100
AcDbRegAppTableRecord
  2
ACAD
 70
     0
  0
APPID
  5
66E7
330
9
100
AcDbSymbolTableRecord
100
AcDbRegAppTableRecord
  2
ACAD_PSEXT
 70
     0
  0
APPID
  5
7372
330
9
100
AcDbSymbolTableRecord
100
AcDbRegAppTableRecord
  2
AcAecLayerStandard
 70
     0
  0
APPID
  5
7373
330
9
100
AcDbSymbolTableRecord
100
AcDbRegAppTableRecord
  2
ACAD_DSTYLE_DIMRADIAL_EXTENSION
 70
     0
  0
APPID
  5
7374
330
9
100
AcDbSymbolTableRecord
100
AcDbRegAppTableRecord
  2
ACAD_DSTYLE_DIMJAG
 70
     0
  0
APPID
  5
7375
330
9
100
AcDbSymbolTableRecord
100
AcDbRegAppTableRecord
  2
ACAD_DSTYLE_DIMBREAK
 70
     0
  0
APPID
  5
7376
330
9
100
AcDbSymbolTableRecord
100
AcDbRegAppTableRecord
  2
ACAD_DSTYLE_DIMTALN
 70
     0
  0
APPID
  5
7377
330
9
100
AcDbSymbolTableRecord
100
AcDbRegAppTableRecord
  2
ACAD_DSTYLE_DIM_LINETYPE
 70
     0
  0
APPID
  5
7378
330
9
100
AcDbSymbolTableRecord
100
AcDbRegAppTableRecord
  2
ACAD_DSTYLE_DIM_EXT1_LINETYPE
 70
     0
  0
APPID
  5
7379
330
9
100
AcDbSymbolTableRecord
100
AcDbRegAppTableRecord
  2
ACAD_DSTYLE_DIM_EXT2_LINETYPE
 70
     0
  0
APPID
  5
E07A
330
9
100
AcDbSymbolTableRecord
100
AcDbRegAppTableRecord
  2
ACAD_NAV_VCDISPLAY
 70
     0
  0
APPID
  5
E21B
330
9
100
AcDbSymbolTableRecord
100
AcDbRegAppTableRecord
  2
ACAD_EXEMPT_FROM_CAD_STANDARDS
 70
     0
  0
ENDTAB
  0
TABLE
  2
DIMSTYLE
  5
A
330
0
100
AcDbSymbolTable
 70
     2
100
AcDbDimStyleTable
 71
     1
340
E11
  0
DIMSTYLE
105
E11
330
A
100
AcDbSymbolTableRecord
100
AcDbDimStyleTableRecord
  2
STANDARD
 70
     0
 41
1.0
 42
1.0
 43
6.0
 44
1.0
 73
     0
 74
     0
 77
     1
 78
     8
140
2.5
141
0.0
147
0.5
172
     1
173
     1
284
     8
285
     8
286
     8
340
3B
341
39F6
343
39F6
344
39F6
  0
ENDTAB
  0
TABLE
  2
BLOCK_RECORD
  5
1
330
0
100
AcDbSymbolTable
 70
    10
  0
BLOCK_RECORD
  5
17
102
{ACAD_XDICTIONARY
360
58D0
102
}
330
1
100
AcDbSymbolTableRecord
100
AcDbBlockTableRecord
  2
*MODEL_SPACE
340
4802
 70
     0
280
     1
281
     0
  0
BLOCK_RECORD
  5
14
102
{ACAD_XDICTIONARY
360
58CE
102
}
330
1
100
AcDbSymbolTableRecord
100
AcDbBlockTableRecord
  2
*PAPER_SPACE
340
4803
 70
     0
280
     1
281
     0
  0
BLOCK_RECORD
  5
39F6
330
1
100
AcDbSymbolTableRecord
100
AcDbBlockTableRecord
  2
Y2
340
0
102
{BLKREFS
331
E203
331
E204
331
E20C
331
E20D
331
E215
331
E216
331
E018
331
E019
331
E021
331
E022
331
E02A
331
E02B
102
}
 70
     0
280
     1
281
     0
  0
BLOCK_RECORD
  5
3C55
330
1
100
AcDbSymbolTableRecord
100
AcDbBlockTableRecord
  2
A$C23AC5EC5
340
0
 70
     0
280
     1
281
     0
  0
BLOCK_RECORD
  5
3C61
330
1
100
AcDbSymbolTableRecord
100
AcDbBlockTableRecord
  2
A$C128E6753
340
0
 70
     0
280
     1
281
     0
  0
BLOCK_RECORD
  5
D6C9
330
1
100
AcDbSymbolTableRecord
100
AcDbBlockTableRecord
  2
*D3
340
0
 70
     0
280
     1
281
     0
  0
BLOCK_RECORD
  5
DFB9
330
1
100
AcDbSymbolTableRecord
100
AcDbBlockTableRecord
  2
*D4
340
0
 70
     0
280
     1
281
     0
  0
BLOCK_RECORD
  5
DFDC
330
1
100
AcDbSymbolTableRecord
100
AcDbBlockTableRecord
  2
*D5
340
0
 70
     0
280
     1
281
     0
  0
BLOCK_RECORD
  5
E1DC
330
1
100
AcDbSymbolTableRecord
100
AcDbBlockTableRecord
  2
*D6
340
0
 70
     0
280
     1
281
     0
  0
BLOCK_RECORD
  5
E1E8
330
1
100
AcDbSymbolTableRecord
100
AcDbBlockTableRecord
  2
*D7
340
0
 70
     0
280
     1
281
     0
  0
BLOCK_RECORD
  5
E1F4
330
1
100
AcDbSymbolTableRecord
100
AcDbBlockTableRecord
  2
*D8
340
0
 70
     0
280
     1
281
     0
  0
ENDTAB
  0
ENDSEC
  0
SECTION
  2
BLOCKS
  0
BLOCK
  5
4F
330
17
100
AcDbEntity
  8
0
100
AcDbBlockBegin
  2
*MODEL_SPACE
 70
     0
 10
0.0
 20
0.0
 30
0.0
  3
*MODEL_SPACE
  1

  0
ENDBLK
  5
50
330
17
100
AcDbEntity
  8
0
100
AcDbBlockEnd
  0
BLOCK
  5
4D
330
14
100
AcDbEntity
 67
     1
  8
0
100
AcDbBlockBegin
  2
*PAPER_SPACE
 70
     0
 10
0.0
 20
0.0
 30
0.0
  3
*PAPER_SPACE
  1

  0
ENDBLK
  5
4E
330
14
100
AcDbEntity
 67
     1
  8
0
100
AcDbBlockEnd
  0
BLOCK
  5
39F7
330
39F6
100
AcDbEntity
  8
0
 48
2.0
100
AcDbBlockBegin
  2
Y2
 70
     0
 10
0.0
 20
0.0
 30
0.0
  3
Y2
  1

  0
SOLID
  5
39F8
330
39F6
100
AcDbEntity
  8
0
  6
ByBlock
 62
     0
100
AcDbTrace
 10
-1.811110924292108
 20
0.485285709567151
 30
0.0
 11
-1.811110924292108
 21
-0.4852857095673784
 31
0.0
 12
-0.0000000000000568
 22
-0.0000000000000142
 32
0.0
 13
-0.0000000000000568
 23
-0.0000000000000142
 33
0.0
  0
ENDBLK
  5
39F9
330
39F6
100
AcDbEntity
  8
0
 48
2.0
100
AcDbBlockEnd
  0
BLOCK
  5
3C5F
330
3C55
100
AcDbEntity
  8
0
 48
2.0
100
AcDbBlockBegin
  2
A$C23AC5EC5
 70
     0
 10
0.0
 20
0.0
 30
0.0
  3
A$C23AC5EC5
  1

  0
LINE
  5
3C56
330
3C55
100
AcDbEntity
  8
WAKU
  6
CENTER
 62
     2
100
AcDbLine
 10
3.99999933591232
 20
1.99999997127486
 30
0.0
 11
-0.0000006640876791
 21
1.99999997127486
 31
0.0
  0
LINE
  5
3C57
330
3C55
100
AcDbEntity
  8
WAKU
  6
CENTER
 62
     2
100
AcDbLine
 10
1.99999933591232
 20
3.99999997127486
 30
0.0
 11
1.99999933591232
 21
-0.0000000287251396
 31
0.0
  0
CIRCLE
  5
3C58
330
3C55
100
AcDbEntity
  8
WAKU
 62
     2
 48
2.0
100
AcDbCircle
 10
1.99999933591232
 20
1.99999997127486
 30
0.0
 40
1.5
  0
LINE
  5
3C59
330
3C55
100
AcDbEntity
  8
WAKU
  6
CENTER
 62
     2
100
AcDbLine
 10
10.75363507944882
 20
1.99999997127486
 30
0.0
 11
4.753635079448827
 21
1.99999997127486
 31
0.0
  0
LINE
  5
3C5A
330
3C55
100
AcDbEntity
  8
WAKU
 62
     2
 48
2.0
100
AcDbLine
 10
5.234421709965204
 20
2.99999997127486
 30
0.0
 11
5.234421709965147
 21
0.9999999712748603
 31
0.0
  0
LINE
  5
3C5B
330
3C55
100
AcDbEntity
  8
WAKU
 62
     2
 48
2.0
100
AcDbLine
 10
10.2344217099652
 20
3.49999997127486
 30
0.0
 11
10.23442170996514
 21
0.4999999712748604
 31
0.0
  0
LINE
  5
3C5C
330
3C55
100
AcDbEntity
  8
WAKU
 62
     2
 48
2.0
100
AcDbLine
 10
10.2344217099652
 20
3.49999997127486
 30
0.0
 11
5.234421709965204
 21
2.99999997127486
 31
0.0
  0
CIRCLE
  5
3C5D
330
3C55
100
AcDbEntity
  8
WAKU
 62
     2
 48
2.0
100
AcDbCircle
 10
1.99999933591232
 20
1.99999997127486
 30
0.0
 40
1.0
  0
LINE
  5
3C5E
330
3C55
100
AcDbEntity
  8
WAKU
 62
     2
 48
2.0
100
AcDbLine
 10
10.23442170996514
 20
0.4999999712748604
 30
0.0
 11
5.234421709965147
 21
0.9999999712748603
 31
0.0
  0
ENDBLK
  5
3C60
330
3C55
100
AcDbEntity
  8
0
 48
2.0
100
AcDbBlockEnd
  0
BLOCK
  5
3D5D
330
3C61
100
AcDbEntity
  8
0
 48
2.0
100
AcDbBlockBegin
  2
A$C128E6753
 70
     0
 10
0.0
 20
0.0
 30
0.0
  3
A$C128E6753
  1

  0
HATCH
  5
3C62
330
3C61
100
AcDbEntity
  8
WAKU
 48
2.0
100
AcDbHatch
 10
0.0
 20
0.0
 30
0.0
210
0.0
220
0.0
230
1.0
  2
SOLID
 70
     1
 71
     0
 91
        2
 92
        7
 72
     0
 73
     1
 93
       59
 10
16.16390526232573
 20
1.387863879078281
 10
17.7832881719508
 20
1.387863879078395
 10
17.7832881719508
 20
1.613099020403296
 10
16.16390526232595
 20
1.613099020403183
 10
16.16390526232595
 20
1.934939643537745
 10
17.85742023442236
 20
1.934939643537973
 10
17.85742023442236
 20
2.127709306108954
 10
16.80860395802762
 20
2.127709306108954
 10
17.13886008365836
 20
2.491766570122763
 10
17.83380809897738
 20
2.491766570122535
 10
17.8338080989775
 20
2.756618405090648
 10
17.31738914699673
 20
2.756618405090648
 10
17.61935945639601
 20
3.08949484892139
 10
17.04821889760905
 20
3.08949484892139
 10
16.76346898034075
 20
2.756618405090648
 10
16.61224696764071
 20
2.756618405090648
 10
16.61224696764071
 20
3.08949484892139
 10
16.10342918350494
 20
3.08949484892139
 10
16.10342918350494
 20
2.756618405090534
 10
15.62118631497145
 20
2.756618405090648
 10
15.62118631497156
 20
3.08949484892139
 10
15.12569263535403
 20
3.08949484892139
 10
15.12569263535403
 20
2.756618405090648
 10
14.94520663102452
 20
2.756618405090648
 10
14.66089077375449
 20
3.08949484892139
 10
14.11405486042878
 20
3.08949484892139
 10
14.11405486042889
 20
3.047303731442298
 10
14.36917906164848
 20
2.756618405090648
 10
13.96856664537011
 20
2.756618405090648
 10
13.96856664537
 20
2.491766570122649
 10
14.59134157954548
 20
2.491766570122649
 10
14.9108617281725
 20
2.127709306108954
 10
13.90531767650083
 20
2.127709306108954
 10
13.90531767650094
 20
1.934939643537973
 10
15.56585572983971
 20
1.934939643537859
 10
15.56585572983982
 20
1.613099020403296
 10
13.99184696523906
 20
1.61309902040341
 10
13.99184696523895
 20
1.387863879078281
 10
15.56585572983982
 20
1.387863879078281
 10
15.56585572983982
 20
1.115430757834474
 10
13.93407347331441
 20
1.115430757834474
 10
13.93407347331441
 20
0.8557199604838388
 10
14.57190257773783
 20
0.8557199604838388
 10
13.98881233800847
 20
0.2428001209661943
 10
13.98881233800858
 20
0.1010431900605226
 10
14.64220576000099
 20
0.101043190060409
 10
15.36445852267462
 20
0.8557199604839524
 10
15.56585572983971
 20
0.8557199604838388
 10
15.56585572983982
 20
0.1046689638886846
 10
16.16390526232595
 20
0.1046689638886846
 10
16.16390526232595
 20
0.8557199604838388
 10
16.37843116176958
 20
0.8557199604839524
 10
17.14385781395884
 20
0.1010431900605226
 10
17.77392451259737
 20
0.101043190060409
 10
17.77392451259749
 20
0.1851751212828958
 10
17.12786640961775
 20
0.8557199604838388
 10
17.84350357390684
 20
0.8557199604838388
 10
17.84350357390696
 20
1.115430757834474
 10
16.16390526232595
 20
1.115430757834474
 97
        0
 92
       23
 72
     0
 73
     1
 93
        4
 10
15.49780195160309
 20
2.12770930610884
 10
16.23063073689564
 20
2.127709306109068
 10
16.5420534215886
 20
2.491766570122535
 10
15.18685398567839
 20
2.491766570122763
 97
        0
 75
     0
 76
     1
 47
0.0291765355850579
 98
        2
 10
15.86922149621176
 20
1.406311922475879
 10
15.86922149621176
 20
1.406311922475879
450
        0
451
        0
460
0.0
461
0.0
452
        0
462
0.0
453
        0
470

  0
LINE
  5
3C63
330
3C61
100
AcDbEntity
  8
WAKU
 48
2.0
100
AcDbLine
 10
17.85742023442236
 20
1.934939643537859
 30
0.0
 11
16.16390526232595
 21
1.934939643537745
 31
0.0
  0
LINE
  5
3C64
330
3C61
100
AcDbEntity
  8
WAKU
 48
2.0
100
AcDbLine
 10
16.16390526232595
 20
1.613099020403296
 30
0.0
 11
17.7832881719508
 21
1.613099020403296
 31
0.0
  0
LINE
  5
3C65
330
3C61
100
AcDbEntity
  8
WAKU
 48
2.0
100
AcDbLine
 10
17.7832881719508
 20
1.387863879078395
 30
0.0
 11
16.16390526232595
 21
1.387863879078281
 31
0.0
  0
LINE
  5
3C66
330
3C61
100
AcDbEntity
  8
WAKU
 48
2.0
100
AcDbLine
 10
16.10342918350494
 20
3.08949484892139
 30
0.0
 11
16.61224696764071
 21
3.08949484892139
 31
0.0
  0
LINE
  5
3C67
330
3C61
100
AcDbEntity
  8
WAKU
 48
2.0
100
AcDbLine
 10
16.37843116176958
 20
0.8557199604838388
 30
0.0
 11
16.16390526232595
 21
0.8557199604838388
 31
0.0
  0
LINE
  5
3C68
330
3C61
100
AcDbEntity
  8
WAKU
 48
2.0
100
AcDbLine
 10
16.16390526232595
 20
1.115430757834474
 30
0.0
 11
17.84350357390696
 21
1.115430757834474
 31
0.0
  0
LINE
  5
3C69
330
3C61
100
AcDbEntity
  8
WAKU
 48
2.0
100
AcDbLine
 10
15.49780195160309
 20
2.127709306108954
 30
0.0
 11
16.23063073689553
 21
2.127709306108954
 31
0.0
  0
LINE
  5
3C6A
330
3C61
100
AcDbEntity
  8
WAKU
 48
2.0
100
AcDbLine
 10
16.5420534215886
 20
2.491766570122649
 30
0.0
 11
15.18685398567839
 21
2.491766570122649
 31
0.0
  0
HATCH
  5
3C6B
330
3C61
100
AcDbEntity
  8
WAKU
 48
2.0
100
AcDbHatch
 10
0.0
 20
0.0
 30
0.0
210
0.0
220
0.0
230
1.0
  2
SOLID
 70
     1
 71
     1
 91
        5
 92
        7
 72
     0
 73
     1
 93
       36
 10
11.72362614000173
 20
1.844138695839548
 10
13.2167123719019
 20
1.844138695839433
 10
13.2167123719019
 20
2.41934809626889
 10
11.72362614000161
 20
2.419348096268889
 10
11.72362614000167
 20
2.740985540018529
 10
13.36030069912664
 20
2.740985540018529
 10
13.36030069912664
 20
2.979102787090708
 10
11.72362614000161
 20
2.97910278709071
 10
11.72362614000173
 20
3.182001940965164
 10
11.15076558700411
 20
3.182001940965164
 10
11.15076558700423
 20
2.97910278709071
 10
9.494399050546292
 20
2.979102787090708
 10
9.494399050546292
 20
2.740985540018527
 10
11.15076558700417
 20
2.740985540018527
 10
11.15076558700406
 20
2.41934809626889
 10
9.713174685571573
 20
2.419348096268892
 10
9.713174685571459
 20
1.844138695839435
 10
11.15076558700423
 20
1.844138695839317
 10
11.15076558700417
 20
1.535623176881474
 10
9.524461098565836
 20
1.535623176881472
 10
9.524461098565836
 20
1.369945033685894
 10
11.15076558700417
 20
1.369945033685896
 10
11.15076558700417
 20
1.069479974553134
 10
9.524461098565836
 20
1.069479974553132
 10
9.524461098565836
 20
0.9048980659824792
 10
11.15076558700417
 20
0.9048980659825893
 10
11.15076558700417
 20
0.6033870995053139
 10
9.52446109856578
 20
0.6033870995053139
 10
9.524461098565893
 20
0.4283917772780815
 10
11.15076558700423
 20
0.4283917772780797
 10
11.15076558700428
 20
0.0306634320410257
 10
11.72362614000173
 20
0.0306634320410257
 10
11.72362614000184
 20
0.4283917772780797
 10
13.36559529183091
 20
0.4283917772780797
 10
13.36559529183091
 20
1.53562317688147
 10
11.72362614000155
 20
1.535623176881472
 97
       36
330
3C7F
330
3CB3
330
3CC2
330
3CC3
330
3CB8
330
3CBC
330
3CB9
330
3CB2
330
3C77
330
3C7D
330
3C73
330
3CB1
330
3C6C
330
3C7C
330
3C6F
330
3CAF
330
3C75
330
3C78
330
3C6E
330
3CAC
330
3C71
330
3C79
330
3C70
330
3CAB
330
3C74
330
3C7A
330
3C72
330
3CBA
330
3CBB
330
3CAA
330
3CBE
330
3CBF
330
3CB6
330
3CA9
330
3C85
330
3CC1
 92
       22
 72
     0
 73
     1
 93
        4
 10
11.72362614000173
 20
1.992841807510894
 10
11.72362614000173
 20
2.26805990796106
 10
12.63176987750768
 20
2.26805990796106
 10
12.63176987750768
 20
1.992841807510899
 97
        4
330
3CB4
330
3CB7
330
3CC0
330
3C81
 92
       22
 72
     0
 73
     1
 93
        4
 10
11.150765587004
 20
1.992841807510901
 10
10.33093820241816
 20
1.992841807510899
 10
10.33093820241811
 20
2.26805990796106
 10
11.15076558700411
 20
2.26805990796106
 97
        4
330
3C6D
330
3C7B
330
3C76
330
3CB0
 92
       22
 72
     0
 73
     1
 93
        4
 10
11.72362614000161
 20
1.369945033685782
 10
12.76245145537211
 20
1.369945033685784
 10
12.76245145537223
 20
1.069479974553132
 10
11.72362614000195
 20
1.069479974553134
 97
        4
330
3C82
330
3CBD
330
3C87
330
3CAE
 92
       22
 72
     0
 73
     1
 93
        4
 10
11.72362614000195
 20
0.9048980659827048
 10
12.76245145537206
 20
0.9048980659825911
 10
12.762451455372
 20
0.6033870995053121
 10
11.72362614000173
 20
0.6033870995053121
 97
        4
330
3C86
330
3C84
330
3CB5
330
3CAD
 75
     0
 76
     1
 47
0.0291765355850579
 98
        5
 10
11.46120034077165
 20
1.931489358996032
 10
11.46120034077165
 20
1.931489358996032
 10
11.46120034077165
 20
1.931489358996032
 10
11.46120034077165
 20
1.931489358996032
 10
11.46120034077165
 20
1.931489358996032
450
        0
451
        0
460
0.0
461
0.0
452
        0
462
0.0
453
        0
470

  0
LINE
  5
3C6C
102
{ACAD_REACTORS
330
3C6B
102
}
330
3C61
100
AcDbEntity
  8
WAKU
 48
2.0
100
AcDbLine
 10
9.713174685571573
 20
2.41934809626889
 30
0.0
 11
11.15076558700406
 21
2.41934809626889
 31
0.0
  0
LINE
  5
3C6D
102
{ACAD_REACTORS
330
3C6B
102
}
330
3C61
100
AcDbEntity
  8
WAKU
 48
2.0
100
AcDbLine
 10
11.15076558700394
 20
1.992841807510899
 30
0.0
 11
10.33093820241816
 21
1.992841807510899
 31
0.0
  0
LINE
  5
3C6E
102
{ACAD_REACTORS
330
3C6B
102
}
330
3C61
100
AcDbEntity
  8
WAKU
 48
2.0
100
AcDbLine
 10
11.15076558700417
 20
1.369945033685894
 30
0.0
 11
9.524461098565836
 21
1.369945033685894
 31
0.0
  0
LINE
  5
3C6F
102
{ACAD_REACTORS
330
3C6B
102
}
330
3C61
100
AcDbEntity
  8
WAKU
 48
2.0
100
AcDbLine
 10
11.15076558700417
 20
1.844138695839319
 30
0.0
 11
9.713174685571459
 21
1.844138695839433
 31
0.0
  0
LINE
  5
3C70
102
{ACAD_REACTORS
330
3C6B
102
}
330
3C61
100
AcDbEntity
  8
WAKU
 48
2.0
100
AcDbLine
 10
11.15076558700417
 20
0.9048980659825929
 30
0.0
 11
9.524461098565836
 21
0.9048980659824792
 31
0.0
  0
LINE
  5
3C71
102
{ACAD_REACTORS
330
3C6B
102
}
330
3C61
100
AcDbEntity
  8
WAKU
 48
2.0
100
AcDbLine
 10
9.524461098565836
 20
1.069479974553132
 30
0.0
 11
11.15076558700417
 21
1.069479974553132
 31
0.0
  0
LINE
  5
3C72
102
{ACAD_REACTORS
330
3C6B
102
}
330
3C61
100
AcDbEntity
  8
WAKU
 48
2.0
100
AcDbLine
 10
11.15076558700428
 20
0.4283917772780797
 30
0.0
 11
9.524461098565836
 21
0.4283917772780797
 31
0.0
  0
LINE
  5
3C73
102
{ACAD_REACTORS
330
3C6B
102
}
330
3C61
100
AcDbEntity
  8
WAKU
 48
2.0
100
AcDbLine
 10
11.15076558700417
 20
2.740985540018527
 30
0.0
 11
9.494399050546292
 21
2.740985540018527
 31
0.0
  0
LINE
  5
3C74
102
{ACAD_REACTORS
330
3C6B
102
}
330
3C61
100
AcDbEntity
  8
WAKU
 48
2.0
100
AcDbLine
 10
9.524461098565836
 20
0.6033870995053121
 30
0.0
 11
11.15076558700417
 21
0.6033870995053121
 31
0.0
  0
LINE
  5
3C75
102
{ACAD_REACTORS
330
3C6B
102
}
330
3C61
100
AcDbEntity
  8
WAKU
 48
2.0
100
AcDbLine
 10
9.524461098565836
 20
1.535623176881472
 30
0.0
 11
11.15076558700406
 21
1.535623176881472
 31
0.0
  0
LINE
  5
3C76
102
{ACAD_REACTORS
330
3C6B
102
}
330
3C61
100
AcDbEntity
  8
WAKU
 48
2.0
100
AcDbLine
 10
10.33093820241816
 20
2.26805990796106
 30
0.0
 11
11.15076558700406
 21
2.26805990796106
 31
0.0
  0
LINE
  5
3C77
102
{ACAD_REACTORS
330
3C6B
102
}
330
3C61
100
AcDbEntity
  8
WAKU
 48
2.0
100
AcDbLine
 10
9.494399050546292
 20
2.97910278709071
 30
0.0
 11
11.15076558700417
 21
2.97910278709071
 31
0.0
  0
LINE
  5
3C78
102
{ACAD_REACTORS
330
3C6B
102
}
330
3C61
100
AcDbEntity
  8
WAKU
 48
2.0
100
AcDbLine
 10
9.524461098565836
 20
1.369945033685894
 30
0.0
 11
9.524461098565836
 21
1.535623176881472
 31
0.0
  0
LINE
  5
3C79
102
{ACAD_REACTORS
330
3C6B
102
}
330
3C61
100
AcDbEntity
  8
WAKU
 48
2.0
100
AcDbLine
 10
9.524461098565836
 20
0.9048980659824792
 30
0.0
 11
9.524461098565836
 21
1.069479974553132
 31
0.0
  0
LINE
  5
3C7A
102
{ACAD_REACTORS
330
3C6B
102
}
330
3C61
100
AcDbEntity
  8
WAKU
 48
2.0
100
AcDbLine
 10
9.524461098565836
 20
0.4283917772780797
 30
0.0
 11
9.524461098565836
 21
0.6033870995053121
 31
0.0
  0
LINE
  5
3C7B
102
{ACAD_REACTORS
330
3C6B
102
}
330
3C61
100
AcDbEntity
  8
WAKU
 48
2.0
100
AcDbLine
 10
10.33093820241816
 20
1.992841807510899
 30
0.0
 11
10.33093820241816
 21
2.26805990796106
 31
0.0
  0
LINE
  5
3C7C
102
{ACAD_REACTORS
330
3C6B
102
}
330
3C61
100
AcDbEntity
  8
WAKU
 48
2.0
100
AcDbLine
 10
9.713174685571459
 20
1.844138695839433
 30
0.0
 11
9.713174685571573
 21
2.41934809626889
 31
0.0
  0
LINE
  5
3C7D
102
{ACAD_REACTORS
330
3C6B
102
}
330
3C61
100
AcDbEntity
  8
WAKU
 48
2.0
100
AcDbLine
 10
9.494399050546292
 20
2.740985540018527
 30
0.0
 11
9.494399050546292
 21
2.97910278709071
 31
0.0
  0
LINE
  5
3C7E
330
3C61
100
AcDbEntity
  8
WAKU
 48
2.0
100
AcDbLine
 10
15.56585572983971
 20
1.934939643537859
 30
0.0
 11
13.90531767650083
 21
1.934939643537859
 31
0.0
  0
LINE
  5
3C7F
102
{ACAD_REACTORS
330
3C6B
102
}
330
3C61
100
AcDbEntity
  8
WAKU
 48
2.0
100
AcDbLine
 10
11.72362614000161
 20
2.41934809626889
 30
0.0
 11
13.2167123719019
 21
2.41934809626889
 31
0.0
  0
LINE
  5
3C80
330
3C61
100
AcDbEntity
  8
WAKU
 48
2.0
100
AcDbLine
 10
13.99184696523906
 20
1.61309902040341
 30
0.0
 11
15.56585572983982
 21
1.613099020403296
 31
0.0
  0
LINE
  5
3C81
102
{ACAD_REACTORS
330
3C6B
102
}
330
3C61
100
AcDbEntity
  8
WAKU
 48
2.0
100
AcDbLine
 10
12.63176987750768
 20
1.992841807510899
 30
0.0
 11
11.72362614000173
 21
1.992841807510899
 31
0.0
  0
LINE
  5
3C82
102
{ACAD_REACTORS
330
3C6B
102
}
330
3C61
100
AcDbEntity
  8
WAKU
 48
2.0
100
AcDbLine
 10
12.76245145537206
 20
1.36994503368578
 30
0.0
 11
11.72362614000161
 21
1.36994503368578
 31
0.0
  0
LINE
  5
3C83
330
3C61
100
AcDbEntity
  8
WAKU
 48
2.0
100
AcDbLine
 10
15.56585572983982
 20
1.387863879078281
 30
0.0
 11
13.99184696523895
 21
1.387863879078281
 31
0.0
  0
LINE
  5
3C84
102
{ACAD_REACTORS
330
3C6B
102
}
330
3C61
100
AcDbEntity
  8
WAKU
 48
2.0
100
AcDbLine
 10
12.76245145537206
 20
0.9048980659825929
 30
0.0
 11
12.76245145537206
 21
0.6033870995053121
 31
0.0
  0
LINE
  5
3C85
102
{ACAD_REACTORS
330
3C6B
102
}
330
3C61
100
AcDbEntity
  8
WAKU
 48
2.0
100
AcDbLine
 10
13.2167123719019
 20
1.844138695839433
 30
0.0
 11
11.72362614000173
 21
1.844138695839546
 31
0.0
  0
LINE
  5
3C86
102
{ACAD_REACTORS
330
3C6B
102
}
330
3C61
100
AcDbEntity
  8
WAKU
 48
2.0
100
AcDbLine
 10
12.76245145537206
 20
0.9048980659825929
 30
0.0
 11
11.72362614000195
 21
0.9048980659827066
 31
0.0
  0
LINE
  5
3C87
102
{ACAD_REACTORS
330
3C6B
102
}
330
3C61
100
AcDbEntity
  8
WAKU
 48
2.0
100
AcDbLine
 10
11.72362614000195
 20
1.069479974553132
 30
0.0
 11
12.76245145537229
 21
1.069479974553132
 31
0.0
  0
LINE
  5
3C88
330
3C61
100
AcDbEntity
  8
WAKU
 48
2.0
100
AcDbLine
 10
15.12569263535403
 20
3.08949484892139
 30
0.0
 11
15.62118631497156
 21
3.08949484892139
 31
0.0
  0
LINE
  5
3C89
330
3C61
100
AcDbEntity
  8
WAKU
 48
2.0
100
AcDbLine
 10
14.57190257773794
 20
0.8557199604838388
 30
0.0
 11
13.93407347331441
 21
0.8557199604838388
 31
0.0
  0
LINE
  5
3C8A
330
3C61
100
AcDbEntity
  8
WAKU
 48
2.0
100
AcDbLine
 10
13.98881233800858
 20
0.242800120966308
 30
0.0
 11
13.98881233800858
 21
0.1010431900605226
 31
0.0
  0
LINE
  5
3C8B
330
3C61
100
AcDbEntity
  8
WAKU
 48
2.0
100
AcDbLine
 10
13.98881233800858
 20
0.242800120966308
 30
0.0
 11
14.57190257773794
 21
0.8557199604838388
 31
0.0
  0
LINE
  5
3C8C
330
3C61
100
AcDbEntity
  8
WAKU
 48
2.0
100
AcDbLine
 10
13.98881233800858
 20
0.1010431900605226
 30
0.0
 11
14.64220576000099
 21
0.1010431900605226
 31
0.0
  0
LINE
  5
3C8D
330
3C61
100
AcDbEntity
  8
WAKU
 48
2.0
100
AcDbLine
 10
15.36445852267451
 20
0.8557199604838388
 30
0.0
 11
14.64220576000099
 21
0.1010431900605226
 31
0.0
  0
LINE
  5
3C8E
330
3C61
100
AcDbEntity
  8
WAKU
 48
2.0
100
AcDbLine
 10
16.16390526232595
 20
1.387863879078281
 30
0.0
 11
16.16390526232595
 21
1.115430757834474
 31
0.0
  0
LINE
  5
3C8F
330
3C61
100
AcDbEntity
  8
WAKU
 48
2.0
100
AcDbLine
 10
15.56585572983982
 20
1.613099020403296
 30
0.0
 11
15.56585572983971
 21
1.934939643537859
 31
0.0
  0
LINE
  5
3C90
330
3C61
100
AcDbEntity
  8
WAKU
 48
2.0
100
AcDbLine
 10
15.56585572983982
 20
1.115430757834474
 30
0.0
 11
15.56585572983982
 21
1.387863879078281
 31
0.0
  0
LINE
  5
3C91
330
3C61
100
AcDbEntity
  8
WAKU
 48
2.0
100
AcDbLine
 10
16.16390526232595
 20
0.8557199604838388
 30
0.0
 11
16.16390526232595
 21
0.1046689638886846
 31
0.0
  0
LINE
  5
3C92
330
3C61
100
AcDbEntity
  8
WAKU
 48
2.0
100
AcDbLine
 10
15.56585572983982
 20
0.8557199604838388
 30
0.0
 11
15.36445852267451
 21
0.8557199604838388
 31
0.0
  0
LINE
  5
3C93
330
3C61
100
AcDbEntity
  8
WAKU
 48
2.0
100
AcDbLine
 10
15.56585572983982
 20
0.1046689638886846
 30
0.0
 11
15.56585572983982
 21
0.8557199604838388
 31
0.0
  0
LINE
  5
3C94
330
3C61
100
AcDbEntity
  8
WAKU
 48
2.0
100
AcDbLine
 10
16.16390526232595
 20
0.1046689638886846
 30
0.0
 11
15.56585572983982
 21
0.1046689638886846
 31
0.0
  0
LINE
  5
3C95
330
3C61
100
AcDbEntity
  8
WAKU
 48
2.0
100
AcDbLine
 10
16.16390526232595
 20
1.934939643537745
 30
0.0
 11
16.16390526232595
 21
1.613099020403296
 31
0.0
  0
LINE
  5
3C96
330
3C61
100
AcDbEntity
  8
WAKU
 48
2.0
100
AcDbLine
 10
13.93407347331441
 20
0.8557199604838388
 30
0.0
 11
13.93407347331441
 21
1.115430757834474
 31
0.0
  0
LINE
  5
3C97
330
3C61
100
AcDbEntity
  8
WAKU
 48
2.0
100
AcDbLine
 10
13.93407347331441
 20
1.115430757834474
 30
0.0
 11
15.56585572983982
 21
1.115430757834474
 31
0.0
  0
LINE
  5
3C98
330
3C61
100
AcDbEntity
  8
WAKU
 48
2.0
100
AcDbLine
 10
13.99184696523895
 20
1.387863879078281
 30
0.0
 11
13.99184696523906
 21
1.61309902040341
 31
0.0
  0
LINE
  5
3C99
330
3C61
100
AcDbEntity
  8
WAKU
 48
2.0
100
AcDbLine
 10
15.62118631497145
 20
2.756618405090648
 30
0.0
 11
16.10342918350494
 21
2.756618405090648
 31
0.0
  0
LINE
  5
3C9A
330
3C61
100
AcDbEntity
  8
WAKU
 48
2.0
100
AcDbLine
 10
16.10342918350494
 20
3.08949484892139
 30
0.0
 11
16.10342918350494
 21
2.756618405090648
 31
0.0
  0
LINE
  5
3C9B
330
3C61
100
AcDbEntity
  8
WAKU
 48
2.0
100
AcDbLine
 10
15.12569263535403
 20
3.08949484892139
 30
0.0
 11
15.12569263535403
 21
2.756618405090648
 31
0.0
  0
LINE
  5
3C9C
330
3C61
100
AcDbEntity
  8
WAKU
 48
2.0
100
AcDbLine
 10
15.62118631497156
 20
3.08949484892139
 30
0.0
 11
15.62118631497145
 21
2.756618405090648
 31
0.0
  0
LINE
  5
3C9D
330
3C61
100
AcDbEntity
  8
WAKU
 48
2.0
100
AcDbLine
 10
14.36917906164825
 20
2.756618405090648
 30
0.0
 11
14.11405486042878
 21
3.047303731442411
 31
0.0
  0
LINE
  5
3C9E
330
3C61
100
AcDbEntity
  8
WAKU
 48
2.0
100
AcDbLine
 10
15.18685398567839
 20
2.491766570122649
 30
0.0
 11
15.49780195160309
 21
2.127709306108954
 31
0.0
  0
LINE
  5
3C9F
330
3C61
100
AcDbEntity
  8
WAKU
 48
2.0
100
AcDbLine
 10
14.59134157954548
 20
2.491766570122649
 30
0.0
 11
13.96856664537
 21
2.491766570122649
 31
0.0
  0
LINE
  5
3CA0
330
3C61
100
AcDbEntity
  8
WAKU
 48
2.0
100
AcDbLine
 10
14.94520663102452
 20
2.756618405090648
 30
0.0
 11
15.12569263535403
 21
2.756618405090648
 31
0.0
  0
LINE
  5
3CA1
330
3C61
100
AcDbEntity
  8
WAKU
 48
2.0
100
AcDbLine
 10
14.11405486042878
 20
3.08949484892139
 30
0.0
 11
14.66089077375449
 21
3.08949484892139
 31
0.0
  0
LINE
  5
3CA2
330
3C61
100
AcDbEntity
  8
WAKU
 48
2.0
100
AcDbLine
 10
13.90531767650083
 20
1.934939643537859
 30
0.0
 11
13.90531767650083
 21
2.127709306108954
 31
0.0
  0
LINE
  5
3CA3
330
3C61
100
AcDbEntity
  8
WAKU
 48
2.0
100
AcDbLine
 10
13.90531767650083
 20
2.127709306108954
 30
0.0
 11
14.9108617281725
 21
2.127709306108954
 31
0.0
  0
LINE
  5
3CA4
330
3C61
100
AcDbEntity
  8
WAKU
 48
2.0
100
AcDbLine
 10
14.11405486042878
 20
3.047303731442411
 30
0.0
 11
14.11405486042878
 21
3.08949484892139
 31
0.0
  0
LINE
  5
3CA5
330
3C61
100
AcDbEntity
  8
WAKU
 48
2.0
100
AcDbLine
 10
14.9108617281725
 20
2.127709306108954
 30
0.0
 11
14.59134157954548
 21
2.491766570122649
 31
0.0
  0
LINE
  5
3CA6
330
3C61
100
AcDbEntity
  8
WAKU
 48
2.0
100
AcDbLine
 10
14.66089077375449
 20
3.08949484892139
 30
0.0
 11
14.94520663102452
 21
2.756618405090648
 31
0.0
  0
LINE
  5
3CA7
330
3C61
100
AcDbEntity
  8
WAKU
 48
2.0
100
AcDbLine
 10
13.96856664537
 20
2.491766570122649
 30
0.0
 11
13.96856664537011
 21
2.756618405090648
 31
0.0
  0
LINE
  5
3CA8
330
3C61
100
AcDbEntity
  8
WAKU
 48
2.0
100
AcDbLine
 10
13.96856664537011
 20
2.756618405090648
 30
0.0
 11
14.36917906164825
 21
2.756618405090648
 31
0.0
  0
LINE
  5
3CA9
102
{ACAD_REACTORS
330
3C6B
102
}
330
3C61
100
AcDbEntity
  8
WAKU
 48
2.0
100
AcDbLine
 10
11.72362614000173
 20
1.844138695839546
 30
0.0
 11
11.72362614000161
 21
1.535623176881472
 31
0.0
  0
LINE
  5
3CAA
102
{ACAD_REACTORS
330
3C6B
102
}
330
3C61
100
AcDbEntity
  8
WAKU
 48
2.0
100
AcDbLine
 10
11.72362614000184
 20
0.4283917772780797
 30
0.0
 11
11.72362614000173
 21
0.030663432041024
 31
0.0
  0
LINE
  5
3CAB
102
{ACAD_REACTORS
330
3C6B
102
}
330
3C61
100
AcDbEntity
  8
WAKU
 48
2.0
100
AcDbLine
 10
11.15076558700417
 20
0.6033870995053121
 30
0.0
 11
11.15076558700417
 21
0.9048980659825929
 31
0.0
  0
LINE
  5
3CAC
102
{ACAD_REACTORS
330
3C6B
102
}
330
3C61
100
AcDbEntity
  8
WAKU
 48
2.0
100
AcDbLine
 10
11.15076558700417
 20
1.069479974553132
 30
0.0
 11
11.15076558700417
 21
1.369945033685894
 31
0.0
  0
LINE
  5
3CAD
102
{ACAD_REACTORS
330
3C6B
102
}
330
3C61
100
AcDbEntity
  8
WAKU
 48
2.0
100
AcDbLine
 10
11.72362614000195
 20
0.9048980659827066
 30
0.0
 11
11.72362614000173
 21
0.6033870995053121
 31
0.0
  0
LINE
  5
3CAE
102
{ACAD_REACTORS
330
3C6B
102
}
330
3C61
100
AcDbEntity
  8
WAKU
 48
2.0
100
AcDbLine
 10
11.72362614000161
 20
1.36994503368578
 30
0.0
 11
11.72362614000195
 21
1.069479974553132
 31
0.0
  0
LINE
  5
3CAF
102
{ACAD_REACTORS
330
3C6B
102
}
330
3C61
100
AcDbEntity
  8
WAKU
 48
2.0
100
AcDbLine
 10
11.15076558700406
 20
1.535623176881472
 30
0.0
 11
11.15076558700417
 21
1.844138695839319
 31
0.0
  0
LINE
  5
3CB0
102
{ACAD_REACTORS
330
3C6B
102
}
330
3C61
100
AcDbEntity
  8
WAKU
 48
2.0
100
AcDbLine
 10
11.15076558700394
 20
1.992841807510899
 30
0.0
 11
11.15076558700406
 21
2.26805990796106
 31
0.0
  0
LINE
  5
3CB1
102
{ACAD_REACTORS
330
3C6B
102
}
330
3C61
100
AcDbEntity
  8
WAKU
 48
2.0
100
AcDbLine
 10
11.15076558700406
 20
2.41934809626889
 30
0.0
 11
11.15076558700417
 21
2.740985540018527
 31
0.0
  0
LINE
  5
3CB2
102
{ACAD_REACTORS
330
3C6B
102
}
330
3C61
100
AcDbEntity
  8
WAKU
 48
2.0
100
AcDbLine
 10
11.15076558700417
 20
2.97910278709071
 30
0.0
 11
11.15076558700417
 21
3.182001940965164
 31
0.0
  0
LINE
  5
3CB3
102
{ACAD_REACTORS
330
3C6B
102
}
330
3C61
100
AcDbEntity
  8
WAKU
 48
2.0
100
AcDbLine
 10
11.72362614000161
 20
2.740985540018527
 30
0.0
 11
11.72362614000161
 21
2.41934809626889
 31
0.0
  0
LINE
  5
3CB4
102
{ACAD_REACTORS
330
3C6B
102
}
330
3C61
100
AcDbEntity
  8
WAKU
 48
2.0
100
AcDbLine
 10
11.72362614000173
 20
2.26805990796106
 30
0.0
 11
11.72362614000173
 21
1.992841807510899
 31
0.0
  0
LINE
  5
3CB5
102
{ACAD_REACTORS
330
3C6B
102
}
330
3C61
100
AcDbEntity
  8
WAKU
 48
2.0
100
AcDbLine
 10
11.72362614000173
 20
0.6033870995053121
 30
0.0
 11
12.76245145537206
 21
0.6033870995053121
 31
0.0
  0
LINE
  5
3CB6
102
{ACAD_REACTORS
330
3C6B
102
}
330
3C61
100
AcDbEntity
  8
WAKU
 48
2.0
100
AcDbLine
 10
11.72362614000161
 20
1.535623176881472
 30
0.0
 11
13.36559529183097
 21
1.535623176881472
 31
0.0
  0
LINE
  5
3CB7
102
{ACAD_REACTORS
330
3C6B
102
}
330
3C61
100
AcDbEntity
  8
WAKU
 48
2.0
100
AcDbLine
 10
11.72362614000173
 20
2.26805990796106
 30
0.0
 11
12.63176987750768
 21
2.26805990796106
 31
0.0
  0
LINE
  5
3CB8
102
{ACAD_REACTORS
330
3C6B
102
}
330
3C61
100
AcDbEntity
  8
WAKU
 48
2.0
100
AcDbLine
 10
11.72362614000161
 20
2.97910278709071
 30
0.0
 11
13.36030069912664
 21
2.97910278709071
 31
0.0
  0
LINE
  5
3CB9
102
{ACAD_REACTORS
330
3C6B
102
}
330
3C61
100
AcDbEntity
  8
WAKU
 48
2.0
100
AcDbLine
 10
11.15076558700417
 20
3.182001940965164
 30
0.0
 11
11.72362614000173
 21
3.182001940965164
 31
0.0
  0
LINE
  5
3CBA
102
{ACAD_REACTORS
330
3C6B
102
}
330
3C61
100
AcDbEntity
  8
WAKU
 48
2.0
100
AcDbLine
 10
11.15076558700428
 20
0.030663432041024
 30
0.0
 11
11.15076558700428
 21
0.4283917772780797
 31
0.0
  0
LINE
  5
3CBB
102
{ACAD_REACTORS
330
3C6B
102
}
330
3C61
100
AcDbEntity
  8
WAKU
 48
2.0
100
AcDbLine
 10
11.72362614000173
 20
0.030663432041024
 30
0.0
 11
11.15076558700428
 21
0.030663432041024
 31
0.0
  0
LINE
  5
3CBC
102
{ACAD_REACTORS
330
3C6B
102
}
330
3C61
100
AcDbEntity
  8
WAKU
 48
2.0
100
AcDbLine
 10
11.72362614000173
 20
3.182001940965164
 30
0.0
 11
11.72362614000161
 21
2.97910278709071
 31
0.0
  0
LINE
  5
3CBD
102
{ACAD_REACTORS
330
3C6B
102
}
330
3C61
100
AcDbEntity
  8
WAKU
 48
2.0
100
AcDbLine
 10
12.76245145537229
 20
1.069479974553132
 30
0.0
 11
12.76245145537206
 21
1.36994503368578
 31
0.0
  0
LINE
  5
3CBE
102
{ACAD_REACTORS
330
3C6B
102
}
330
3C61
100
AcDbEntity
  8
WAKU
 48
2.0
100
AcDbLine
 10
13.36559529183097
 20
0.4283917772780797
 30
0.0
 11
11.72362614000184
 21
0.4283917772780797
 31
0.0
  0
LINE
  5
3CBF
102
{ACAD_REACTORS
330
3C6B
102
}
330
3C61
100
AcDbEntity
  8
WAKU
 48
2.0
100
AcDbLine
 10
13.36559529183097
 20
1.535623176881472
 30
0.0
 11
13.36559529183097
 21
0.4283917772780797
 31
0.0
  0
LINE
  5
3CC0
102
{ACAD_REACTORS
330
3C6B
102
}
330
3C61
100
AcDbEntity
  8
WAKU
 48
2.0
100
AcDbLine
 10
12.63176987750768
 20
2.26805990796106
 30
0.0
 11
12.63176987750768
 21
1.992841807510899
 31
0.0
  0
LINE
  5
3CC1
102
{ACAD_REACTORS
330
3C6B
102
}
330
3C61
100
AcDbEntity
  8
WAKU
 48
2.0
100
AcDbLine
 10
13.2167123719019
 20
2.41934809626889
 30
0.0
 11
13.2167123719019
 21
1.844138695839433
 31
0.0
  0
LINE
  5
3CC2
102
{ACAD_REACTORS
330
3C6B
102
}
330
3C61
100
AcDbEntity
  8
WAKU
 48
2.0
100
AcDbLine
 10
13.36030069912664
 20
2.740985540018527
 30
0.0
 11
11.72362614000161
 21
2.740985540018527
 31
0.0
  0
LINE
  5
3CC3
102
{ACAD_REACTORS
330
3C6B
102
}
330
3C61
100
AcDbEntity
  8
WAKU
 48
2.0
100
AcDbLine
 10
13.36030069912664
 20
2.97910278709071
 30
0.0
 11
13.36030069912664
 21
2.740985540018527
 31
0.0
  0
HATCH
  5
3CC4
330
3C61
100
AcDbEntity
  8
WAKU
 48
2.0
100
AcDbHatch
 10
0.0
 20
0.0
 30
0.0
210
0.0
220
0.0
230
1.0
  2
SOLID
 70
     1
 71
     1
 91
        5
 92
        7
 72
     0
 73
     1
 93
       16
 10
20.45776601204625
 20
1.577443611505374
 10
20.45776601204631
 20
1.852592786029049
 10
19.97963396762878
 20
1.852592786029047
 10
20.2527363118117
 20
2.613862408754698
 10
20.49404263728195
 20
2.6138624087547
 10
20.49404263728195
 20
2.880852936746805
 10
19.70692798201418
 20
2.880852936746803
 10
19.70692798201418
 20
3.158832862746178
 10
19.13857686814759
 20
3.15883286274618
 10
19.13857686814759
 20
2.880852936746805
 10
18.29806464917993
 20
2.880852936746805
 10
18.29806464917993
 20
2.6138624087547
 10
18.46479664435532
 20
2.613862408754695
 10
18.69337397624758
 20
1.852592786029049
 10
18.29099869674775
 20
1.852592786029049
 10
18.2909986967478
 20
1.577443611505374
 97
       16
330
3CD8
330
3CE9
330
3CEE
330
3CEF
330
3CF0
330
3CF1
330
3CF2
330
3CEB
330
3CEC
330
3CED
330
3CDA
330
3CE7
330
3CE6
330
3CE3
330
3CE4
330
3CE5
 92
       23
 72
     0
 73
     1
 93
        4
 10
19.23434236407848
 20
1.852592786029049
 10
19.49215750748397
 20
1.852592786029049
 10
19.78773469236296
 20
2.6138624087547
 10
18.99381172734502
 20
2.613862408754696
 97
        4
330
3CE8
330
3CD7
330
3CEA
330
3CD9
 92
        7
 72
     0
 73
     1
 93
        4
 10
18.38569772790634
 20
1.288626999953862
 10
18.38569772790629
 20
0.122090636724236
 10
20.33181307724186
 20
0.1220906367242378
 10
20.33181307724181
 20
1.28862699995386
 97
        4
330
3CDF
330
3CE2
330
3CE1
330
3CE0
 92
       22
 72
     0
 73
     1
 93
        4
 10
19.82173168365153
 20
1.059781814838968
 10
19.82173168365153
 20
0.3388499090784762
 10
18.87363758207709
 20
0.3388499090784762
 10
18.87363758207698
 20
1.05978181483897
 97
        4
330
3CDC
330
3CDD
330
3CDE
330
3CDB
 92
        7
 72
     0
 73
     1
 93
       29
 10
21.21669214009108
 20
2.810740878952858
 10
21.58553400880788
 20
2.810740878952858
 10
21.67173353896123
 20
2.708434020686812
 10
21.40236000723149
 20
1.986900440961564
 10
21.40236000723144
 20
1.857670311308638
 10
21.54243424373095
 20
1.690748388216062
 10
21.65018365642283
 20
1.475365494212784
 10
21.69328342149981
 20
1.195367535383784
 10
21.69867195245115
 20
0.9422928479402905
 10
21.66095859769217
 20
0.7430633924348271
 10
21.5909214794425
 20
0.6353716177240063
 10
21.42390988976973
 20
0.5869106468132391
 10
21.29201144958182
 20
0.5457139315370921
 10
21.27056684643685
 20
0.4899880495736931
 10
21.29211672897537
 20
0.3822962748629557
 10
21.49272858670958
 20
0.2978739507163901
 10
21.96341932114666
 20
0.317681865454805
 10
22.15452891558635
 20
0.5214222797100554
 10
22.20585549970349
 20
0.8292161567845166
 10
22.16814320526129
 20
1.373058635946797
 10
22.04961885130001
 20
1.760748369487238
 10
21.93648196797363
 20
1.927670292579723
 10
22.15736826399188
 20
2.810740878952858
 10
22.10888102828068
 20
2.96150870812958
 10
22.02268149812699
 20
3.009969679040295
 10
21.76408290766665
 20
3.031508033982388
 10
20.64562025282396
 20
3.031508033982392
 10
20.64562025282402
 20
0.053837345122588
 10
21.21669214009114
 20
0.053837345122588
 97
       29
330
3CD3
330
3CCA
330
3CC9
330
3CD2
330
3CD1
330
3CC8
330
3D10
330
3D0F
330
3D0E
330
3CC7
330
3CD0
330
3CCF
330
3CCE
330
3CCD
330
3CCC
330
3CC6
330
3D0D
330
3D0C
330
3D0B
330
3D0A
330
3D09
330
3D08
330
3D07
330
3D06
330
3D05
330
3CC5
330
3CD6
330
3CD5
330
3CD4
 75
     0
 76
     1
 47
0.0291765355850579
 98
        5
 10
19.05117066965357
 20
1.756430824661038
 10
19.05117066965357
 20
1.756430824661038
 10
18.90521081217929
 20
1.143723204215802
 10
18.90521081217929
 20
1.143723204215802
 10
20.97785648180974
 20
1.377135194500851
450
        0
451
        0
460
0.0
461
0.0
452
        0
462
0.0
453
        0
470

  0
LINE
  5
3CC5
102
{ACAD_REACTORS
330
3CC4
102
}
330
3C61
100
AcDbEntity
  8
WAKU
 48
2.0
100
AcDbLine
 10
21.76408290766659
 20
3.03150803398239
 30
0.0
 11
20.6456202528239
 21
3.03150803398239
 31
0.0
  0
LINE
  5
3CC6
102
{ACAD_REACTORS
330
3CC4
102
}
330
3C61
100
AcDbEntity
  8
WAKU
 48
2.0
100
AcDbLine
 10
21.49272858670958
 20
0.2978739507163937
 30
0.0
 11
21.96341932114666
 21
0.3176818654548015
 31
0.0
  0
LINE
  5
3CC7
102
{ACAD_REACTORS
330
3CC4
102
}
330
3C61
100
AcDbEntity
  8
WAKU
 48
2.0
100
AcDbLine
 10
21.66095859769217
 20
0.7430633924346921
 30
0.0
 11
21.59092147944244
 21
0.6353716177239904
 31
0.0
  0
LINE
  5
3CC8
102
{ACAD_REACTORS
330
3CC4
102
}
330
3C61
100
AcDbEntity
  8
WAKU
 48
2.0
100
AcDbLine
 10
21.54243424373095
 20
1.690748388216093
 30
0.0
 11
21.65018365642283
 21
1.475365494212837
 31
0.0
  0
LINE
  5
3CC9
102
{ACAD_REACTORS
330
3CC4
102
}
330
3C61
100
AcDbEntity
  8
WAKU
 48
2.0
100
AcDbLine
 10
21.67173353896129
 20
2.708434020686809
 30
0.0
 11
21.40236000723149
 21
1.986900440961449
 31
0.0
  0
LINE
  5
3CCA
102
{ACAD_REACTORS
330
3CC4
102
}
330
3C61
100
AcDbEntity
  8
WAKU
 48
2.0
100
AcDbLine
 10
21.58553400880788
 20
2.810740878952856
 30
0.0
 11
21.67173353896129
 21
2.708434020686809
 31
0.0
  0
LINE
  5
3CCB
330
3C61
100
AcDbEntity
  8
WAKU
 48
2.0
100
AcDbLine
 10
17.04821889760905
 20
3.08949484892139
 30
0.0
 11
17.61935945639612
 21
3.08949484892139
 31
0.0
  0
LINE
  5
3CCC
102
{ACAD_REACTORS
330
3CC4
102
}
330
3C61
100
AcDbEntity
  8
WAKU
 48
2.0
100
AcDbLine
 10
21.29211672897537
 20
0.3822962748629379
 30
0.0
 11
21.49272858670958
 21
0.2978739507163937
 31
0.0
  0
LINE
  5
3CCD
102
{ACAD_REACTORS
330
3CC4
102
}
330
3C61
100
AcDbEntity
  8
WAKU
 48
2.0
100
AcDbLine
 10
21.27056684643691
 20
0.4899880495736398
 30
0.0
 11
21.29211672897537
 21
0.3822962748629379
 31
0.0
  0
LINE
  5
3CCE
102
{ACAD_REACTORS
330
3CC4
102
}
330
3C61
100
AcDbEntity
  8
WAKU
 48
2.0
100
AcDbLine
 10
21.29201144958182
 20
0.5457139315370796
 30
0.0
 11
21.27056684643691
 21
0.4899880495736398
 31
0.0
  0
LINE
  5
3CCF
102
{ACAD_REACTORS
330
3CC4
102
}
330
3C61
100
AcDbEntity
  8
WAKU
 48
2.0
100
AcDbLine
 10
21.42390988976996
 20
0.5869106468132941
 30
0.0
 11
21.29201144958182
 21
0.5457139315370796
 31
0.0
  0
LINE
  5
3CD0
102
{ACAD_REACTORS
330
3CC4
102
}
330
3C61
100
AcDbEntity
  8
WAKU
 48
2.0
100
AcDbLine
 10
21.59092147944244
 20
0.6353716177239904
 30
0.0
 11
21.42390988976996
 21
0.5869106468132941
 31
0.0
  0
LINE
  5
3CD1
102
{ACAD_REACTORS
330
3CC4
102
}
330
3C61
100
AcDbEntity
  8
WAKU
 48
2.0
100
AcDbLine
 10
21.40236000723149
 20
1.857670311308538
 30
0.0
 11
21.54243424373095
 21
1.690748388216093
 31
0.0
  0
LINE
  5
3CD2
102
{ACAD_REACTORS
330
3CC4
102
}
330
3C61
100
AcDbEntity
  8
WAKU
 48
2.0
100
AcDbLine
 10
21.40236000723149
 20
1.986900440961449
 30
0.0
 11
21.40236000723149
 21
1.857670311308538
 31
0.0
  0
LINE
  5
3CD3
102
{ACAD_REACTORS
330
3CC4
102
}
330
3C61
100
AcDbEntity
  8
WAKU
 48
2.0
100
AcDbLine
 10
21.21669214009108
 20
2.810740878952856
 30
0.0
 11
21.58553400880788
 21
2.810740878952856
 31
0.0
  0
LINE
  5
3CD4
102
{ACAD_REACTORS
330
3CC4
102
}
330
3C61
100
AcDbEntity
  8
WAKU
 48
2.0
100
AcDbLine
 10
21.21669214009108
 20
0.053837345122588
 30
0.0
 11
21.21669214009108
 21
2.810740878952856
 31
0.0
  0
LINE
  5
3CD5
102
{ACAD_REACTORS
330
3CC4
102
}
330
3C61
100
AcDbEntity
  8
WAKU
 48
2.0
100
AcDbLine
 10
20.6456202528239
 20
0.053837345122588
 30
0.0
 11
21.21669214009108
 21
0.053837345122588
 31
0.0
  0
LINE
  5
3CD6
102
{ACAD_REACTORS
330
3CC4
102
}
330
3C61
100
AcDbEntity
  8
WAKU
 48
2.0
100
AcDbLine
 10
20.6456202528239
 20
3.03150803398239
 30
0.0
 11
20.6456202528239
 21
0.053837345122588
 31
0.0
  0
LINE
  5
3CD7
102
{ACAD_REACTORS
330
3CC4
102
}
330
3C61
100
AcDbEntity
  8
WAKU
 48
2.0
100
AcDbLine
 10
19.78773469236301
 20
2.613862408754698
 30
0.0
 11
18.99381172734496
 21
2.613862408754698
 31
0.0
  0
LINE
  5
3CD8
102
{ACAD_REACTORS
330
3CC4
102
}
330
3C61
100
AcDbEntity
  8
WAKU
 48
2.0
100
AcDbLine
 10
19.97963396762878
 20
1.852592786029049
 30
0.0
 11
20.45776601204631
 21
1.852592786029049
 31
0.0
  0
LINE
  5
3CD9
102
{ACAD_REACTORS
330
3CC4
102
}
330
3C61
100
AcDbEntity
  8
WAKU
 48
2.0
100
AcDbLine
 10
19.23434236407848
 20
1.852592786029049
 30
0.0
 11
19.49215750748402
 21
1.852592786029049
 31
0.0
  0
LINE
  5
3CDA
102
{ACAD_REACTORS
330
3CC4
102
}
330
3C61
100
AcDbEntity
  8
WAKU
 48
2.0
100
AcDbLine
 10
18.46479664435532
 20
2.613862408754698
 30
0.0
 11
18.29806464917993
 21
2.613862408754698
 31
0.0
  0
LINE
  5
3CDB
102
{ACAD_REACTORS
330
3CC4
102
}
330
3C61
100
AcDbEntity
  8
WAKU
 48
2.0
100
AcDbLine
 10
19.82173168365153
 20
1.05978181483897
 30
0.0
 11
18.87363758207704
 21
1.05978181483897
 31
0.0
  0
LINE
  5
3CDC
102
{ACAD_REACTORS
330
3CC4
102
}
330
3C61
100
AcDbEntity
  8
WAKU
 48
2.0
100
AcDbLine
 10
19.82173168365153
 20
0.3388499090784762
 30
0.0
 11
19.82173168365153
 21
1.05978181483897
 31
0.0
  0
LINE
  5
3CDD
102
{ACAD_REACTORS
330
3CC4
102
}
330
3C61
100
AcDbEntity
  8
WAKU
 48
2.0
100
AcDbLine
 10
18.87363758207704
 20
0.3388499090784762
 30
0.0
 11
19.82173168365153
 21
0.3388499090784762
 31
0.0
  0
LINE
  5
3CDE
102
{ACAD_REACTORS
330
3CC4
102
}
330
3C61
100
AcDbEntity
  8
WAKU
 48
2.0
100
AcDbLine
 10
18.87363758207704
 20
1.05978181483897
 30
0.0
 11
18.87363758207704
 21
0.3388499090784762
 31
0.0
  0
LINE
  5
3CDF
102
{ACAD_REACTORS
330
3CC4
102
}
330
3C61
100
AcDbEntity
  8
WAKU
 48
2.0
100
AcDbLine
 10
20.33181307724186
 20
1.288626999953862
 30
0.0
 11
18.38569772790634
 21
1.288626999953862
 31
0.0
  0
LINE
  5
3CE0
102
{ACAD_REACTORS
330
3CC4
102
}
330
3C61
100
AcDbEntity
  8
WAKU
 48
2.0
100
AcDbLine
 10
20.33181307724186
 20
0.1220906367242378
 30
0.0
 11
20.33181307724186
 21
1.288626999953862
 31
0.0
  0
LINE
  5
3CE1
102
{ACAD_REACTORS
330
3CC4
102
}
330
3C61
100
AcDbEntity
  8
WAKU
 48
2.0
100
AcDbLine
 10
18.38569772790634
 20
0.1220906367242378
 30
0.0
 11
20.33181307724186
 21
0.1220906367242378
 31
0.0
  0
LINE
  5
3CE2
102
{ACAD_REACTORS
330
3CC4
102
}
330
3C61
100
AcDbEntity
  8
WAKU
 48
2.0
100
AcDbLine
 10
18.38569772790634
 20
1.288626999953862
 30
0.0
 11
18.38569772790634
 21
0.1220906367242378
 31
0.0
  0
LINE
  5
3CE3
102
{ACAD_REACTORS
330
3CC4
102
}
330
3C61
100
AcDbEntity
  8
WAKU
 48
2.0
100
AcDbLine
 10
18.29099869674775
 20
1.577443611505373
 30
0.0
 11
18.29099869674775
 21
1.852592786029049
 31
0.0
  0
LINE
  5
3CE4
102
{ACAD_REACTORS
330
3CC4
102
}
330
3C61
100
AcDbEntity
  8
WAKU
 48
2.0
100
AcDbLine
 10
20.45776601204631
 20
1.577443611505373
 30
0.0
 11
18.29099869674775
 21
1.577443611505373
 31
0.0
  0
LINE
  5
3CE5
102
{ACAD_REACTORS
330
3CC4
102
}
330
3C61
100
AcDbEntity
  8
WAKU
 48
2.0
100
AcDbLine
 10
20.45776601204631
 20
1.852592786029049
 30
0.0
 11
20.45776601204631
 21
1.577443611505373
 31
0.0
  0
LINE
  5
3CE6
102
{ACAD_REACTORS
330
3CC4
102
}
330
3C61
100
AcDbEntity
  8
WAKU
 48
2.0
100
AcDbLine
 10
18.29099869674775
 20
1.852592786029049
 30
0.0
 11
18.69337397624764
 21
1.852592786029049
 31
0.0
  0
LINE
  5
3CE7
102
{ACAD_REACTORS
330
3CC4
102
}
330
3C61
100
AcDbEntity
  8
WAKU
 48
2.0
100
AcDbLine
 10
18.46479664435532
 20
2.613862408754698
 30
0.0
 11
18.69337397624764
 21
1.852592786029049
 31
0.0
  0
LINE
  5
3CE8
102
{ACAD_REACTORS
330
3CC4
102
}
330
3C61
100
AcDbEntity
  8
WAKU
 48
2.0
100
AcDbLine
 10
18.99381172734496
 20
2.613862408754698
 30
0.0
 11
19.23434236407848
 21
1.852592786029049
 31
0.0
  0
LINE
  5
3CE9
102
{ACAD_REACTORS
330
3CC4
102
}
330
3C61
100
AcDbEntity
  8
WAKU
 48
2.0
100
AcDbLine
 10
20.2527363118117
 20
2.613862408754698
 30
0.0
 11
19.97963396762878
 21
1.852592786029049
 31
0.0
  0
LINE
  5
3CEA
102
{ACAD_REACTORS
330
3CC4
102
}
330
3C61
100
AcDbEntity
  8
WAKU
 48
2.0
100
AcDbLine
 10
19.78773469236301
 20
2.613862408754698
 30
0.0
 11
19.49215750748402
 21
1.852592786029049
 31
0.0
  0
LINE
  5
3CEB
102
{ACAD_REACTORS
330
3CC4
102
}
330
3C61
100
AcDbEntity
  8
WAKU
 48
2.0
100
AcDbLine
 10
19.13857686814759
 20
2.880852936746805
 30
0.0
 11
19.13857686814759
 21
3.15883286274618
 31
0.0
  0
LINE
  5
3CEC
102
{ACAD_REACTORS
330
3CC4
102
}
330
3C61
100
AcDbEntity
  8
WAKU
 48
2.0
100
AcDbLine
 10
18.29806464917993
 20
2.880852936746805
 30
0.0
 11
19.13857686814759
 21
2.880852936746805
 31
0.0
  0
LINE
  5
3CED
102
{ACAD_REACTORS
330
3CC4
102
}
330
3C61
100
AcDbEntity
  8
WAKU
 48
2.0
100
AcDbLine
 10
18.29806464917993
 20
2.613862408754698
 30
0.0
 11
18.29806464917993
 21
2.880852936746805
 31
0.0
  0
LINE
  5
3CEE
102
{ACAD_REACTORS
330
3CC4
102
}
330
3C61
100
AcDbEntity
  8
WAKU
 48
2.0
100
AcDbLine
 10
20.49404263728189
 20
2.613862408754698
 30
0.0
 11
20.2527363118117
 21
2.613862408754698
 31
0.0
  0
LINE
  5
3CEF
102
{ACAD_REACTORS
330
3CC4
102
}
330
3C61
100
AcDbEntity
  8
WAKU
 48
2.0
100
AcDbLine
 10
20.49404263728189
 20
2.880852936746805
 30
0.0
 11
20.49404263728189
 21
2.613862408754698
 31
0.0
  0
LINE
  5
3CF0
102
{ACAD_REACTORS
330
3CC4
102
}
330
3C61
100
AcDbEntity
  8
WAKU
 48
2.0
100
AcDbLine
 10
19.70692798201418
 20
2.880852936746805
 30
0.0
 11
20.49404263728189
 21
2.880852936746805
 31
0.0
  0
LINE
  5
3CF1
102
{ACAD_REACTORS
330
3CC4
102
}
330
3C61
100
AcDbEntity
  8
WAKU
 48
2.0
100
AcDbLine
 10
19.70692798201418
 20
3.15883286274618
 30
0.0
 11
19.70692798201418
 21
2.880852936746805
 31
0.0
  0
LINE
  5
3CF2
102
{ACAD_REACTORS
330
3CC4
102
}
330
3C61
100
AcDbEntity
  8
WAKU
 48
2.0
100
AcDbLine
 10
19.13857686814759
 20
3.15883286274618
 30
0.0
 11
19.70692798201418
 21
3.15883286274618
 31
0.0
  0
LINE
  5
3CF3
330
3C61
100
AcDbEntity
  8
WAKU
 48
2.0
100
AcDbLine
 10
16.37843116176958
 20
0.8557199604838388
 30
0.0
 11
17.14385781395873
 21
0.1010431900605226
 31
0.0
  0
LINE
  5
3CF4
330
3C61
100
AcDbEntity
  8
WAKU
 48
2.0
100
AcDbLine
 10
17.14385781395873
 20
0.1010431900605226
 30
0.0
 11
17.77392451259749
 21
0.1010431900605226
 31
0.0
  0
LINE
  5
3CF5
330
3C61
100
AcDbEntity
  8
WAKU
 48
2.0
100
AcDbLine
 10
17.77392451259749
 20
0.1851751212827821
 30
0.0
 11
17.77392451259749
 21
0.1010431900605226
 31
0.0
  0
LINE
  5
3CF6
330
3C61
100
AcDbEntity
  8
WAKU
 48
2.0
100
AcDbLine
 10
17.12786640961775
 20
0.8557199604838388
 30
0.0
 11
17.77392451259749
 21
0.1851751212827821
 31
0.0
  0
LINE
  5
3CF7
330
3C61
100
AcDbEntity
  8
WAKU
 48
2.0
100
AcDbLine
 10
17.84350357390696
 20
0.8557199604838388
 30
0.0
 11
17.12786640961775
 21
0.8557199604838388
 31
0.0
  0
LINE
  5
3CF8
330
3C61
100
AcDbEntity
  8
WAKU
 48
2.0
100
AcDbLine
 10
17.84350357390696
 20
1.115430757834474
 30
0.0
 11
17.84350357390696
 21
0.8557199604838388
 31
0.0
  0
LINE
  5
3CF9
330
3C61
100
AcDbEntity
  8
WAKU
 48
2.0
100
AcDbLine
 10
17.7832881719508
 20
1.613099020403296
 30
0.0
 11
17.7832881719508
 21
1.387863879078395
 31
0.0
  0
LINE
  5
3CFA
330
3C61
100
AcDbEntity
  8
WAKU
 48
2.0
100
AcDbLine
 10
16.61224696764071
 20
2.756618405090648
 30
0.0
 11
16.76346898034075
 21
2.756618405090648
 31
0.0
  0
LINE
  5
3CFB
330
3C61
100
AcDbEntity
  8
WAKU
 48
2.0
100
AcDbLine
 10
16.61224696764071
 20
3.08949484892139
 30
0.0
 11
16.61224696764071
 21
2.756618405090648
 31
0.0
  0
LINE
  5
3CFC
330
3C61
100
AcDbEntity
  8
WAKU
 48
2.0
100
AcDbLine
 10
16.8086039580275
 20
2.127709306108954
 30
0.0
 11
17.85742023442236
 21
2.127709306108954
 31
0.0
  0
LINE
  5
3CFD
330
3C61
100
AcDbEntity
  8
WAKU
 48
2.0
100
AcDbLine
 10
16.5420534215886
 20
2.491766570122649
 30
0.0
 11
16.23063073689553
 21
2.127709306108954
 31
0.0
  0
LINE
  5
3CFE
330
3C61
100
AcDbEntity
  8
WAKU
 48
2.0
100
AcDbLine
 10
17.13886008365836
 20
2.491766570122649
 30
0.0
 11
16.8086039580275
 21
2.127709306108954
 31
0.0
  0
LINE
  5
3CFF
330
3C61
100
AcDbEntity
  8
WAKU
 48
2.0
100
AcDbLine
 10
17.31738914699673
 20
2.756618405090648
 30
0.0
 11
17.8338080989775
 21
2.756618405090648
 31
0.0
  0
LINE
  5
3D00
330
3C61
100
AcDbEntity
  8
WAKU
 48
2.0
100
AcDbLine
 10
17.61935945639612
 20
3.08949484892139
 30
0.0
 11
17.31738914699673
 21
2.756618405090648
 31
0.0
  0
LINE
  5
3D01
330
3C61
100
AcDbEntity
  8
WAKU
 48
2.0
100
AcDbLine
 10
17.04821889760905
 20
3.08949484892139
 30
0.0
 11
16.76346898034075
 21
2.756618405090648
 31
0.0
  0
LINE
  5
3D02
330
3C61
100
AcDbEntity
  8
WAKU
 48
2.0
100
AcDbLine
 10
17.85742023442236
 20
2.127709306108954
 30
0.0
 11
17.85742023442236
 21
1.934939643537859
 31
0.0
  0
LINE
  5
3D03
330
3C61
100
AcDbEntity
  8
WAKU
 48
2.0
100
AcDbLine
 10
17.8338080989775
 20
2.491766570122649
 30
0.0
 11
17.13886008365836
 21
2.491766570122649
 31
0.0
  0
LINE
  5
3D04
330
3C61
100
AcDbEntity
  8
WAKU
 48
2.0
100
AcDbLine
 10
17.8338080989775
 20
2.756618405090648
 30
0.0
 11
17.8338080989775
 21
2.491766570122649
 31
0.0
  0
LINE
  5
3D05
102
{ACAD_REACTORS
330
3CC4
102
}
330
3C61
100
AcDbEntity
  8
WAKU
 48
2.0
100
AcDbLine
 10
22.02268149812704
 20
3.009969679040295
 30
0.0
 11
21.76408290766659
 21
3.03150803398239
 31
0.0
  0
LINE
  5
3D06
102
{ACAD_REACTORS
330
3CC4
102
}
330
3C61
100
AcDbEntity
  8
WAKU
 48
2.0
100
AcDbLine
 10
22.10888102828068
 20
2.961508708129599
 30
0.0
 11
22.02268149812704
 21
3.009969679040295
 31
0.0
  0
LINE
  5
3D07
102
{ACAD_REACTORS
330
3CC4
102
}
330
3C61
100
AcDbEntity
  8
WAKU
 48
2.0
100
AcDbLine
 10
22.15736826399194
 20
2.810740878952856
 30
0.0
 11
22.10888102828068
 21
2.961508708129599
 31
0.0
  0
LINE
  5
3D08
102
{ACAD_REACTORS
330
3CC4
102
}
330
3C61
100
AcDbEntity
  8
WAKU
 48
2.0
100
AcDbLine
 10
21.93648196797363
 20
1.927670292579705
 30
0.0
 11
22.15736826399194
 21
2.810740878952856
 31
0.0
  0
LINE
  5
3D09
102
{ACAD_REACTORS
330
3CC4
102
}
330
3C61
100
AcDbEntity
  8
WAKU
 48
2.0
100
AcDbLine
 10
22.04961885130007
 20
1.760748369487146
 30
0.0
 11
21.93648196797363
 21
1.927670292579705
 31
0.0
  0
LINE
  5
3D0A
102
{ACAD_REACTORS
330
3CC4
102
}
330
3C61
100
AcDbEntity
  8
WAKU
 48
2.0
100
AcDbLine
 10
22.16814320526129
 20
1.37305863594679
 30
0.0
 11
22.04961885130007
 21
1.760748369487146
 31
0.0
  0
LINE
  5
3D0B
102
{ACAD_REACTORS
330
3CC4
102
}
330
3C61
100
AcDbEntity
  8
WAKU
 48
2.0
100
AcDbLine
 10
22.20585549970343
 20
0.8292161567848097
 30
0.0
 11
22.16814320526129
 21
1.37305863594679
 31
0.0
  0
LINE
  5
3D0C
102
{ACAD_REACTORS
330
3CC4
102
}
330
3C61
100
AcDbEntity
  8
WAKU
 48
2.0
100
AcDbLine
 10
22.15452891558635
 20
0.5214222797100092
 30
0.0
 11
22.20585549970343
 21
0.8292161567848097
 31
0.0
  0
LINE
  5
3D0D
102
{ACAD_REACTORS
330
3CC4
102
}
330
3C61
100
AcDbEntity
  8
WAKU
 48
2.0
100
AcDbLine
 10
21.96341932114666
 20
0.3176818654548015
 30
0.0
 11
22.15452891558635
 21
0.5214222797100092
 31
0.0
  0
LINE
  5
3D0E
102
{ACAD_REACTORS
330
3CC4
102
}
330
3C61
100
AcDbEntity
  8
WAKU
 48
2.0
100
AcDbLine
 10
21.69867195245121
 20
0.9422928479403935
 30
0.0
 11
21.66095859769217
 21
0.7430633924346921
 31
0.0
  0
LINE
  5
3D0F
102
{ACAD_REACTORS
330
3CC4
102
}
330
3C61
100
AcDbEntity
  8
WAKU
 48
2.0
100
AcDbLine
 10
21.69328342149976
 20
1.195367535383297
 30
0.0
 11
21.69867195245121
 21
0.9422928479403935
 31
0.0
  0
LINE
  5
3D10
102
{ACAD_REACTORS
330
3CC4
102
}
330
3C61
100
AcDbEntity
  8
WAKU
 48
2.0
100
AcDbLine
 10
21.65018365642283
 20
1.475365494212837
 30
0.0
 11
21.69328342149976
 21
1.195367535383297
 31
0.0
  0
HATCH
  5
3D11
330
3C61
100
AcDbEntity
  8
WAKU
 48
2.0
100
AcDbHatch
 10
0.0
 20
0.0
 30
0.0
210
0.0
220
0.0
230
1.0
  2
SOLID
 70
     1
 71
     1
 91
        3
 92
        7
 72
     0
 73
     1
 93
       18
 10
6.599169252445165
 20
2.978104279062563
 10
4.861815474328579
 20
2.978104279062563
 10
4.861815474328579
 20
2.725886878707116
 10
5.519817199266356
 20
2.725886878707118
 10
5.771599278801943
 20
2.318459224191654
 10
4.784168461029651
 20
2.318459224191656
 10
4.784168461029651
 20
-0.0000002966870625
 10
5.453874215811595
 20
-0.0000002966870625
 10
5.453874215811595
 20
2.066241823836207
 10
8.899464407136747
 20
2.066241823836206
 10
8.899464407136804
 20
2.318459224191656
 10
8.038551786085122
 20
2.318459224191657
 10
8.277316280569948
 20
2.725886878707115
 10
8.909170548878421
 20
2.725886878707115
 10
8.909170548878478
 20
2.978104279062565
 10
7.181522912503453
 20
2.978104279062565
 10
7.18152291250351
 20
3.240022525121164
 10
6.599169252445165
 20
3.240022525121162
 97
       18
330
3D14
330
3D2C
330
3D2D
330
3D2E
330
3D30
330
3D2F
330
3D21
330
3D2B
330
3D29
330
3D26
330
3D27
330
3D28
330
3D17
330
3D3D
330
3D3A
330
3D3E
330
3D40
330
3D41
 92
       23
 72
     0
 73
     1
 93
        4
 10
7.726438777341513
 20
2.725886878707115
 10
6.099030281016439
 20
2.725886878707116
 10
6.350812360551969
 20
2.318459224191657
 10
7.487674282856573
 20
2.318459224191656
 97
        4
330
3D3F
330
3D15
330
3D2A
330
3D16
 92
        7
 72
     0
 73
     1
 93
       26
 10
7.763875512244851
 20
1.231984823398988
 10
8.880053183970687
 20
1.231984823398988
 10
8.880053183970687
 20
1.51330410544574
 10
7.763875512244851
 20
1.51330410544574
 10
7.763875512244851
 20
1.764944298685691
 10
7.171816770761836
 20
1.764944298685579
 10
7.171816770761893
 20
1.513304105445742
 10
6.385639435714722
 20
1.51330410544574
 10
6.385639435714722
 20
1.794046180376881
 10
5.842110342622675
 20
1.794046180376996
 10
5.842110342622618
 20
1.231984823398988
 10
7.171816770761836
 20
1.231984823398988
 10
7.171816770761893
 20
0.8924611225511398
 10
5.880933849272253
 20
0.8924611225511398
 10
5.880933849272309
 20
0.6402437221956934
 10
7.171816770761836
 20
0.6402437221956916
 10
7.171816770761836
 20
0.2425162579652333
 10
5.842110342622675
 20
0.2425162579652351
 10
5.842110342622675
 20
-0.0000002966870642
 10
8.880053183970687
 20
-0.0000002966870625
 10
8.880053183970687
 20
0.2425162579652351
 10
7.763875512244851
 20
0.2425162579652351
 10
7.763875512244851
 20
0.6402437221956934
 10
8.870347042229127
 20
0.6402437221956934
 10
8.87034704222907
 20
0.8924611225511398
 10
7.763875512244908
 20
0.8924611225511398
 97
       26
330
3D3B
330
3D3C
330
3D35
330
3D39
330
3D12
330
3D20
330
3D25
330
3D22
330
3D23
330
3D24
330
3D1B
330
3D18
330
3D1F
330
3D1E
330
3D1A
330
3D19
330
3D1D
330
3D1C
330
3D13
330
3D36
330
3D33
330
3D32
330
3D37
330
3D38
330
3D34
330
3D31
 75
     0
 76
     1
 47
0.0366028688351672
 98
        3
 10
6.864855714998782
 20
2.896491786289516
 10
6.864855714998782
 20
2.896491786289516
 10
7.670550811896362
 20
1.17615669408633
450
        0
451
        0
460
0.0
461
0.0
452
        0
462
0.0
453
        0
470

  0
LINE
  5
3D12
102
{ACAD_REACTORS
330
3D11
102
}
330
3C61
100
AcDbEntity
  8
WAKU
 48
2.0
100
AcDbLine
 10
7.171816770761836
 20
1.764944298685577
 30
0.0
 11
7.763875512244851
 21
1.764944298685691
 31
0.0
  0
LINE
  5
3D13
102
{ACAD_REACTORS
330
3D11
102
}
330
3C61
100
AcDbEntity
  8
WAKU
 48
2.0
100
AcDbLine
 10
8.880053183970687
 20
-0.0000002966870625
 30
0.0
 11
5.842110342622675
 21
-0.0000002966870625
 31
0.0
  0
LINE
  5
3D14
102
{ACAD_REACTORS
330
3D11
102
}
330
3C61
100
AcDbEntity
  8
WAKU
 48
2.0
100
AcDbLine
 10
7.181522912503453
 20
2.978104279062563
 30
0.0
 11
8.909170548878421
 21
2.978104279062563
 31
0.0
  0
LINE
  5
3D15
102
{ACAD_REACTORS
330
3D11
102
}
330
3C61
100
AcDbEntity
  8
WAKU
 48
2.0
100
AcDbLine
 10
6.350812360552083
 20
2.318459224191656
 30
0.0
 11
7.487674282856403
 21
2.318459224191656
 31
0.0
  0
LINE
  5
3D16
102
{ACAD_REACTORS
330
3D11
102
}
330
3C61
100
AcDbEntity
  8
WAKU
 48
2.0
100
AcDbLine
 10
7.726438777341343
 20
2.725886878707115
 30
0.0
 11
6.099030281016382
 21
2.725886878707115
 31
0.0
  0
LINE
  5
3D17
102
{ACAD_REACTORS
330
3D11
102
}
330
3C61
100
AcDbEntity
  8
WAKU
 48
2.0
100
AcDbLine
 10
8.899464407136804
 20
2.066241823836207
 30
0.0
 11
5.453874215811595
 21
2.066241823836207
 31
0.0
  0
LINE
  5
3D18
102
{ACAD_REACTORS
330
3D11
102
}
330
3C61
100
AcDbEntity
  8
WAKU
 48
2.0
100
AcDbLine
 10
7.171816770761836
 20
1.231984823398988
 30
0.0
 11
7.171816770761836
 21
0.8924611225511398
 31
0.0
  0
LINE
  5
3D19
102
{ACAD_REACTORS
330
3D11
102
}
330
3C61
100
AcDbEntity
  8
WAKU
 48
2.0
100
AcDbLine
 10
7.171816770761836
 20
0.6402437221956916
 30
0.0
 11
7.171816770761836
 21
0.2425162579652351
 31
0.0
  0
LINE
  5
3D1A
102
{ACAD_REACTORS
330
3D11
102
}
330
3C61
100
AcDbEntity
  8
WAKU
 48
2.0
100
AcDbLine
 10
7.171816770761836
 20
0.6402437221956916
 30
0.0
 11
5.880933849272253
 21
0.6402437221956916
 31
0.0
  0
LINE
  5
3D1B
102
{ACAD_REACTORS
330
3D11
102
}
330
3C61
100
AcDbEntity
  8
WAKU
 48
2.0
100
AcDbLine
 10
7.171816770761836
 20
1.231984823398988
 30
0.0
 11
5.842110342622675
 21
1.231984823398988
 31
0.0
  0
LINE
  5
3D1C
102
{ACAD_REACTORS
330
3D11
102
}
330
3C61
100
AcDbEntity
  8
WAKU
 48
2.0
100
AcDbLine
 10
5.842110342622675
 20
-0.0000002966870625
 30
0.0
 11
5.842110342622675
 21
0.2425162579652351
 31
0.0
  0
LINE
  5
3D1D
102
{ACAD_REACTORS
330
3D11
102
}
330
3C61
100
AcDbEntity
  8
WAKU
 48
2.0
100
AcDbLine
 10
5.842110342622675
 20
0.2425162579652351
 30
0.0
 11
7.171816770761836
 21
0.2425162579652351
 31
0.0
  0
LINE
  5
3D1E
102
{ACAD_REACTORS
330
3D11
102
}
330
3C61
100
AcDbEntity
  8
WAKU
 48
2.0
100
AcDbLine
 10
5.880933849272253
 20
0.8924611225511398
 30
0.0
 11
5.880933849272253
 21
0.6402437221956916
 31
0.0
  0
LINE
  5
3D1F
102
{ACAD_REACTORS
330
3D11
102
}
330
3C61
100
AcDbEntity
  8
WAKU
 48
2.0
100
AcDbLine
 10
5.880933849272253
 20
0.8924611225511398
 30
0.0
 11
7.171816770761836
 21
0.8924611225511398
 31
0.0
  0
LINE
  5
3D20
102
{ACAD_REACTORS
330
3D11
102
}
330
3C61
100
AcDbEntity
  8
WAKU
 48
2.0
100
AcDbLine
 10
7.171816770761836
 20
1.764944298685577
 30
0.0
 11
7.171816770761836
 21
1.51330410544574
 31
0.0
  0
LINE
  5
3D21
102
{ACAD_REACTORS
330
3D11
102
}
330
3C61
100
AcDbEntity
  8
WAKU
 48
2.0
100
AcDbLine
 10
5.519817199266356
 20
2.725886878707115
 30
0.0
 11
4.861815474328579
 21
2.725886878707115
 31
0.0
  0
LINE
  5
3D22
102
{ACAD_REACTORS
330
3D11
102
}
330
3C61
100
AcDbEntity
  8
WAKU
 48
2.0
100
AcDbLine
 10
6.385639435714722
 20
1.794046180376881
 30
0.0
 11
6.385639435714722
 21
1.51330410544574
 31
0.0
  0
LINE
  5
3D23
102
{ACAD_REACTORS
330
3D11
102
}
330
3C61
100
AcDbEntity
  8
WAKU
 48
2.0
100
AcDbLine
 10
5.842110342622675
 20
1.794046180376994
 30
0.0
 11
6.385639435714722
 21
1.794046180376881
 31
0.0
  0
LINE
  5
3D24
102
{ACAD_REACTORS
330
3D11
102
}
330
3C61
100
AcDbEntity
  8
WAKU
 48
2.0
100
AcDbLine
 10
5.842110342622675
 20
1.231984823398988
 30
0.0
 11
5.842110342622675
 21
1.794046180376994
 31
0.0
  0
LINE
  5
3D25
102
{ACAD_REACTORS
330
3D11
102
}
330
3C61
100
AcDbEntity
  8
WAKU
 48
2.0
100
AcDbLine
 10
6.385639435714722
 20
1.51330410544574
 30
0.0
 11
7.171816770761836
 21
1.51330410544574
 31
0.0
  0
LINE
  5
3D26
102
{ACAD_REACTORS
330
3D11
102
}
330
3C61
100
AcDbEntity
  8
WAKU
 48
2.0
100
AcDbLine
 10
4.784168461029651
 20
-0.0000002966870625
 30
0.0
 11
4.784168461029651
 21
2.318459224191656
 31
0.0
  0
LINE
  5
3D27
102
{ACAD_REACTORS
330
3D11
102
}
330
3C61
100
AcDbEntity
  8
WAKU
 48
2.0
100
AcDbLine
 10
5.453874215811595
 20
-0.0000002966870625
 30
0.0
 11
4.784168461029651
 21
-0.0000002966870625
 31
0.0
  0
LINE
  5
3D28
102
{ACAD_REACTORS
330
3D11
102
}
330
3C61
100
AcDbEntity
  8
WAKU
 48
2.0
100
AcDbLine
 10
5.453874215811595
 20
2.066241823836207
 30
0.0
 11
5.453874215811595
 21
-0.0000002966870625
 31
0.0
  0
LINE
  5
3D29
102
{ACAD_REACTORS
330
3D11
102
}
330
3C61
100
AcDbEntity
  8
WAKU
 48
2.0
100
AcDbLine
 10
4.784168461029651
 20
2.318459224191656
 30
0.0
 11
5.771599278801943
 21
2.318459224191656
 31
0.0
  0
LINE
  5
3D2A
102
{ACAD_REACTORS
330
3D11
102
}
330
3C61
100
AcDbEntity
  8
WAKU
 48
2.0
100
AcDbLine
 10
6.099030281016382
 20
2.725886878707115
 30
0.0
 11
6.350812360551969
 21
2.318459224191656
 31
0.0
  0
LINE
  5
3D2B
102
{ACAD_REACTORS
330
3D11
102
}
330
3C61
100
AcDbEntity
  8
WAKU
 48
2.0
100
AcDbLine
 10
5.519817199266356
 20
2.725886878707115
 30
0.0
 11
5.771599278801943
 21
2.318459224191656
 31
0.0
  0
LINE
  5
3D2C
102
{ACAD_REACTORS
330
3D11
102
}
330
3C61
100
AcDbEntity
  8
WAKU
 48
2.0
100
AcDbLine
 10
7.181522912503453
 20
3.240022525121162
 30
0.0
 11
7.181522912503453
 21
2.978104279062563
 31
0.0
  0
LINE
  5
3D2D
102
{ACAD_REACTORS
330
3D11
102
}
330
3C61
100
AcDbEntity
  8
WAKU
 48
2.0
100
AcDbLine
 10
6.599169252445165
 20
3.240022525121162
 30
0.0
 11
7.181522912503453
 21
3.240022525121162
 31
0.0
  0
LINE
  5
3D2E
102
{ACAD_REACTORS
330
3D11
102
}
330
3C61
100
AcDbEntity
  8
WAKU
 48
2.0
100
AcDbLine
 10
6.599169252445165
 20
3.240022525121162
 30
0.0
 11
6.599169252445165
 21
2.978104279062563
 31
0.0
  0
LINE
  5
3D2F
102
{ACAD_REACTORS
330
3D11
102
}
330
3C61
100
AcDbEntity
  8
WAKU
 48
2.0
100
AcDbLine
 10
4.861815474328579
 20
2.725886878707115
 30
0.0
 11
4.861815474328579
 21
2.978104279062563
 31
0.0
  0
LINE
  5
3D30
102
{ACAD_REACTORS
330
3D11
102
}
330
3C61
100
AcDbEntity
  8
WAKU
 48
2.0
100
AcDbLine
 10
4.861815474328579
 20
2.978104279062563
 30
0.0
 11
6.599169252445165
 21
2.978104279062563
 31
0.0
  0
LINE
  5
3D31
102
{ACAD_REACTORS
330
3D11
102
}
330
3C61
100
AcDbEntity
  8
WAKU
 48
2.0
100
AcDbLine
 10
7.763875512244851
 20
1.231984823398988
 30
0.0
 11
7.763875512244851
 21
0.8924611225511398
 31
0.0
  0
LINE
  5
3D32
102
{ACAD_REACTORS
330
3D11
102
}
330
3C61
100
AcDbEntity
  8
WAKU
 48
2.0
100
AcDbLine
 10
7.763875512244851
 20
0.6402437221956916
 30
0.0
 11
7.763875512244851
 21
0.2425162579652351
 31
0.0
  0
LINE
  5
3D33
102
{ACAD_REACTORS
330
3D11
102
}
330
3C61
100
AcDbEntity
  8
WAKU
 48
2.0
100
AcDbLine
 10
7.763875512244851
 20
0.2425162579652351
 30
0.0
 11
8.880053183970687
 21
0.2425162579652351
 31
0.0
  0
LINE
  5
3D34
102
{ACAD_REACTORS
330
3D11
102
}
330
3C61
100
AcDbEntity
  8
WAKU
 48
2.0
100
AcDbLine
 10
7.763875512244851
 20
0.8924611225511398
 30
0.0
 11
8.87034704222907
 21
0.8924611225511398
 31
0.0
  0
LINE
  5
3D35
102
{ACAD_REACTORS
330
3D11
102
}
330
3C61
100
AcDbEntity
  8
WAKU
 48
2.0
100
AcDbLine
 10
7.763875512244851
 20
1.51330410544574
 30
0.0
 11
8.880053183970687
 21
1.51330410544574
 31
0.0
  0
LINE
  5
3D36
102
{ACAD_REACTORS
330
3D11
102
}
330
3C61
100
AcDbEntity
  8
WAKU
 48
2.0
100
AcDbLine
 10
8.880053183970687
 20
0.2425162579652351
 30
0.0
 11
8.880053183970687
 21
-0.0000002966870625
 31
0.0
  0
LINE
  5
3D37
102
{ACAD_REACTORS
330
3D11
102
}
330
3C61
100
AcDbEntity
  8
WAKU
 48
2.0
100
AcDbLine
 10
8.87034704222907
 20
0.6402437221956916
 30
0.0
 11
7.763875512244851
 21
0.6402437221956916
 31
0.0
  0
LINE
  5
3D38
102
{ACAD_REACTORS
330
3D11
102
}
330
3C61
100
AcDbEntity
  8
WAKU
 48
2.0
100
AcDbLine
 10
8.87034704222907
 20
0.8924611225511398
 30
0.0
 11
8.87034704222907
 21
0.6402437221956916
 31
0.0
  0
LINE
  5
3D39
102
{ACAD_REACTORS
330
3D11
102
}
330
3C61
100
AcDbEntity
  8
WAKU
 48
2.0
100
AcDbLine
 10
7.763875512244851
 20
1.764944298685691
 30
0.0
 11
7.763875512244851
 21
1.51330410544574
 31
0.0
  0
LINE
  5
3D3A
102
{ACAD_REACTORS
330
3D11
102
}
330
3C61
100
AcDbEntity
  8
WAKU
 48
2.0
100
AcDbLine
 10
8.038551786085065
 20
2.318459224191656
 30
0.0
 11
8.899464407136804
 21
2.318459224191656
 31
0.0
  0
LINE
  5
3D3B
102
{ACAD_REACTORS
330
3D11
102
}
330
3C61
100
AcDbEntity
  8
WAKU
 48
2.0
100
AcDbLine
 10
8.880053183970687
 20
1.231984823398988
 30
0.0
 11
7.763875512244851
 21
1.231984823398988
 31
0.0
  0
LINE
  5
3D3C
102
{ACAD_REACTORS
330
3D11
102
}
330
3C61
100
AcDbEntity
  8
WAKU
 48
2.0
100
AcDbLine
 10
8.880053183970687
 20
1.51330410544574
 30
0.0
 11
8.880053183970687
 21
1.231984823398988
 31
0.0
  0
LINE
  5
3D3D
102
{ACAD_REACTORS
330
3D11
102
}
330
3C61
100
AcDbEntity
  8
WAKU
 48
2.0
100
AcDbLine
 10
8.899464407136804
 20
2.318459224191656
 30
0.0
 11
8.899464407136804
 21
2.066241823836207
 31
0.0
  0
LINE
  5
3D3E
102
{ACAD_REACTORS
330
3D11
102
}
330
3C61
100
AcDbEntity
  8
WAKU
 48
2.0
100
AcDbLine
 10
8.277316280570005
 20
2.725886878707115
 30
0.0
 11
8.038551786085065
 21
2.318459224191656
 31
0.0
  0
LINE
  5
3D3F
102
{ACAD_REACTORS
330
3D11
102
}
330
3C61
100
AcDbEntity
  8
WAKU
 48
2.0
100
AcDbLine
 10
7.726438777341456
 20
2.725886878707115
 30
0.0
 11
7.487674282856517
 21
2.318459224191656
 31
0.0
  0
LINE
  5
3D40
102
{ACAD_REACTORS
330
3D11
102
}
330
3C61
100
AcDbEntity
  8
WAKU
 48
2.0
100
AcDbLine
 10
8.909170548878421
 20
2.725886878707115
 30
0.0
 11
8.277316280570005
 21
2.725886878707115
 31
0.0
  0
LINE
  5
3D41
102
{ACAD_REACTORS
330
3D11
102
}
330
3C61
100
AcDbEntity
  8
WAKU
 48
2.0
100
AcDbLine
 10
8.909170548878421
 20
2.978104279062563
 30
0.0
 11
8.909170548878421
 21
2.725886878707115
 31
0.0
  0
LINE
  5
3D42
102
{ACAD_REACTORS
330
3D5C
102
}
330
3C61
100
AcDbEntity
  8
WAKU
 48
2.0
100
AcDbLine
 10
4.115397439683931
 20
-0.0000002966870625
 30
0.0
 11
-0.0000003248666758
 21
-0.0000002966870625
 31
0.0
  0
LINE
  5
3D43
102
{ACAD_REACTORS
330
3D5C
102
}
330
3C61
100
AcDbEntity
  8
WAKU
 48
2.0
100
AcDbLine
 10
1.901307714044435
 20
2.406902349753202
 30
0.0
 11
1.901307714044321
 21
1.672880782032137
 31
0.0
  0
LINE
  5
3D44
102
{ACAD_REACTORS
330
3D5C
102
}
330
3C61
100
AcDbEntity
  8
WAKU
 48
2.0
100
AcDbLine
 10
1.901307714044435
 20
1.280401336388351
 30
0.0
 11
1.901307714044435
 21
0.4354176349621853
 31
0.0
  0
LINE
  5
3D45
102
{ACAD_REACTORS
330
3D5C
102
}
330
3C61
100
AcDbEntity
  8
WAKU
 48
2.0
100
AcDbLine
 10
1.901307714044435
 20
1.280401336388351
 30
0.0
 11
0.0525925581537763
 21
1.280401336388351
 31
0.0
  0
LINE
  5
3D46
102
{ACAD_REACTORS
330
3D5C
102
}
330
3C61
100
AcDbEntity
  8
WAKU
 48
2.0
100
AcDbLine
 10
1.901307714044435
 20
2.406902349753202
 30
0.0
 11
-0.0000003248666758
 21
2.406902349753202
 31
0.0
  0
LINE
  5
3D47
102
{ACAD_REACTORS
330
3D5C
102
}
330
3C61
100
AcDbEntity
  8
WAKU
 48
2.0
100
AcDbLine
 10
-0.0000003248666758
 20
-0.0000002966870625
 30
0.0
 11
-0.0000003248666758
 21
0.4354176349621924
 31
0.0
  0
LINE
  5
3D48
102
{ACAD_REACTORS
330
3D5C
102
}
330
3C61
100
AcDbEntity
  8
WAKU
 48
2.0
100
AcDbLine
 10
-0.0000003248666758
 20
0.4354176349621924
 30
0.0
 11
1.901307714044435
 21
0.4354176349621853
 31
0.0
  0
LINE
  5
3D49
102
{ACAD_REACTORS
330
3D5C
102
}
330
3C61
100
AcDbEntity
  8
WAKU
 48
2.0
100
AcDbLine
 10
0.0525925581537763
 20
1.672880782032137
 30
0.0
 11
0.0525925581537763
 21
1.280401336388351
 31
0.0
  0
LINE
  5
3D4A
102
{ACAD_REACTORS
330
3D5C
102
}
330
3C61
100
AcDbEntity
  8
WAKU
 48
2.0
100
AcDbLine
 10
0.0525925581537763
 20
1.672880782032137
 30
0.0
 11
1.901307714044321
 21
1.672880782032137
 31
0.0
  0
LINE
  5
3D4B
102
{ACAD_REACTORS
330
3D5C
102
}
330
3C61
100
AcDbEntity
  8
WAKU
 48
2.0
100
AcDbLine
 10
1.901307714044435
 20
3.238155914628123
 30
0.0
 11
1.901307714044435
 21
2.780207329342871
 31
0.0
  0
LINE
  5
3D4C
102
{ACAD_REACTORS
330
3D5C
102
}
330
3C61
100
AcDbEntity
  8
WAKU
 48
2.0
100
AcDbLine
 10
0.6363000374163335
 20
3.238155914628123
 30
0.0
 11
0.6363000374163335
 21
2.780207329342871
 31
0.0
  0
LINE
  5
3D4D
102
{ACAD_REACTORS
330
3D5C
102
}
330
3C61
100
AcDbEntity
  8
WAKU
 48
2.0
100
AcDbLine
 10
-0.0000003248666758
 20
2.406902349753202
 30
0.0
 11
-0.0000003248666758
 21
3.238155914628123
 31
0.0
  0
LINE
  5
3D4E
102
{ACAD_REACTORS
330
3D5C
102
}
330
3C61
100
AcDbEntity
  8
WAKU
 48
2.0
100
AcDbLine
 10
0.6363000374163335
 20
2.780207329342871
 30
0.0
 11
1.901307714044435
 21
2.780207329342871
 31
0.0
  0
LINE
  5
3D4F
102
{ACAD_REACTORS
330
3D5C
102
}
330
3C61
100
AcDbEntity
  8
WAKU
 48
2.0
100
AcDbLine
 10
2.503349539196335
 20
2.406902349753195
 30
0.0
 11
2.503349539196335
 21
1.672880782032137
 31
0.0
  0
LINE
  5
3D50
102
{ACAD_REACTORS
330
3D5C
102
}
330
3C61
100
AcDbEntity
  8
WAKU
 48
2.0
100
AcDbLine
 10
2.503349539196221
 20
1.280401336388351
 30
0.0
 11
2.503349539196335
 21
0.4354176349621924
 31
0.0
  0
LINE
  5
3D51
102
{ACAD_REACTORS
330
3D5C
102
}
330
3C61
100
AcDbEntity
  8
WAKU
 48
2.0
100
AcDbLine
 10
2.503349539196335
 20
0.4354176349621924
 30
0.0
 11
4.115397439683931
 21
0.4354176349621924
 31
0.0
  0
LINE
  5
3D52
102
{ACAD_REACTORS
330
3D5C
102
}
330
3C61
100
AcDbEntity
  8
WAKU
 48
2.0
100
AcDbLine
 10
2.503349539196335
 20
1.672880782032137
 30
0.0
 11
4.102248859835128
 21
1.672880782032137
 31
0.0
  0
LINE
  5
3D53
102
{ACAD_REACTORS
330
3D5C
102
}
330
3C61
100
AcDbEntity
  8
WAKU
 48
2.0
100
AcDbLine
 10
2.503349539196335
 20
2.780207329342871
 30
0.0
 11
4.115397439683931
 21
2.780207329342871
 31
0.0
  0
LINE
  5
3D54
102
{ACAD_REACTORS
330
3D5C
102
}
330
3C61
100
AcDbEntity
  8
WAKU
 48
2.0
100
AcDbLine
 10
4.115397439683931
 20
0.4354176349621924
 30
0.0
 11
4.115397439683931
 21
-0.0000002966870625
 31
0.0
  0
LINE
  5
3D55
102
{ACAD_REACTORS
330
3D5C
102
}
330
3C61
100
AcDbEntity
  8
WAKU
 48
2.0
100
AcDbLine
 10
4.102248859835128
 20
1.280401336388351
 30
0.0
 11
2.503349539196221
 21
1.280401336388351
 31
0.0
  0
LINE
  5
3D56
102
{ACAD_REACTORS
330
3D5C
102
}
330
3C61
100
AcDbEntity
  8
WAKU
 48
2.0
100
AcDbLine
 10
4.102248859835128
 20
1.672880782032137
 30
0.0
 11
4.102248859835128
 21
1.280401336388351
 31
0.0
  0
LINE
  5
3D57
102
{ACAD_REACTORS
330
3D5C
102
}
330
3C61
100
AcDbEntity
  8
WAKU
 48
2.0
100
AcDbLine
 10
2.503349539196335
 20
3.238155914628123
 30
0.0
 11
2.503349539196335
 21
2.780207329342871
 31
0.0
  0
LINE
  5
3D58
102
{ACAD_REACTORS
330
3D5C
102
}
330
3C61
100
AcDbEntity
  8
WAKU
 48
2.0
100
AcDbLine
 10
4.115397439683931
 20
2.406902349753202
 30
0.0
 11
2.503349539196335
 21
2.406902349753195
 31
0.0
  0
LINE
  5
3D59
102
{ACAD_REACTORS
330
3D5C
102
}
330
3C61
100
AcDbEntity
  8
WAKU
 48
2.0
100
AcDbLine
 10
4.115397439683931
 20
2.780207329342871
 30
0.0
 11
4.115397439683931
 21
2.406902349753202
 31
0.0
  0
LINE
  5
3D5A
102
{ACAD_REACTORS
330
3D5C
102
}
330
3C61
100
AcDbEntity
  8
WAKU
 48
2.0
100
AcDbLine
 10
-0.0000003248666758
 20
3.238155914628123
 30
0.0
 11
0.6363000374163335
 21
3.238155914628123
 31
0.0
  0
LINE
  5
3D5B
102
{ACAD_REACTORS
330
3D5C
102
}
330
3C61
100
AcDbEntity
  8
WAKU
 48
2.0
100
AcDbLine
 10
1.901307714044435
 20
3.238155914628123
 30
0.0
 11
2.503349539196335
 21
3.238155914628123
 31
0.0
  0
HATCH
  5
3D5C
330
3C61
100
AcDbEntity
  8
WAKU
 48
2.0
100
AcDbHatch
 10
0.0
 20
0.0
 30
0.0
210
0.0
220
0.0
230
1.0
  2
SOLID
 70
     1
 71
     1
 91
        1
 92
        7
 72
     0
 73
     1
 93
       26
 10
2.503349539196335
 20
2.406902349753195
 10
4.115397439683931
 20
2.406902349753201
 10
4.115397439683874
 20
2.78020732934287
 10
2.503349539196392
 20
2.78020732934287
 10
2.503349539196335
 20
3.238155914628121
 10
1.901307714044378
 20
3.238155914628123
 10
1.901307714044435
 20
2.780207329342871
 10
0.6363000374163335
 20
2.780207329342871
 10
0.6363000374163335
 20
3.238155914628123
 10
-0.0000003248667326
 20
3.238155914628121
 10
-0.0000003248665621
 20
2.406902349753202
 10
1.901307714044492
 20
2.406902349753202
 10
1.901307714044321
 20
1.672880782032136
 10
0.0525925581537763
 20
1.672880782032136
 10
0.0525925581537763
 20
1.280401336388351
 10
1.901307714044378
 20
1.280401336388349
 10
1.901307714044492
 20
0.435417634962187
 10
-0.0000003248667326
 20
0.4354176349621959
 10
-0.0000003248666758
 20
-0.0000002966870625
 10
4.115397439683931
 20
-0.0000002966870625
 10
4.115397439683988
 20
0.4354176349621924
 10
2.503349539196392
 20
0.4354176349621906
 10
2.503349539196165
 20
1.280401336388351
 10
4.102248859835128
 20
1.280401336388351
 10
4.102248859835128
 20
1.672880782032136
 10
2.503349539196392
 20
1.672880782032139
 97
       26
330
3D58
330
3D59
330
3D53
330
3D57
330
3D5B
330
3D4B
330
3D4E
330
3D4C
330
3D5A
330
3D4D
330
3D46
330
3D43
330
3D4A
330
3D49
330
3D45
330
3D44
330
3D48
330
3D47
330
3D42
330
3D54
330
3D51
330
3D50
330
3D55
330
3D56
330
3D52
330
3D4F
 75
     0
 76
     1
 47
0.0150272706290981
 98
        1
 10
2.348301949750577
 20
2.17559421869339
450
        0
451
        0
460
0.0
461
0.0
452
        0
462
0.0
453
        0
470

  0
ENDBLK
  5
3D5E
330
3C61
100
AcDbEntity
  8
0
 48
2.0
100
AcDbBlockEnd
  0
BLOCK
  5
D6D3
330
D6C9
100
AcDbEntity
  8
0
 48
2.0
100
AcDbBlockBegin
  2
*D3
 70
     1
 10
0.0
 20
0.0
 30
0.0
  3
*D3
  1

  0
LINE
  5
E027
330
D6C9
100
AcDbEntity
  8
C6
 62
     0
440
 16777216
 48
2.0
370
    -2
100
AcDbLine
 10
1331.307177473193
 20
-591.1307948491569
 30
0.0
 11
1331.307177473193
 21
-621.7790296500839
 31
0.0
  0
LINE
  5
E028
330
D6C9
100
AcDbEntity
  8
C6
 62
     0
440
 16777216
 48
2.0
370
    -2
100
AcDbLine
 10
1296.307177473201
 20
-591.1307948491675
 30
0.0
 11
1296.307177473201
 21
-621.7790296500839
 31
0.0
  0
LINE
  5
E029
330
D6C9
100
AcDbEntity
  8
C6
 62
     0
440
 16777216
 48
2.0
370
    -2
100
AcDbLine
 10
1330.307177473193
 20
-620.779029650084
 30
0.0
 11
1297.307177473201
 21
-620.779029650084
 31
0.0
  0
INSERT
  5
E02A
330
D6C9
100
AcDbEntity
  8
C6
 62
     0
440
 16777216
 48
2.0
370
    -2
100
AcDbBlockReference
  2
Y2
 10
1331.307177473193
 20
-620.779029650084
 30
0.0
  0
INSERT
  5
E02B
330
D6C9
100
AcDbEntity
  8
C6
 62
     0
440
 16777216
 48
2.0
370
    -2
100
AcDbBlockReference
  2
Y2
 10
1296.307177473201
 20
-620.779029650084
 30
0.0
 50
180.0
  0
MTEXT
  5
E02C
330
D6C9
100
AcDbEntity
  8
C6
 62
     0
440
 16777216
 48
2.0
100
AcDbMText
 10
1313.807177473197
 20
-618.029029650084
 30
0.0
 40
3.5
 41
0.0
 46
0.0
 71
     5
 72
     1
  1
\A1;35
  7
KANJI
 73
     1
 44
1.0
  0
POINT
  5
E02D
330
D6C9
100
AcDbEntity
  8
DEFPOINTS
 62
     0
440
 16777216
 48
2.0
100
AcDbPoint
 10
1331.307177473193
 20
-590.1307948491569
 30
0.0
  0
POINT
  5
E02E
330
D6C9
100
AcDbEntity
  8
DEFPOINTS
 62
     0
440
 16777216
 48
2.0
100
AcDbPoint
 10
1296.307177473201
 20
-590.1307948491675
 30
0.0
  0
POINT
  5
E02F
330
D6C9
100
AcDbEntity
  8
DEFPOINTS
 62
     0
440
 16777216
 48
2.0
100
AcDbPoint
 10
1296.307177473201
 20
-620.779029650084
 30
0.0
  0
ENDBLK
  5
D6D4
330
D6C9
100
AcDbEntity
  8
0
 48
2.0
100
AcDbBlockEnd
  0
BLOCK
  5
DFC3
330
DFB9
100
AcDbEntity
  8
0
 48
2.0
100
AcDbBlockBegin
  2
*D4
 70
     1
 10
0.0
 20
0.0
 30
0.0
  3
*D4
  1

  0
LINE
  5
E015
330
DFB9
100
AcDbEntity
  8
C6
 62
     0
440
 16777216
 48
2.0
370
    -2
100
AcDbLine
 10
1159.604855495667
 20
-537.9498857301733
 30
0.0
 11
1132.812676639468
 21
-537.9498857301733
 31
0.0
  0
LINE
  5
E016
330
DFB9
100
AcDbEntity
  8
C6
 62
     0
440
 16777216
 48
2.0
370
    -2
100
AcDbLine
 10
1164.045266710461
 20
-597.94988573231
 30
0.0
 11
1132.812676639468
 21
-597.94988573231
 31
0.0
  0
LINE
  5
E017
330
DFB9
100
AcDbEntity
  8
C6
 62
     0
440
 16777216
 48
2.0
370
    -2
100
AcDbLine
 10
1133.812676639468
 20
-538.9498857301734
 30
0.0
 11
1133.812676639468
 21
-596.94988573231
 31
0.0
  0
INSERT
  5
E018
330
DFB9
100
AcDbEntity
  8
C6
 62
     0
440
 16777216
 48
2.0
370
    -2
100
AcDbBlockReference
  2
Y2
 10
1133.812676639468
 20
-537.9498857301733
 30
0.0
 50
90.0
  0
INSERT
  5
E019
330
DFB9
100
AcDbEntity
  8
C6
 62
     0
440
 16777216
 48
2.0
370
    -2
100
AcDbBlockReference
  2
Y2
 10
1133.812676639468
 20
-597.94988573231
 30
0.0
 50
270.0
  0
MTEXT
  5
E01A
330
DFB9
100
AcDbEntity
  8
C6
 62
     0
440
 16777216
 48
2.0
100
AcDbMText
 10
1131.062676639468
 20
-567.9498857312416
 30
0.0
 40
3.5
 41
0.0
 46
0.0
 71
     5
 72
     1
  1
\A1;60
  7
KANJI
 11
0.0000000000000001
 21
1.0
 31
0.0
 73
     1
 44
1.0
  0
POINT
  5
E01B
330
DFB9
100
AcDbEntity
  8
DEFPOINTS
 62
     0
440
 16777216
 48
2.0
100
AcDbPoint
 10
1160.604855495667
 20
-537.9498857301733
 30
0.0
  0
POINT
  5
E01C
330
DFB9
100
AcDbEntity
  8
DEFPOINTS
 62
     0
440
 16777216
 48
2.0
100
AcDbPoint
 10
1165.04526671046
 20
-597.94988573231
 30
0.0
  0
POINT
  5
E01D
330
DFB9
100
AcDbEntity
  8
DEFPOINTS
 62
     0
440
 16777216
 48
2.0
100
AcDbPoint
 10
1133.812676639468
 20
-597.94988573231
 30
0.0
  0
ENDBLK
  5
DFC4
330
DFB9
100
AcDbEntity
  8
0
 48
2.0
100
AcDbBlockEnd
  0
BLOCK
  5
DFE6
330
DFDC
100
AcDbEntity
  8
0
 48
2.0
100
AcDbBlockBegin
  2
*D5
 70
     1
 10
0.0
 20
0.0
 30
0.0
  3
*D5
  1

  0
LINE
  5
E01E
330
DFDC
100
AcDbEntity
  8
C6
 62
     0
440
 16777216
 48
2.0
370
    -2
100
AcDbLine
 10
1160.519069054808
 20
-594.0094745042546
 30
0.0
 11
1160.519069054808
 21
-621.8792146306991
 31
0.0
  0
LINE
  5
E01F
330
DFDC
100
AcDbEntity
  8
C6
 62
     0
440
 16777216
 48
2.0
370
    -2
100
AcDbLine
 10
1230.104855495669
 20
-540.4498857301741
 30
0.0
 11
1230.104855495669
 21
-621.8792146306991
 31
0.0
  0
LINE
  5
E020
330
DFDC
100
AcDbEntity
  8
C6
 62
     0
440
 16777216
 48
2.0
370
    -2
100
AcDbLine
 10
1161.519069054808
 20
-620.8792146306991
 30
0.0
 11
1229.104855495669
 21
-620.8792146306991
 31
0.0
  0
INSERT
  5
E021
330
DFDC
100
AcDbEntity
  8
C6
 62
     0
440
 16777216
 48
2.0
370
    -2
100
AcDbBlockReference
  2
Y2
 10
1160.519069054808
 20
-620.8792146306991
 30
0.0
 50
180.0
  0
INSERT
  5
E022
330
DFDC
100
AcDbEntity
  8
C6
 62
     0
440
 16777216
 48
2.0
370
    -2
100
AcDbBlockReference
  2
Y2
 10
1230.104855495669
 20
-620.8792146306991
 30
0.0
  0
MTEXT
  5
E023
330
DFDC
100
AcDbEntity
  8
C6
 62
     0
440
 16777216
 48
2.0
100
AcDbMText
 10
1195.311962275239
 20
-618.1292146306991
 30
0.0
 40
3.5
 41
0.0
 46
0.0
 71
     5
 72
     1
  1
\A1;70
  7
KANJI
 73
     1
 44
1.0
  0
POINT
  5
E024
330
DFDC
100
AcDbEntity
  8
DEFPOINTS
 62
     0
440
 16777216
 48
2.0
100
AcDbPoint
 10
1160.519069054808
 20
-593.0094745042546
 30
0.0
  0
POINT
  5
E025
330
DFDC
100
AcDbEntity
  8
DEFPOINTS
 62
     0
440
 16777216
 48
2.0
100
AcDbPoint
 10
1230.104855495669
 20
-539.4498857301742
 30
0.0
  0
POINT
  5
E026
330
DFDC
100
AcDbEntity
  8
DEFPOINTS
 62
     0
440
 16777216
 48
2.0
100
AcDbPoint
 10
1230.104855495669
 20
-620.8792146306991
 30
0.0
  0
ENDBLK
  5
DFE7
330
DFDC
100
AcDbEntity
  8
0
 48
2.0
100
AcDbBlockEnd
  0
BLOCK
  5
E1DD
330
E1DC
100
AcDbEntity
  8
0
 48
2.0
100
AcDbBlockBegin
  2
*D6
 70
     1
 10
0.0
 20
0.0
 30
0.0
  3
*D6
  1

  0
LINE
  5
E200
330
E1DC
100
AcDbEntity
  8
C6
 62
     0
440
 16777216
 48
2.0
370
    -2
100
AcDbLine
 10
1741.982185033142
 20
-591.1307948491569
 30
0.0
 11
1741.982185033142
 21
-621.7790296500839
 31
0.0
  0
LINE
  5
E201
330
E1DC
100
AcDbEntity
  8
C6
 62
     0
440
 16777216
 48
2.0
370
    -2
100
AcDbLine
 10
1706.982185033151
 20
-591.1307948491675
 30
0.0
 11
1706.982185033151
 21
-621.7790296500839
 31
0.0
  0
LINE
  5
E202
330
E1DC
100
AcDbEntity
  8
C6
 62
     0
440
 16777216
 48
2.0
370
    -2
100
AcDbLine
 10
1740.982185033142
 20
-620.779029650084
 30
0.0
 11
1707.982185033151
 21
-620.779029650084
 31
0.0
  0
INSERT
  5
E203
330
E1DC
100
AcDbEntity
  8
C6
 62
     0
440
 16777216
 48
2.0
370
    -2
100
AcDbBlockReference
  2
Y2
 10
1741.982185033142
 20
-620.779029650084
 30
0.0
  0
INSERT
  5
E204
330
E1DC
100
AcDbEntity
  8
C6
 62
     0
440
 16777216
 48
2.0
370
    -2
100
AcDbBlockReference
  2
Y2
 10
1706.982185033151
 20
-620.779029650084
 30
0.0
 50
180.0
  0
MTEXT
  5
E205
330
E1DC
100
AcDbEntity
  8
C6
 62
     0
440
 16777216
 48
2.0
100
AcDbMText
 10
1724.482185033146
 20
-618.029029650084
 30
0.0
 40
3.5
 41
0.0
 46
0.0
 71
     5
 72
     1
  1
\A1;35
  7
KANJI
 73
     1
 44
1.0
  0
POINT
  5
E206
330
E1DC
100
AcDbEntity
  8
DEFPOINTS
 62
     0
440
 16777216
 48
2.0
100
AcDbPoint
 10
1741.982185033142
 20
-590.1307948491569
 30
0.0
  0
POINT
  5
E207
330
E1DC
100
AcDbEntity
  8
DEFPOINTS
 62
     0
440
 16777216
 48
2.0
100
AcDbPoint
 10
1706.982185033151
 20
-590.1307948491675
 30
0.0
  0
POINT
  5
E208
330
E1DC
100
AcDbEntity
  8
DEFPOINTS
 62
     0
440
 16777216
 48
2.0
100
AcDbPoint
 10
1706.982185033151
 20
-620.779029650084
 30
0.0
  0
ENDBLK
  5
E1DE
330
E1DC
100
AcDbEntity
  8
0
 48
2.0
100
AcDbBlockEnd
  0
BLOCK
  5
E1E9
330
E1E8
100
AcDbEntity
  8
0
 48
2.0
100
AcDbBlockBegin
  2
*D7
 70
     1
 10
0.0
 20
0.0
 30
0.0
  3
*D7
  1

  0
LINE
  5
E209
330
E1E8
100
AcDbEntity
  8
C6
 62
     0
440
 16777216
 48
2.0
370
    -2
100
AcDbLine
 10
1570.279863055618
 20
-537.9498857301736
 30
0.0
 11
1543.487684199419
 21
-537.9498857301736
 31
0.0
  0
LINE
  5
E20A
330
E1E8
100
AcDbEntity
  8
C6
 62
     0
440
 16777216
 48
2.0
370
    -2
100
AcDbLine
 10
1574.720274270411
 20
-597.9498857323102
 30
0.0
 11
1543.487684199419
 21
-597.9498857323102
 31
0.0
  0
LINE
  5
E20B
330
E1E8
100
AcDbEntity
  8
C6
 62
     0
440
 16777216
 48
2.0
370
    -2
100
AcDbLine
 10
1544.487684199419
 20
-538.9498857301735
 30
0.0
 11
1544.487684199419
 21
-596.9498857323102
 31
0.0
  0
INSERT
  5
E20C
330
E1E8
100
AcDbEntity
  8
C6
 62
     0
440
 16777216
 48
2.0
370
    -2
100
AcDbBlockReference
  2
Y2
 10
1544.487684199419
 20
-537.9498857301736
 30
0.0
 50
90.0
  0
INSERT
  5
E20D
330
E1E8
100
AcDbEntity
  8
C6
 62
     0
440
 16777216
 48
2.0
370
    -2
100
AcDbBlockReference
  2
Y2
 10
1544.487684199419
 20
-597.9498857323102
 30
0.0
 50
270.0
  0
MTEXT
  5
E20E
330
E1E8
100
AcDbEntity
  8
C6
 62
     0
440
 16777216
 48
2.0
100
AcDbMText
 10
1541.737684199419
 20
-567.9498857312422
 30
0.0
 40
3.5
 41
0.0
 46
0.0
 71
     5
 72
     1
  1
\A1;60
  7
KANJI
 11
0.0000000000000001
 21
1.0
 31
0.0
 73
     1
 44
1.0
  0
POINT
  5
E20F
330
E1E8
100
AcDbEntity
  8
DEFPOINTS
 62
     0
440
 16777216
 48
2.0
100
AcDbPoint
 10
1571.279863055618
 20
-537.9498857301736
 30
0.0
  0
POINT
  5
E210
330
E1E8
100
AcDbEntity
  8
DEFPOINTS
 62
     0
440
 16777216
 48
2.0
100
AcDbPoint
 10
1575.720274270411
 20
-597.9498857323102
 30
0.0
  0
POINT
  5
E211
330
E1E8
100
AcDbEntity
  8
DEFPOINTS
 62
     0
440
 16777216
 48
2.0
100
AcDbPoint
 10
1544.487684199419
 20
-597.9498857323102
 30
0.0
  0
ENDBLK
  5
E1EA
330
E1E8
100
AcDbEntity
  8
0
 48
2.0
100
AcDbBlockEnd
  0
BLOCK
  5
E1F5
330
E1F4
100
AcDbEntity
  8
0
 48
2.0
100
AcDbBlockBegin
  2
*D8
 70
     1
 10
0.0
 20
0.0
 30
0.0
  3
*D8
  1

  0
LINE
  5
E212
330
E1F4
100
AcDbEntity
  8
C6
 62
     0
440
 16777216
 48
2.0
370
    -2
100
AcDbLine
 10
1571.194076614758
 20
-594.0094745042546
 30
0.0
 11
1571.194076614758
 21
-621.8792146306991
 31
0.0
  0
LINE
  5
E213
330
E1F4
100
AcDbEntity
  8
C6
 62
     0
440
 16777216
 48
2.0
370
    -2
100
AcDbLine
 10
1640.779863055619
 20
-540.4498857301741
 30
0.0
 11
1640.779863055619
 21
-621.8792146306991
 31
0.0
  0
LINE
  5
E214
330
E1F4
100
AcDbEntity
  8
C6
 62
     0
440
 16777216
 48
2.0
370
    -2
100
AcDbLine
 10
1572.194076614758
 20
-620.8792146306991
 30
0.0
 11
1639.779863055619
 21
-620.8792146306991
 31
0.0
  0
INSERT
  5
E215
330
E1F4
100
AcDbEntity
  8
C6
 62
     0
440
 16777216
 48
2.0
370
    -2
100
AcDbBlockReference
  2
Y2
 10
1571.194076614758
 20
-620.8792146306991
 30
0.0
 50
180.0
  0
INSERT
  5
E216
330
E1F4
100
AcDbEntity
  8
C6
 62
     0
440
 16777216
 48
2.0
370
    -2
100
AcDbBlockReference
  2
Y2
 10
1640.779863055619
 20
-620.8792146306991
 30
0.0
  0
MTEXT
  5
E217
330
E1F4
100
AcDbEntity
  8
C6
 62
     0
440
 16777216
 48
2.0
100
AcDbMText
 10
1605.986969835188
 20
-618.1292146306991
 30
0.0
 40
3.5
 41
0.0
 46
0.0
 71
     5
 72
     1
  1
\A1;70
  7
KANJI
 73
     1
 44
1.0
  0
POINT
  5
E218
330
E1F4
100
AcDbEntity
  8
DEFPOINTS
 62
     0
440
 16777216
 48
2.0
100
AcDbPoint
 10
1571.194076614758
 20
-593.0094745042546
 30
0.0
  0
POINT
  5
E219
330
E1F4
100
AcDbEntity
  8
DEFPOINTS
 62
     0
440
 16777216
 48
2.0
100
AcDbPoint
 10
1640.779863055619
 20
-539.4498857301742
 30
0.0
  0
POINT
  5
E21A
330
E1F4
100
AcDbEntity
  8
DEFPOINTS
 62
     0
440
 16777216
 48
2.0
100
AcDbPoint
 10
1640.779863055619
 20
-620.8792146306991
 30
0.0
  0
ENDBLK
  5
E1F6
330
E1F4
100
AcDbEntity
  8
0
 48
2.0
100
AcDbBlockEnd
  0
ENDSEC
  0
SECTION
  2
ENTITIES
  0
LINE
  5
E084
330
17
100
AcDbEntity
  8
1外形線
 48
0.1
100
AcDbLine
 10
1683.739528233541
 20
-537.9498857301727
 30
0.0
 11
1624.230191991528
 21
-537.9498857301733
 31
0.0
  0
LINE
  5
E085
330
17
100
AcDbEntity
  8
1外形線
 48
0.1
100
AcDbLine
 10
1674.37556720292
 20
-539.9498857301728
 30
0.0
 11
1639.730191991529
 21
-539.9498857301739
 31
0.0
  0
LINE
  5
E086
330
17
100
AcDbEntity
  8
1外形線
 48
0.1
100
AcDbLine
 10
1656.230191991529
 20
-541.9498857301735
 30
0.0
 11
1654.23019199153
 21
-541.9498857301736
 31
0.0
  0
LINE
  5
E087
330
17
100
AcDbEntity
  8
1外形線
 48
0.1
100
AcDbLine
 10
1635.73019199153
 20
-539.9498857301741
 30
0.0
 11
1624.230191991528
 21
-539.9498857301743
 31
0.0
  0
ARC
  5
E088
330
17
100
AcDbEntity
  8
1外形線
 48
0.1
100
AcDbCircle
 10
1635.73019199153
 20
-540.9498857301741
 30
0.0
 40
1.0
100
AcDbArc
 50
359.9999999999935
 51
90.0
  0
LINE
  5
E089
330
17
100
AcDbEntity
  8
1外形線
 48
0.1
100
AcDbLine
 10
1632.730191991529
 20
-541.9498857301743
 30
0.0
 11
1629.730191991528
 21
-541.9498857301743
 31
0.0
  0
LINE
  5
E08A
330
17
100
AcDbEntity
  8
1外形線
 48
0.1
100
AcDbLine
 10
1623.730191991528
 20
-539.4498857301753
 30
0.0
 11
1623.730191991528
 21
-538.4498857301742
 31
0.0
  0
LINE
  5
E08B
330
17
100
AcDbEntity
  8
1外形線
 48
0.1
100
AcDbLine
 10
1629.730191991528
 20
-541.9498857301741
 30
0.0
 11
1629.730191991528
 21
-539.9498857301743
 31
0.0
  0
LINE
  5
E08C
330
17
100
AcDbEntity
  8
1外形線
 48
0.1
100
AcDbLine
 10
1631.730191991528
 20
-541.9498857301741
 30
0.0
 11
1631.730191991528
 21
-539.9498857301742
 31
0.0
  0
ARC
  5
E08D
330
17
100
AcDbEntity
  8
1外形線
 48
0.1
100
AcDbCircle
 10
1624.230191991528
 20
-539.4498857301753
 30
0.0
 40
0.5
100
AcDbArc
 50
179.9999999999935
 51
270.0
  0
ARC
  5
E08E
330
17
100
AcDbEntity
  8
1外形線
 48
0.1
100
AcDbCircle
 10
1624.230191991528
 20
-538.4498857301742
 30
0.0
 40
0.5
100
AcDbArc
 50
90.0
 51
180.0
  0
LINE
  5
E08F
330
17
100
AcDbEntity
  8
1外形線
 48
0.1
100
AcDbLine
 10
1638.730191991528
 20
-575.5952609415004
 30
0.0
 11
1638.730191991529
 21
-540.9498857301739
 31
0.0
  0
ARC
  5
E090
330
17
100
AcDbEntity
  8
1外形線
 48
0.1
100
AcDbCircle
 10
1639.730191991528
 20
-575.5952609415004
 30
0.0
 40
1.0
100
AcDbArc
 50
180.0
 51
314.9999999999405
  0
LINE
  5
E091
330
17
100
AcDbEntity
  8
1外形線
 48
0.1
100
AcDbLine
 10
1640.730191991529
 20
-559.9498857301404
 30
0.0
 11
1640.730191991529
 21
-557.9498857301405
 31
0.0
  0
ARC
  5
E092
330
17
100
AcDbEntity
  8
1外形線
 48
0.1
100
AcDbCircle
 10
1639.730191991529
 20
-540.9498857301739
 30
0.0
 40
1.0
100
AcDbArc
 50
90.0
 51
180.0
  0
LINE
  5
E093
330
17
100
AcDbEntity
  8
1外形線
 48
0.1
100
AcDbLine
 10
1636.730191991528
 20
-577.9384066919592
 30
0.0
 11
1636.730191991529
 21
-540.9498857301741
 31
0.0
  0
ARC
  5
E094
330
17
100
AcDbEntity
  8
1外形線
 48
0.1
100
AcDbCircle
 10
1631.730191991529
 20
-577.9384066919591
 30
0.0
 40
5.0
100
AcDbArc
 50
314.9999999960899
 51
359.9999999999935
  0
LINE
  5
E095
330
17
100
AcDbEntity
  8
1外形線
 48
0.1
100
AcDbLine
 10
1633.730191991528
 20
-577.9384066919594
 30
0.0
 11
1633.73019199153
 21
-542.9498857301743
 31
0.0
  0
ARC
  5
E096
330
17
100
AcDbEntity
  8
1外形線
 48
0.1
100
AcDbCircle
 10
1631.730191991528
 20
-577.9384066919593
 30
0.0
 40
2.0
100
AcDbArc
 50
314.9999999940403
 51
359.9999999999935
  0
ARC
  5
E097
330
17
100
AcDbEntity
  8
1外形線
 48
0.1
100
AcDbCircle
 10
1632.730191991529
 20
-542.9498857301743
 30
0.0
 40
1.0
100
AcDbArc
 50
359.9999999999935
 51
90.0
  0
LINE
  5
E098
330
17
100
AcDbEntity
  8
1外形線
 48
0.1
100
AcDbLine
 10
1682.885974842948
 20
-538.8034391207659
 30
0.0
 11
1680.020132720695
 21
-541.6692812413502
 31
0.0
  0
LINE
  5
E099
330
17
100
AcDbEntity
  8
1外形線
 48
0.1
100
AcDbLine
 10
1677.63339076262
 20
-544.056023200339
 30
0.0
 11
1677.5201327192
 21
-544.1692812425192
 31
0.0
  0
ARC
  5
E09A
330
17
100
AcDbEntity
  8
1外形線
 48
0.1
100
AcDbCircle
 10
1677.491969407561
 20
-543.9146018429239
 30
0.0
 40
0.2
100
AcDbArc
 50
314.9999995228347
 51
350.537677791972
  0
LINE
  5
E09B
330
17
100
AcDbEntity
  8
1外形線
 48
0.1
100
AcDbLine
 10
1686.214759101439
 20
-541.4143518242408
 30
0.0
 11
1677.840242500541
 21
-549.7888684251413
 31
0.0
  0
LINE
  5
E09C
330
17
100
AcDbEntity
  8
1外形線
 48
0.1
100
AcDbLine
 10
1670.769174688676
 20
-556.8599362370076
 30
0.0
 11
1629.679225195509
 21
-597.9498857301849
 31
0.0
  0
ARC
  5
E09D
330
17
100
AcDbEntity
  8
1外形線
 48
0.1
100
AcDbCircle
 10
1689.750293007372
 20
-544.949885730173
 30
0.0
 40
5.0
100
AcDbArc
 50
89.99999999997395
 51
135.0000000000096
  0
LINE
  5
E09E
330
17
100
AcDbEntity
  8
1外形線
 48
0.1
100
AcDbLine
 10
1693.73019199153
 20
-538.4498857301755
 30
0.0
 11
1693.73019199153
 21
-539.4498857301742
 31
0.0
  0
ARC
  5
E09F
330
17
100
AcDbEntity
  8
1外形線
 48
0.1
100
AcDbCircle
 10
1693.230191991531
 20
-538.4498857301752
 30
0.0
 40
0.5
100
AcDbArc
 50
359.9999999999805
 51
89.99999999997395
  0
LINE
  5
E0A0
330
17
100
AcDbEntity
  8
1外形線
 48
0.1
100
AcDbLine
 10
1759.932513969062
 20
-590.1307948491675
 30
0.0
 11
1759.932513968988
 21
-537.9498857301757
 31
0.0
  0
ARC
  5
E0A1
330
17
100
AcDbEntity
  8
1外形線
 48
0.1
100
AcDbCircle
 10
1764.932513969062
 20
-590.1307948491603
 30
0.0
 40
5.0
100
AcDbArc
 50
180.0000000000781
 51
270.0
  0
LINE
  5
E0A2
330
17
100
AcDbEntity
  8
1外形線
 48
0.1
100
AcDbLine
 10
1794.932513969054
 20
-590.1307948491568
 30
0.0
 11
1794.932513969017
 21
-537.9498857301757
 31
0.0
  0
ARC
  5
E0A3
330
17
100
AcDbEntity
  8
1外形線
 48
0.1
100
AcDbCircle
 10
1789.932513969054
 20
-590.1307948491603
 30
0.0
 40
5.0
100
AcDbArc
 50
270.0
 51
0.0000000000390887
  0
LINE
  5
E0A4
330
17
100
AcDbEntity
  8
1外形線
 48
0.1
100
AcDbLine
 10
1779.432513969043
 20
-539.9498857301737
 30
0.0
 11
1779.432513969042
 21
-549.4753691297701
 31
0.0
  0
LINE
  5
E0A5
330
17
100
AcDbEntity
  8
1外形線
 48
0.1
100
AcDbLine
 10
1794.932513969017
 20
-537.9498857301863
 30
0.0
 11
1759.932513968988
 21
-537.9498857302361
 31
0.0
  0
LINE
  5
E0A6
330
17
100
AcDbEntity
  8
1外形線
 48
0.1
100
AcDbLine
 10
1675.082673984106
 20
-541.6569925113599
 30
0.0
 11
1640.437298772714
 21
-576.3023677226876
 31
0.0
  0
ARC
  5
E0A7
330
17
100
AcDbEntity
  8
1外形線
 48
0.1
100
AcDbCircle
 10
1674.37556720292
 20
-540.9498857301728
 30
0.0
 40
1.0
100
AcDbArc
 50
314.9999999999405
 51
90.0
  0
LINE
  5
E0A8
330
17
100
AcDbEntity
  8
1外形線
 48
0.1
100
AcDbLine
 10
1635.26572589722
 20
-581.4739405981332
 30
0.0
 11
1624.437298769531
 21
-592.3023677235679
 31
0.0
  0
LINE
  5
E0A9
330
17
100
AcDbEntity
  8
1外形線
 48
0.1
100
AcDbLine
 10
1633.144405553754
 20
-579.3526202544796
 30
0.0
 11
1630.09415302014
 21
-582.4028727874591
 31
0.0
  0
ARC
  5
E0AA
330
17
100
AcDbEntity
  8
1外形線
 48
0.1
100
AcDbCircle
 10
1625.14440555067
 20
-593.0094745048028
 30
0.0
 40
1.0
100
AcDbArc
 50
134.9999999960899
 51
224.9999999410851
  0
LINE
  5
E0AB
330
17
100
AcDbEntity
  8
C6
  6
PHANTOM
 48
0.2
100
AcDbLine
 10
1777.432513969049
 20
-533.9498857302112
 30
0.0
 11
1777.432513969049
 21
-601.9498857301847
 31
0.0
  0
LINE
  5
E0AC
330
17
100
AcDbEntity
  8
1外形線
 48
0.1
100
AcDbLine
 10
1784.732513969046
 20
-548.061155567397
 30
0.0
 11
1784.732513969046
 21
-549.8302897831164
 31
0.0
  0
LINE
  5
E0AD
330
17
100
AcDbEntity
  8
1外形線
 48
0.1
100
AcDbLine
 10
1784.732513969046
 20
-564.2498857291318
 30
0.0
 11
1784.732513969046
 21
-595.9498857301849
 31
0.0
  0
ARC
  5
E0AE
330
17
100
AcDbEntity
  8
1外形線
 48
0.1
100
AcDbCircle
 10
1782.732513969046
 20
-595.9498857301849
 30
0.0
 40
2.0
100
AcDbArc
 50
269.999999999987
 51
0.0
  0
LINE
  5
E0AF
330
17
100
AcDbEntity
  8
1外形線
 48
0.1
100
AcDbLine
 10
1772.932513969056
 20
-537.9498857302177
 30
0.0
 11
1772.932513969057
 21
-549.4753691297703
 31
0.0
  0
LINE
  5
E0B0
330
17
100
AcDbEntity
  8
1外形線
 48
0.1
100
AcDbLine
 10
1770.132513969053
 20
-548.061155567397
 30
0.0
 11
1770.132513969053
 21
-549.8302897831164
 31
0.0
  0
LINE
  5
E0B1
330
17
100
AcDbEntity
  8
1外形線
 48
0.1
100
AcDbLine
 10
1770.132513969053
 20
-564.2498857291318
 30
0.0
 11
1770.132513969053
 21
-595.9498857301842
 31
0.0
  0
ARC
  5
E0B2
330
17
100
AcDbEntity
  8
1外形線
 48
0.1
100
AcDbCircle
 10
1772.132513969053
 20
-595.9498857301842
 30
0.0
 40
2.0
100
AcDbArc
 50
180.0
 51
269.999999999987
  0
LINE
  5
E0B3
330
17
100
AcDbEntity
  8
1外形線
 48
0.1
100
AcDbLine
 10
1683.997244691936
 20
-540.8034391208019
 30
0.0
 11
1676.533186954056
 21
-548.2674968571168
 31
0.0
  0
LINE
  5
E0B4
330
17
100
AcDbEntity
  8
1外形線
 48
0.1
100
AcDbLine
 10
1669.354961130668
 20
-555.4457226789986
 30
0.0
 11
1627.760700638412
 21
-597.0399831625289
 31
0.0
  0
ARC
  5
E0B5
330
17
100
AcDbEntity
  8
1外形線
 48
0.1
100
AcDbCircle
 10
1683.64369130138
 20
-540.4498857301716
 30
0.0
 40
0.5
100
AcDbArc
 50
314.9999999939895
 51
89.99999999997395
  0
LINE
  5
E0B6
330
17
100
AcDbEntity
  8
1外形線
100
AcDbLine
 10
1693.23019199153
 20
-539.9498857301739
 30
0.0
 11
1689.750293007374
 21
-539.9498857301731
 31
0.0
  0
LINE
  5
E0B7
330
17
100
AcDbEntity
  8
1外形線
100
AcDbLine
 10
1683.64369130138
 20
-539.9498857301717
 30
0.0
 11
1681.739528233543
 21
-539.9498857301709
 31
0.0
  0
ARC
  5
E0B8
330
17
100
AcDbEntity
  8
1外形線
100
AcDbCircle
 10
1693.23019199153
 20
-539.4498857301739
 30
0.0
 40
0.5
100
AcDbArc
 50
269.999999999987
 51
359.9999999999805
  0
LINE
  5
E0B9
330
17
100
AcDbEntity
  8
1外形線
100
AcDbLine
 10
1693.230191991531
 20
-537.9498857301753
 30
0.0
 11
1683.739528233541
 21
-537.9498857301727
 31
0.0
  0
LINE
  5
E0BA
330
17
100
AcDbEntity
  8
1外形線
100
AcDbLine
 10
1781.932513969043
 20
-539.9498857301738
 30
0.0
 11
1772.932513969056
 21
-539.9498857301737
 31
0.0
  0
LINE
  5
E0BB
330
17
100
AcDbEntity
  8
1外形線
100
AcDbLine
 10
1772.932513969057
 20
-548.0611555673971
 30
0.0
 11
1770.132513969053
 21
-548.061155567397
 31
0.0
  0
LINE
  5
E0BC
330
17
100
AcDbEntity
  8
1外形線
100
AcDbLine
 10
1772.932513969057
 20
-549.4753691297703
 30
0.0
 11
1770.132513969053
 21
-549.4753691297703
 31
0.0
  0
LINE
  5
E0BD
330
17
100
AcDbEntity
  8
1外形線
100
AcDbLine
 10
1789.932513969054
 20
-595.1307948491603
 30
0.0
 11
1784.732513969045
 21
-595.1307948491603
 31
0.0
  0
LINE
  5
E0BE
330
17
100
AcDbEntity
  8
1外形線
100
AcDbLine
 10
1782.732513969045
 20
-597.9498857301849
 30
0.0
 11
1772.132513969053
 21
-597.9498857301843
 31
0.0
  0
LINE
  5
E0BF
330
17
100
AcDbEntity
  8
1外形線
100
AcDbLine
 10
1770.132513969052
 20
-595.1307948491603
 30
0.0
 11
1764.932513969062
 21
-595.1307948491603
 31
0.0
  0
ARC
  5
E0C0
330
17
100
AcDbEntity
  8
1外形線
100
AcDbCircle
 10
1682.532421452355
 20
-538.4498857301728
 30
0.0
 40
0.5
100
AcDbArc
 50
315.0000000000095
 51
90.0
  0
LINE
  5
E0C1
330
17
100
AcDbEntity
  8
1外形線
100
AcDbLine
 10
1779.432513969042
 20
-548.0611555673024
 30
0.0
 11
1784.73251396943
 21
-548.0611555670513
 31
0.0
  0
LINE
  5
E0C2
330
17
100
AcDbEntity
  8
1外形線
100
AcDbLine
 10
1779.432513969042
 20
-549.4753691296755
 30
0.0
 11
1784.732513969497
 21
-549.4753691294247
 31
0.0
  0
LINE
  5
E0C3
330
17
100
AcDbEntity
  8
1外形線
 48
0.1
100
AcDbLine
 10
1628.670603204197
 20
-597.9498857301851
 30
0.0
 11
1629.679225195509
 21
-597.9498857301851
 31
0.0
  0
LINE
  5
E0C4
330
17
100
AcDbEntity
  8
1外形線
100
AcDbLine
 10
1636.730191991529
 20
-557.9498857301405
 30
0.0
 11
1633.730191991529
 21
-557.9498857301405
 31
0.0
  0
LINE
  5
E0C5
330
17
100
AcDbEntity
  8
1外形線
100
AcDbLine
 10
1636.730191991529
 20
-559.9498857301404
 30
0.0
 11
1633.730191991529
 21
-559.9498857301404
 31
0.0
  0
LINE
  5
E0C6
330
17
100
AcDbEntity
  8
1外形線
100
AcDbLine
 10
1633.629686926219
 20
-583.1099795687929
 30
0.0
 11
1631.50836658266
 21
-580.9886592252333
 31
0.0
  0
LINE
  5
E0C7
330
17
100
AcDbEntity
  8
1外形線
100
AcDbLine
 10
1632.215473363699
 20
-584.5241931310185
 30
0.0
 11
1630.09415302014
 21
-582.4028727874591
 31
0.0
  0
LINE
  5
E0C8
330
17
100
AcDbEntity
  8
1外形線
100
AcDbLine
 10
1679.737290008221
 20
-541.6692812413502
 30
0.0
 11
1678.959472550712
 21
-540.8914637823016
 31
0.0
  0
ARC
  5
E0C9
330
17
100
AcDbEntity
  8
1外形線
100
AcDbCircle
 10
1678.818051194346
 20
-541.0328851384106
 30
0.0
 40
0.2
100
AcDbArc
 50
44.99999994799866
 51
135.0000000000096
  0
ARC
  5
E0CA
330
17
100
AcDbEntity
  8
1外形線
100
AcDbCircle
 10
1679.878711364458
 20
-541.527859885113
 30
0.0
 40
0.2
100
AcDbArc
 50
225.0000000000089
 51
315.0000000000095
  0
LINE
  5
E0CB
330
17
100
AcDbEntity
  8
1外形線
 48
0.1
100
AcDbLine
 10
1654.230191991529
 20
-541.9498857301735
 30
0.0
 11
1654.230191991529
 21
-539.9498857301735
 31
0.0
  0
LINE
  5
E0CC
330
17
100
AcDbEntity
  8
1外形線
 48
0.1
100
AcDbLine
 10
1656.230191991529
 20
-541.9498857301735
 30
0.0
 11
1656.230191991529
 21
-539.9498857301735
 31
0.0
  0
LINE
  5
E0CD
330
17
100
AcDbEntity
  8
1外形線
100
AcDbLine
 10
1640.730191991529
 20
-557.9498857301405
 30
0.0
 11
1638.730191991529
 21
-557.9498857301404
 31
0.0
  0
LINE
  5
E0CE
330
17
100
AcDbEntity
  8
1外形線
100
AcDbLine
 10
1640.730191991529
 20
-559.9498857301404
 30
0.0
 11
1638.730191991529
 21
-559.9498857301406
 31
0.0
  0
LINE
  5
E0CF
330
17
100
AcDbEntity
  8
1外形線
 48
0.1
100
AcDbLine
 10
1781.932513969043
 20
-537.9498857302177
 30
0.0
 11
1781.932513969043
 21
-539.9498857301738
 31
0.0
  0
LINE
  5
E0D0
330
17
100
AcDbEntity
  8
1外形線
100
AcDbLine
 10
1677.2372900077
 20
-544.1692812411384
 30
0.0
 11
1676.459472550747
 21
-543.3914637823431
 31
0.0
  0
ARC
  5
E0D1
330
17
100
AcDbEntity
  8
1外形線
100
AcDbCircle
 10
1677.378711364141
 20
-544.0278598851041
 30
0.0
 40
0.2
100
AcDbArc
 50
224.9999999176731
 51
314.9999995228392
  0
LINE
  5
E0D2
330
17
100
AcDbEntity
  8
1外形線
100
AcDbLine
 10
1678.092438608787
 20
-541.5283391416239
 30
0.0
 11
1677.689248192327
 21
-543.947481640385
 31
0.0
  0
ARC
  5
E0D3
330
17
100
AcDbEntity
  8
1外形線
100
AcDbCircle
 10
1678.289717393553
 20
-541.561218939085
 30
0.0
 40
0.2
100
AcDbArc
 50
134.9999999936027
 51
170.537677791972
  0
LINE
  5
E0D4
330
17
100
AcDbEntity
  8
1外形線
100
AcDbLine
 10
1678.676629838109
 20
-540.8914637821733
 30
0.0
 11
1678.148296037332
 21
-541.419797582832
 31
0.0
  0
LINE
  5
E0D5
330
17
100
AcDbEntity
  8
1外形線
 48
0.1
100
AcDbLine
 10
1675.133390763656
 20
-546.5560232000586
 30
0.0
 11
1675.020132722383
 21
-546.6692812413324
 31
0.0
  0
ARC
  5
E0D6
330
17
100
AcDbEntity
  8
1外形線
 48
0.1
100
AcDbCircle
 10
1674.991969407419
 20
-546.4146018438214
 30
0.0
 40
0.2
100
AcDbArc
 50
315.0000000000095
 51
350.537677791972
  0
LINE
  5
E0D7
330
17
100
AcDbEntity
  8
1外形線
100
AcDbLine
 10
1674.737290009908
 20
-546.6692812413326
 30
0.0
 11
1673.959472550603
 21
-545.8914637820273
 31
0.0
  0
ARC
  5
E0D8
330
17
100
AcDbEntity
  8
1外形線
100
AcDbCircle
 10
1674.878711366146
 20
-546.5278598850951
 30
0.0
 40
0.2
100
AcDbArc
 50
225.0000000000089
 51
315.0000000000095
  0
LINE
  5
E0D9
330
17
100
AcDbEntity
  8
1外形線
100
AcDbLine
 10
1676.176629838118
 20
-543.3914637821897
 30
0.0
 11
1675.648296037344
 21
-543.9197975828226
 31
0.0
  0
ARC
  5
E0DA
330
17
100
AcDbEntity
  8
1外形線
100
AcDbCircle
 10
1676.318051194356
 20
-543.5328851384269
 30
0.0
 40
0.2
100
AcDbArc
 50
44.99999993781033
 51
135.0000000000096
  0
LINE
  5
E0DB
330
17
100
AcDbEntity
  8
1外形線
 48
0.1
100
AcDbLine
 10
1672.633390763666
 20
-549.05602320005
 30
0.0
 11
1672.520132722392
 21
-549.1692812413239
 31
0.0
  0
ARC
  5
E0DC
330
17
100
AcDbEntity
  8
1外形線
 48
0.1
100
AcDbCircle
 10
1672.491969407429
 20
-548.9146018438127
 30
0.0
 40
0.2
100
AcDbArc
 50
315.0000000000095
 51
350.5376777919788
  0
LINE
  5
E0DD
330
17
100
AcDbEntity
  8
1外形線
100
AcDbLine
 10
1672.237290009918
 20
-549.1692812413239
 30
0.0
 11
1671.459472550612
 21
-548.3914637820184
 31
0.0
  0
ARC
  5
E0DE
330
17
100
AcDbEntity
  8
1外形線
100
AcDbCircle
 10
1672.378711366155
 20
-549.0278598850866
 30
0.0
 40
0.2
100
AcDbArc
 50
225.0000000000089
 51
314.9999999999957
  0
LINE
  5
E0DF
330
17
100
AcDbEntity
  8
1外形線
100
AcDbLine
 10
1673.676629838128
 20
-545.8914637820273
 30
0.0
 11
1673.148296037337
 21
-546.4197975828184
 31
0.0
  0
ARC
  5
E0E0
330
17
100
AcDbEntity
  8
1外形線
100
AcDbCircle
 10
1673.818051194366
 20
-546.0328851382646
 30
0.0
 40
0.2
100
AcDbArc
 50
45.00000000002268
 51
135.0000000000096
  0
LINE
  5
E0E1
330
17
100
AcDbEntity
  8
1外形線
 48
0.1
100
AcDbLine
 10
1670.133390763675
 20
-551.5560232000409
 30
0.0
 11
1670.020132722401
 21
-551.6692812413149
 31
0.0
  0
ARC
  5
E0E2
330
17
100
AcDbEntity
  8
1外形線
 48
0.1
100
AcDbCircle
 10
1669.991969407438
 20
-551.4146018438037
 30
0.0
 40
0.2
100
AcDbArc
 50
315.0000000000095
 51
350.5376777919788
  0
LINE
  5
E0E3
330
17
100
AcDbEntity
  8
1外形線
100
AcDbLine
 10
1669.737290009926
 20
-551.669281241315
 30
0.0
 11
1668.959472550621
 21
-550.8914637820096
 31
0.0
  0
ARC
  5
E0E4
330
17
100
AcDbEntity
  8
1外形線
100
AcDbCircle
 10
1669.878711366164
 20
-551.5278598850776
 30
0.0
 40
0.2
100
AcDbArc
 50
225.0000000000042
 51
314.9999999999957
  0
LINE
  5
E0E5
330
17
100
AcDbEntity
  8
1外形線
100
AcDbLine
 10
1671.176629838137
 20
-548.3914637820184
 30
0.0
 11
1670.648296037346
 21
-548.9197975828095
 31
0.0
  0
ARC
  5
E0E6
330
17
100
AcDbEntity
  8
1外形線
100
AcDbCircle
 10
1671.318051194375
 20
-548.5328851382558
 30
0.0
 40
0.2
100
AcDbArc
 50
45.00000000000886
 51
135.0000000000096
  0
LINE
  5
E0E7
330
17
100
AcDbEntity
  8
1外形線
 48
0.1
100
AcDbLine
 10
1667.633390763684
 20
-554.0560232000323
 30
0.0
 11
1667.520132720383
 21
-554.1692812413061
 31
0.0
  0
ARC
  5
E0E8
330
17
100
AcDbEntity
  8
1外形線
 48
0.1
100
AcDbCircle
 10
1667.491969407446
 20
-553.914601843795
 30
0.0
 40
0.2
100
AcDbArc
 50
315.0000000000095
 51
350.537677791972
  0
LINE
  5
E0E9
330
17
100
AcDbEntity
  8
1外形線
100
AcDbLine
 10
1667.237290007908
 20
-554.1692812413061
 30
0.0
 11
1666.459472550787
 21
-553.3914637823131
 31
0.0
  0
ARC
  5
E0EA
330
17
100
AcDbEntity
  8
1外形線
100
AcDbCircle
 10
1667.378711364146
 20
-554.0278598850688
 30
0.0
 40
0.2
100
AcDbArc
 50
225.0000000000042
 51
314.9999999999957
  0
LINE
  5
E0EB
330
17
100
AcDbEntity
  8
1外形線
100
AcDbLine
 10
1668.676629838146
 20
-550.8914637820096
 30
0.0
 11
1668.148296037356
 21
-551.4197975828004
 31
0.0
  0
ARC
  5
E0EC
330
17
100
AcDbEntity
  8
1外形線
100
AcDbCircle
 10
1668.818051194383
 20
-551.0328851382468
 30
0.0
 40
0.2
100
AcDbArc
 50
45.00000000000427
 51
135.0000000000096
  0
LINE
  5
E0ED
330
17
100
AcDbEntity
  8
1外形線
 48
0.1
100
AcDbLine
 10
1665.133390763694
 20
-556.5560232000241
 30
0.0
 11
1665.02013272242
 21
-556.669281241298
 31
0.0
  0
ARC
  5
E0EE
330
17
100
AcDbEntity
  8
1外形線
 48
0.1
100
AcDbCircle
 10
1664.991969407457
 20
-556.4146018437868
 30
0.0
 40
0.2
100
AcDbArc
 50
315.0000000000095
 51
350.537677791972
  0
LINE
  5
E0EF
330
17
100
AcDbEntity
  8
1外形線
100
AcDbLine
 10
1664.737290009946
 20
-556.669281241298
 30
0.0
 11
1663.95947255064
 21
-555.891463781992
 31
0.0
  0
ARC
  5
E0F0
330
17
100
AcDbEntity
  8
1外形線
100
AcDbCircle
 10
1664.878711366183
 20
-556.5278598850605
 30
0.0
 40
0.2
100
AcDbArc
 50
225.0000000000089
 51
314.9999999999957
  0
LINE
  5
E0F1
330
17
100
AcDbEntity
  8
1外形線
100
AcDbLine
 10
1666.176629838156
 20
-553.3914637821573
 30
0.0
 11
1665.648296037382
 21
-553.9197975827875
 31
0.0
  0
ARC
  5
E0F2
330
17
100
AcDbEntity
  8
1外形線
100
AcDbCircle
 10
1666.318051194393
 20
-553.5328851383946
 30
0.0
 40
0.2
100
AcDbArc
 50
44.99999993681544
 51
135.0000000000096
  0
LINE
  5
E0F3
330
17
100
AcDbEntity
  8
1外形線
 48
0.1
100
AcDbLine
 10
1662.633390763703
 20
-559.0560232000144
 30
0.0
 11
1662.520132720402
 21
-559.1692812412883
 31
0.0
  0
ARC
  5
E0F4
330
17
100
AcDbEntity
  8
1外形線
 48
0.1
100
AcDbCircle
 10
1662.491969407465
 20
-558.9146018437771
 30
0.0
 40
0.2
100
AcDbArc
 50
315.0000000000095
 51
350.537677791972
  0
LINE
  5
E0F5
330
17
100
AcDbEntity
  8
1外形線
100
AcDbLine
 10
1662.237290007927
 20
-559.1692812412883
 30
0.0
 11
1661.459472550805
 21
-558.391463782295
 31
0.0
  0
ARC
  5
E0F6
330
17
100
AcDbEntity
  8
1外形線
100
AcDbCircle
 10
1662.378711364164
 20
-559.027859885051
 30
0.0
 40
0.2
100
AcDbArc
 50
225.0000000000089
 51
315.0000000000142
  0
LINE
  5
E0F7
330
17
100
AcDbEntity
  8
1外形線
100
AcDbLine
 10
1663.676629838165
 20
-555.8914637819921
 30
0.0
 11
1663.148296037374
 21
-556.4197975827826
 31
0.0
  0
ARC
  5
E0F8
330
17
100
AcDbEntity
  8
1外形線
100
AcDbCircle
 10
1663.818051194402
 20
-556.0328851382293
 30
0.0
 40
0.2
100
AcDbArc
 50
45.00000000000427
 51
135.0000000000096
  0
LINE
  5
E0F9
330
17
100
AcDbEntity
  8
1外形線
 48
0.1
100
AcDbLine
 10
1660.133390763712
 20
-561.5560232000058
 30
0.0
 11
1660.020132722438
 21
-561.6692812412796
 31
0.0
  0
ARC
  5
E0FA
330
17
100
AcDbEntity
  8
1外形線
 48
0.1
100
AcDbCircle
 10
1659.991969407475
 20
-561.4146018437685
 30
0.0
 40
0.2
100
AcDbArc
 50
315.0000000000095
 51
350.537677791972
  0
LINE
  5
E0FB
330
17
100
AcDbEntity
  8
1外形線
100
AcDbLine
 10
1659.737290009964
 20
-561.6692812412796
 30
0.0
 11
1658.959472552496
 21
-560.8914637819743
 31
0.0
  0
ARC
  5
E0FC
330
17
100
AcDbEntity
  8
1外形線
100
AcDbCircle
 10
1659.878711366201
 20
-561.5278598850422
 30
0.0
 40
0.2
100
AcDbArc
 50
225.0000000000089
 51
314.9999999999957
  0
LINE
  5
E0FD
330
17
100
AcDbEntity
  8
1外形線
100
AcDbLine
 10
1661.176629838174
 20
-558.3914637821391
 30
0.0
 11
1660.6482960374
 21
-558.9197975827695
 31
0.0
  0
ARC
  5
E0FE
330
17
100
AcDbEntity
  8
1外形線
100
AcDbCircle
 10
1661.318051194412
 20
-558.5328851383764
 30
0.0
 40
0.2
100
AcDbArc
 50
44.99999993683386
 51
135.0000000000096
  0
LINE
  5
E0FF
330
17
100
AcDbEntity
  8
1外形線
 48
0.1
100
AcDbLine
 10
1657.633390763721
 20
-564.0560231999969
 30
0.0
 11
1657.520132722448
 21
-564.1692812412709
 31
0.0
  0
ARC
  5
E100
330
17
100
AcDbEntity
  8
1外形線
 48
0.1
100
AcDbCircle
 10
1657.491969407484
 20
-563.9146018437596
 30
0.0
 40
0.2
100
AcDbArc
 50
315.0000000000095
 51
350.537677791972
  0
LINE
  5
E101
330
17
100
AcDbEntity
  8
1外形線
100
AcDbLine
 10
1657.237290009973
 20
-564.1692812412709
 30
0.0
 11
1656.459472550668
 21
-563.3914637819657
 31
0.0
  0
ARC
  5
E102
330
17
100
AcDbEntity
  8
1外形線
100
AcDbCircle
 10
1657.37871136621
 20
-564.0278598850336
 30
0.0
 40
0.2
100
AcDbArc
 50
225.0000000000089
 51
315.0000000000142
  0
LINE
  5
E103
330
17
100
AcDbEntity
  8
1外形線
100
AcDbLine
 10
1658.676629840021
 20
-560.8914637819744
 30
0.0
 11
1658.14829603759
 21
-561.419797582713
 31
0.0
  0
ARC
  5
E104
330
17
100
AcDbEntity
  8
1外形線
100
AcDbCircle
 10
1658.818051196259
 20
-561.0328851382116
 30
0.0
 40
0.2
100
AcDbArc
 50
45.00000000002268
 51
135.0000000000096
  0
LINE
  5
E105
330
17
100
AcDbEntity
  8
1外形線
 48
0.1
100
AcDbLine
 10
1655.133390763731
 20
-566.5560231999883
 30
0.0
 11
1655.020132722457
 21
-566.6692812412621
 31
0.0
  0
ARC
  5
E106
330
17
100
AcDbEntity
  8
1外形線
 48
0.1
100
AcDbCircle
 10
1654.991969407493
 20
-566.414601843751
 30
0.0
 40
0.2
100
AcDbArc
 50
315.0000000000095
 51
350.537677791972
  0
LINE
  5
E107
330
17
100
AcDbEntity
  8
1外形線
100
AcDbLine
 10
1654.737290009983
 20
-566.6692812412621
 30
0.0
 11
1653.959472550677
 21
-565.8914637819566
 31
0.0
  0
ARC
  5
E108
330
17
100
AcDbEntity
  8
1外形線
100
AcDbCircle
 10
1654.87871136622
 20
-566.5278598850249
 30
0.0
 40
0.2
100
AcDbArc
 50
225.0000000000089
 51
314.9999999999957
  0
LINE
  5
E109
330
17
100
AcDbEntity
  8
1外形線
100
AcDbLine
 10
1656.176629838193
 20
-563.3914637819657
 30
0.0
 11
1655.648296037402
 21
-563.9197975827564
 31
0.0
  0
ARC
  5
E10A
330
17
100
AcDbEntity
  8
1外形線
100
AcDbCircle
 10
1656.31805119443
 20
-563.532885138203
 30
0.0
 40
0.2
100
AcDbArc
 50
45.00000000000886
 51
135.0000000000096
  0
LINE
  5
E10B
330
17
100
AcDbEntity
  8
1外形線
 48
0.1
100
AcDbLine
 10
1652.63339076374
 20
-569.0560231999792
 30
0.0
 11
1652.520132718955
 21
-569.1692812412529
 31
0.0
  0
ARC
  5
E10C
330
17
100
AcDbEntity
  8
1外形線
 48
0.1
100
AcDbCircle
 10
1652.491969407503
 20
-568.9146018437419
 30
0.0
 40
0.2
100
AcDbArc
 50
315.0000000000095
 51
350.537677791972
  0
LINE
  5
E10D
330
17
100
AcDbEntity
  8
1外形線
100
AcDbLine
 10
1652.23729000648
 20
-569.1692812412529
 30
0.0
 11
1651.459472550956
 21
-568.3914637824878
 31
0.0
  0
ARC
  5
E10E
330
17
100
AcDbEntity
  8
1外形線
100
AcDbCircle
 10
1652.378711362717
 20
-569.0278598850157
 30
0.0
 40
0.2
100
AcDbArc
 50
225.0000000000042
 51
315.0000000000095
  0
LINE
  5
E10F
330
17
100
AcDbEntity
  8
1外形線
100
AcDbLine
 10
1653.676629838202
 20
-565.8914637819566
 30
0.0
 11
1653.148296037412
 21
-566.4197975827475
 31
0.0
  0
ARC
  5
E110
330
17
100
AcDbEntity
  8
1外形線
100
AcDbCircle
 10
1653.81805119444
 20
-566.0328851381939
 30
0.0
 40
0.2
100
AcDbArc
 50
45.00000000000886
 51
135.0000000000096
  0
LINE
  5
E111
330
17
100
AcDbEntity
  8
1外形線
 48
0.1
100
AcDbLine
 10
1650.133390763749
 20
-571.5560231999705
 30
0.0
 11
1650.020132720448
 21
-571.6692812412442
 31
0.0
  0
ARC
  5
E112
330
17
100
AcDbEntity
  8
1外形線
 48
0.1
100
AcDbCircle
 10
1649.991969407512
 20
-571.4146018437332
 30
0.0
 40
0.2
100
AcDbArc
 50
315.0000000000095
 51
350.537677791972
  0
LINE
  5
E113
330
17
100
AcDbEntity
  8
1外形線
100
AcDbLine
 10
1649.737290007973
 20
-571.6692812412442
 30
0.0
 11
1648.959472550851
 21
-570.8914637822509
 31
0.0
  0
ARC
  5
E114
330
17
100
AcDbEntity
  8
1外形線
100
AcDbCircle
 10
1649.878711364211
 20
-571.5278598850069
 30
0.0
 40
0.2
100
AcDbArc
 50
225.0000000000089
 51
314.9999999999957
  0
LINE
  5
E115
330
17
100
AcDbEntity
  8
1外形線
100
AcDbLine
 10
1651.176629838212
 20
-568.3914637822178
 30
0.0
 11
1650.64829603745
 21
-568.919797582731
 31
0.0
  0
ARC
  5
E116
330
17
100
AcDbEntity
  8
1外形線
100
AcDbCircle
 10
1651.318051194449
 20
-568.5328851384552
 30
0.0
 40
0.2
100
AcDbArc
 50
44.99999989058566
 51
135.0000000000096
  0
LINE
  5
E117
330
17
100
AcDbEntity
  8
1外形線
 48
0.1
100
AcDbLine
 10
1647.633390763758
 20
-574.0560231999619
 30
0.0
 11
1647.520132722484
 21
-574.1692812412357
 31
0.0
  0
ARC
  5
E118
330
17
100
AcDbEntity
  8
1外形線
 48
0.1
100
AcDbCircle
 10
1647.491969407521
 20
-573.9146018437246
 30
0.0
 40
0.2
100
AcDbArc
 50
315.0000000000095
 51
350.537677791972
  0
LINE
  5
E119
330
17
100
AcDbEntity
  8
1外形線
100
AcDbLine
 10
1647.23729001001
 20
-574.1692812412357
 30
0.0
 11
1646.459472550704
 21
-573.3914637819303
 31
0.0
  0
ARC
  5
E11A
330
17
100
AcDbEntity
  8
1外形線
100
AcDbCircle
 10
1647.378711366247
 20
-574.0278598849983
 30
0.0
 40
0.2
100
AcDbArc
 50
225.0000000000042
 51
314.9999999999911
  0
LINE
  5
E11B
330
17
100
AcDbEntity
  8
1外形線
100
AcDbLine
 10
1648.67662983822
 20
-570.8914637820951
 30
0.0
 11
1648.148296037447
 21
-571.4197975827255
 31
0.0
  0
ARC
  5
E11C
330
17
100
AcDbEntity
  8
1外形線
100
AcDbCircle
 10
1648.818051194458
 20
-571.0328851383324
 30
0.0
 40
0.2
100
AcDbArc
 50
44.99999993683386
 51
135.0000000000096
  0
LINE
  5
E11D
330
17
100
AcDbEntity
  8
1外形線
 48
0.1
100
AcDbLine
 10
1645.133390763768
 20
-576.556023199953
 30
0.0
 11
1645.020132722494
 21
-576.6692812412268
 31
0.0
  0
ARC
  5
E11E
330
17
100
AcDbEntity
  8
1外形線
 48
0.1
100
AcDbCircle
 10
1644.99196940753
 20
-576.4146018437157
 30
0.0
 40
0.2
100
AcDbArc
 50
315.0000000000095
 51
350.537677791972
  0
LINE
  5
E11F
330
17
100
AcDbEntity
  8
1外形線
100
AcDbLine
 10
1644.737290010019
 20
-576.6692812412268
 30
0.0
 11
1643.959472550713
 21
-575.8914637819215
 31
0.0
  0
ARC
  5
E120
330
17
100
AcDbEntity
  8
1外形線
100
AcDbCircle
 10
1644.878711366257
 20
-576.5278598849895
 30
0.0
 40
0.2
100
AcDbArc
 50
225.0000000000089
 51
314.9999999999957
  0
LINE
  5
E121
330
17
100
AcDbEntity
  8
1外形線
100
AcDbLine
 10
1646.17662983823
 20
-573.3914637819303
 30
0.0
 11
1645.648296037439
 21
-573.9197975827212
 31
0.0
  0
ARC
  5
E122
330
17
100
AcDbEntity
  8
1外形線
100
AcDbCircle
 10
1646.318051194468
 20
-573.5328851381677
 30
0.0
 40
0.2
100
AcDbArc
 50
45.00000000000427
 51
135.0000000000096
  0
LINE
  5
E123
330
17
100
AcDbEntity
  8
1外形線
 48
0.1
100
AcDbLine
 10
1642.633390763777
 20
-579.0560231999442
 30
0.0
 11
1642.520132720476
 21
-579.1692812412179
 31
0.0
  0
ARC
  5
E124
330
17
100
AcDbEntity
  8
1外形線
 48
0.1
100
AcDbCircle
 10
1642.49196940754
 20
-578.9146018437069
 30
0.0
 40
0.2
100
AcDbArc
 50
314.9999999999957
 51
350.537677791972
  0
LINE
  5
E125
330
17
100
AcDbEntity
  8
1外形線
100
AcDbLine
 10
1642.237290008001
 20
-579.1692812412179
 30
0.0
 11
1641.459472550878
 21
-578.3914637822237
 31
0.0
  0
ARC
  5
E126
330
17
100
AcDbEntity
  8
1外形線
100
AcDbCircle
 10
1642.378711364239
 20
-579.0278598849806
 30
0.0
 40
0.2
100
AcDbArc
 50
225.0000000000042
 51
315.0000000000142
  0
LINE
  5
E127
330
17
100
AcDbEntity
  8
1外形線
100
AcDbLine
 10
1643.676629838239
 20
-575.8914637819215
 30
0.0
 11
1643.148296037449
 21
-576.4197975827125
 31
0.0
  0
ARC
  5
E128
330
17
100
AcDbEntity
  8
1外形線
100
AcDbCircle
 10
1643.818051194477
 20
-576.0328851381589
 30
0.0
 40
0.2
100
AcDbArc
 50
45.00000000002268
 51
135.0000000000096
  0
LINE
  5
E129
330
17
100
AcDbEntity
  8
1外形線
 48
0.1
100
AcDbLine
 10
1640.133390763785
 20
-581.5560231999345
 30
0.0
 11
1640.020132722512
 21
-581.6692812412084
 31
0.0
  0
ARC
  5
E12A
330
17
100
AcDbEntity
  8
1外形線
 48
0.1
100
AcDbCircle
 10
1639.991969407548
 20
-581.4146018436972
 30
0.0
 40
0.2
100
AcDbArc
 50
315.0000000000095
 51
350.537677791972
  0
LINE
  5
E12B
330
17
100
AcDbEntity
  8
1外形線
100
AcDbLine
 10
1639.737290010037
 20
-581.6692812412084
 30
0.0
 11
1638.959472550734
 21
-580.8914637819054
 31
0.0
  0
ARC
  5
E12C
330
17
100
AcDbEntity
  8
1外形線
100
AcDbCircle
 10
1639.878711366275
 20
-581.5278598849712
 30
0.0
 40
0.2
100
AcDbArc
 50
225.0000000000089
 51
314.9999999999957
  0
LINE
  5
E12D
330
17
100
AcDbEntity
  8
1外形線
100
AcDbLine
 10
1641.176629838248
 20
-578.3914637820679
 30
0.0
 11
1640.648296037474
 21
-578.9197975826984
 31
0.0
  0
ARC
  5
E12E
330
17
100
AcDbEntity
  8
1外形線
100
AcDbCircle
 10
1641.318051194485
 20
-578.5328851383052
 30
0.0
 40
0.2
100
AcDbArc
 50
44.99999993682925
 51
135.0000000000096
  0
LINE
  5
E12F
330
17
100
AcDbEntity
  8
1外形線
 48
0.1
100
AcDbLine
 10
1637.633390763797
 20
-584.0560231999279
 30
0.0
 11
1637.520132722523
 21
-584.1692812412016
 31
0.0
  0
ARC
  5
E130
330
17
100
AcDbEntity
  8
1外形線
 48
0.1
100
AcDbCircle
 10
1637.49196940756
 20
-583.9146018436906
 30
0.0
 40
0.2
100
AcDbArc
 50
315.0000000000095
 51
350.537677791972
  0
LINE
  5
E131
330
17
100
AcDbEntity
  8
1外形線
100
AcDbLine
 10
1637.237290010048
 20
-584.1692812412016
 30
0.0
 11
1636.459472550741
 21
-583.3914637818941
 31
0.0
  0
ARC
  5
E132
330
17
100
AcDbEntity
  8
1外形線
100
AcDbCircle
 10
1637.378711366286
 20
-584.0278598849644
 30
0.0
 40
0.2
100
AcDbArc
 50
225.0000000000042
 51
315.0000000000142
  0
LINE
  5
E133
330
17
100
AcDbEntity
  8
1外形線
100
AcDbLine
 10
1638.676629838259
 20
-580.8914637819054
 30
0.0
 11
1638.148296037468
 21
-581.4197975826961
 31
0.0
  0
ARC
  5
E134
330
17
100
AcDbEntity
  8
1外形線
100
AcDbCircle
 10
1638.818051194497
 20
-581.0328851381426
 30
0.0
 40
0.2
100
AcDbArc
 50
45.00000000000886
 51
135.0000000000096
  0
ARC
  5
E135
330
17
100
AcDbEntity
  8
1外形線
100
AcDbCircle
 10
1636.318051194504
 20
-583.5328851381314
 30
0.0
 40
0.2
100
AcDbArc
 50
45.00000000000886
 51
135.0000000000096
  0
LINE
  5
E136
330
17
100
AcDbEntity
  8
1外形線
100
AcDbLine
 10
1675.592438608796
 20
-544.0283391416177
 30
0.0
 11
1675.189248192185
 21
-546.4474816412826
 31
0.0
  0
ARC
  5
E137
330
17
100
AcDbEntity
  8
1外形線
100
AcDbCircle
 10
1675.789717393563
 20
-544.0612189390788
 30
0.0
 40
0.2
100
AcDbArc
 50
134.9999999923453
 51
170.537677791972
  0
LINE
  5
E138
330
17
100
AcDbEntity
  8
1外形線
100
AcDbLine
 10
1673.092438608808
 20
-546.5283391415946
 30
0.0
 11
1672.689248192195
 21
-548.9474816412738
 31
0.0
  0
ARC
  5
E139
330
17
100
AcDbEntity
  8
1外形線
100
AcDbCircle
 10
1673.289717393575
 20
-546.5612189390557
 30
0.0
 40
0.2
100
AcDbArc
 50
135.0000000000141
 51
170.537677791972
  0
LINE
  5
E13A
330
17
100
AcDbEntity
  8
1外形線
100
AcDbLine
 10
1670.592438608817
 20
-549.0283391415857
 30
0.0
 11
1670.189248192204
 21
-551.4474816412648
 31
0.0
  0
ARC
  5
E13B
330
17
100
AcDbEntity
  8
1外形線
100
AcDbCircle
 10
1670.789717393583
 20
-549.0612189390468
 30
0.0
 40
0.2
100
AcDbArc
 50
135.0000000000096
 51
170.537677791972
  0
LINE
  5
E13C
330
17
100
AcDbEntity
  8
1外形線
100
AcDbLine
 10
1668.092438608827
 20
-551.5283391415766
 30
0.0
 11
1667.689248192213
 21
-553.947481641256
 31
0.0
  0
ARC
  5
E13D
330
17
100
AcDbEntity
  8
1外形線
100
AcDbCircle
 10
1668.289717393593
 20
-551.5612189390378
 30
0.0
 40
0.2
100
AcDbArc
 50
135.0000000000096
 51
170.537677791972
  0
LINE
  5
E13E
330
17
100
AcDbEntity
  8
1外形線
100
AcDbLine
 10
1665.592438608834
 20
-554.028339141583
 30
0.0
 11
1665.189248192223
 21
-556.4474816412479
 31
0.0
  0
ARC
  5
E13F
330
17
100
AcDbEntity
  8
1外形線
100
AcDbCircle
 10
1665.7897173936
 20
-554.0612189390441
 30
0.0
 40
0.2
100
AcDbArc
 50
134.9999999922209
 51
170.537677791972
  0
LINE
  5
E140
330
17
100
AcDbEntity
  8
1外形線
100
AcDbLine
 10
1663.092438608845
 20
-556.5283391415589
 30
0.0
 11
1662.689248192232
 21
-558.9474816412383
 31
0.0
  0
ARC
  5
E141
330
17
100
AcDbEntity
  8
1外形線
100
AcDbCircle
 10
1663.289717393612
 20
-556.5612189390199
 30
0.0
 40
0.2
100
AcDbArc
 50
135.0000000000096
 51
170.537677791972
  0
LINE
  5
E142
330
17
100
AcDbEntity
  8
1外形線
100
AcDbLine
 10
1660.592438608852
 20
-559.0283391415649
 30
0.0
 11
1660.189248192241
 21
-561.4474816412296
 31
0.0
  0
ARC
  5
E143
330
17
100
AcDbEntity
  8
1外形線
100
AcDbCircle
 10
1660.789717393619
 20
-559.061218939026
 30
0.0
 40
0.2
100
AcDbArc
 50
134.9999999922347
 51
170.537677791972
  0
LINE
  5
E144
330
17
100
AcDbEntity
  8
1外形線
100
AcDbLine
 10
1658.092438608835
 20
-561.5283391417158
 30
0.0
 11
1657.68924819225
 21
-563.9474816412207
 31
0.0
  0
ARC
  5
E145
330
17
100
AcDbEntity
  8
1外形線
100
AcDbCircle
 10
1658.289717393601
 20
-561.5612189391769
 30
0.0
 40
0.2
100
AcDbArc
 50
134.9999999082271
 51
170.537677791972
  0
LINE
  5
E146
330
17
100
AcDbEntity
  8
1外形線
100
AcDbLine
 10
1655.592438608873
 20
-564.0283391415326
 30
0.0
 11
1655.18924819226
 21
-566.4474816412121
 31
0.0
  0
ARC
  5
E147
330
17
100
AcDbEntity
  8
1外形線
100
AcDbCircle
 10
1655.78971739364
 20
-564.0612189389937
 30
0.0
 40
0.2
100
AcDbArc
 50
135.0000000000141
 51
170.537677791972
  0
LINE
  5
E148
330
17
100
AcDbEntity
  8
1外形線
100
AcDbLine
 10
1653.092438608882
 20
-566.5283391415236
 30
0.0
 11
1652.689248192269
 21
-568.947481641203
 31
0.0
  0
ARC
  5
E149
330
17
100
AcDbEntity
  8
1外形線
100
AcDbCircle
 10
1653.289717393649
 20
-566.5612189389848
 30
0.0
 40
0.2
100
AcDbArc
 50
135.0000000000141
 51
170.537677791972
  0
LINE
  5
E14A
330
17
100
AcDbEntity
  8
1外形線
100
AcDbLine
 10
1650.592438608887
 20
-569.0283391415404
 30
0.0
 11
1650.189248192278
 21
-571.4474816411943
 31
0.0
  0
ARC
  5
E14B
330
17
100
AcDbEntity
  8
1外形線
100
AcDbCircle
 10
1650.789717393654
 20
-569.0612189390016
 30
0.0
 40
0.2
100
AcDbArc
 50
134.999999986528
 51
170.537677791972
  0
LINE
  5
E14C
330
17
100
AcDbEntity
  8
1外形線
100
AcDbLine
 10
1648.092438608898
 20
-571.5283391415209
 30
0.0
 11
1647.689248192287
 21
-573.9474816411857
 31
0.0
  0
ARC
  5
E14D
330
17
100
AcDbEntity
  8
1外形線
100
AcDbCircle
 10
1648.289717393665
 20
-571.561218938982
 30
0.0
 40
0.2
100
AcDbArc
 50
134.9999999922209
 51
170.537677791972
  0
LINE
  5
E14E
330
17
100
AcDbEntity
  8
1外形線
100
AcDbLine
 10
1645.59243860891
 20
-574.0283391414974
 30
0.0
 11
1645.189248192297
 21
-576.4474816411769
 31
0.0
  0
ARC
  5
E14F
330
17
100
AcDbEntity
  8
1外形線
100
AcDbCircle
 10
1645.789717393677
 20
-574.0612189389585
 30
0.0
 40
0.2
100
AcDbArc
 50
135.0000000000096
 51
170.537677791972
  0
LINE
  5
E150
330
17
100
AcDbEntity
  8
1外形線
100
AcDbLine
 10
1643.092438608919
 20
-576.5283391414887
 30
0.0
 11
1642.689248192306
 21
-578.9474816411679
 31
0.0
  0
ARC
  5
E151
330
17
100
AcDbEntity
  8
1外形線
100
AcDbCircle
 10
1643.289717393686
 20
-576.5612189389497
 30
0.0
 40
0.2
100
AcDbArc
 50
135.0000000000141
 51
170.537677791972
  0
LINE
  5
E152
330
17
100
AcDbEntity
  8
1外形線
100
AcDbLine
 10
1640.592438608925
 20
-579.0283391414938
 30
0.0
 11
1640.189248192315
 21
-581.4474816411583
 31
0.0
  0
ARC
  5
E153
330
17
100
AcDbEntity
  8
1外形線
100
AcDbCircle
 10
1640.789717393692
 20
-579.0612189389548
 30
0.0
 40
0.2
100
AcDbArc
 50
134.9999999922163
 51
170.537677791972
  0
LINE
  5
E154
330
17
100
AcDbEntity
  8
1外形線
100
AcDbLine
 10
1638.092438608939
 20
-581.5283391414722
 30
0.0
 11
1637.689248192326
 21
-583.9474816411517
 31
0.0
  0
ARC
  5
E155
330
17
100
AcDbEntity
  8
1外形線
100
AcDbCircle
 10
1638.289717393706
 20
-581.5612189389334
 30
0.0
 40
0.2
100
AcDbArc
 50
135.0000000000096
 51
170.537677791972
  0
LINE
  5
E156
330
17
100
AcDbEntity
  8
1外形線
100
AcDbLine
 10
1636.176629838265
 20
-583.391463781893
 30
0.0
 11
1625.144405550713
 21
-594.4236880694496
 31
0.0
  0
LINE
  5
E157
330
17
100
AcDbEntity
  8
1外形線
100
AcDbLine
 10
1624.437298768756
 20
-593.7165812852622
 30
0.0
 11
1628.670603206322
 21
-597.94988573231
 31
0.0
  0
LINE
  5
E159
330
17
100
AcDbEntity
  8
1外形線
100
AcDbLine
 10
1630.09415302014
 20
-582.402872787459
 30
0.0
 11
1624.277665249261
 21
-592.5107147932041
 31
0.0
  0
LINE
  5
E15A
330
17
100
AcDbEntity
  8
1外形線
100
AcDbLine
 10
1629.730191991528
 20
-541.9498857301741
 30
0.0
 11
1624.061671536412
 21
-539.9206307314312
 31
0.0
  0
LINE
  5
E163
330
17
100
AcDbEntity
  8
1外形線
100
AcDbLine
 10
1770.132513969053
 20
-566.810702596905
 30
0.0
 11
1759.932513969029
 21
-566.810702596905
 31
0.0
  0
LINE
  5
E165
330
17
100
AcDbEntity
  8
1外形線
100
AcDbLine
 10
1770.132513969053
 20
-569.3107025968909
 30
0.0
 11
1759.932513969032
 21
-569.3107025969054
 31
0.0
  0
LINE
  5
E167
330
17
100
AcDbEntity
  8
1外形線
100
AcDbLine
 10
1770.132513969053
 20
-571.8107025968746
 30
0.0
 11
1759.932513969036
 21
-571.8107025968891
 31
0.0
  0
LINE
  5
E169
330
17
100
AcDbEntity
  8
1外形線
100
AcDbLine
 10
1770.132513969053
 20
-574.3107025968659
 30
0.0
 11
1759.932513969039
 21
-574.3107025968659
 31
0.0
  0
LINE
  5
E16B
330
17
100
AcDbEntity
  8
1外形線
100
AcDbLine
 10
1770.132513969053
 20
-576.8107025968636
 30
0.0
 11
1759.932513969043
 21
-576.8107025968781
 31
0.0
  0
LINE
  5
E16D
330
17
100
AcDbEntity
  8
1外形線
100
AcDbLine
 10
1770.132513969053
 20
-579.3107025968496
 30
0.0
 11
1759.932513969047
 21
-579.3107025968642
 31
0.0
  0
LINE
  5
E16F
330
17
100
AcDbEntity
  8
1外形線
100
AcDbLine
 10
1770.132513969053
 20
-581.8107025968473
 30
0.0
 11
1759.93251396905
 21
-581.8107025968617
 31
0.0
  0
LINE
  5
E171
330
17
100
AcDbEntity
  8
1外形線
100
AcDbLine
 10
1770.132513969053
 20
-584.3107025968333
 30
0.0
 11
1759.932513969053
 21
-584.3107025968477
 31
0.0
  0
LINE
  5
E176
330
17
100
AcDbEntity
  8
1外形線
100
AcDbLine
 10
1784.732513970316
 20
-566.8107025965598
 30
0.0
 11
1794.932513970341
 21
-566.8107025960773
 31
0.0
  0
LINE
  5
E178
330
17
100
AcDbEntity
  8
1外形線
100
AcDbLine
 10
1784.732513970434
 20
-569.3107025965457
 30
0.0
 11
1794.932513970455
 21
-569.3107025960777
 31
0.0
  0
LINE
  5
E17A
330
17
100
AcDbEntity
  8
1外形線
100
AcDbLine
 10
1784.732513970552
 20
-571.8107025965293
 30
0.0
 11
1794.93251397057
 21
-571.8107025960614
 31
0.0
  0
LINE
  5
E17C
330
17
100
AcDbEntity
  8
1外形線
100
AcDbLine
 10
1784.732513970671
 20
-574.3107025965207
 30
0.0
 11
1794.932513970684
 21
-574.3107025960382
 31
0.0
  0
LINE
  5
E17E
330
17
100
AcDbEntity
  8
1外形線
100
AcDbLine
 10
1784.732513970789
 20
-576.8107025965185
 30
0.0
 11
1794.932513970799
 21
-576.8107025960505
 31
0.0
  0
LINE
  5
E180
330
17
100
AcDbEntity
  8
1外形線
100
AcDbLine
 10
1784.732513970907
 20
-579.3107025965043
 30
0.0
 11
1794.932513970914
 21
-579.3107025960364
 31
0.0
  0
LINE
  5
E182
330
17
100
AcDbEntity
  8
1外形線
100
AcDbLine
 10
1784.732513971025
 20
-581.810702596502
 30
0.0
 11
1794.932513971028
 21
-581.8107025960341
 31
0.0
  0
LINE
  5
E184
330
17
100
AcDbEntity
  8
1外形線
100
AcDbLine
 10
1784.732513971144
 20
-584.3107025964882
 30
0.0
 11
1794.932513971143
 21
-584.31070259602
 31
0.0
  0
ARC
  5
E189
330
17
100
AcDbEntity
  8
1外形線
100
AcDbCircle
 10
1676.739528238604
 20
-549.475369124705
 30
0.0
 40
1.0
100
AcDbArc
 50
348.8240957893235
 51
99.12451530031754
  0
LINE
  5
E18A
330
17
100
AcDbEntity
  8
1外形線
100
AcDbLine
 10
1680.23226476142
 20
-542.2470986827524
 30
0.0
 11
1678.95947255172
 21
-540.9743064935114
 31
0.0
  0
ARC
  5
E18B
330
17
100
AcDbEntity
  8
1外形線
100
AcDbCircle
 10
1678.818051195483
 20
-541.1157278497487
 30
0.0
 40
0.2
100
AcDbArc
 50
45.00000000000886
 51
135.0000000000096
  0
ARC
  5
E18C
330
17
100
AcDbEntity
  8
1外形線
100
AcDbCircle
 10
1684.387046242141
 20
-552.800138260808
 30
0.0
 40
1.0
100
AcDbArc
 50
314.9999999999957
 51
134.9999999999957
  0
LINE
  5
E18D
330
17
100
AcDbEntity
  8
1外形線
 48
0.1
100
AcDbLine
 10
1677.638850312042
 20
-544.1334063702621
 30
0.0
 11
1668.194300953183
 21
-553.5779557199851
 31
0.0
  0
LINE
  5
E18E
330
17
100
AcDbEntity
  8
1外形線
 48
0.1
100
AcDbLine
 10
1680.232264760908
 20
-544.3684190268255
 30
0.0
 11
1676.679582323693
 21
-547.9211014674449
 31
0.0
  0
ARC
  5
E18F
330
17
100
AcDbEntity
  8
1外形線
 48
0.1
100
AcDbCircle
 10
1679.171604589641
 20
-543.3077588545327
 30
0.0
 40
1.5
100
AcDbArc
 50
314.9999999722865
 51
45.00000000002268
  0
ARC
  5
E190
330
17
100
AcDbEntity
  8
1外形線
 48
0.1
100
AcDbCircle
 10
1676.931743531198
 20
-543.4262995887336
 30
0.0
 40
1.0
100
AcDbArc
 50
314.9999999722865
 51
350.537677791972
  0
LINE
  5
E191
330
17
100
AcDbEntity
  8
1外形線
100
AcDbLine
 10
1668.194300952983
 20
-554.2850625013136
 30
0.0
 11
1671.785112662487
 21
-557.8758742108182
 31
0.0
  0
ARC
  5
E192
330
17
100
AcDbEntity
  8
1外形線
100
AcDbCircle
 10
1668.547854343576
 20
-553.9315091107202
 30
0.0
 40
0.5
100
AcDbArc
 50
135.0000000000096
 51
225.0000000000042
  0
ARC
  5
E193
330
17
100
AcDbEntity
  8
1外形線
100
AcDbCircle
 10
1678.730191992667
 20
-557.7498857291324
 30
0.0
 40
4.5
100
AcDbArc
 50
39.78409142980605
 51
270.0000000001954
  0
ARC
  5
E194
330
17
100
AcDbEntity
  8
1外形線
100
AcDbCircle
 10
1682.956728729451
 20
-554.230455773498
 30
0.0
 40
1.0
100
AcDbArc
 50
219.784091429806
 51
314.9999999999957
  0
ARC
  5
E195
330
17
100
AcDbEntity
  8
1外形線
100
AcDbCircle
 10
1678.730191992667
 20
-557.7498857291324
 30
0.0
 40
6.5
100
AcDbArc
 50
53.21321070195129
 51
79.56032178000572
  0
ARC
  5
E196
330
17
100
AcDbEntity
  8
1外形線
100
AcDbCircle
 10
1682.922064697025
 20
-552.1437994623638
 30
0.0
 40
0.5
100
AcDbArc
 50
233.2132107019513
 51
314.9999999999957
  0
ARC
  5
E197
330
17
100
AcDbEntity
  8
1外形線
100
AcDbCircle
 10
1680.270394036726
 20
-549.39059283658
 30
0.0
 40
2.0
100
AcDbArc
 50
225.0000000000042
 51
259.5603217800057
  0
ARC
  5
E198
330
17
100
AcDbEntity
  8
1外形線
100
AcDbCircle
 10
1678.730191992667
 20
-557.7498857291324
 30
0.0
 40
7.099999999999999
100
AcDbArc
 50
49.03825659608555
 51
90.23300464789906
  0
ARC
  5
E199
330
17
100
AcDbEntity
  8
1外形線
100
AcDbCircle
 10
1678.730191992667
 20
-557.7498857291324
 30
0.0
 40
6.5
100
AcDbArc
 50
190.4396782199953
 51
270.0000000001173
  0
ARC
  5
E19A
330
17
100
AcDbEntity
  8
1外形線
100
AcDbCircle
 10
1670.370899100114
 20
-559.2900877731913
 30
0.0
 40
2.0
100
AcDbArc
 50
10.43967822000206
 51
45.00000000000427
  0
ARC
  5
E19B
330
17
100
AcDbEntity
  8
1外形線
100
AcDbCircle
 10
1678.730191992667
 20
-557.7498857291324
 30
0.0
 40
7.099999999999999
100
AcDbArc
 50
179.7669953520944
 51
246.2758308500344
  0
LINE
  5
E19C
330
17
100
AcDbEntity
  8
1外形線
100
AcDbLine
 10
1678.730191992681
 20
-562.2498857291323
 30
0.0
 11
1683.836793710429
 21
-562.2498857291321
 31
0.0
  0
LINE
  5
E19D
330
17
100
AcDbEntity
  8
1外形線
100
AcDbLine
 10
1675.873620621249
 20
-564.2498857291323
 30
0.0
 11
1683.836793710429
 21
-564.2498857291322
 31
0.0
  0
LINE
  5
E19E
330
17
100
AcDbEntity
  8
1外形線
100
AcDbLine
 10
1683.275618087619
 20
-552.497352852957
 30
0.0
 11
1683.679939460954
 21
-552.0930314796218
 31
0.0
  0
LINE
  5
E19F
330
17
100
AcDbEntity
  8
1外形線
100
AcDbLine
 10
1683.663835510637
 20
-554.9375625546846
 30
0.0
 11
1685.094153023327
 21
-553.5072450419947
 31
0.0
  0
LINE
  5
E1A0
330
17
100
AcDbEntity
  8
1外形線
100
AcDbLine
 10
1678.856180474353
 20
-550.804806398953
 30
0.0
 11
1676.679582323862
 21
-548.6282082484621
 31
0.0
  0
LINE
  5
E1A1
330
17
100
AcDbEntity
  8
1外形線
100
AcDbLine
 10
1681.558619117402
 20
-554.2498857290367
 30
0.0
 11
1675.901764868002
 21
-554.2498857290248
 31
0.0
  0
LINE
  5
E1A2
330
17
100
AcDbEntity
  8
1外形線
100
AcDbLine
 10
1678.263375329569
 20
-541.519271328806
 30
0.0
 11
1677.91813745503
 21
-543.5906985760391
 31
0.0
  0
ARC
  5
E1A3
330
17
100
AcDbEntity
  8
1外形線
100
AcDbCircle
 10
1678.756572291485
 20
-541.6014708224588
 30
0.0
 40
0.5
100
AcDbArc
 50
135.0000000000096
 51
170.5376777919657
  0
LINE
  5
E1A4
330
17
100
AcDbEntity
  8
1外形線
100
AcDbLine
 10
1678.676629839246
 20
-540.9743064935114
 30
0.0
 11
1678.403018900892
 21
-541.2479174318656
 31
0.0
  0
ARC
  5
E1A5
330
17
100
AcDbEntity
  8
1外形線
100
AcDbCircle
 10
1683.836793710429
 20
-563.2498857291323
 30
0.0
 40
1.0
100
AcDbArc
 50
270.0
 51
90.0
  0
ARC
  5
E1A6
330
17
100
AcDbEntity
  8
1外形線
100
AcDbCircle
 10
1677.033135714455
 20
-548.2746548578688
 30
0.0
 40
0.5
100
AcDbArc
 50
135.0000000274471
 51
225.0000000000042
  0
LINE
  5
E1A7
330
17
100
AcDbEntity
  8
1外形線
 48
0.1
100
AcDbLine
 10
1674.558261986256
 20
-550.0424218164466
 30
0.0
 11
1671.022728078613
 21
-553.5779557206691
 31
0.0
  0
ARC
  5
E1A8
330
17
100
AcDbEntity
  8
1外形線
 48
0.1
100
AcDbCircle
 10
1671.376281469035
 20
-553.9315091114335
 30
0.0
 40
0.5
100
AcDbArc
 50
134.9999999722864
 51
225.0000000000042
  0
LINE
  5
E1A9
330
17
100
AcDbEntity
  8
1外形線
 48
0.1
100
AcDbLine
 10
1676.113896904524
 20
-551.5980567353989
 30
0.0
 11
1672.578362996881
 21
-555.1335906396217
 31
0.0
  0
ARC
  5
E1AA
330
17
100
AcDbEntity
  8
1外形線
 48
0.1
100
AcDbCircle
 10
1675.760343514102
 20
-551.2445033446347
 30
0.0
 40
0.5
100
AcDbArc
 50
314.9999999722865
 51
45.00000000000427
  0
LINE
  5
E1AB
330
17
100
AcDbEntity
  8
1外形線
100
AcDbLine
 10
1671.022728078442
 20
-554.2850625020267
 30
0.0
 11
1671.871256215866
 21
-555.1335906394506
 31
0.0
  0
ARC
  5
E1AC
330
17
100
AcDbEntity
  8
1外形線
100
AcDbCircle
 10
1672.224809606459
 20
-554.7800372488573
 30
0.0
 40
0.5
100
AcDbArc
 50
225.0000000000042
 51
314.9999999722865
  0
LINE
  5
E1AD
330
17
100
AcDbEntity
  8
1外形線
100
AcDbLine
 10
1676.113896904695
 20
-550.8909499540414
 30
0.0
 11
1675.265368767271
 21
-550.0424218166176
 31
0.0
  0
ARC
  5
E1AE
330
17
100
AcDbEntity
  8
1外形線
100
AcDbCircle
 10
1674.911815376678
 20
-550.395975207211
 30
0.0
 40
0.5
100
AcDbArc
 50
45.00000000000427
 51
134.9999999722864
  0
LINE
  5
E1AF
330
17
100
AcDbEntity
  8
1外形線
100
AcDbLine
 10
1794.93251396889
 20
-562.2498857291318
 30
0.0
 11
1759.932513968897
 21
-562.2498857291318
 31
0.0
  0
LINE
  5
E1B0
330
17
100
AcDbEntity
  8
1外形線
100
AcDbLine
 10
1759.932513968897
 20
-562.2498857291318
 30
0.0
 11
1759.932513968897
 21
-564.2498857291318
 31
0.0
  0
LINE
  5
E1B1
330
17
100
AcDbEntity
  8
1外形線
100
AcDbLine
 10
1759.932513968897
 20
-564.2498857291318
 30
0.0
 11
1794.93251396889
 21
-564.2498857291318
 31
0.0
  0
LINE
  5
E1B2
330
17
100
AcDbEntity
  8
1外形線
100
AcDbLine
 10
1794.93251396889
 20
-564.2498857291318
 30
0.0
 11
1794.93251396889
 21
-562.2498857291318
 31
0.0
  0
LINE
  5
E1B3
330
17
100
AcDbEntity
  8
1外形線
100
AcDbLine
 10
1794.93251396889
 20
-551.8001382608077
 30
0.0
 11
1759.932513968897
 21
-551.8001382608077
 31
0.0
  0
LINE
  5
E1B4
330
17
100
AcDbEntity
  8
1外形線
100
AcDbLine
 10
1759.932513968897
 20
-551.8001382608077
 30
0.0
 11
1759.932513968897
 21
-555.2294200359876
 31
0.0
  0
LINE
  5
E1B5
330
17
100
AcDbEntity
  8
1外形線
100
AcDbLine
 10
1759.932513968897
 20
-555.2294200359876
 30
0.0
 11
1794.93251396889
 21
-555.2294200359876
 31
0.0
  0
LINE
  5
E1B6
330
17
100
AcDbEntity
  8
1外形線
100
AcDbLine
 10
1794.93251396889
 20
-555.2294200359876
 30
0.0
 11
1794.93251396889
 21
-551.8001382608077
 31
0.0
  0
LINE
  5
E1B7
330
17
100
AcDbEntity
  8
1外形線
100
AcDbLine
 10
1794.93251396889
 20
-555.2294200359876
 30
0.0
 11
1794.93251396889
 21
-562.2498857291318
 31
0.0
  0
LINE
  5
E1B8
330
17
100
AcDbEntity
  8
1外形線
100
AcDbLine
 10
1759.932513968897
 20
-555.2294200359876
 30
0.0
 11
1759.932513968897
 21
-562.2498857291318
 31
0.0
  0
LINE
  5
E1B9
330
17
100
AcDbEntity
  8
1外形線
100
AcDbLine
 10
1782.182513968893
 20
-551.8001382608077
 30
0.0
 11
1782.182513968893
 21
-550.649944439075
 31
0.0
  0
LINE
  5
E1BA
330
17
100
AcDbEntity
  8
1外形線
100
AcDbLine
 10
1782.182513968893
 20
-550.649944439075
 30
0.0
 11
1772.682513968893
 21
-550.649944439075
 31
0.0
  0
LINE
  5
E1BB
330
17
100
AcDbEntity
  8
1外形線
100
AcDbLine
 10
1772.682513968893
 20
-550.649944439075
 30
0.0
 11
1772.682513968893
 21
-551.8001382608077
 31
0.0
  0
LINE
  5
E1BC
330
17
100
AcDbEntity
  8
1外形線
100
AcDbLine
 10
1759.932513968897
 20
-551.8001382608077
 30
0.0
 11
1759.932513968897
 21
-540.9157278497483
 31
0.0
  0
LINE
  5
E1BD
330
17
100
AcDbEntity
  8
1外形線
100
AcDbLine
 10
1759.932513968897
 20
-541.7278598851125
 30
0.0
 11
1772.932513969056
 21
-541.7278598851125
 31
0.0
  0
LINE
  5
E1BE
330
17
100
AcDbEntity
  8
1外形線
100
AcDbLine
 10
1769.932513968897
 20
-541.7278598851125
 30
0.0
 11
1769.932513968897
 21
-543.3077588454996
 31
0.0
  0
LINE
  5
E1C0
330
17
100
AcDbEntity
  8
1外形線
100
AcDbLine
 10
1794.93251396889
 20
-551.8001382608077
 30
0.0
 11
1794.93251396889
 21
-540.9157278497483
 31
0.0
  0
LINE
  5
E1C1
330
17
100
AcDbEntity
  8
1外形線
100
AcDbLine
 10
1794.932513968761
 20
-541.7278598851125
 30
0.0
 11
1779.432513969043
 21
-541.7278598851125
 31
0.0
  0
LINE
  5
E1C2
330
17
100
AcDbEntity
  8
1外形線
100
AcDbLine
 10
1784.93251396889
 20
-541.7278598851125
 30
0.0
 11
1784.93251396889
 21
-543.3077588454996
 31
0.0
  0
LINE
  5
E1C4
330
17
100
AcDbEntity
  8
1外形線
100
AcDbLine
 10
1769.932513968897
 20
-543.3077588454996
 30
0.0
 11
1769.932513968897
 21
-548.2746548645059
 31
0.0
  0
LINE
  5
E1C5
330
17
100
AcDbEntity
  8
1外形線
100
AcDbLine
 10
1769.932513968897
 20
-548.2746548645059
 30
0.0
 11
1759.932513968897
 21
-548.2746548645059
 31
0.0
  0
LINE
  5
E1C6
330
17
100
AcDbEntity
  8
1外形線
100
AcDbLine
 10
1784.93251396889
 20
-543.3077588454996
 30
0.0
 11
1784.93251396889
 21
-548.2746548645059
 31
0.0
  0
LINE
  5
E1C7
330
17
100
AcDbEntity
  8
1外形線
100
AcDbLine
 10
1784.93251396889
 20
-548.2746548645059
 30
0.0
 11
1794.93251396889
 21
-548.2746548645059
 31
0.0
  0
LINE
  5
E1C8
330
17
100
AcDbEntity
  8
1外形線
100
AcDbLine
 10
1784.93251396889
 20
-548.2746548645059
 30
0.0
 11
1784.93251396889
 21
-549.8302897831164
 31
0.0
  0
LINE
  5
E1C9
330
17
100
AcDbEntity
  8
1外形線
100
AcDbLine
 10
1784.93251396889
 20
-549.8302897831164
 30
0.0
 11
1769.932513968897
 21
-549.8302897831164
 31
0.0
  0
LINE
  5
E1CA
330
17
100
AcDbEntity
  8
1外形線
100
AcDbLine
 10
1769.932513968897
 20
-549.8302897831164
 30
0.0
 11
1769.932513968897
 21
-548.2746548645059
 31
0.0
  0
LINE
  5
E1CF
330
17
100
AcDbEntity
  8
1外形線
100
AcDbLine
 10
1770.132513969053
 20
-548.274654864506
 30
0.0
 11
1769.932513968897
 21
-548.274654864506
 31
0.0
  0
LINE
  5
E1D2
330
17
100
AcDbEntity
  8
1外形線
100
AcDbLine
 10
1784.732513969046
 20
-548.274654864506
 30
0.0
 11
1784.93251396889
 21
-548.274654864506
 31
0.0
  0
LWPOLYLINE
  5
E222
330
17
100
AcDbEntity
  8
C6
 48
2.0
100
AcDbPolyline
 90
        4
 70
     1
 43
0.0
 10
1574.868577759499
 20
-480.2183611718271
 10
1822.224603524552
 20
-480.2183611718271
 10
1822.224603524552
 20
-622.0100309387789
 10
1574.868577759499
 20
-622.0100309387789
  0
TEXT
  5
E224
330
17
100
AcDbEntity
  8
C6
 48
2.0
100
AcDbText
 10
1588.029161851562
 20
-504.451688748192
 30
0.0
 40
12.0
  1
FL-YK
  7
KANJI
100
AcDbText
  0
ENDSEC
  0
SECTION
  2
OBJECTS
  0
DICTIONARY
  5
C
330
0
100
AcDbDictionary
281
     1
  3
ACAD_CIP_PREVIOUS_PRODUCT_INFO
350
E070
  3
ACAD_COLOR
350
6118
  3
ACAD_DETAILVIEWSTYLE
350
E069
  3
ACAD_GROUP
350
D
  3
ACAD_LAYOUT
350
4800
  3
ACAD_MATERIAL
350
6117
  3
ACAD_MLEADERSTYLE
350
E065
  3
ACAD_MLINESTYLE
350
1A
  3
ACAD_PLOTSETTINGS
350
4801
  3
ACAD_PLOTSTYLENAME
350
47FE
  3
ACAD_SCALELIST
350
E053
  3
ACAD_SECTIONVIEWSTYLE
350
E067
  3
ACAD_TABLESTYLE
350
6119
  3
ACAD_VISUALSTYLE
350
663B
  3
ACDB_RECOMPOSE_DATA
350
E24F
  3
ACDBVARIABLEDICTIONARY
350
51
  0
DICTIONARY
  5
6B33
330
8
100
AcDbDictionary
280
     1
281
     1
  0
DICTIONARY
  5
66E8
330
2
100
AcDbDictionary
280
     1
281
     1
  3
ACAD_LAYERSTATES
360
66E9
  0
DICTIONARY
  5
E072
330
E
100
AcDbDictionary
280
     1
281
     1
  3
ADSK_XREC_LAYER_RECONCILED
360
E073
  0
DICTIONARY
  5
E074
330
44
100
AcDbDictionary
280
     1
281
     1
  3
ADSK_XREC_LAYER_RECONCILED
360
E075
  0
DICTIONARY
  5
E076
330
45
100
AcDbDictionary
280
     1
281
     1
  3
ADSK_XREC_LAYER_RECONCILED
360
E077
  0
DICTIONARY
  5
E078
330
4C
100
AcDbDictionary
280
     1
281
     1
  3
ADSK_XREC_LAYER_RECONCILED
360
E079
  0
DICTIONARY
  5
7365
330
7364
100
AcDbDictionary
280
     1
281
     1
  3
ADSK_XREC_LAYER_RECONCILED
360
7366
  0
DICTIONARY
  5
C912
330
C911
100
AcDbDictionary
280
     1
281
     1
  3
ADSK_XREC_LAYER_RECONCILED
360
C913
  0
DICTIONARY
  5
C915
330
C914
100
AcDbDictionary
280
     1
281
     1
  3
ADSK_XREC_LAYER_RECONCILED
360
C916
  0
DICTIONARY
  5
58D0
330
17
100
AcDbDictionary
280
     1
281
     1
  3
ACAD_LAYOUTSELFREF
360
58D1
  3
ACAD_SORTENTS
360
8EAF
  0
DICTIONARY
  5
58CE
330
14
100
AcDbDictionary
280
     1
281
     1
  3
ACAD_LAYOUTSELFREF
360
58CF
  0
XRECORD
  5
E070
102
{ACAD_REACTORS
330
C
102
}
330
C
100
AcDbXrecord
280
     1
300
ACD
300
2023
300

  0
DICTIONARY
  5
6118
102
{ACAD_REACTORS
330
C
102
}
330
C
100
AcDbDictionary
281
     1
  0
DICTIONARY
  5
E069
102
{ACAD_REACTORS
330
C
102
}
330
C
100
AcDbDictionary
281
     1
  3
Metric50
350
E06A
  0
DICTIONARY
  5
D
102
{ACAD_REACTORS
330
C
102
}
330
C
100
AcDbDictionary
281
     1
  0
DICTIONARY
  5
4800
102
{ACAD_REACTORS
330
C
102
}
330
C
100
AcDbDictionary
281
     1
  3
Model
350
4802
  3
ﾚｲｱｳﾄ1
350
4803
  0
DICTIONARY
  5
6117
102
{ACAD_REACTORS
330
C
102
}
330
C
100
AcDbDictionary
281
     1
  3
ByBlock
350
6639
  3
ByLayer
350
6638
  3
Global
350
663A
  0
DICTIONARY
  5
E065
102
{ACAD_REACTORS
330
C
102
}
330
C
100
AcDbDictionary
281
     1
  3
Standard
350
E066
  0
DICTIONARY
  5
1A
102
{ACAD_REACTORS
330
C
102
}
330
C
100
AcDbDictionary
281
     1
  3
STANDARD
350
1B
  0
DICTIONARY
  5
4801
102
{ACAD_REACTORS
330
C
102
}
330
C
100
AcDbDictionary
281
     1
  0
ACDBDICTIONARYWDFLT
  5
47FE
102
{ACAD_REACTORS
330
C
102
}
330
C
100
AcDbDictionary
281
     1
  3
Normal
350
47FF
100
AcDbDictionaryWithDefault
340
47FF
  0
DICTIONARY
  5
E053
102
{ACAD_REACTORS
330
C
102
}
330
C
100
AcDbDictionary
281
     1
  3
A0
350
E054
  3
A1
350
E055
  3
A2
350
E056
  3
A3
350
E057
  3
A4
350
E058
  3
A5
350
E059
  3
A6
350
E05A
  3
A7
350
E05B
  3
A8
350
E05C
  3
A9
350
E05D
  3
B0
350
E05E
  3
B1
350
E05F
  3
B2
350
E060
  3
B3
350
E061
  3
B4
350
E062
  3
B5
350
E063
  3
B6
350
E064
  0
DICTIONARY
  5
E067
102
{ACAD_REACTORS
330
C
102
}
330
C
100
AcDbDictionary
281
     1
  3
Metric50
350
E068
  0
DICTIONARY
  5
6119
102
{ACAD_REACTORS
330
C
102
}
330
C
100
AcDbDictionary
281
     1
  3
Standard
350
611A
  0
DICTIONARY
  5
663B
102
{ACAD_REACTORS
330
C
102
}
330
C
100
AcDbDictionary
281
     1
  3
2dWireframe
350
6641
  3
3D Hidden
350
6643
  3
3dWireframe
350
6642
  3
Basic
350
6640
  3
Brighten
350
6647
  3
ColorChange
350
664B
  3
Conceptual
350
6644
  3
Dim
350
6646
  3
EdgeColorOff
350
E052
  3
Facepattern
350
664A
  3
Flat
350
663C
  3
FlatWithEdges
350
663D
  3
Gouraud
350
663E
  3
GouraudWithEdges
350
663F
  3
Hidden
350
E04A
  3
JitterOff
350
E050
  3
Linepattern
350
6649
  3
OverhangOff
350
E051
  3
Realistic
350
6645
  3
Shaded
350
E04F
  3
Shaded with edges
350
E04E
  3
Shades of Gray
350
E04B
  3
Sketchy
350
E04C
  3
Thicken
350
6648
  3
Wireframe
350
E049
  3
X-Ray
350
E04D
  0
XRECORD
  5
E24F
102
{ACAD_REACTORS
330
C
102
}
330
C
100
AcDbXrecord
280
     1
 90
        1
330
611A
  0
DICTIONARY
  5
51
102
{ACAD_REACTORS
330
C
102
}
330
C
100
AcDbDictionary
281
     1
  3
CANNOSCALE
350
E249
  3
CMLEADERSTYLE
350
E245
  3
CTABLESTYLE
350
61E4
  3
CVIEWDETAILSTYLE
350
E246
  3
CVIEWSECTIONSTYLE
350
E247
  3
DIMADEC
350
52
  3
DIMASSOC
350
61E5
  3
INDEXCTL
350
6B68
  3
LAYEREVAL
350
E24B
  3
LAYERNOTIFY
350
E24C
  3
LIGHTINGUNITS
350
E24A
  3
MSLTSCALE
350
E248
  3
PROJECTNAME
350
61E6
  3
SORTENTS
350
6B67
  0
DICTIONARY
  5
66E9
102
{ACAD_REACTORS
330
66E8
102
}
330
66E8
100
AcDbDictionary
281
     1
  0
XRECORD
  5
E073
102
{ACAD_REACTORS
330
E072
102
}
330
E072
100
AcDbXrecord
280
     1
290
     1
  0
XRECORD
  5
E075
102
{ACAD_REACTORS
330
E074
102
}
330
E074
100
AcDbXrecord
280
     1
290
     1
  0
XRECORD
  5
E077
102
{ACAD_REACTORS
330
E076
102
}
330
E076
100
AcDbXrecord
280
     1
290
     1
  0
XRECORD
  5
E079
102
{ACAD_REACTORS
330
E078
102
}
330
E078
100
AcDbXrecord
280
     1
290
     1
  0
XRECORD
  5
7366
102
{ACAD_REACTORS
330
7365
102
}
330
7365
100
AcDbXrecord
280
     1
290
     1
  0
XRECORD
  5
C913
102
{ACAD_REACTORS
330
C912
102
}
330
C912
100
AcDbXrecord
280
     1
290
     1
  0
XRECORD
  5
C916
102
{ACAD_REACTORS
330
C915
102
}
330
C915
100
AcDbXrecord
280
     1
290
     1
  0
XRECORD
  5
58D1
102
{ACAD_REACTORS
330
58D0
102
}
330
58D0
100
AcDbXrecord
280
     1
340
17
  0
SORTENTSTABLE
  5
8EAF
102
{ACAD_REACTORS
330
58D0
102
}
330
58D0
100
AcDbSortentsTable
330
17
  0
XRECORD
  5
58CF
102
{ACAD_REACTORS
330
58CE
102
}
330
58CE
100
AcDbXrecord
280
     1
340
14
  0
ACDBDETAILVIEWSTYLE
  5
E06A
102
{ACAD_REACTORS
330
E069
102
}
330
E069
100
AcDbModelDocViewStyle
 70
     0
  3
Metric50
290
     1
300
Metric50
 90
        0
100
AcDbDetailViewStyle
 70
     0
 71
     0
 90
        3
 71
     1
340
F
 62
   256
 40
5.0
340
0
 62
   256
 40
5.0
300

 40
0.0
280
     1
 71
     2
340
13
 90
       25
 62
   256
 71
     3
340
F
 62
   256
 40
5.0
 90
        0
 40
15.0
 90
        1
300
%<\AcVar ViewDetailId>% (%<\AcVar ViewScale \f "%sn">%)
 71
     4
340
13
 90
       25
 62
   256
340
13
 90
       25
 62
   256
280
     0
  0
LAYOUT
  5
4802
102
{ACAD_REACTORS
330
4800
102
}
330
4800
100
AcDbPlotSettings
  1

  2
PrimoPDF
  4
A3
  6

 40
3.174999952316284
 41
3.174999952316284
 42
3.17498779296875
 43
3.17498779296875
 44
297.0530090332031
 45
420.1583251953125
 46
-3.148489356040954
 47
-3.095831274986267
 48
1027.637882706707
 49
-741.3594961852504
140
1447.637882706707
141
-444.3594961852504
142
1.0
143
1.0
 70
 11940
 72
     1
 73
     1
 74
     4
  7
INABA-CAD-Canon.ctb
 75
     0
147
0.9787980514744717
 76
     0
 77
     2
 78
   300
148
-1027.637882706707
149
741.3594961852504
100
AcDbLayout
  1
Model
 70
     1
 71
     0
 10
0.0
 20
0.0
 11
12.0
 21
9.0
 12
0.0
 22
0.0
 32
0.0
 14
0.0
 24
0.0
 34
0.0
 15
0.0
 25
0.0
 35
0.0
146
0.0
 13
0.0
 23
0.0
 33
0.0
 16
1.0
 26
0.0
 36
0.0
 17
0.0
 27
1.0
 37
0.0
 76
     0
330
17
331
E041
1001
ACAD_PSEXT
1000
PrimoPDF
1000
PrimoPDF
1000
PrimoPort:
1000

1070
     0
  0
LAYOUT
  5
4803
102
{ACAD_REACTORS
330
4800
102
}
330
4800
100
AcDbPlotSettings
  1

  2
NSCC 3350（図面用）
  4

  6

 40
0.0
 41
0.0
 42
0.0
 43
0.0
 44
0.0
 45
0.0
 46
0.0
 47
0.0
 48
0.0
 49
0.0
140
0.0
141
0.0
142
1.0
143
1.0
 70
   688
 72
     0
 73
     0
 74
     5
  7
INABA-CAD-Canon.ctb
 75
    16
147
1.0
 76
     0
 77
     2
 78
   300
148
0.0
149
0.0
100
AcDbLayout
  1
ﾚｲｱｳﾄ1
 70
     0
 71
     1
 10
0.0
 20
0.0
 11
12.0
 21
9.0
 12
0.0
 22
0.0
 32
0.0
 14
1.000000000000000E+20
 24
1.000000000000000E+20
 34
1.000000000000000E+20
 15
-1.000000000000000E+20
 25
-1.000000000000000E+20
 35
-1.000000000000000E+20
146
0.0
 13
0.0
 23
0.0
 33
0.0
 16
1.0
 26
0.0
 36
0.0
 17
0.0
 27
1.0
 37
0.0
 76
     0
330
14
  0
MATERIAL
  5
6639
102
{ACAD_REACTORS
330
6117
102
}
330
6117
100
AcDbMaterial
  1
ByBlock
 73
     1
 78
     1
172
     1
176
     1
270
     1
274
     1
 94
       63
  0
MATERIAL
  5
6638
102
{ACAD_REACTORS
330
6117
102
}
330
6117
100
AcDbMaterial
  1
ByLayer
 73
     1
 78
     1
172
     1
176
     1
270
     1
274
     1
 94
       63
  0
MATERIAL
  5
663A
102
{ACAD_REACTORS
330
6117
102
}
330
6117
100
AcDbMaterial
  1
Global
 73
     1
 78
     1
172
     1
176
     1
270
     1
274
     1
 94
       63
  0
MLEADERSTYLE
  5
E066
102
{ACAD_REACTORS
330
E065
102
}
330
E065
100
AcDbMLeaderStyle
179
     2
170
     2
171
     1
172
     0
 90
        2
 40
0.0
 41
0.0
173
     1
 91
-1056964608
340
11
 92
       -2
290
     1
 42
2.0
291
     1
 43
0.36
  3
Standard
 44
4.0
300

342
F
174
     1
178
     6
175
     1
176
     0
 93
-1056964608
 45
4.0
292
     0
297
     0
 46
4.0
 94
-1056964608
 47
1.0
 49
1.0
140
1.0
293
     1
141
0.0
294
     1
177
     0
142
1.0
295
     1
296
     0
143
0.125
271
     0
272
     9
273
     9
298
     1
  0
MLINESTYLE
  5
1B
102
{ACAD_REACTORS
330
1A
102
}
330
1A
100
AcDbMlineStyle
  2
STANDARD
 70
     0
  3

 62
   256
 51
90.0
 52
90.0
 71
     2
 49
0.5
 62
   256
  6
BYLAYER
 49
-0.5
 62
   256
  6
BYLAYER
  0
ACDBPLACEHOLDER
  5
47FF
102
{ACAD_REACTORS
330
47FE
102
}
330
47FE
  0
SCALE
  5
E054
102
{ACAD_REACTORS
330
E053
102
}
330
E053
100
AcDbScale
 70
     0
300
1:1
140
1.0
141
1.0
290
     1
  0
SCALE
  5
E055
102
{ACAD_REACTORS
330
E053
102
}
330
E053
100
AcDbScale
 70
     0
300
1:2
140
1.0
141
2.0
290
     0
  0
SCALE
  5
E056
102
{ACAD_REACTORS
330
E053
102
}
330
E053
100
AcDbScale
 70
     0
300
1:4
140
1.0
141
4.0
290
     0
  0
SCALE
  5
E057
102
{ACAD_REACTORS
330
E053
102
}
330
E053
100
AcDbScale
 70
     0
300
1:5
140
1.0
141
5.0
290
     0
  0
SCALE
  5
E058
102
{ACAD_REACTORS
330
E053
102
}
330
E053
100
AcDbScale
 70
     0
300
1:8
140
1.0
141
8.0
290
     0
  0
SCALE
  5
E059
102
{ACAD_REACTORS
330
E053
102
}
330
E053
100
AcDbScale
 70
     0
300
1:10
140
1.0
141
10.0
290
     0
  0
SCALE
  5
E05A
102
{ACAD_REACTORS
330
E053
102
}
330
E053
100
AcDbScale
 70
     0
300
1:16
140
1.0
141
16.0
290
     0
  0
SCALE
  5
E05B
102
{ACAD_REACTORS
330
E053
102
}
330
E053
100
AcDbScale
 70
     0
300
1:20
140
1.0
141
20.0
290
     0
  0
SCALE
  5
E05C
102
{ACAD_REACTORS
330
E053
102
}
330
E053
100
AcDbScale
 70
     0
300
1:30
140
1.0
141
30.0
290
     0
  0
SCALE
  5
E05D
102
{ACAD_REACTORS
330
E053
102
}
330
E053
100
AcDbScale
 70
     0
300
1:40
140
1.0
141
40.0
290
     0
  0
SCALE
  5
E05E
102
{ACAD_REACTORS
330
E053
102
}
330
E053
100
AcDbScale
 70
     0
300
1:50
140
1.0
141
50.0
290
     0
  0
SCALE
  5
E05F
102
{ACAD_REACTORS
330
E053
102
}
330
E053
100
AcDbScale
 70
     0
300
1:100
140
1.0
141
100.0
290
     0
  0
SCALE
  5
E060
102
{ACAD_REACTORS
330
E053
102
}
330
E053
100
AcDbScale
 70
     0
300
2:1
140
2.0
141
1.0
290
     0
  0
SCALE
  5
E061
102
{ACAD_REACTORS
330
E053
102
}
330
E053
100
AcDbScale
 70
     0
300
4:1
140
4.0
141
1.0
290
     0
  0
SCALE
  5
E062
102
{ACAD_REACTORS
330
E053
102
}
330
E053
100
AcDbScale
 70
     0
300
8:1
140
8.0
141
1.0
290
     0
  0
SCALE
  5
E063
102
{ACAD_REACTORS
330
E053
102
}
330
E053
100
AcDbScale
 70
     0
300
10:1
140
10.0
141
1.0
290
     0
  0
SCALE
  5
E064
102
{ACAD_REACTORS
330
E053
102
}
330
E053
100
AcDbScale
 70
     0
300
100:1
140
100.0
141
1.0
290
     0
  0
ACDBSECTIONVIEWSTYLE
  5
E068
102
{ACAD_REACTORS
330
E067
102
}
330
E067
100
AcDbModelDocViewStyle
 70
     0
  3
Metric50
290
     1
300
Metric50
 90
        0
100
AcDbSectionViewStyle
 70
     0
 71
     0
 90
      102
 71
     1
340
F
 62
   256
 40
5.0
340
0
340
0
 62
   256
 40
5.0
300
I, O, Q, S, X, Z
 40
10.0
 90
        0
 40
2.5
 90
        0
 71
     2
340
13
 90
       25
 62
   256
340
13
 90
       50
 62
   256
 40
5.0
 40
2.5
 40
5.0
 71
     3
340
F
 62
   256
 40
5.0
 90
        0
 40
15.0
 90
        1
300
%<\AcVar ViewSectionStartId>%-%<\AcVar ViewSectionEndId>% (%<\AcVar ViewScale \f "%sn">%)
 71
     4
 62
   256
 62
   257
300
ANSI31
 40
1.0
 90
        0
290
     0
290
     0
 90
        6
 40
0.0
 40
1.570796326794896
 40
0.2617993877991494
 40
1.308996938995747
 40
-0.2617993877991494
 40
1.832595714594046
  0
TABLESTYLE
  5
611A
102
{ACAD_XDICTIONARY
360
E24D
102
}
102
{ACAD_REACTORS
330
6119
102
}
330
6119
100
AcDbTableStyle
280
     0
  3
Standard
 70
     0
 71
     0
 40
1.5
 41
1.5
280
     0
281
     0
  7
STANDARD
140
4.5
170
     2
 62
     0
 63
     7
283
     0
 90
        4
 91
        0
  1

274
    -2
284
     1
 64
     0
275
    -2
285
     1
 65
     0
276
    -2
286
     1
 66
     0
277
    -2
287
     1
 67
     0
278
    -2
288
     1
 68
     0
279
    -2
289
     1
 69
     0
  7
STANDARD
140
6.0
170
     5
 62
     0
 63
     7
283
     0
 90
        4
 91
        0
  1

274
    -2
284
     1
 64
     0
275
    -2
285
     1
 65
     0
276
    -2
286
     1
 66
     0
277
    -2
287
     1
 67
     0
278
    -2
288
     1
 68
     0
279
    -2
289
     1
 69
     0
  7
STANDARD
140
4.5
170
     5
 62
     0
 63
     7
283
     0
 90
        4
 91
        0
  1

274
    -2
284
     1
 64
     0
275
    -2
285
     1
 65
     0
276
    -2
286
     1
 66
     0
277
    -2
287
     1
 67
     0
278
    -2
288
     1
 68
     0
279
    -2
289
     1
 69
     0
  0
VISUALSTYLE
  5
6641
102
{ACAD_REACTORS
330
663B
102
}
330
663B
100
AcDbVisualStyle
  2
2dWireframe
 70
     4
177
     3
291
     0
 70
    58
 90
        0
176
     1
 90
        2
176
     1
 90
        0
176
     1
 90
        0
176
     1
 40
0.6
176
     1
 40
30.0
176
     1
 62
     7
176
     1
 90
        1
176
     1
 90
        4
176
     1
 62
     7
176
     1
 62
   257
176
     1
 90
        1
176
     1
 90
        1
176
     1
 40
1.0
176
     1
 90
        0
176
     1
 62
   257
176
     1
 40
1.0
176
     1
 90
        1
176
     1
 90
        6
176
     1
 90
        2
176
     1
 62
     7
176
     1
 90
        5
176
     1
 90
        0
176
     1
 90
        0
176
     1
290
     0
176
     1
 90
        1
176
     1
 40
0.0
176
     1
 90
        0
176
     1
290
     1
176
     1
290
     1
176
     1
290
     0
176
     1
290
     0
176
     1
290
     0
176
     1
290
     0
176
     1
290
     0
176
     1
290
     0
176
     1
290
     0
176
     1
 90
       50
176
     1
 40
0.0
176
     1
 40
1.0
176
     1
 90
        0
176
     1
 62
    18
420
        0
176
     1
 90
       50
176
     1
 90
        3
176
     1
 62
     5
420
      255
176
     1
290
     0
176
     1
 90
       50
176
     1
 90
       50
176
     1
 90
       50
176
     1
290
     0
176
     1
 90
       50
176
     1
 62
   256
176
     0
 40
1.0
176
     0
 90
        2
176
     1
  1
strokes_ogs.tif
176
     1
290
     0
176
     1
 40
1.0
176
     1
 40
1.0
176
     1
1001
ACAD
1000
AcRTDxfName
1000
VISUALSTYLE
1000
AcRTDxfName
1000
VISUALSTYLE
1000
AcRTDxfName
1000
VISUALSTYLE
1000
AcRTDxfName
1000
VISUALSTYLE
1000
AcRTDxfName
1000
VISUALSTYLE
1000
AcRTDxfName
1000
VISUALSTYLE
1000
AcRTDxfName
1000
VISUALSTYLE
1000
AcRTDxfName
1000
VISUALSTYLE
  0
VISUALSTYLE
  5
6643
102
{ACAD_REACTORS
330
663B
102
}
330
663B
100
AcDbVisualStyle
  2
3D Hidden
 70
     6
177
     3
291
     0
 70
    58
 90
        1
176
     1
 90
        2
176
     1
 90
        2
176
     1
 90
        0
176
     1
 40
0.6
176
     1
 40
30.0
176
     1
 62
     7
176
     1
 90
        2
176
     1
 90
        2
176
     1
 62
     7
176
     1
 62
   257
176
     1
 90
        2
176
     1
 90
        1
176
     1
 40
40.0
176
     1
 90
        0
176
     1
 62
   257
176
     1
 40
1.0
176
     1
 90
        1
176
     1
 90
        6
176
     1
 90
        2
176
     1
 62
     7
176
     1
 90
        3
176
     1
 90
        0
176
     1
 90
        0
176
     1
290
     0
176
     1
 90
        1
176
     1
 40
0.0
176
     1
 90
        0
176
     1
290
     0
176
     1
290
     1
176
     1
290
     1
176
     1
290
     0
176
     1
290
     0
176
     1
290
     0
176
     1
290
     0
176
     1
290
     0
176
     1
290
     0
176
     1
 90
       50
176
     1
 40
0.0
176
     1
 40
1.0
176
     1
 90
        0
176
     1
 62
    18
420
        0
176
     1
 90
       50
176
     1
 90
        3
176
     1
 62
     5
420
      255
176
     1
290
     0
176
     1
 90
       50
176
     1
 90
       50
176
     1
 90
       50
176
     1
290
     0
176
     1
 90
       50
176
     1
 62
   256
176
     0
 40
1.0
176
     0
 90
        2
176
     1
  1
strokes_ogs.tif
176
     1
290
     0
176
     1
 40
1.0
176
     1
 40
1.0
176
     1
1001
ACAD
1000
AcRTDxfName
1000
VISUALSTYLE
1000
AcRTDxfName
1000
VISUALSTYLE
1000
AcRTDxfName
1000
VISUALSTYLE
1000
AcRTDxfName
1000
VISUALSTYLE
1000
AcRTDxfName
1000
VISUALSTYLE
1000
AcRTDxfName
1000
VISUALSTYLE
1000
AcRTDxfName
1000
VISUALSTYLE
1000
AcRTDxfName
1000
VISUALSTYLE
  0
VISUALSTYLE
  5
6642
102
{ACAD_REACTORS
330
663B
102
}
330
663B
100
AcDbVisualStyle
  2
3dWireframe
 70
     5
177
     3
291
     0
 70
    58
 90
        0
176
     1
 90
        2
176
     1
 90
        0
176
     1
 90
        0
176
     1
 40
0.6
176
     1
 40
30.0
176
     1
 62
     7
176
     1
 90
        1
176
     1
 90
        4
176
     1
 62
     7
176
     1
 62
   257
176
     1
 90
        1
176
     1
 90
        1
176
     1
 40
1.0
176
     1
 90
        0
176
     1
 62
   257
176
     1
 40
1.0
176
     1
 90
        1
176
     1
 90
        6
176
     1
 90
        2
176
     1
 62
     7
176
     1
 90
        5
176
     1
 90
        0
176
     1
 90
        0
176
     1
290
     0
176
     1
 90
        1
176
     1
 40
0.0
176
     1
 90
        0
176
     1
290
     0
176
     1
290
     1
176
     1
290
     1
176
     1
290
     0
176
     1
290
     0
176
     1
290
     0
176
     1
290
     0
176
     1
290
     0
176
     1
290
     0
176
     1
 90
       50
176
     1
 40
0.0
176
     1
 40
1.0
176
     1
 90
        0
176
     1
 62
    18
420
        0
176
     1
 90
       50
176
     1
 90
        3
176
     1
 62
     5
420
      255
176
     1
290
     0
176
     1
 90
       50
176
     1
 90
       50
176
     1
 90
       50
176
     1
290
     0
176
     1
 90
       50
176
     1
 62
   256
176
     0
 40
1.0
176
     0
 90
        2
176
     1
  1
strokes_ogs.tif
176
     1
290
     0
176
     1
 40
1.0
176
     1
 40
1.0
176
     1
1001
ACAD
1000
AcRTDxfName
1000
VISUALSTYLE
1000
AcRTDxfName
1000
VISUALSTYLE
1000
AcRTDxfName
1000
VISUALSTYLE
1000
AcRTDxfName
1000
VISUALSTYLE
1000
AcRTDxfName
1000
VISUALSTYLE
1000
AcRTDxfName
1000
VISUALSTYLE
1000
AcRTDxfName
1000
VISUALSTYLE
1000
AcRTDxfName
1000
VISUALSTYLE
  0
VISUALSTYLE
  5
6640
102
{ACAD_REACTORS
330
663B
102
}
330
663B
100
AcDbVisualStyle
  2
Basic
 70
     7
177
     3
291
     1
 70
    58
 90
        1
176
     1
 90
        0
176
     1
 90
        1
176
     1
 90
        0
176
     1
 40
0.6
176
     1
 40
30.0
176
     1
 62
     7
176
     1
 90
        0
176
     1
 90
        4
176
     1
 62
     7
176
     1
 62
   257
176
     1
 90
        1
176
     1
 90
        1
176
     1
 40
1.0
176
     1
 90
        8
176
     1
 62
     7
176
     1
 40
1.0
176
     1
 90
        1
176
     1
 90
        6
176
     1
 90
        2
176
     1
 62
     7
176
     1
 90
        5
176
     1
 90
        0
176
     1
 90
        0
176
     1
290
     0
176
     1
 90
        1
176
     1
 40
0.0
176
     1
 90
        0
176
     1
290
     0
176
     1
290
     1
176
     1
290
     1
176
     1
290
     0
176
     1
290
     0
176
     1
290
     0
176
     1
290
     0
176
     1
290
     0
176
     1
290
     0
176
     1
 90
       50
176
     1
 40
0.0
176
     1
 40
1.0
176
     1
 90
        0
176
     1
 62
    18
420
        0
176
     1
 90
       50
176
     1
 90
        3
176
     1
 62
     5
420
      255
176
     1
290
     0
176
     1
 90
       50
176
     1
 90
       50
176
     1
 90
       50
176
     1
290
     0
176
     1
 90
       50
176
     1
 62
   256
176
     0
 40
1.0
176
     0
 90
        2
176
     1
  1
strokes_ogs.tif
176
     1
290
     0
176
     1
 40
1.0
176
     1
 40
1.0
176
     1
1001
ACAD
1000
AcRTDxfName
1000
VISUALSTYLE
1000
AcRTDxfName
1000
VISUALSTYLE
1000
AcRTDxfName
1000
VISUALSTYLE
1000
AcRTDxfName
1000
VISUALSTYLE
1000
AcRTDxfName
1000
VISUALSTYLE
1000
AcRTDxfName
1000
VISUALSTYLE
1000
AcRTDxfName
1000
VISUALSTYLE
1000
AcRTDxfName
1000
VISUALSTYLE
  0
VISUALSTYLE
  5
6647
102
{ACAD_REACTORS
330
663B
102
}
330
663B
100
AcDbVisualStyle
  2
Brighten
 70
    12
177
     3
291
     1
 70
    58
 90
        2
176
     1
 90
        2
176
     1
 90
        0
176
     1
 90
        0
176
     1
 40
0.6
176
     1
 40
30.0
176
     1
 62
     7
176
     1
 90
        1
176
     1
 90
        4
176
     1
 62
     7
176
     1
 62
   257
176
     1
 90
        1
176
     1
 90
        1
176
     1
 40
1.0
176
     1
 90
        8
176
     1
 62
     7
176
     1
 40
1.0
176
     1
 90
        1
176
     1
 90
        6
176
     1
 90
        2
176
     1
 62
     7
176
     1
 90
        5
176
     1
 90
        0
176
     1
 90
        0
176
     1
290
     0
176
     1
 90
        1
176
     1
 40
50.0
176
     1
 90
        0
176
     1
290
     0
176
     1
290
     1
176
     1
290
     1
176
     1
290
     0
176
     1
290
     0
176
     1
290
     0
176
     1
290
     0
176
     1
290
     0
176
     1
290
     0
176
     1
 90
       50
176
     1
 40
0.0
176
     1
 40
1.0
176
     1
 90
        0
176
     1
 62
    18
420
        0
176
     1
 90
       50
176
     1
 90
        3
176
     1
 62
     5
420
      255
176
     1
290
     0
176
     1
 90
       50
176
     1
 90
       50
176
     1
 90
       50
176
     1
290
     0
176
     1
 90
       50
176
     1
 62
   256
176
     0
 40
1.0
176
     0
 90
        2
176
     1
  1
strokes_ogs.tif
176
     1
290
     0
176
     1
 40
1.0
176
     1
 40
1.0
176
     1
1001
ACAD
1000
AcRTDxfName
1000
VISUALSTYLE
1000
AcRTDxfName
1000
VISUALSTYLE
1000
AcRTDxfName
1000
VISUALSTYLE
1000
AcRTDxfName
1000
VISUALSTYLE
1000
AcRTDxfName
1000
VISUALSTYLE
1000
AcRTDxfName
1000
VISUALSTYLE
1000
AcRTDxfName
1000
VISUALSTYLE
1000
AcRTDxfName
1000
VISUALSTYLE
  0
VISUALSTYLE
  5
664B
102
{ACAD_REACTORS
330
663B
102
}
330
663B
100
AcDbVisualStyle
  2
ColorChange
 70
    16
177
     3
291
     1
 70
    58
 90
        2
176
     1
 90
        2
176
     1
 90
        3
176
     1
 90
        0
176
     1
 40
0.6
176
     1
 40
30.0
176
     1
 62
     8
176
     1
 90
        1
176
     1
 90
        4
176
     1
 62
     7
176
     1
 62
   257
176
     1
 90
        1
176
     1
 90
        1
176
     1
 40
1.0
176
     1
 90
        8
176
     1
 62
     8
176
     1
 40
1.0
176
     1
 90
        1
176
     1
 90
        6
176
     1
 90
        2
176
     1
 62
     7
176
     1
 90
        5
176
     1
 90
        0
176
     1
 90
        0
176
     1
290
     0
176
     1
 90
        1
176
     1
 40
0.0
176
     1
 90
        0
176
     1
290
     0
176
     1
290
     1
176
     1
290
     1
176
     1
290
     0
176
     1
290
     0
176
     1
290
     0
176
     1
290
     0
176
     1
290
     0
176
     1
290
     0
176
     1
 90
       50
176
     1
 40
0.0
176
     1
 40
1.0
176
     1
 90
        0
176
     1
 62
    18
420
        0
176
     1
 90
       50
176
     1
 90
        3
176
     1
 62
     5
420
      255
176
     1
290
     0
176
     1
 90
       50
176
     1
 90
       50
176
     1
 90
       50
176
     1
290
     0
176
     1
 90
       50
176
     1
 62
   256
176
     0
 40
1.0
176
     0
 90
        2
176
     1
  1
strokes_ogs.tif
176
     1
290
     0
176
     1
 40
1.0
176
     1
 40
1.0
176
     1
1001
ACAD
1000
AcRTDxfName
1000
VISUALSTYLE
1000
AcRTDxfName
1000
VISUALSTYLE
1000
AcRTDxfName
1000
VISUALSTYLE
1000
AcRTDxfName
1000
VISUALSTYLE
1000
AcRTDxfName
1000
VISUALSTYLE
1000
AcRTDxfName
1000
VISUALSTYLE
1000
AcRTDxfName
1000
VISUALSTYLE
1000
AcRTDxfName
1000
VISUALSTYLE
  0
VISUALSTYLE
  5
6644
102
{ACAD_REACTORS
330
663B
102
}
330
663B
100
AcDbVisualStyle
  2
Conceptual
 70
     9
177
     3
291
     0
 70
    58
 90
        3
176
     1
 90
        2
176
     1
 90
        0
176
     1
 90
        0
176
     1
 40
0.6
176
     1
 40
30.0
176
     1
 62
     7
176
     1
 90
        2
176
     1
 90
        2
176
     1
 62
     7
176
     1
 62
   257
176
     1
 90
        1
176
     1
 90
        1
176
     1
 40
40.0
176
     1
 90
        8
176
     1
 62
     7
176
     1
 40
1.0
176
     1
 90
        1
176
     1
 90
        6
176
     1
 90
        2
176
     1
 62
     7
176
     1
 90
        3
176
     1
 90
        0
176
     1
 90
        0
176
     1
290
     0
176
     1
 90
        1
176
     1
 40
0.0
176
     1
 90
        0
176
     1
290
     0
176
     1
290
     1
176
     1
290
     1
176
     1
290
     0
176
     1
290
     0
176
     1
290
     0
176
     1
290
     0
176
     1
290
     0
176
     1
290
     0
176
     1
 90
       50
176
     1
 40
0.0
176
     1
 40
1.0
176
     1
 90
        0
176
     1
 62
    18
420
        0
176
     1
 90
       50
176
     1
 90
        3
176
     1
 62
     5
420
      255
176
     1
290
     0
176
     1
 90
       50
176
     1
 90
       50
176
     1
 90
       50
176
     1
290
     0
176
     1
 90
       50
176
     1
 62
   256
176
     0
 40
1.0
176
     0
 90
        2
176
     1
  1
strokes_ogs.tif
176
     1
290
     0
176
     1
 40
1.0
176
     1
 40
1.0
176
     1
1001
ACAD
1000
AcRTDxfName
1000
VISUALSTYLE
1000
AcRTDxfName
1000
VISUALSTYLE
1000
AcRTDxfName
1000
VISUALSTYLE
1000
AcRTDxfName
1000
VISUALSTYLE
1000
AcRTDxfName
1000
VISUALSTYLE
1000
AcRTDxfName
1000
VISUALSTYLE
1000
AcRTDxfName
1000
VISUALSTYLE
1000
AcRTDxfName
1000
VISUALSTYLE
  0
VISUALSTYLE
  5
6646
102
{ACAD_REACTORS
330
663B
102
}
330
663B
100
AcDbVisualStyle
  2
Dim
 70
    11
177
     3
291
     1
 70
    58
 90
        2
176
     1
 90
        2
176
     1
 90
        0
176
     1
 90
        0
176
     1
 40
0.6
176
     1
 40
30.0
176
     1
 62
     7
176
     1
 90
        1
176
     1
 90
        4
176
     1
 62
     7
176
     1
 62
   257
176
     1
 90
        1
176
     1
 90
        1
176
     1
 40
1.0
176
     1
 90
        8
176
     1
 62
     7
176
     1
 40
1.0
176
     1
 90
        1
176
     1
 90
        6
176
     1
 90
        2
176
     1
 62
     7
176
     1
 90
        5
176
     1
 90
        0
176
     1
 90
        0
176
     1
290
     0
176
     1
 90
        1
176
     1
 40
-50.0
176
     1
 90
        0
176
     1
290
     0
176
     1
290
     1
176
     1
290
     1
176
     1
290
     0
176
     1
290
     0
176
     1
290
     0
176
     1
290
     0
176
     1
290
     0
176
     1
290
     0
176
     1
 90
       50
176
     1
 40
0.0
176
     1
 40
1.0
176
     1
 90
        0
176
     1
 62
    18
420
        0
176
     1
 90
       50
176
     1
 90
        3
176
     1
 62
     5
420
      255
176
     1
290
     0
176
     1
 90
       50
176
     1
 90
       50
176
     1
 90
       50
176
     1
290
     0
176
     1
 90
       50
176
     1
 62
   256
176
     0
 40
1.0
176
     0
 90
        2
176
     1
  1
strokes_ogs.tif
176
     1
290
     0
176
     1
 40
1.0
176
     1
 40
1.0
176
     1
1001
ACAD
1000
AcRTDxfName
1000
VISUALSTYLE
1000
AcRTDxfName
1000
VISUALSTYLE
1000
AcRTDxfName
1000
VISUALSTYLE
1000
AcRTDxfName
1000
VISUALSTYLE
1000
AcRTDxfName
1000
VISUALSTYLE
1000
AcRTDxfName
1000
VISUALSTYLE
1000
AcRTDxfName
1000
VISUALSTYLE
1000
AcRTDxfName
1000
VISUALSTYLE
  0
VISUALSTYLE
  5
E052
102
{ACAD_REACTORS
330
663B
102
}
330
663B
100
AcDbVisualStyle
  2
EdgeColorOff
 70
    22
177
     3
291
     1
 70
    58
 90
        2
176
     0
 90
        2
176
     0
 90
        0
176
     0
 90
        0
176
     0
 40
0.6
176
     0
 40
30.0
176
     0
 62
     7
420
 16777215
176
     0
 90
        1
176
     0
 90
        4
176
     0
 62
     7
176
     0
 62
   257
176
     0
 90
        1
176
     0
 90
        1
176
     0
 40
1.0
176
     0
 90
        8
176
     2
 62
     7
176
     0
 40
1.0
176
     0
 90
        1
176
     0
 90
        6
176
     0
 90
        2
176
     0
 62
     7
176
     0
 90
        5
176
     0
 90
        0
176
     0
 90
        0
176
     0
290
     0
176
     0
 90
        1
176
     0
 40
0.0
176
     0
 90
        0
176
     0
290
     0
176
     0
290
     1
176
     0
290
     1
176
     0
290
     0
176
     0
290
     0
176
     0
290
     0
176
     0
290
     0
176
     0
290
     0
176
     0
290
     0
176
     0
 90
       50
176
     0
 40
0.0
176
     0
 40
1.0
176
     0
 90
        0
176
     0
 62
    18
420
        0
176
     0
 90
       50
176
     0
 90
        3
176
     0
 62
     5
420
      255
176
     0
290
     0
176
     0
 90
       50
176
     0
 90
       50
176
     0
 90
       50
176
     0
290
     0
176
     0
 90
       50
176
     0
 62
   256
176
     0
 40
1.0
176
     0
 90
        2
176
     0
  1
strokes_ogs.tif
176
     0
290
     0
176
     0
 40
1.0
176
     0
 40
1.0
176
     0
  0
VISUALSTYLE
  5
664A
102
{ACAD_REACTORS
330
663B
102
}
330
663B
100
AcDbVisualStyle
  2
Facepattern
 70
    15
177
     3
291
     1
 70
    58
 90
        2
176
     1
 90
        2
176
     1
 90
        0
176
     1
 90
        0
176
     1
 40
0.6
176
     1
 40
30.0
176
     1
 62
     7
176
     1
 90
        1
176
     1
 90
        4
176
     1
 62
     7
176
     1
 62
   257
176
     1
 90
        1
176
     1
 90
        1
176
     1
 40
1.0
176
     1
 90
        8
176
     1
 62
     7
176
     1
 40
1.0
176
     1
 90
        1
176
     1
 90
        6
176
     1
 90
        2
176
     1
 62
     7
176
     1
 90
        5
176
     1
 90
        0
176
     1
 90
        0
176
     1
290
     0
176
     1
 90
        1
176
     1
 40
0.0
176
     1
 90
        0
176
     1
290
     0
176
     1
290
     1
176
     1
290
     1
176
     1
290
     0
176
     1
290
     0
176
     1
290
     0
176
     1
290
     0
176
     1
290
     0
176
     1
290
     0
176
     1
 90
       50
176
     1
 40
0.0
176
     1
 40
1.0
176
     1
 90
        0
176
     1
 62
    18
420
        0
176
     1
 90
       50
176
     1
 90
        3
176
     1
 62
     5
420
      255
176
     1
290
     0
176
     1
 90
       50
176
     1
 90
       50
176
     1
 90
       50
176
     1
290
     0
176
     1
 90
       50
176
     1
 62
   256
176
     0
 40
1.0
176
     0
 90
        2
176
     1
  1
strokes_ogs.tif
176
     1
290
     0
176
     1
 40
1.0
176
     1
 40
1.0
176
     1
1001
ACAD
1000
AcRTDxfName
1000
VISUALSTYLE
1000
AcRTDxfName
1000
VISUALSTYLE
1000
AcRTDxfName
1000
VISUALSTYLE
1000
AcRTDxfName
1000
VISUALSTYLE
1000
AcRTDxfName
1000
VISUALSTYLE
1000
AcRTDxfName
1000
VISUALSTYLE
1000
AcRTDxfName
1000
VISUALSTYLE
1000
AcRTDxfName
1000
VISUALSTYLE
  0
VISUALSTYLE
  5
663C
102
{ACAD_REACTORS
330
663B
102
}
330
663B
100
AcDbVisualStyle
  2
Flat
 70
     0
177
     3
291
     1
 70
    58
 90
        2
176
     1
 90
        1
176
     1
 90
        1
176
     1
 90
        2
176
     1
 40
0.6
176
     1
 40
30.0
176
     1
 62
     7
176
     1
 90
        0
176
     1
 90
        4
176
     1
 62
     7
176
     1
 62
   257
176
     1
 90
        1
176
     1
 90
        1
176
     1
 40
1.0
176
     1
 90
        8
176
     1
 62
     7
176
     1
 40
1.0
176
     1
 90
        1
176
     1
 90
        6
176
     1
 90
        2
176
     1
 62
     7
176
     1
 90
        5
176
     1
 90
        0
176
     1
 90
        0
176
     1
290
     0
176
     1
 90
       13
176
     1
 40
0.0
176
     1
 90
        0
176
     1
290
     0
176
     1
290
     1
176
     1
290
     1
176
     1
290
     0
176
     1
290
     0
176
     1
290
     0
176
     1
290
     0
176
     1
290
     0
176
     1
290
     0
176
     1
 90
       50
176
     1
 40
0.0
176
     1
 40
1.0
176
     1
 90
        0
176
     1
 62
    18
420
        0
176
     1
 90
       50
176
     1
 90
        3
176
     1
 62
     5
420
      255
176
     1
290
     0
176
     1
 90
       50
176
     1
 90
       50
176
     1
 90
       50
176
     1
290
     0
176
     1
 90
       50
176
     1
 62
   256
176
     0
 40
1.0
176
     0
 90
        2
176
     1
  1
strokes_ogs.tif
176
     1
290
     0
176
     1
 40
1.0
176
     1
 40
1.0
176
     1
1001
ACAD
1000
AcRTDxfName
1000
VISUALSTYLE
1000
AcRTDxfName
1000
VISUALSTYLE
1000
AcRTDxfName
1000
VISUALSTYLE
1000
AcRTDxfName
1000
VISUALSTYLE
1000
AcRTDxfName
1000
VISUALSTYLE
1000
AcRTDxfName
1000
VISUALSTYLE
1000
AcRTDxfName
1000
VISUALSTYLE
1000
AcRTDxfName
1000
VISUALSTYLE
  0
VISUALSTYLE
  5
663D
102
{ACAD_REACTORS
330
663B
102
}
330
663B
100
AcDbVisualStyle
  2
FlatWithEdges
 70
     1
177
     3
291
     1
 70
    58
 90
        2
176
     1
 90
        1
176
     1
 90
        1
176
     1
 90
        2
176
     1
 40
0.6
176
     1
 40
30.0
176
     1
 62
     7
176
     1
 90
        1
176
     1
 90
        4
176
     1
 62
     7
176
     1
 62
   257
176
     1
 90
        1
176
     1
 90
        1
176
     1
 40
1.0
176
     1
 90
        0
176
     1
 62
   257
176
     1
 40
1.0
176
     1
 90
        1
176
     1
 90
        6
176
     1
 90
        2
176
     1
 62
     7
176
     1
 90
        5
176
     1
 90
        0
176
     1
 90
        0
176
     1
290
     0
176
     1
 90
       13
176
     1
 40
0.0
176
     1
 90
        0
176
     1
290
     0
176
     1
290
     1
176
     1
290
     1
176
     1
290
     0
176
     1
290
     0
176
     1
290
     0
176
     1
290
     0
176
     1
290
     0
176
     1
290
     0
176
     1
 90
       50
176
     1
 40
0.0
176
     1
 40
1.0
176
     1
 90
        0
176
     1
 62
    18
420
        0
176
     1
 90
       50
176
     1
 90
        3
176
     1
 62
     5
420
      255
176
     1
290
     0
176
     1
 90
       50
176
     1
 90
       50
176
     1
 90
       50
176
     1
290
     0
176
     1
 90
       50
176
     1
 62
   256
176
     0
 40
1.0
176
     0
 90
        2
176
     1
  1
strokes_ogs.tif
176
     1
290
     0
176
     1
 40
1.0
176
     1
 40
1.0
176
     1
1001
ACAD
1000
AcRTDxfName
1000
VISUALSTYLE
1000
AcRTDxfName
1000
VISUALSTYLE
1000
AcRTDxfName
1000
VISUALSTYLE
1000
AcRTDxfName
1000
VISUALSTYLE
1000
AcRTDxfName
1000
VISUALSTYLE
1000
AcRTDxfName
1000
VISUALSTYLE
1000
AcRTDxfName
1000
VISUALSTYLE
1000
AcRTDxfName
1000
VISUALSTYLE
  0
VISUALSTYLE
  5
663E
102
{ACAD_REACTORS
330
663B
102
}
330
663B
100
AcDbVisualStyle
  2
Gouraud
 70
     2
177
     3
291
     1
 70
    58
 90
        2
176
     1
 90
        2
176
     1
 90
        1
176
     1
 90
        2
176
     1
 40
0.6
176
     1
 40
30.0
176
     1
 62
     7
176
     1
 90
        0
176
     1
 90
        4
176
     1
 62
     7
176
     1
 62
   257
176
     1
 90
        1
176
     1
 90
        1
176
     1
 40
1.0
176
     1
 90
        0
176
     1
 62
     7
176
     1
 40
1.0
176
     1
 90
        1
176
     1
 90
        6
176
     1
 90
        2
176
     1
 62
     7
176
     1
 90
        5
176
     1
 90
        0
176
     1
 90
        0
176
     1
290
     0
176
     1
 90
       13
176
     1
 40
0.0
176
     1
 90
        0
176
     1
290
     0
176
     1
290
     1
176
     1
290
     1
176
     1
290
     0
176
     1
290
     0
176
     1
290
     0
176
     1
290
     0
176
     1
290
     0
176
     1
290
     0
176
     1
 90
       50
176
     1
 40
0.0
176
     1
 40
1.0
176
     1
 90
        0
176
     1
 62
    18
420
        0
176
     1
 90
       50
176
     1
 90
        3
176
     1
 62
     5
420
      255
176
     1
290
     0
176
     1
 90
       50
176
     1
 90
       50
176
     1
 90
       50
176
     1
290
     0
176
     1
 90
       50
176
     1
 62
   256
176
     0
 40
1.0
176
     0
 90
        2
176
     1
  1
strokes_ogs.tif
176
     1
290
     0
176
     1
 40
1.0
176
     1
 40
1.0
176
     1
1001
ACAD
1000
AcRTDxfName
1000
VISUALSTYLE
1000
AcRTDxfName
1000
VISUALSTYLE
1000
AcRTDxfName
1000
VISUALSTYLE
1000
AcRTDxfName
1000
VISUALSTYLE
1000
AcRTDxfName
1000
VISUALSTYLE
1000
AcRTDxfName
1000
VISUALSTYLE
1000
AcRTDxfName
1000
VISUALSTYLE
1000
AcRTDxfName
1000
VISUALSTYLE
  0
VISUALSTYLE
  5
663F
102
{ACAD_REACTORS
330
663B
102
}
330
663B
100
AcDbVisualStyle
  2
GouraudWithEdges
 70
     3
177
     3
291
     1
 70
    58
 90
        2
176
     1
 90
        2
176
     1
 90
        1
176
     1
 90
        2
176
     1
 40
0.6
176
     1
 40
30.0
176
     1
 62
     7
176
     1
 90
        1
176
     1
 90
        4
176
     1
 62
     7
176
     1
 62
   257
176
     1
 90
        1
176
     1
 90
        1
176
     1
 40
1.0
176
     1
 90
        0
176
     1
 62
   257
176
     1
 40
1.0
176
     1
 90
        1
176
     1
 90
        6
176
     1
 90
        2
176
     1
 62
     7
176
     1
 90
        5
176
     1
 90
        0
176
     1
 90
        0
176
     1
290
     0
176
     1
 90
       13
176
     1
 40
0.0
176
     1
 90
        0
176
     1
290
     0
176
     1
290
     1
176
     1
290
     1
176
     1
290
     0
176
     1
290
     0
176
     1
290
     0
176
     1
290
     0
176
     1
290
     0
176
     1
290
     0
176
     1
 90
       50
176
     1
 40
0.0
176
     1
 40
1.0
176
     1
 90
        0
176
     1
 62
    18
420
        0
176
     1
 90
       50
176
     1
 90
        3
176
     1
 62
     5
420
      255
176
     1
290
     0
176
     1
 90
       50
176
     1
 90
       50
176
     1
 90
       50
176
     1
290
     0
176
     1
 90
       50
176
     1
 62
   256
176
     0
 40
1.0
176
     0
 90
        2
176
     1
  1
strokes_ogs.tif
176
     1
290
     0
176
     1
 40
1.0
176
     1
 40
1.0
176
     1
1001
ACAD
1000
AcRTDxfName
1000
VISUALSTYLE
1000
AcRTDxfName
1000
VISUALSTYLE
1000
AcRTDxfName
1000
VISUALSTYLE
1000
AcRTDxfName
1000
VISUALSTYLE
1000
AcRTDxfName
1000
VISUALSTYLE
1000
AcRTDxfName
1000
VISUALSTYLE
1000
AcRTDxfName
1000
VISUALSTYLE
1000
AcRTDxfName
1000
VISUALSTYLE
  0
VISUALSTYLE
  5
E04A
102
{ACAD_REACTORS
330
663B
102
}
330
663B
100
AcDbVisualStyle
  2
Hidden
 70
     6
177
     3
291
     0
 70
    58
 90
        1
176
     1
 90
        2
176
     1
 90
        2
176
     1
 90
        0
176
     1
 40
0.6
176
     1
 40
30.0
176
     1
 62
     7
420
 16777215
176
     1
 90
        2
176
     1
 90
        2
176
     1
 62
     7
176
     1
 62
   257
176
     1
 90
        2
176
     1
 90
        1
176
     1
 40
40.0
176
     1
 90
        0
176
     1
 62
   257
176
     1
 40
1.0
176
     1
 90
        1
176
     1
 90
        6
176
     1
 90
        2
176
     1
 62
     7
176
     1
 90
        3
176
     1
 90
        0
176
     1
 90
        0
176
     1
290
     0
176
     1
 90
        1
176
     1
 40
0.0
176
     1
 90
        0
176
     1
290
     0
176
     1
290
     1
176
     1
290
     1
176
     1
290
     0
176
     1
290
     0
176
     1
290
     0
176
     1
290
     0
176
     1
290
     0
176
     1
290
     0
176
     1
 90
       50
176
     1
 40
0.0
176
     1
 40
1.0
176
     1
 90
        0
176
     1
 62
    18
420
        0
176
     1
 90
       50
176
     1
 90
        3
176
     1
 62
     5
420
      255
176
     1
290
     0
176
     1
 90
       50
176
     1
 90
       50
176
     1
 90
       50
176
     1
290
     0
176
     1
 90
       50
176
     1
 62
   256
176
     0
 40
1.0
176
     0
 90
        2
176
     1
  1
strokes_ogs.tif
176
     1
290
     0
176
     1
 40
1.0
176
     1
 40
1.0
176
     1
  0
VISUALSTYLE
  5
E050
102
{ACAD_REACTORS
330
663B
102
}
330
663B
100
AcDbVisualStyle
  2
JitterOff
 70
    20
177
     3
291
     1
 70
    58
 90
        2
176
     0
 90
        2
176
     0
 90
        0
176
     0
 90
        0
176
     0
 40
0.6
176
     0
 40
30.0
176
     0
 62
     7
420
 16777215
176
     0
 90
        1
176
     0
 90
        4
176
     0
 62
     7
176
     0
 62
   257
176
     0
 90
        1
176
     0
 90
        1
176
     0
 40
1.0
176
     0
 90
       10
176
     2
 62
     7
176
     0
 40
1.0
176
     0
 90
        1
176
     0
 90
        6
176
     0
 90
        2
176
     0
 62
     7
176
     0
 90
        5
176
     0
 90
        0
176
     0
 90
        0
176
     0
290
     0
176
     0
 90
        1
176
     0
 40
0.0
176
     0
 90
        0
176
     0
290
     0
176
     0
290
     1
176
     0
290
     1
176
     0
290
     0
176
     0
290
     0
176
     0
290
     0
176
     0
290
     0
176
     0
290
     0
176
     0
290
     0
176
     0
 90
       50
176
     0
 40
0.0
176
     0
 40
1.0
176
     0
 90
        0
176
     0
 62
    18
420
        0
176
     0
 90
       50
176
     0
 90
        3
176
     0
 62
     5
420
      255
176
     0
290
     0
176
     0
 90
       50
176
     0
 90
       50
176
     0
 90
       50
176
     0
290
     0
176
     0
 90
       50
176
     0
 62
   256
176
     0
 40
1.0
176
     0
 90
        2
176
     0
  1
strokes_ogs.tif
176
     0
290
     0
176
     0
 40
1.0
176
     0
 40
1.0
176
     0
  0
VISUALSTYLE
  5
6649
102
{ACAD_REACTORS
330
663B
102
}
330
663B
100
AcDbVisualStyle
  2
Linepattern
 70
    14
177
     3
291
     1
 70
    58
 90
        2
176
     1
 90
        2
176
     1
 90
        0
176
     1
 90
        0
176
     1
 40
0.6
176
     1
 40
30.0
176
     1
 62
     7
176
     1
 90
        1
176
     1
 90
        4
176
     1
 62
     7
176
     1
 62
   257
176
     1
 90
        7
176
     1
 90
        7
176
     1
 40
1.0
176
     1
 90
        8
176
     1
 62
     7
176
     1
 40
1.0
176
     1
 90
        1
176
     1
 90
        6
176
     1
 90
        2
176
     1
 62
     7
176
     1
 90
        5
176
     1
 90
        0
176
     1
 90
        0
176
     1
290
     0
176
     1
 90
        1
176
     1
 40
0.0
176
     1
 90
        0
176
     1
290
     0
176
     1
290
     1
176
     1
290
     1
176
     1
290
     0
176
     1
290
     0
176
     1
290
     0
176
     1
290
     0
176
     1
290
     0
176
     1
290
     0
176
     1
 90
       50
176
     1
 40
0.0
176
     1
 40
1.0
176
     1
 90
        0
176
     1
 62
    18
420
        0
176
     1
 90
       50
176
     1
 90
        3
176
     1
 62
     5
420
      255
176
     1
290
     0
176
     1
 90
       50
176
     1
 90
       50
176
     1
 90
       50
176
     1
290
     0
176
     1
 90
       50
176
     1
 62
   256
176
     0
 40
1.0
176
     0
 90
        2
176
     1
  1
strokes_ogs.tif
176
     1
290
     0
176
     1
 40
1.0
176
     1
 40
1.0
176
     1
1001
ACAD
1000
AcRTDxfName
1000
VISUALSTYLE
1000
AcRTDxfName
1000
VISUALSTYLE
1000
AcRTDxfName
1000
VISUALSTYLE
1000
AcRTDxfName
1000
VISUALSTYLE
1000
AcRTDxfName
1000
VISUALSTYLE
1000
AcRTDxfName
1000
VISUALSTYLE
1000
AcRTDxfName
1000
VISUALSTYLE
1000
AcRTDxfName
1000
VISUALSTYLE
  0
VISUALSTYLE
  5
E051
102
{ACAD_REACTORS
330
663B
102
}
330
663B
100
AcDbVisualStyle
  2
OverhangOff
 70
    21
177
     3
291
     1
 70
    58
 90
        2
176
     0
 90
        2
176
     0
 90
        0
176
     0
 90
        0
176
     0
 40
0.6
176
     0
 40
30.0
176
     0
 62
     7
420
 16777215
176
     0
 90
        1
176
     0
 90
        4
176
     0
 62
     7
176
     0
 62
   257
176
     0
 90
        1
176
     0
 90
        1
176
     0
 40
1.0
176
     0
 90
        9
176
     2
 62
     7
176
     0
 40
1.0
176
     0
 90
        1
176
     0
 90
        6
176
     0
 90
        2
176
     0
 62
     7
176
     0
 90
        5
176
     0
 90
        0
176
     0
 90
        0
176
     0
290
     0
176
     0
 90
        1
176
     0
 40
0.0
176
     0
 90
        0
176
     0
290
     0
176
     0
290
     1
176
     0
290
     1
176
     0
290
     0
176
     0
290
     0
176
     0
290
     0
176
     0
290
     0
176
     0
290
     0
176
     0
290
     0
176
     0
 90
       50
176
     0
 40
0.0
176
     0
 40
1.0
176
     0
 90
        0
176
     0
 62
    18
420
        0
176
     0
 90
       50
176
     0
 90
        3
176
     0
 62
     5
420
      255
176
     0
290
     0
176
     0
 90
       50
176
     0
 90
       50
176
     0
 90
       50
176
     0
290
     0
176
     0
 90
       50
176
     0
 62
   256
176
     0
 40
1.0
176
     0
 90
        2
176
     0
  1
strokes_ogs.tif
176
     0
290
     0
176
     0
 40
1.0
176
     0
 40
1.0
176
     0
  0
VISUALSTYLE
  5
6645
102
{ACAD_REACTORS
330
663B
102
}
330
663B
100
AcDbVisualStyle
  2
Realistic
 70
     8
177
     3
291
     0
 70
    58
 90
        2
176
     1
 90
        2
176
     1
 90
        0
176
     1
 90
        0
176
     1
 40
0.6
176
     1
 40
30.0
176
     1
 62
     7
176
     1
 90
        1
176
     1
 90
        0
176
     1
 62
     7
176
     1
 62
   257
176
     1
 90
        1
176
     1
 90
        1
176
     1
 40
1.0
176
     1
 90
        8
176
     1
 62
     8
176
     1
 40
1.0
176
     1
 90
        1
176
     1
 90
        6
176
     1
 90
        2
176
     1
 62
     7
176
     1
 90
        5
176
     1
 90
        0
176
     1
 90
        0
176
     1
290
     0
176
     1
 90
       13
176
     1
 40
0.0
176
     1
 90
        0
176
     1
290
     0
176
     1
290
     1
176
     1
290
     1
176
     1
290
     0
176
     1
290
     0
176
     1
290
     0
176
     1
290
     0
176
     1
290
     0
176
     1
290
     0
176
     1
 90
       50
176
     1
 40
0.0
176
     1
 40
1.0
176
     1
 90
        0
176
     1
 62
    18
420
        0
176
     1
 90
       50
176
     1
 90
        3
176
     1
 62
     5
420
      255
176
     1
290
     0
176
     1
 90
       50
176
     1
 90
       50
176
     1
 90
       50
176
     1
290
     0
176
     1
 90
       50
176
     1
 62
   256
176
     0
 40
1.0
176
     0
 90
        2
176
     1
  1
strokes_ogs.tif
176
     1
290
     0
176
     1
 40
1.0
176
     1
 40
1.0
176
     1
1001
ACAD
1000
AcRTDxfName
1000
VISUALSTYLE
1000
AcRTDxfName
1000
VISUALSTYLE
1000
AcRTDxfName
1000
VISUALSTYLE
1000
AcRTDxfName
1000
VISUALSTYLE
1000
AcRTDxfName
1000
VISUALSTYLE
1000
AcRTDxfName
1000
VISUALSTYLE
1000
AcRTDxfName
1000
VISUALSTYLE
1000
AcRTDxfName
1000
VISUALSTYLE
  0
VISUALSTYLE
  5
E04F
102
{ACAD_REACTORS
330
663B
102
}
330
663B
100
AcDbVisualStyle
  2
Shaded
 70
    27
177
     3
291
     0
 70
    58
 90
        2
176
     1
 90
        2
176
     1
 90
        1
176
     1
 90
        2
176
     1
 40
0.6
176
     1
 40
30.0
176
     1
 62
     7
420
 16777215
176
     1
 90
        0
176
     1
 90
        4
176
     1
 62
     7
176
     1
 62
   257
176
     1
 90
        1
176
     1
 90
        1
176
     1
 40
1.0
176
     1
 90
        8
176
     1
 62
   257
176
     1
 40
1.0
176
     1
 90
        1
176
     1
 90
        6
176
     1
 90
        2
176
     1
 62
     8
420
  7895160
176
     1
 90
        3
176
     1
 90
        0
176
     1
 90
        0
176
     1
290
     0
176
     1
 90
        5
176
     1
 40
0.0
176
     1
 90
        0
176
     1
290
     0
176
     1
290
     1
176
     1
290
     1
176
     1
290
     0
176
     1
290
     0
176
     1
290
     0
176
     1
290
     0
176
     1
290
     0
176
     1
290
     0
176
     1
 90
       50
176
     1
 40
0.0
176
     1
 40
1.0
176
     1
 90
        0
176
     1
 62
    18
420
        0
176
     1
 90
       50
176
     1
 90
        3
176
     1
 62
     5
420
      255
176
     1
290
     0
176
     1
 90
       50
176
     1
 90
       50
176
     1
 90
       50
176
     1
290
     0
176
     1
 90
       50
176
     1
 62
   256
176
     0
 40
1.0
176
     0
 90
        2
176
     1
  1
strokes_ogs.tif
176
     1
290
     0
176
     1
 40
1.0
176
     1
 40
1.0
176
     1
  0
VISUALSTYLE
  5
E04E
102
{ACAD_REACTORS
330
663B
102
}
330
663B
100
AcDbVisualStyle
  2
Shaded with edges
 70
    26
177
     3
291
     0
 70
    58
 90
        2
176
     1
 90
        2
176
     1
 90
        1
176
     1
 90
        2
176
     1
 40
0.6
176
     1
 40
30.0
176
     1
 62
     7
420
 16777215
176
     1
 90
        1
176
     1
 90
        2
176
     1
 62
     7
176
     1
 62
   257
176
     1
 90
        2
176
     1
 90
        1
176
     1
 40
1.0
176
     1
 90
        8
176
     1
 62
   257
176
     1
 40
1.0
176
     1
 90
        1
176
     1
 90
        6
176
     1
 90
        2
176
     1
 62
     7
176
     1
 90
        3
176
     1
 90
        0
176
     1
 90
        0
176
     1
290
     0
176
     1
 90
        5
176
     1
 40
0.0
176
     1
 90
        0
176
     1
290
     0
176
     1
290
     1
176
     1
290
     1
176
     1
290
     0
176
     1
290
     0
176
     1
290
     0
176
     1
290
     0
176
     1
290
     0
176
     1
290
     0
176
     1
 90
       50
176
     1
 40
0.0
176
     1
 40
1.0
176
     1
 90
        0
176
     1
 62
    18
420
        0
176
     1
 90
       50
176
     1
 90
        3
176
     1
 62
     5
420
      255
176
     1
290
     0
176
     1
 90
       50
176
     1
 90
       50
176
     1
 90
       50
176
     1
290
     0
176
     1
 90
       50
176
     1
 62
   256
176
     0
 40
1.0
176
     0
 90
        2
176
     1
  1
strokes_ogs.tif
176
     1
290
     0
176
     1
 40
1.0
176
     1
 40
1.0
176
     1
  0
VISUALSTYLE
  5
E04B
102
{ACAD_REACTORS
330
663B
102
}
330
663B
100
AcDbVisualStyle
  2
Shades of Gray
 70
    23
177
     3
291
     0
 70
    58
 90
        2
176
     1
 90
        2
176
     1
 90
        3
176
     1
 90
        0
176
     1
 40
0.6
176
     1
 40
30.0
176
     1
 62
     7
420
 16777215
176
     1
 90
        2
176
     1
 90
        2
176
     1
 62
     7
176
     1
 62
     7
176
     1
 90
        1
176
     1
 90
        1
176
     1
 40
40.0
176
     1
 90
        8
176
     1
 62
     7
176
     1
 40
1.0
176
     1
 90
        1
176
     1
 90
        6
176
     1
 90
        2
176
     1
 62
     7
176
     1
 90
        3
176
     1
 90
        0
176
     1
 90
        0
176
     1
290
     0
176
     1
 90
        1
176
     1
 40
0.0
176
     1
 90
        0
176
     1
290
     0
176
     1
290
     1
176
     1
290
     1
176
     1
290
     0
176
     1
290
     0
176
     1
290
     0
176
     1
290
     0
176
     1
290
     0
176
     1
290
     0
176
     1
 90
       50
176
     1
 40
0.0
176
     1
 40
1.0
176
     1
 90
        0
176
     1
 62
    18
420
        0
176
     1
 90
       50
176
     1
 90
        3
176
     1
 62
     5
420
      255
176
     1
290
     0
176
     1
 90
       50
176
     1
 90
       50
176
     1
 90
       50
176
     1
290
     0
176
     1
 90
       50
176
     1
 62
   256
176
     0
 40
1.0
176
     0
 90
        2
176
     1
  1
strokes_ogs.tif
176
     1
290
     0
176
     1
 40
1.0
176
     1
 40
1.0
176
     1
  0
VISUALSTYLE
  5
E04C
102
{ACAD_REACTORS
330
663B
102
}
330
663B
100
AcDbVisualStyle
  2
Sketchy
 70
    24
177
     3
291
     0
 70
    58
 90
        1
176
     1
 90
        2
176
     1
 90
        2
176
     1
 90
        0
176
     1
 40
0.6
176
     1
 40
30.0
176
     1
 62
     7
420
 16777215
176
     1
 90
        2
176
     1
 90
        2
176
     1
 62
     7
176
     1
 62
     7
176
     1
 90
        1
176
     1
 90
        1
176
     1
 40
40.0
176
     1
 90
       11
176
     1
 62
     7
176
     1
 40
1.0
176
     1
 90
        1
176
     1
 90
        6
176
     1
 90
        2
176
     1
 62
     7
176
     1
 90
        6
176
     1
 90
        0
176
     1
 90
        0
176
     1
290
     0
176
     1
 90
        1
176
     1
 40
0.0
176
     1
 90
        0
176
     1
290
     0
176
     1
290
     1
176
     1
290
     1
176
     1
290
     0
176
     1
290
     0
176
     1
290
     0
176
     1
290
     0
176
     1
290
     0
176
     1
290
     0
176
     1
 90
       50
176
     1
 40
0.0
176
     1
 40
1.0
176
     1
 90
        0
176
     1
 62
    18
420
        0
176
     1
 90
       50
176
     1
 90
        3
176
     1
 62
     5
420
      255
176
     1
290
     0
176
     1
 90
       50
176
     1
 90
       50
176
     1
 90
       50
176
     1
290
     0
176
     1
 90
       50
176
     1
 62
   256
176
     0
 40
1.0
176
     0
 90
        2
176
     1
  1
strokes_ogs.tif
176
     1
290
     0
176
     1
 40
1.0
176
     1
 40
1.0
176
     1
  0
VISUALSTYLE
  5
6648
102
{ACAD_REACTORS
330
663B
102
}
330
663B
100
AcDbVisualStyle
  2
Thicken
 70
    13
177
     3
291
     1
 70
    58
 90
        2
176
     1
 90
        2
176
     1
 90
        0
176
     1
 90
        0
176
     1
 40
0.6
176
     1
 40
30.0
176
     1
 62
     7
176
     1
 90
        1
176
     1
 90
        4
176
     1
 62
     7
176
     1
 62
   257
176
     1
 90
        1
176
     1
 90
        1
176
     1
 40
1.0
176
     1
 90
       12
176
     1
 62
     7
176
     1
 40
1.0
176
     1
 90
        1
176
     1
 90
        6
176
     1
 90
        2
176
     1
 62
     7
176
     1
 90
        5
176
     1
 90
        0
176
     1
 90
        0
176
     1
290
     0
176
     1
 90
        1
176
     1
 40
0.0
176
     1
 90
        0
176
     1
290
     0
176
     1
290
     1
176
     1
290
     1
176
     1
290
     0
176
     1
290
     0
176
     1
290
     0
176
     1
290
     0
176
     1
290
     0
176
     1
290
     0
176
     1
 90
       50
176
     1
 40
0.0
176
     1
 40
1.0
176
     1
 90
        0
176
     1
 62
    18
420
        0
176
     1
 90
       50
176
     1
 90
        3
176
     1
 62
     5
420
      255
176
     1
290
     0
176
     1
 90
       50
176
     1
 90
       50
176
     1
 90
       50
176
     1
290
     0
176
     1
 90
       50
176
     1
 62
   256
176
     0
 40
1.0
176
     0
 90
        2
176
     1
  1
strokes_ogs.tif
176
     1
290
     0
176
     1
 40
1.0
176
     1
 40
1.0
176
     1
1001
ACAD
1000
AcRTDxfName
1000
VISUALSTYLE
1000
AcRTDxfName
1000
VISUALSTYLE
1000
AcRTDxfName
1000
VISUALSTYLE
1000
AcRTDxfName
1000
VISUALSTYLE
1000
AcRTDxfName
1000
VISUALSTYLE
1000
AcRTDxfName
1000
VISUALSTYLE
1000
AcRTDxfName
1000
VISUALSTYLE
1000
AcRTDxfName
1000
VISUALSTYLE
  0
VISUALSTYLE
  5
E049
102
{ACAD_REACTORS
330
663B
102
}
330
663B
100
AcDbVisualStyle
  2
Wireframe
 70
     5
177
     3
291
     0
 70
    58
 90
        0
176
     1
 90
        2
176
     1
 90
        0
176
     1
 90
        0
176
     1
 40
0.6
176
     1
 40
30.0
176
     1
 62
     7
420
 16777215
176
     1
 90
        1
176
     1
 90
        4
176
     1
 62
     7
176
     1
 62
   257
176
     1
 90
        1
176
     1
 90
        1
176
     1
 40
1.0
176
     1
 90
        0
176
     1
 62
   257
176
     1
 40
1.0
176
     1
 90
        1
176
     1
 90
        6
176
     1
 90
        2
176
     1
 62
     7
176
     1
 90
        3
176
     1
 90
        0
176
     1
 90
        0
176
     1
290
     0
176
     1
 90
        1
176
     1
 40
0.0
176
     1
 90
        0
176
     1
290
     0
176
     1
290
     1
176
     1
290
     1
176
     1
290
     0
176
     1
290
     0
176
     1
290
     0
176
     1
290
     0
176
     1
290
     0
176
     1
290
     0
176
     1
 90
       50
176
     1
 40
0.0
176
     1
 40
1.0
176
     1
 90
        0
176
     1
 62
    18
420
        0
176
     1
 90
       50
176
     1
 90
        3
176
     1
 62
     5
420
      255
176
     1
290
     0
176
     1
 90
       50
176
     1
 90
       50
176
     1
 90
       50
176
     1
290
     0
176
     1
 90
       50
176
     1
 62
   256
176
     0
 40
1.0
176
     0
 90
        2
176
     1
  1
strokes_ogs.tif
176
     1
290
     0
176
     1
 40
1.0
176
     1
 40
1.0
176
     1
  0
VISUALSTYLE
  5
E04D
102
{ACAD_REACTORS
330
663B
102
}
330
663B
100
AcDbVisualStyle
  2
X-Ray
 70
    25
177
     3
291
     0
 70
    58
 90
        2
176
     1
 90
        2
176
     1
 90
        1
176
     1
 90
        1
176
     1
 40
0.5
176
     1
 40
30.0
176
     1
 62
     7
420
 16777215
176
     1
 90
        1
176
     1
 90
        0
176
     1
 62
     7
176
     1
 62
   257
176
     1
 90
        1
176
     1
 90
        1
176
     1
 40
1.0
176
     1
 90
        8
176
     1
 62
     7
176
     1
 40
1.0
176
     1
 90
        1
176
     1
 90
        6
176
     1
 90
        2
176
     1
 62
     7
176
     1
 90
        3
176
     1
 90
        0
176
     1
 90
        0
176
     1
290
     0
176
     1
 90
       13
176
     1
 40
0.0
176
     1
 90
        0
176
     1
290
     0
176
     1
290
     1
176
     1
290
     1
176
     1
290
     0
176
     1
290
     0
176
     1
290
     0
176
     1
290
     0
176
     1
290
     0
176
     1
290
     0
176
     1
 90
       50
176
     1
 40
0.0
176
     1
 40
1.0
176
     1
 90
        0
176
     1
 62
    18
420
        0
176
     1
 90
       50
176
     1
 90
        3
176
     1
 62
     5
420
      255
176
     1
290
     0
176
     1
 90
       50
176
     1
 90
       50
176
     1
 90
       50
176
     1
290
     0
176
     1
 90
       50
176
     1
 62
   256
176
     0
 40
1.0
176
     0
 90
        2
176
     1
  1
strokes_ogs.tif
176
     1
290
     0
176
     1
 40
1.0
176
     1
 40
1.0
176
     1
  0
DICTIONARYVAR
  5
E249
102
{ACAD_REACTORS
330
51
102
}
330
51
100
DictionaryVariables
280
     0
  1
1:1
  0
DICTIONARYVAR
  5
E245
102
{ACAD_REACTORS
330
51
102
}
330
51
100
DictionaryVariables
280
     0
  1
STANDARD
  0
DICTIONARYVAR
  5
61E4
102
{ACAD_REACTORS
330
51
102
}
330
51
100
DictionaryVariables
280
     0
  1
STANDARD
  0
DICTIONARYVAR
  5
E246
102
{ACAD_REACTORS
330
51
102
}
330
51
100
DictionaryVariables
280
     0
  1
Metric50
  0
DICTIONARYVAR
  5
E247
102
{ACAD_REACTORS
330
51
102
}
330
51
100
DictionaryVariables
280
     0
  1
Metric50
  0
DICTIONARYVAR
  5
52
102
{ACAD_REACTORS
330
51
102
}
330
51
100
DictionaryVariables
280
     0
  1
0
  0
DICTIONARYVAR
  5
61E5
102
{ACAD_REACTORS
330
51
102
}
330
51
100
DictionaryVariables
280
     0
  1
1
  0
DICTIONARYVAR
  5
6B68
102
{ACAD_REACTORS
330
51
102
}
330
51
100
DictionaryVariables
280
     0
  1
0
  0
DICTIONARYVAR
  5
E24B
102
{ACAD_REACTORS
330
51
102
}
330
51
100
DictionaryVariables
280
     0
  1
1
  0
DICTIONARYVAR
  5
E24C
102
{ACAD_REACTORS
330
51
102
}
330
51
100
DictionaryVariables
280
     0
  1
15
  0
DICTIONARYVAR
  5
E24A
102
{ACAD_REACTORS
330
51
102
}
330
51
100
DictionaryVariables
280
     0
  1
0
  0
DICTIONARYVAR
  5
E248
102
{ACAD_REACTORS
330
51
102
}
330
51
100
DictionaryVariables
280
     0
  1
0
  0
DICTIONARYVAR
  5
61E6
102
{ACAD_REACTORS
330
51
102
}
330
51
100
DictionaryVariables
280
     0
  1

  0
DICTIONARYVAR
  5
6B67
102
{ACAD_REACTORS
330
51
102
}
330
51
100
DictionaryVariables
280
     0
  1
127
  0
DICTIONARY
  5
E24D
330
611A
100
AcDbDictionary
280
     1
281
     1
  3
ACAD_ROUNDTRIP_2008_TABLESTYLE_CELLSTYLEMAP
360
E24E
  0
CELLSTYLEMAP
  5
E24E
102
{ACAD_REACTORS
330
E24D
102
}
330
E24D
100
AcDbCellStyleMap
 90
        3
300
CELLSTYLE
  1
TABLEFORMAT_BEGIN
 90
        5
170
     1
 91
        0
 92
    32768
 62
   257
 93
        1
300
CONTENTFORMAT
  1
CONTENTFORMAT_BEGIN
 90
        0
 91
        0
 92
        4
 93
        0
300

 40
0.0
140
1.0
 94
        5
 62
     0
340
F
144
6.0
309
CONTENTFORMAT_END
171
     1
301
MARGIN
  1
CELLMARGIN_BEGIN
 40
1.5
 40
1.5
 40
1.5
 40
1.5
 40
0.18
 40
0.18
309
CELLMARGIN_END
 94
        6
 95
        1
302
GRIDFORMAT
  1
GRIDFORMAT_BEGIN
 90
        0
 91
        1
 62
     0
 92
       -2
340
0
 93
        0
 40
0.045
309
GRIDFORMAT_END
 95
        2
302
GRIDFORMAT
  1
GRIDFORMAT_BEGIN
 90
        0
 91
        1
 62
     0
 92
       -2
340
0
 93
        0
 40
0.045
309
GRIDFORMAT_END
 95
        4
302
GRIDFORMAT
  1
GRIDFORMAT_BEGIN
 90
        0
 91
        1
 62
     0
 92
       -2
340
0
 93
        0
 40
0.045
309
GRIDFORMAT_END
 95
        8
302
GRIDFORMAT
  1
GRIDFORMAT_BEGIN
 90
        0
 91
        1
 62
     0
 92
       -2
340
0
 93
        0
 40
0.045
309
GRIDFORMAT_END
 95
       16
302
GRIDFORMAT
  1
GRIDFORMAT_BEGIN
 90
        0
 91
        1
 62
     0
 92
       -2
340
0
 93
        0
 40
0.045
309
GRIDFORMAT_END
 95
       32
302
GRIDFORMAT
  1
GRIDFORMAT_BEGIN
 90
        0
 91
        1
 62
     0
 92
       -2
340
0
 93
        0
 40
0.045
309
GRIDFORMAT_END
309
TABLEFORMAT_END
  1
CELLSTYLE_BEGIN
 90
        1
 91
        1
300
_TITLE
309
CELLSTYLE_END
300
CELLSTYLE
  1
TABLEFORMAT_BEGIN
 90
        5
170
     1
 91
        0
 92
        0
 62
   257
 93
        1
300
CONTENTFORMAT
  1
CONTENTFORMAT_BEGIN
 90
        0
 91
        0
 92
        4
 93
        0
300

 40
0.0
140
1.0
 94
        5
 62
     0
340
F
144
4.5
309
CONTENTFORMAT_END
171
     1
301
MARGIN
  1
CELLMARGIN_BEGIN
 40
1.5
 40
1.5
 40
1.5
 40
1.5
 40
0.18
 40
0.18
309
CELLMARGIN_END
 94
        6
 95
        1
302
GRIDFORMAT
  1
GRIDFORMAT_BEGIN
 90
        0
 91
        1
 62
     0
 92
       -2
340
0
 93
        0
 40
0.045
309
GRIDFORMAT_END
 95
        2
302
GRIDFORMAT
  1
GRIDFORMAT_BEGIN
 90
        0
 91
        1
 62
     0
 92
       -2
340
0
 93
        0
 40
0.045
309
GRIDFORMAT_END
 95
        4
302
GRIDFORMAT
  1
GRIDFORMAT_BEGIN
 90
        0
 91
        1
 62
     0
 92
       -2
340
0
 93
        0
 40
0.045
309
GRIDFORMAT_END
 95
        8
302
GRIDFORMAT
  1
GRIDFORMAT_BEGIN
 90
        0
 91
        1
 62
     0
 92
       -2
340
0
 93
        0
 40
0.045
309
GRIDFORMAT_END
 95
       16
302
GRIDFORMAT
  1
GRIDFORMAT_BEGIN
 90
        0
 91
        1
 62
     0
 92
       -2
340
0
 93
        0
 40
0.045
309
GRIDFORMAT_END
 95
       32
302
GRIDFORMAT
  1
GRIDFORMAT_BEGIN
 90
        0
 91
        1
 62
     0
 92
       -2
340
0
 93
        0
 40
0.045
309
GRIDFORMAT_END
309
TABLEFORMAT_END
  1
CELLSTYLE_BEGIN
 90
        2
 91
        1
300
_HEADER
309
CELLSTYLE_END
300
CELLSTYLE
  1
TABLEFORMAT_BEGIN
 90
        5
170
     1
 91
        0
 92
        0
 62
   257
 93
        1
300
CONTENTFORMAT
  1
CONTENTFORMAT_BEGIN
 90
        0
 91
        0
 92
        4
 93
        0
300

 40
0.0
140
1.0
 94
        2
 62
     0
340
F
144
4.5
309
CONTENTFORMAT_END
171
     1
301
MARGIN
  1
CELLMARGIN_BEGIN
 40
1.5
 40
1.5
 40
1.5
 40
1.5
 40
0.18
 40
0.18
309
CELLMARGIN_END
 94
        6
 95
        1
302
GRIDFORMAT
  1
GRIDFORMAT_BEGIN
 90
        0
 91
        1
 62
     0
 92
       -2
340
0
 93
        0
 40
0.045
309
GRIDFORMAT_END
 95
        2
302
GRIDFORMAT
  1
GRIDFORMAT_BEGIN
 90
        0
 91
        1
 62
     0
 92
       -2
340
0
 93
        0
 40
0.045
309
GRIDFORMAT_END
 95
        4
302
GRIDFORMAT
  1
GRIDFORMAT_BEGIN
 90
        0
 91
        1
 62
     0
 92
       -2
340
0
 93
        0
 40
0.045
309
GRIDFORMAT_END
 95
        8
302
GRIDFORMAT
  1
GRIDFORMAT_BEGIN
 90
        0
 91
        1
 62
     0
 92
       -2
340
0
 93
        0
 40
0.045
309
GRIDFORMAT_END
 95
       16
302
GRIDFORMAT
  1
GRIDFORMAT_BEGIN
 90
        0
 91
        1
 62
     0
 92
       -2
340
0
 93
        0
 40
0.045
309
GRIDFORMAT_END
 95
       32
302
GRIDFORMAT
  1
GRIDFORMAT_BEGIN
 90
        0
 91
        1
 62
     0
 92
       -2
340
0
 93
        0
 40
0.045
309
GRIDFORMAT_END
309
TABLEFORMAT_END
  1
CELLSTYLE_BEGIN
 90
        3
 91
        2
300
_DATA
309
CELLSTYLE_END
  0
ENDSEC
  0
SECTION
  2
ACDSDATA
 70
     2
 71
     8
  0
ACDSSCHEMA
 90
        0
  1
AcDb_Thumbnail_Schema
  2
AcDbDs::ID
280
    10
 91
        8
  2
Thumbnail_Data
280
    15
 91
        0
101
ACDSRECORD
 95
        0
 90
        1
  2
AcDbDs::TreatedAsObjectData
280
     1
291
     1
101
ACDSRECORD
 95
        0
 90
        2
  2
AcDbDs::Legacy
280
     1
291
     1
101
ACDSRECORD
  1
AcDbDs::ID
 90
        3
  2
AcDs:Indexable
280
     1
291
     1
101
ACDSRECORD
  1
AcDbDs::ID
 90
        4
  2
AcDbDs::HandleAttribute
280
     7
282
     1
  0
ACDSSCHEMA
 90
        1
  1
AcDbDs::TreatedAsObjectDataSchema
  2
AcDbDs::TreatedAsObjectData
280
     1
 91
        0
  0
ACDSSCHEMA
 90
        2
  1
AcDbDs::LegacySchema
  2
AcDbDs::Legacy
280
     1
 91
        0
  0
ACDSSCHEMA
 90
        3
  1
AcDbDs::IndexedPropertySchema
  2
AcDs:Indexable
280
     1
 91
        0
  0
ACDSSCHEMA
 90
        4
  1
AcDbDs::HandleAttributeSchema
  2
AcDbDs::HandleAttribute
280
     7
 91
        1
284
     1
  0
ACDSRECORD
 90
        0
  2
AcDbDs::ID
280
    10
320
4802
  2
Thumbnail_Data
280
    15
 94
     1230
310
89504E470D0A1A0A0000000D494844520000010000000063080300000043BB2E1400000300504C5445000000FFFFFF0000000000000000000000000000000000000000000000000000000000330000660000990000CC0000FF0033000033330033660033990033CC0033FF0066000066330066660066990066CC0066FF0099
310
000099330099660099990099CC0099FF00CC0000CC3300CC6600CC9900CCCC00CCFF00FF0000FF3300FF6600FF9900FFCC00FFFF3300003300333300663300993300CC3300FF3333003333333333663333993333CC3333FF3366003366333366663366993366CC3366FF3399003399333399663399993399CC3399FF33CC00
310
33CC3333CC6633CC9933CCCC33CCFF33FF0033FF3333FF6633FF9933FFCC33FFFF6600006600336600666600996600CC6600FF6633006633336633666633996633CC6633FF6666006666336666666666996666CC6666FF6699006699336699666699996699CC6699FF66CC0066CC3366CC6666CC9966CCCC66CCFF66FF0066
310
FF3366FF6666FF9966FFCC66FFFF9900009900339900669900999900CC9900FF9933009933339933669933999933CC9933FF9966009966339966669966999966CC9966FF9999009999339999669999999999CC9999FF99CC0099CC3399CC6699CC9999CCCC99CCFF99FF0099FF3399FF6699FF9999FFCC99FFFFCC0000CC00
310
33CC0066CC0099CC00CCCC00FFCC3300CC3333CC3366CC3399CC33CCCC33FFCC6600CC6633CC6666CC6699CC66CCCC66FFCC9900CC9933CC9966CC9999CC99CCCC99FFCCCC00CCCC33CCCC66CCCC99CCCCCCCCCCFFCCFF00CCFF33CCFF66CCFF99CCFFCCCCFFFFFF0000FF0033FF0066FF0099FF00CCFF00FFFF3300FF3333
310
FF3366FF3399FF33CCFF33FFFF6600FF6633FF6666FF6699FF66CCFF66FFFF9900FF9933FF9966FF9999FF99CCFF99FFFFCC00FFCC33FFCC66FFCC99FFCCCCFFCCFFFFFF00FFFF33FFFF66FFFF99FFFFCCFFFFFF0000000D0D0D1A1A1A2828283535354343435050505D5D5D6B6B6B787878868686939393A1A1A1AEAEAEBB
310
BBBBC9C9C9D6D6D6E4E4E4F1F1F1FFFFFF0000000000000000000000000000000000000000000000000000000000003AE5ACE90000014D4944415478DAED9B010E82300C457B9CDEFF3C3B8C02030743180B1ADABE173581E0DC7FAC73601401000000000000000000808AF41F1E2CC0D1A720000108E8ECDA669E4AC39E5B
310
BBFD78019B3EBEE3A75B7B6D6004AC054CBB24DC0898BFB3C7474401E508885502F9ECAF05049A0459072000010840000210800004200001BF691301B604E821DFDB9A8F48D591C104A8750139CC4EB8E3B6747CEAD0A6E64D370286CDB3FC9E0534E59F4B40FC954043FDBB9E033EA7F5BC048A36DD08C8F145A28D002DF2
310
37CC00FE468016F9451B0CB82C819C5FA24E825A8E8480021A52EFAC1653F546AB02AEE5F727E0627E7702AEE6772940A20AE8C9EF50808415D095DF9780D54AB655407EB17F43A42FBF1F019DF9A72BC64580E9BBC25DF997CA4FE5D5B4D139A0BFC1DDF9935F8610104A802000010840000210604440F47F8E0200000000
310
0000000038E1050E16998441C810180000000049454E44AE4260822B07B85C4BF2F33800007801100000000000000000E09900DEFF4485104208218410420821A6F302546AEFC47F9D5DC20000000049454E44AE426082
  0
ENDSEC
  0
EOF
