  0
SECTION
  2
HEADER
  9
$ACADVER
  1
AC1015
  9
$ACADMAINTVER
 70
    20
  9
$DWGCODEPAGE
  3
ANSI_932
  9
$INSBASE
 10
0.0
 20
0.0
 30
0.0
  9
$EXTMIN
 10
491.3784367913352
 20
-8.99395081627577
 30
0.0
  9
$EXTMAX
 10
1543.154723832628
 20
464.0504930017131
 30
0.0
  9
$LIMMIN
 10
0.0
 20
0.0
  9
$LIMMAX
 10
420.0
 20
297.0
  9
$ORTHOMODE
 70
     0
  9
$REGENMODE
 70
     1
  9
$FILLMODE
 70
     1
  9
$QTEXTMODE
 70
     0
  9
$MIRRTEXT
 70
     1
  9
$LTSCALE
 40
1.0
  9
$ATTMODE
 70
     1
  9
$TEXTSIZE
 40
2.5
  9
$TRACEWID
 40
1.0
  9
$TEXTSTYLE
  7
STANDARD
  9
$CLAYER
  8
0
  9
$CELTYPE
  6
ByLayer
  9
$CECOLOR
 62
   256
  9
$CELTSCALE
 40
1.0
  9
$DISPSILH
 70
     0
  9
$DIMSCALE
 40
1.0
  9
$DIMASZ
 40
2.5
  9
$DIMEXO
 40
0.625
  9
$DIMDLI
 40
3.75
  9
$DIMRND
 40
0.0
  9
$DIMDLE
 40
0.0
  9
$DIMEXE
 40
1.25
  9
$DIMTP
 40
0.0
  9
$DIMTM
 40
0.0
  9
$DIMTXT
 40
2.5
  9
$DIMCEN
 40
2.5
  9
$DIMTSZ
 40
0.0
  9
$DIMTOL
 70
     0
  9
$DIMLIM
 70
     0
  9
$DIMTIH
 70
     0
  9
$DIMTOH
 70
     0
  9
$DIMSE1
 70
     0
  9
$DIMSE2
 70
     0
  9
$DIMTAD
 70
     1
  9
$DIMZIN
 70
     8
  9
$DIMBLK
  1

  9
$DIMASO
 70
     1
  9
$DIMSHO
 70
     1
  9
$DIMPOST
  1

  9
$DIMAPOST
  1

  9
$DIMALT
 70
     0
  9
$DIMALTD
 70
     3
  9
$DIMALTF
 40
0.03937007874016
  9
$DIMLFAC
 40
1.0
  9
$DIMTOFL
 70
     1
  9
$DIMTVP
 40
0.0
  9
$DIMTIX
 70
     0
  9
$DIMSOXD
 70
     0
  9
$DIMSAH
 70
     0
  9
$DIMBLK1
  1

  9
$DIMBLK2
  1

  9
$DIMSTYLE
  2
ISO-25
  9
$DIMCLRD
 70
     0
  9
$DIMCLRE
 70
     0
  9
$DIMCLRT
 70
     0
  9
$DIMTFAC
 40
1.0
  9
$DIMGAP
 40
0.625
  9
$DIMJUST
 70
     0
  9
$DIMSD1
 70
     0
  9
$DIMSD2
 70
     0
  9
$DIMTOLJ
 70
     1
  9
$DIMTZIN
 70
     0
  9
$DIMALTZ
 70
     0
  9
$DIMALTTZ
 70
     0
  9
$DIMUPT
 70
     0
  9
$DIMDEC
 70
     4
  9
$DIMTDEC
 70
     4
  9
$DIMALTU
 70
     2
  9
$DIMALTTD
 70
     2
  9
$DIMTXSTY
  7
STANDARD
  9
$DIMAUNIT
 70
     0
  9
$DIMADEC
 70
     0
  9
$DIMALTRND
 40
0.0
  9
$DIMAZIN
 70
     0
  9
$DIMDSEP
 70
    46
  9
$DIMATFIT
 70
     3
  9
$DIMFRAC
 70
     0
  9
$DIMLDRBLK
  1

  9
$DIMLUNIT
 70
     2
  9
$DIMLWD
 70
    -2
  9
$DIMLWE
 70
    -2
  9
$DIMTMOVE
 70
     0
  9
$LUNITS
 70
     2
  9
$LUPREC
 70
     4
  9
$SKETCHINC
 40
1.0
  9
$FILLETRAD
 40
10.0
  9
$AUNITS
 70
     0
  9
$AUPREC
 70
     0
  9
$MENU
  1
.
  9
$ELEVATION
 40
0.0
  9
$PELEVATION
 40
0.0
  9
$THICKNESS
 40
0.0
  9
$LIMCHECK
 70
     0
  9
$CHAMFERA
 40
10.0
  9
$CHAMFERB
 40
10.0
  9
$CHAMFERC
 40
0.0
  9
$CHAMFERD
 40
0.0
  9
$SKPOLY
 70
     0
  9
$TDCREATE
 40
2452048.587870371
  9
$TDUCREATE
 40
2452048.212870371
  9
$TDUPDATE
 40
2460039.472800926
  9
$TDUUPDATE
 40
2460039.097800926
  9
$TDINDWG
 40
0.0670127662
  9
$TDUSRTIMER
 40
0.0670127662
  9
$USRTIMER
 70
     1
  9
$ANGBASE
 50
0.0
  9
$ANGDIR
 70
     0
  9
$PDMODE
 70
     0
  9
$PDSIZE
 40
0.0
  9
$PLINEWID
 40
0.0
  9
$SPLFRAME
 70
     0
  9
$SPLINETYPE
 70
     6
  9
$SPLINESEGS
 70
     8
  9
$HANDSEED
  5
60FB
  9
$SURFTAB1
 70
     6
  9
$SURFTAB2
 70
     6
  9
$SURFTYPE
 70
     6
  9
$SURFU
 70
     6
  9
$SURFV
 70
     6
  9
$UCSBASE
  2

  9
$UCSNAME
  2

  9
$UCSORG
 10
0.0
 20
0.0
 30
0.0
  9
$UCSXDIR
 10
1.0
 20
0.0
 30
0.0
  9
$UCSYDIR
 10
0.0
 20
1.0
 30
0.0
  9
$UCSORTHOREF
  2

  9
$UCSORTHOVIEW
 70
     0
  9
$UCSORGTOP
 10
0.0
 20
0.0
 30
0.0
  9
$UCSORGBOTTOM
 10
0.0
 20
0.0
 30
0.0
  9
$UCSORGLEFT
 10
0.0
 20
0.0
 30
0.0
  9
$UCSORGRIGHT
 10
0.0
 20
0.0
 30
0.0
  9
$UCSORGFRONT
 10
0.0
 20
0.0
 30
0.0
  9
$UCSORGBACK
 10
0.0
 20
0.0
 30
0.0
  9
$PUCSBASE
  2

  9
$PUCSNAME
  2

  9
$PUCSORG
 10
0.0
 20
0.0
 30
0.0
  9
$PUCSXDIR
 10
1.0
 20
0.0
 30
0.0
  9
$PUCSYDIR
 10
0.0
 20
1.0
 30
0.0
  9
$PUCSORTHOREF
  2

  9
$PUCSORTHOVIEW
 70
     0
  9
$PUCSORGTOP
 10
0.0
 20
0.0
 30
0.0
  9
$PUCSORGBOTTOM
 10
0.0
 20
0.0
 30
0.0
  9
$PUCSORGLEFT
 10
0.0
 20
0.0
 30
0.0
  9
$PUCSORGRIGHT
 10
0.0
 20
0.0
 30
0.0
  9
$PUCSORGFRONT
 10
0.0
 20
0.0
 30
0.0
  9
$PUCSORGBACK
 10
0.0
 20
0.0
 30
0.0
  9
$USERI1
 70
     0
  9
$USERI2
 70
     0
  9
$USERI3
 70
     0
  9
$USERI4
 70
     0
  9
$USERI5
 70
     0
  9
$USERR1
 40
0.0
  9
$USERR2
 40
0.0
  9
$USERR3
 40
0.0
  9
$USERR4
 40
0.0
  9
$USERR5
 40
0.0
  9
$WORLDVIEW
 70
     1
  9
$SHADEDGE
 70
     3
  9
$SHADEDIF
 70
    70
  9
$TILEMODE
 70
     1
  9
$MAXACTVP
 70
    64
  9
$PINSBASE
 10
0.0
 20
0.0
 30
0.0
  9
$PLIMCHECK
 70
     0
  9
$PEXTMIN
 10
1.000000000000000E+20
 20
1.000000000000000E+20
 30
1.000000000000000E+20
  9
$PEXTMAX
 10
-1.000000000000000E+20
 20
-1.000000000000000E+20
 30
-1.000000000000000E+20
  9
$PLIMMIN
 10
0.0
 20
0.0
  9
$PLIMMAX
 10
420.0
 20
297.0
  9
$UNITMODE
 70
     0
  9
$VISRETAIN
 70
     1
  9
$PLINEGEN
 70
     0
  9
$PSLTSCALE
 70
     1
  9
$TREEDEPTH
 70
  3020
  9
$CMLSTYLE
  2
Standard
  9
$CMLJUST
 70
     0
  9
$CMLSCALE
 40
1.0
  9
$PROXYGRAPHICS
 70
     1
  9
$MEASUREMENT
 70
     0
  9
$CELWEIGHT
370
    -1
  9
$ENDCAPS
280
     0
  9
$JOINSTYLE
280
     0
  9
$LWDISPLAY
290
     0
  9
$INSUNITS
 70
     0
  9
$HYPERLINKBASE
  1

  9
$STYLESHEET
  1

  9
$XEDIT
290
     1
  9
$CEPSNTYPE
380
     0
  9
$PSTYLEMODE
290
     1
  9
$FINGERPRINTGUID
  2
{7143A711-ED3D-6248-AF2D-DFB18AAFB8CF}
  9
$VERSIONGUID
  2
{F4465E29-1983-244E-B4D3-F64AC45ACD3B}
  9
$EXTNAMES
290
     1
  9
$PSVPSCALE
 40
0.0
  9
$OLESTARTUP
290
     0
  0
ENDSEC
  0
SECTION
  2
CLASSES
  0
CLASS
  1
ACDBDICTIONARYWDFLT
  2
AcDbDictionaryWithDefault
  3
ObjectDBX Classes
 90
        0
280
     0
281
     0
  0
CLASS
  1
MATERIAL
  2
AcDbMaterial
  3
ObjectDBX Classes
 90
     1153
280
     0
281
     0
  0
CLASS
  1
VISUALSTYLE
  2
AcDbVisualStyle
  3
ObjectDBX Classes
 90
     4095
280
     0
281
     0
  0
CLASS
  1
SCALE
  2
AcDbScale
  3
ObjectDBX Classes
 90
     1153
280
     0
281
     0
  0
CLASS
  1
TABLESTYLE
  2
AcDbTableStyle
  3
ObjectDBX Classes
 90
     4095
280
     0
281
     0
  0
CLASS
  1
MLEADERSTYLE
  2
AcDbMLeaderStyle
  3
ACDB_MLEADERSTYLE_CLASS
 90
     4095
280
     0
281
     0
  0
CLASS
  1
ACDBSECTIONVIEWSTYLE
  2
AcDbSectionViewStyle
  3
ObjectDBX Classes
 90
     1025
280
     0
281
     0
  0
CLASS
  1
ACDBDETAILVIEWSTYLE
  2
AcDbDetailViewStyle
  3
ObjectDBX Classes
 90
     1025
280
     0
281
     0
  0
CLASS
  1
DICTIONARYVAR
  2
AcDbDictionaryVar
  3
ObjectDBX Classes
 90
        0
280
     0
281
     0
  0
CLASS
  1
CELLSTYLEMAP
  2
AcDbCellStyleMap
  3
ObjectDBX Classes
 90
     1152
280
     0
281
     0
  0
CLASS
  1
SORTENTSTABLE
  2
AcDbSortentsTable
  3
ObjectDBX Classes
 90
        0
280
     0
281
     0
  0
CLASS
  1
ACDBPLACEHOLDER
  2
AcDbPlaceHolder
  3
ObjectDBX Classes
 90
        0
280
     0
281
     0
  0
CLASS
  1
LAYOUT
  2
AcDbLayout
  3
ObjectDBX Classes
 90
        0
280
     0
281
     0
  0
ENDSEC
  0
SECTION
  2
TABLES
  0
TABLE
  2
VPORT
  5
495B
330
0
100
AcDbSymbolTable
 70
     1
  0
VPORT
  5
49C6
330
495B
100
AcDbSymbolTableRecord
100
AcDbViewportTableRecord
  2
*ACTIVE
 70
     0
 10
0.0
 20
0.0
 11
1.0
 21
1.0
 12
1333.04973229684
 22
202.3690836305054
 13
0.0
 23
0.0
 14
10.0
 24
10.0
 15
10.0
 25
10.0
 16
0.0
 26
0.0
 36
1.0
 17
0.0
 27
0.0
 37
0.0
 40
647.6628157206278
 41
1.905797101449275
 42
50.0
 43
0.0
 44
0.0
 50
0.0
 51
0.0
 71
     0
 72
   100
 73
     1
 74
     3
 75
     0
 76
     0
 77
     0
 78
     0
281
     0
 65
     1
110
0.0
120
0.0
130
0.0
111
1.0
121
0.0
131
0.0
112
0.0
122
1.0
132
0.0
 79
     0
146
0.0
1001
ACAD_NAV_VCDISPLAY
1070
     3
  0
ENDTAB
  0
TABLE
  2
LTYPE
  5
4958
330
0
100
AcDbSymbolTable
 70
     5
  0
LTYPE
  5
49AD
330
4958
100
AcDbSymbolTableRecord
100
AcDbLinetypeTableRecord
  2
ByBlock
 70
     0
  3

 72
    65
 73
     0
 40
0.0
  0
LTYPE
  5
49AE
330
4958
100
AcDbSymbolTableRecord
100
AcDbLinetypeTableRecord
  2
ByLayer
 70
     0
  3

 72
    65
 73
     0
 40
0.0
  0
LTYPE
  5
49AF
330
4958
100
AcDbSymbolTableRecord
100
AcDbLinetypeTableRecord
  2
CONTINUOUS
 70
     0
  3
Solid line
 72
    65
 73
     0
 40
0.0
  0
LTYPE
  5
4AEB
330
4958
100
AcDbSymbolTableRecord
100
AcDbLinetypeTableRecord
  2
CENTER
 70
     0
  3
____ _ ____ _ ____ _ ____ _ ____ _ ____ _ ____ 
 72
    65
 73
     4
 40
2.0
 49
1.25
 74
     0
 49
-0.25
 74
     0
 49
0.25
 74
     0
 49
-0.25
 74
     0
  0
LTYPE
  5
4AEC
330
4958
100
AcDbSymbolTableRecord
100
AcDbLinetypeTableRecord
  2
PHANTOM2
 70
     0
  3
Phantom (.5x) ___ _ _ ___ _ _ ___ _ _ ___ _ _
 72
    65
 73
     6
 40
31.75
 49
15.875
 74
     0
 49
-3.174999999999998
 74
     0
 49
3.174999999999998
 74
     0
 49
-3.174999999999998
 74
     0
 49
3.174999999999998
 74
     0
 49
-3.174999999999998
 74
     0
  0
LTYPE
  5
4AED
330
4958
100
AcDbSymbolTableRecord
100
AcDbLinetypeTableRecord
  2
PHANTOM
 70
     0
  3
______  __  __  ______  __  __  ______  __  __ 
 72
    65
 73
     6
 40
2.5
 49
1.25
 74
     0
 49
-0.25
 74
     0
 49
0.25
 74
     0
 49
-0.25
 74
     0
 49
0.25
 74
     0
 49
-0.25
 74
     0
  0
ENDTAB
  0
TABLE
  2
LAYER
  5
4955
102
{ACAD_XDICTIONARY
360
4AF8
102
}
330
0
100
AcDbSymbolTable
 70
    10
  0
LAYER
  5
49A7
102
{ACAD_XDICTIONARY
360
594F
102
}
330
4955
100
AcDbSymbolTableRecord
100
AcDbLayerTableRecord
  2
0
 70
     0
 62
     7
  6
CONTINUOUS
370
    -3
390
4962
  0
LAYER
  5
49C7
102
{ACAD_XDICTIONARY
360
5951
102
}
330
4955
100
AcDbSymbolTableRecord
100
AcDbLayerTableRecord
  2
1外形線
 70
     0
 62
     3
  6
CONTINUOUS
370
    -3
390
4962
  0
LAYER
  5
4AEE
102
{ACAD_XDICTIONARY
360
4AEF
102
}
330
4955
100
AcDbSymbolTableRecord
100
AcDbLayerTableRecord
  2
4寸法線
 70
     0
 62
     2
  6
CONTINUOUS
370
    -3
390
4962
  0
LAYER
  5
4AF0
102
{ACAD_XDICTIONARY
360
4AF1
102
}
330
4955
100
AcDbSymbolTableRecord
100
AcDbLayerTableRecord
  2
5図枠
 70
     0
 62
     7
  6
CONTINUOUS
370
    -3
390
4962
  0
LAYER
  5
4AF2
330
4955
100
AcDbSymbolTableRecord
100
AcDbLayerTableRecord
  2
DEFPOINTS
 70
     0
 62
     7
  6
CONTINUOUS
290
     0
370
    -3
390
4962
  0
LAYER
  5
4AF3
102
{ACAD_XDICTIONARY
360
4AF4
102
}
330
4955
100
AcDbSymbolTableRecord
100
AcDbLayerTableRecord
  2
2\U+FF76\U+FF8A\U+FF9E\U+FF70
 70
     0
 62
     3
  6
CONTINUOUS
370
    -3
390
4962
  0
LAYER
  5
5103
102
{ACAD_XDICTIONARY
360
5104
102
}
330
4955
100
AcDbSymbolTableRecord
100
AcDbLayerTableRecord
  2
2\U+FF8D\U+FF9E\U+FF70\U+FF7D
 70
     0
 62
     7
  6
CONTINUOUS
370
    -3
390
4962
  0
LAYER
  5
5105
102
{ACAD_XDICTIONARY
360
5106
102
}
330
4955
100
AcDbSymbolTableRecord
100
AcDbLayerTableRecord
  2
1\U+FF80\U+FF9E\U+FF78\U+FF84\U+FF8D\U+FF9E\U+FF70\U+FF7D
 70
     0
 62
     3
  6
CONTINUOUS
370
    -3
390
4962
  0
LAYER
  5
5A1F
102
{ACAD_XDICTIONARY
360
5A20
102
}
330
4955
100
AcDbSymbolTableRecord
100
AcDbLayerTableRecord
  2
2寸法線
 70
     0
 62
     2
  6
CONTINUOUS
370
    -3
390
4962
  0
LAYER
  5
5C6B
102
{ACAD_XDICTIONARY
360
5C6C
102
}
330
4955
100
AcDbSymbolTableRecord
100
AcDbLayerTableRecord
  2
3補助線
 70
     0
 62
     4
  6
CONTINUOUS
370
    -3
390
4962
  0
ENDTAB
  0
TABLE
  2
STYLE
  5
4956
330
0
100
AcDbSymbolTable
 70
     3
  0
STYLE
  5
49A8
330
4956
100
AcDbSymbolTableRecord
100
AcDbTextStyleTableRecord
  2
STANDARD
 70
     0
 40
0.0
 41
1.0
 50
0.0
 71
     0
 42
2.5
  3
txt
  4

  0
STYLE
  5
49AC
330
4956
100
AcDbSymbolTableRecord
100
AcDbTextStyleTableRecord
  2
Annotative
 70
     0
 40
0.0
 41
1.0
 50
0.0
 71
     0
 42
0.2
  3
txt
  4

1001
AcadAnnotative
1000
AnnotativeData
1002
{
1070
     1
1070
     1
1002
}
  0
STYLE
  5
49C8
330
4956
100
AcDbSymbolTableRecord
100
AcDbTextStyleTableRecord
  2
KANJI
 70
     0
 40
0.0
 41
1.0
 50
0.0
 71
     0
 42
10.0
  3
simplex
  4
bigfont
  0
ENDTAB
  0
TABLE
  2
VIEW
  5
4959
330
0
100
AcDbSymbolTable
 70
     0
  0
ENDTAB
  0
TABLE
  2
UCS
  5
495A
330
0
100
AcDbSymbolTable
 70
     0
  0
ENDTAB
  0
TABLE
  2
APPID
  5
495C
330
0
100
AcDbSymbolTable
 70
     7
  0
APPID
  5
49A9
330
495C
100
AcDbSymbolTableRecord
100
AcDbRegAppTableRecord
  2
ACAD
 70
     0
  0
APPID
  5
49B0
330
495C
100
AcDbSymbolTableRecord
100
AcDbRegAppTableRecord
  2
AcadAnnotative
 70
     0
  0
APPID
  5
4AF5
330
495C
100
AcDbSymbolTableRecord
100
AcDbRegAppTableRecord
  2
ACAD_PSEXT
 70
     0
  0
APPID
  5
4AF6
330
495C
100
AcDbSymbolTableRecord
100
AcDbRegAppTableRecord
  2
ACAD_NAV_VCDISPLAY
 70
     0
  0
APPID
  5
4AF7
330
495C
100
AcDbSymbolTableRecord
100
AcDbRegAppTableRecord
  2
Acad_TC
 70
     0
  0
APPID
  5
58D2
330
495C
100
AcDbSymbolTableRecord
100
AcDbRegAppTableRecord
  2
ACAD_EXEMPT_FROM_CAD_STANDARDS
 70
     0
  0
APPID
  5
60EE
330
495C
100
AcDbSymbolTableRecord
100
AcDbRegAppTableRecord
  2
ACAD_MLEADERVER
 70
     0
  0
ENDTAB
  0
TABLE
  2
DIMSTYLE
  5
495D
330
0
100
AcDbSymbolTable
 70
     9
100
AcDbDimStyleTable
 71
     1
340
49C9
  0
DIMSTYLE
105
49AA
330
495D
100
AcDbSymbolTableRecord
100
AcDbDimStyleTableRecord
  2
STANDARD
 70
     0
 41
1.0
 42
1.0
 43
6.0
 44
1.0
 73
     0
 74
     0
 77
     1
 78
     8
140
2.5
141
0.0
147
0.5
172
     1
173
     1
274
     3
279
     2
284
     8
285
     8
286
     8
340
49A8
  0
DIMSTYLE
105
49AB
330
495D
100
AcDbSymbolTableRecord
100
AcDbDimStyleTableRecord
  2
Annotative
 70
     0
340
49A8
1001
AcadAnnotative
1000
AnnotativeData
1002
{
1070
     1
1070
     1
1002
}
  0
DIMSTYLE
105
49C9
330
495D
100
AcDbSymbolTableRecord
100
AcDbDimStyleTableRecord
  2
ISO-25
 70
     0
 41
2.5
 42
0.625
 43
3.75
 44
1.25
 73
     0
 74
     0
 77
     1
 78
     8
140
2.5
141
2.5
143
0.03937007874016
147
0.625
171
     3
172
     1
274
     3
279
     2
284
     8
285
     8
286
     8
340
49A8
  0
DIMSTYLE
105
5107
330
495D
100
AcDbSymbolTableRecord
100
AcDbDimStyleTableRecord
  2
STANDARD1
 70
     0
 41
1.0
 42
1.0
 43
6.0
 44
1.0
 73
     0
 74
     0
 77
     1
 78
     8
140
2.5
141
0.0
147
0.5
172
     1
173
     1
284
     8
285
     8
286
     8
340
49C8
341
4EAB
343
4EAB
344
4EAB
  0
DIMSTYLE
105
5A21
330
495D
100
AcDbSymbolTableRecord
100
AcDbDimStyleTableRecord
  2
STANDARD×（1／5）
 70
     0
 41
1.0
 42
1.0
 43
6.0
 44
1.0
 73
     0
 74
     0
 77
     1
 78
     8
140
2.5
141
0.0
144
0.2
147
0.5
172
     1
173
     1
284
     8
285
     8
286
     8
340
49C8
341
49D1
343
49D1
344
49D1
  0
DIMSTYLE
105
5A22
102
{ACAD_REACTORS
330
5A6F
330
5A70
330
5A74
102
}
330
495D
100
AcDbSymbolTableRecord
100
AcDbDimStyleTableRecord
  2
M
 70
     0
 40
0.0
 41
1.7
 42
1.0
 43
0.0
 44
1.0
 73
     0
 74
     0
 77
     1
 78
     8
140
2.5
141
0.0
147
0.5
172
     1
173
     1
284
     8
340
49C8
341
59F7
343
59F7
344
59F7
  0
DIMSTYLE
105
5A23
330
495D
100
AcDbSymbolTableRecord
100
AcDbDimStyleTableRecord
  2
因幡
 70
     0
 41
2.0
 42
0.6
 43
10.0
 44
1.0
 73
     0
 74
     0
 77
     1
 78
     8
140
2.0
141
2.5
143
0.03937007874016
147
0.625
171
     3
172
     1
176
     2
177
     2
178
     2
271
     2
272
     2
274
     3
283
     0
284
     8
340
49C8
  0
DIMSTYLE
105
5C6D
102
{ACAD_REACTORS
330
5CFC
330
5D19
330
5D1A
330
5D1B
330
5CDD
330
5CE4
330
5CE5
330
5CF8
102
}
330
495D
100
AcDbSymbolTableRecord
100
AcDbDimStyleTableRecord
  2
M$4
 70
     0
 40
0.0
 41
1.7
 42
1.0
 43
0.0
 44
1.0
 73
     0
 77
     1
 78
     8
140
4.0
141
0.0
147
0.5
173
     1
284
     8
340
49C8
341
59F7
343
59F7
344
59F7
  0
ENDTAB
  0
TABLE
  2
BLOCK_RECORD
  5
4954
330
0
100
AcDbSymbolTable
 70
    74
  0
BLOCK_RECORD
  5
49C2
330
4954
100
AcDbSymbolTableRecord
100
AcDbBlockTableRecord
  2
*Model_Space
340
49C5
  0
BLOCK_RECORD
  5
49BE
330
4954
100
AcDbSymbolTableRecord
100
AcDbBlockTableRecord
  2
*Paper_Space
340
49C1
  0
BLOCK_RECORD
  5
49CD
330
4954
100
AcDbSymbolTableRecord
100
AcDbBlockTableRecord
  2
$MODEL_SPACE
340
0
  0
BLOCK_RECORD
  5
49CF
330
4954
100
AcDbSymbolTableRecord
100
AcDbBlockTableRecord
  2
$PAPER_SPACE
340
0
  0
BLOCK_RECORD
  5
49D1
330
4954
100
AcDbSymbolTableRecord
100
AcDbBlockTableRecord
  2
1
340
0
  0
BLOCK_RECORD
  5
4EA7
330
4954
100
AcDbSymbolTableRecord
100
AcDbBlockTableRecord
  2
Y2
340
0
  0
BLOCK_RECORD
  5
4EAB
330
4954
100
AcDbSymbolTableRecord
100
AcDbBlockTableRecord
  2
Y1
340
0
  0
BLOCK_RECORD
  5
4EB0
330
4954
100
AcDbSymbolTableRecord
100
AcDbBlockTableRecord
  2
_DOT
340
0
  0
BLOCK_RECORD
  5
59E1
330
4954
100
AcDbSymbolTableRecord
100
AcDbBlockTableRecord
  2
*D6
340
0
  0
BLOCK_RECORD
  5
59F7
330
4954
100
AcDbSymbolTableRecord
100
AcDbBlockTableRecord
  2
2
340
0
102
{BLKREFS
331
5AF5
331
5AF6
331
5AFE
331
5AFF
331
5B07
331
5B08
331
5B2E
331
5B37
331
5B38
331
5B43
331
5B44
331
5B4F
331
5F8B
331
5F91
331
5F92
331
5F9A
331
5F9B
331
5FA3
331
5FA4
331
5FAE
331
5FAF
331
5FB7
331
5FB8
331
5FC2
331
5FC3
331
5FCD
331
5FCE
331
5FD9
331
5FE4
331
5FEE
331
5FEF
331
5FF7
331
5FFD
331
6003
331
5A00
331
5A01
331
5A0C
331
5A0D
331
5A18
331
5A19
331
5F18
331
5F1E
331
5F1F
331
5F27
331
5F2D
331
5F35
331
5F36
331
5F3F
331
5F40
331
5F4A
331
5F4B
331
5F53
331
5F54
331
5F5E
331
5F5F
331
5F67
331
5F6F
331
5F70
331
5F7A
331
5F7B
331
5F83
331
5F84
331
5C4A
331
5C4B
331
5C58
331
5C59
331
5C64
331
5C65
331
5B50
331
5B5D
331
5B5E
331
5B69
331
5B6A
331
5B77
331
5B78
331
5B85
331
5B86
331
5B94
331
5BA2
331
5BAF
331
5BB0
331
5BBB
331
5BC4
331
5BCD
331
5BD5
331
5BDE
331
5BDF
331
5BEA
331
5BF3
331
5BFE
331
5BFF
331
5C0B
331
5C0C
331
5C19
331
5C1A
331
5C25
331
5C26
331
5C33
331
5C34
331
5C3F
102
}
  0
BLOCK_RECORD
  5
59FB
330
4954
100
AcDbSymbolTableRecord
100
AcDbBlockTableRecord
  2
*D9
340
0
  0
BLOCK_RECORD
  5
5A07
330
4954
100
AcDbSymbolTableRecord
100
AcDbBlockTableRecord
  2
*D10
340
0
  0
BLOCK_RECORD
  5
5A13
330
4954
100
AcDbSymbolTableRecord
100
AcDbBlockTableRecord
  2
*D11
340
0
  0
BLOCK_RECORD
  5
5ACE
330
4954
100
AcDbSymbolTableRecord
100
AcDbBlockTableRecord
  2
*D13
340
0
  0
BLOCK_RECORD
  5
5ADA
330
4954
100
AcDbSymbolTableRecord
100
AcDbBlockTableRecord
  2
*D14
340
0
  0
BLOCK_RECORD
  5
5AE6
330
4954
100
AcDbSymbolTableRecord
100
AcDbBlockTableRecord
  2
*D15
340
0
  0
BLOCK_RECORD
  5
5B0D
330
4954
100
AcDbSymbolTableRecord
100
AcDbBlockTableRecord
  2
3
340
0
102
{BLKREFS
331
5FD8
331
5FE3
331
5B93
331
5BA1
102
}
  0
BLOCK_RECORD
  5
5B12
330
4954
100
AcDbSymbolTableRecord
100
AcDbBlockTableRecord
  2
A下
340
0
102
{BLKREFS
102
}
  0
BLOCK_RECORD
  5
5B1E
330
4954
100
AcDbSymbolTableRecord
100
AcDbBlockTableRecord
  2
Aダッシュ下
340
0
102
{BLKREFS
102
}
  0
BLOCK_RECORD
  5
5B2A
330
4954
100
AcDbSymbolTableRecord
100
AcDbBlockTableRecord
  2
*D19
340
0
  0
BLOCK_RECORD
  5
5B32
330
4954
100
AcDbSymbolTableRecord
100
AcDbBlockTableRecord
  2
*D20
340
0
  0
BLOCK_RECORD
  5
5B3E
330
4954
100
AcDbSymbolTableRecord
100
AcDbBlockTableRecord
  2
*D21
340
0
  0
BLOCK_RECORD
  5
5B4A
330
4954
100
AcDbSymbolTableRecord
100
AcDbBlockTableRecord
  2
*D22
340
0
  0
BLOCK_RECORD
  5
5B56
330
4954
100
AcDbSymbolTableRecord
100
AcDbBlockTableRecord
  2
*D23
340
0
  0
BLOCK_RECORD
  5
5B64
330
4954
100
AcDbSymbolTableRecord
100
AcDbBlockTableRecord
  2
*D24
340
0
  0
BLOCK_RECORD
  5
5B70
330
4954
100
AcDbSymbolTableRecord
100
AcDbBlockTableRecord
  2
*D25
340
0
  0
BLOCK_RECORD
  5
5B7E
330
4954
100
AcDbSymbolTableRecord
100
AcDbBlockTableRecord
  2
*D26
340
0
  0
BLOCK_RECORD
  5
5B8C
330
4954
100
AcDbSymbolTableRecord
100
AcDbBlockTableRecord
  2
*D27
340
0
  0
BLOCK_RECORD
  5
5B9A
330
4954
100
AcDbSymbolTableRecord
100
AcDbBlockTableRecord
  2
*D28
340
0
  0
BLOCK_RECORD
  5
5BA8
330
4954
100
AcDbSymbolTableRecord
100
AcDbBlockTableRecord
  2
*D29
340
0
  0
BLOCK_RECORD
  5
5BB6
330
4954
100
AcDbSymbolTableRecord
100
AcDbBlockTableRecord
  2
*D30
340
0
  0
BLOCK_RECORD
  5
5BBF
330
4954
100
AcDbSymbolTableRecord
100
AcDbBlockTableRecord
  2
*D31
340
0
  0
BLOCK_RECORD
  5
5BC8
330
4954
100
AcDbSymbolTableRecord
100
AcDbBlockTableRecord
  2
*D32
340
0
  0
BLOCK_RECORD
  5
5BD1
330
4954
100
AcDbSymbolTableRecord
100
AcDbBlockTableRecord
  2
*D33
340
0
  0
BLOCK_RECORD
  5
5BD9
330
4954
100
AcDbSymbolTableRecord
100
AcDbBlockTableRecord
  2
*D34
340
0
  0
BLOCK_RECORD
  5
5BE5
330
4954
100
AcDbSymbolTableRecord
100
AcDbBlockTableRecord
  2
*D35
340
0
  0
BLOCK_RECORD
  5
5BEE
330
4954
100
AcDbSymbolTableRecord
100
AcDbBlockTableRecord
  2
*D36
340
0
  0
BLOCK_RECORD
  5
5BF7
330
4954
100
AcDbSymbolTableRecord
100
AcDbBlockTableRecord
  2
*D37
340
0
  0
BLOCK_RECORD
  5
5C05
330
4954
100
AcDbSymbolTableRecord
100
AcDbBlockTableRecord
  2
*D38
340
0
  0
BLOCK_RECORD
  5
5C12
330
4954
100
AcDbSymbolTableRecord
100
AcDbBlockTableRecord
  2
*D39
340
0
  0
BLOCK_RECORD
  5
5C20
330
4954
100
AcDbSymbolTableRecord
100
AcDbBlockTableRecord
  2
*D40
340
0
  0
BLOCK_RECORD
  5
5C2C
330
4954
100
AcDbSymbolTableRecord
100
AcDbBlockTableRecord
  2
*D41
340
0
  0
BLOCK_RECORD
  5
5C3A
330
4954
100
AcDbSymbolTableRecord
100
AcDbBlockTableRecord
  2
*D42
340
0
  0
BLOCK_RECORD
  5
5C43
330
4954
100
AcDbSymbolTableRecord
100
AcDbBlockTableRecord
  2
*D43
340
0
  0
BLOCK_RECORD
  5
5C51
330
4954
100
AcDbSymbolTableRecord
100
AcDbBlockTableRecord
  2
*D44
340
0
  0
BLOCK_RECORD
  5
5C5F
330
4954
100
AcDbSymbolTableRecord
100
AcDbBlockTableRecord
  2
*D45
340
0
  0
BLOCK_RECORD
  5
5DD5
330
4954
100
AcDbSymbolTableRecord
100
AcDbBlockTableRecord
  2
*D47
340
0
  0
BLOCK_RECORD
  5
5DDD
330
4954
100
AcDbSymbolTableRecord
100
AcDbBlockTableRecord
  2
*D48
340
0
  0
BLOCK_RECORD
  5
5DE9
330
4954
100
AcDbSymbolTableRecord
100
AcDbBlockTableRecord
  2
*D49
340
0
  0
BLOCK_RECORD
  5
5DF2
330
4954
100
AcDbSymbolTableRecord
100
AcDbBlockTableRecord
  2
*D50
340
0
  0
BLOCK_RECORD
  5
5DFB
330
4954
100
AcDbSymbolTableRecord
100
AcDbBlockTableRecord
  2
*D51
340
0
  0
BLOCK_RECORD
  5
5E09
330
4954
100
AcDbSymbolTableRecord
100
AcDbBlockTableRecord
  2
*D52
340
0
  0
BLOCK_RECORD
  5
5E16
330
4954
100
AcDbSymbolTableRecord
100
AcDbBlockTableRecord
  2
*D53
340
0
  0
BLOCK_RECORD
  5
5E24
330
4954
100
AcDbSymbolTableRecord
100
AcDbBlockTableRecord
  2
*D54
340
0
  0
BLOCK_RECORD
  5
5E30
330
4954
100
AcDbSymbolTableRecord
100
AcDbBlockTableRecord
  2
*D55
340
0
  0
BLOCK_RECORD
  5
5E3E
330
4954
100
AcDbSymbolTableRecord
100
AcDbBlockTableRecord
  2
*D56
340
0
  0
BLOCK_RECORD
  5
5E47
330
4954
100
AcDbSymbolTableRecord
100
AcDbBlockTableRecord
  2
*D57
340
0
  0
BLOCK_RECORD
  5
5E55
330
4954
100
AcDbSymbolTableRecord
100
AcDbBlockTableRecord
  2
*D58
340
0
  0
BLOCK_RECORD
  5
5E63
330
4954
100
AcDbSymbolTableRecord
100
AcDbBlockTableRecord
  2
*D59
340
0
  0
BLOCK_RECORD
  5
5E6F
330
4954
100
AcDbSymbolTableRecord
100
AcDbBlockTableRecord
  2
*D60
340
0
  0
BLOCK_RECORD
  5
5E77
330
4954
100
AcDbSymbolTableRecord
100
AcDbBlockTableRecord
  2
*D61
340
0
  0
BLOCK_RECORD
  5
5E83
330
4954
100
AcDbSymbolTableRecord
100
AcDbBlockTableRecord
  2
*D62
340
0
  0
BLOCK_RECORD
  5
5E8F
330
4954
100
AcDbSymbolTableRecord
100
AcDbBlockTableRecord
  2
*D63
340
0
  0
BLOCK_RECORD
  5
5E9B
330
4954
100
AcDbSymbolTableRecord
100
AcDbBlockTableRecord
  2
*D64
340
0
  0
BLOCK_RECORD
  5
5EA9
330
4954
100
AcDbSymbolTableRecord
100
AcDbBlockTableRecord
  2
*D65
340
0
  0
BLOCK_RECORD
  5
5EB5
330
4954
100
AcDbSymbolTableRecord
100
AcDbBlockTableRecord
  2
*D66
340
0
  0
BLOCK_RECORD
  5
5EC3
330
4954
100
AcDbSymbolTableRecord
100
AcDbBlockTableRecord
  2
*D67
340
0
  0
BLOCK_RECORD
  5
5ED1
330
4954
100
AcDbSymbolTableRecord
100
AcDbBlockTableRecord
  2
*D68
340
0
  0
BLOCK_RECORD
  5
5EDF
330
4954
100
AcDbSymbolTableRecord
100
AcDbBlockTableRecord
  2
*D69
340
0
  0
BLOCK_RECORD
  5
5EED
330
4954
100
AcDbSymbolTableRecord
100
AcDbBlockTableRecord
  2
*D70
340
0
  0
BLOCK_RECORD
  5
5EFB
330
4954
100
AcDbSymbolTableRecord
100
AcDbBlockTableRecord
  2
*D71
340
0
  0
BLOCK_RECORD
  5
5F04
330
4954
100
AcDbSymbolTableRecord
100
AcDbBlockTableRecord
  2
*D72
340
0
  0
BLOCK_RECORD
  5
5F0D
330
4954
100
AcDbSymbolTableRecord
100
AcDbBlockTableRecord
  2
*D73
340
0
  0
ENDTAB
  0
ENDSEC
  0
SECTION
  2
BLOCKS
  0
BLOCK
  5
49C3
330
49C2
100
AcDbEntity
  8
0
100
AcDbBlockBegin
  2
*Model_Space
 70
     0
 10
0.0
 20
0.0
 30
0.0
  3
*Model_Space
  1

  0
ENDBLK
  5
49C4
330
49C2
100
AcDbEntity
  8
0
100
AcDbBlockEnd
  0
BLOCK
  5
49BF
330
49BE
100
AcDbEntity
 67
     1
  8
0
100
AcDbBlockBegin
  2
*Paper_Space
 70
     0
 10
0.0
 20
0.0
 30
0.0
  3
*Paper_Space
  1

  0
ENDBLK
  5
49C0
330
49BE
100
AcDbEntity
 67
     1
  8
0
100
AcDbBlockEnd
  0
BLOCK
  5
49CE
330
49CD
100
AcDbEntity
  8
0
100
AcDbBlockBegin
  2
$MODEL_SPACE
 70
     0
 10
0.0
 20
0.0
 30
0.0
  3
$MODEL_SPACE
  1

  0
ENDBLK
  5
21
330
49CD
100
AcDbEntity
  8
0
100
AcDbBlockEnd
  0
BLOCK
  5
49D0
330
49CF
100
AcDbEntity
  8
0
100
AcDbBlockBegin
  2
$PAPER_SPACE
 70
     0
 10
0.0
 20
0.0
 30
0.0
  3
$PAPER_SPACE
  1

  0
ENDBLK
  5
1D
330
49CF
100
AcDbEntity
  8
0
100
AcDbBlockEnd
  0
BLOCK
  5
49D2
330
49D1
100
AcDbEntity
  8
0
100
AcDbBlockBegin
  2
1
 70
     0
 10
0.0
 20
0.0
 30
0.0
  3
1
  1

  0
SOLID
  5
2C
330
49D1
100
AcDbEntity
  8
0
  6
ByBlock
 62
     0
100
AcDbTrace
 10
-1.81111092429205
 20
0.4852857095671653
 30
0.0
 11
-1.81111092429205
 21
-0.4852857095673643
 31
0.0
 12
0.0
 22
0.0
 32
0.0
 13
0.0
 23
0.0
 33
0.0
  0
ENDBLK
  5
2E
330
49D1
100
AcDbEntity
  8
0
100
AcDbBlockEnd
  0
BLOCK
  5
4EA8
330
4EA7
100
AcDbEntity
  8
0
 48
2.0
100
AcDbBlockBegin
  2
Y2
 70
     0
 10
0.0
 20
0.0
 30
0.0
  3
Y2
  1

  0
SOLID
  5
4EA9
330
4EA7
100
AcDbEntity
  8
0
  6
ByBlock
 62
     0
100
AcDbTrace
 10
-1.811110924292108
 20
0.485285709567151
 30
0.0
 11
-1.811110924292108
 21
-0.4852857095673784
 31
0.0
 12
-0.0000000000000568
 22
-0.0000000000000142
 32
0.0
 13
-0.0000000000000568
 23
-0.0000000000000142
 33
0.0
  0
ENDBLK
  5
4EAA
330
4EA7
100
AcDbEntity
  8
0
 48
2.0
100
AcDbBlockEnd
  0
BLOCK
  5
4EAC
330
4EAB
100
AcDbEntity
  8
0
 48
2.0
100
AcDbBlockBegin
  2
Y1
 70
     0
 10
0.0
 20
0.0
 30
0.0
  3
Y1
  1

  0
LINE
  5
4EAD
330
4EAB
100
AcDbEntity
  8
0
  6
ByBlock
 62
     0
 48
2.0
100
AcDbLine
 10
-4.000000000000055
 20
-0.0000000000000142
 30
0.0
 11
-0.0000000000000568
 21
0.0
 31
0.0
  0
SOLID
  5
4EAE
330
4EAB
100
AcDbEntity
  8
0
  6
ByBlock
 62
     0
100
AcDbTrace
 10
-1.811110924292108
 20
0.485285709567151
 30
0.0
 11
-1.811110924292108
 21
-0.4852857095673784
 31
0.0
 12
-0.0000000000000568
 22
-0.0000000000000142
 32
0.0
 13
-0.0000000000000568
 23
-0.0000000000000142
 33
0.0
  0
ENDBLK
  5
4EAF
330
4EAB
100
AcDbEntity
  8
0
 48
2.0
100
AcDbBlockEnd
  0
BLOCK
  5
4EB1
330
4EB0
100
AcDbEntity
  8
0
 48
2.0
100
AcDbBlockBegin
  2
_DOT
 70
     0
 10
0.0
 20
0.0
 30
0.0
  3
_DOT
  1

  0
LWPOLYLINE
  5
4EB2
330
4EB0
100
AcDbEntity
  8
0
  6
ByBlock
 62
     0
 48
2.0
100
AcDbPolyline
 90
        2
 70
     1
 43
0.5
 10
-0.25
 20
0.0
 42
1.0
 10
0.25
 20
0.0
 42
1.0
  0
LINE
  5
4EB3
330
4EB0
100
AcDbEntity
  8
0
  6
ByBlock
 62
     0
 48
2.0
100
AcDbLine
 10
-0.5
 20
0.0
 30
0.0
 11
-1.0
 21
0.0
 31
0.0
  0
ENDBLK
  5
4EB4
330
4EB0
100
AcDbEntity
  8
0
 48
2.0
100
AcDbBlockEnd
  0
BLOCK
  5
59E2
330
59E1
100
AcDbEntity
  8
0
100
AcDbBlockBegin
  2
*D6
 70
     1
 10
0.0
 20
0.0
 30
0.0
  3
*D6
  1

  0
LINE
  5
59E4
330
59E1
100
AcDbEntity
  8
0
 62
     0
370
    -2
100
AcDbLine
 10
491.3784367913359
 20
357.7298807095306
 30
0.0
 11
491.3784367913359
 21
354.8236023351319
 31
0.0
  0
LINE
  5
59E5
330
59E1
100
AcDbEntity
  8
0
 62
     0
370
    -2
100
AcDbLine
 10
647.3784367913431
 20
357.7298807095318
 30
0.0
 11
647.3784367913431
 21
354.8236023351319
 31
0.0
  0
LINE
  5
59E6
330
59E1
100
AcDbEntity
  8
0
 62
     0
370
    -2
100
AcDbLine
 10
493.8784367913359
 20
356.0736023351319
 30
0.0
 11
644.8784367913431
 21
356.0736023351319
 31
0.0
  0
SOLID
  5
59E7
330
59E1
100
AcDbEntity
  8
0
 62
     0
100
AcDbTrace
 10
493.8784367913359
 20
356.4902690017986
 30
0.0
 11
493.8784367913359
 21
355.6569356684652
 31
0.0
 12
491.3784367913359
 22
356.0736023351319
 32
0.0
 13
491.3784367913359
 23
356.0736023351319
 33
0.0
  0
SOLID
  5
59E8
330
59E1
100
AcDbEntity
  8
0
 62
     0
100
AcDbTrace
 10
644.8784367913431
 20
356.4902690017986
 30
0.0
 11
644.8784367913431
 21
355.6569356684652
 31
0.0
 12
647.3784367913431
 22
356.0736023351319
 32
0.0
 13
647.3784367913431
 23
356.0736023351319
 33
0.0
  0
MTEXT
  5
59E9
330
59E1
100
AcDbEntity
  8
0
 62
     0
100
AcDbMText
 10
569.3784367913394
 20
357.9486023351319
 30
0.0
 40
2.5
 41
0.0
 71
     5
 72
     1
  1
\A1;156
 73
     1
 44
1.0
1001
ACAD
1000
MTEXTBEGIN
1070
    73
1070
     1
1070
    44
1040
1.0
1070
    74
1070
     0
1000
MTEXTEND
  0
POINT
  5
59EA
330
59E1
100
AcDbEntity
  8
DEFPOINTS
 62
     0
100
AcDbPoint
 10
491.3784367913359
 20
358.3548807095306
 30
0.0
  0
POINT
  5
59EB
330
59E1
100
AcDbEntity
  8
DEFPOINTS
 62
     0
100
AcDbPoint
 10
647.3784367913431
 20
358.3548807095318
 30
0.0
  0
POINT
  5
59EC
330
59E1
100
AcDbEntity
  8
DEFPOINTS
 62
     0
100
AcDbPoint
 10
647.3784367913431
 20
356.0736023351319
 30
0.0
  0
ENDBLK
  5
59E3
330
59E1
100
AcDbEntity
  8
0
100
AcDbBlockEnd
  0
BLOCK
  5
59F8
330
59F7
100
AcDbEntity
  8
0
 48
3.0
100
AcDbBlockBegin
  2
2
 70
     0
 10
0.0
 20
0.0
 30
0.0
  3
2
  1

  0
HATCH
  5
59F9
330
59F7
100
AcDbEntity
  8
0
  6
ByBlock
 62
     0
 48
3.0
380
     1
100
AcDbHatch
 10
0.0
 20
0.0
 30
0.0
210
0.0
220
0.0
230
1.0
  2
SOLID
 70
     1
 71
     0
 91
        1
 92
        1
 93
        3
 72
     1
 10
-0.9999999999983515
 20
0.2679491924306774
 11
0.0
 21
0.0
 72
     1
 10
0.0
 20
0.0
 11
-0.9999999999983515
 21
-0.2679491924306765
 72
     1
 10
-0.9999999999983524
 20
-0.267949192430676
 11
-0.9999999999983524
 21
0.2679491924306774
 97
        0
 75
     0
 76
     1
 98
        1
 10
2.995745117231336
 20
-4.124946096263201
  0
ENDBLK
  5
59FA
330
59F7
100
AcDbEntity
  8
0
 48
3.0
100
AcDbBlockEnd
  0
BLOCK
  5
59FC
330
59FB
100
AcDbEntity
  8
0
100
AcDbBlockBegin
  2
*D9
 70
     1
 10
0.0
 20
0.0
 30
0.0
  3
*D9
  1

  0
LINE
  5
59FD
330
59FB
100
AcDbEntity
  8
2寸法線
 62
     0
370
    -2
100
AcDbLine
 10
12734.83660225333
 20
-5363.802601684382
 30
0.0
 11
12734.83660225333
 21
-5401.146551254682
 31
0.0
  0
LINE
  5
59FE
330
59FB
100
AcDbEntity
  8
2寸法線
 62
     0
370
    -2
100
AcDbLine
 10
12743.83660225333
 20
-5363.802601684382
 30
0.0
 11
12743.83660225333
 21
-5401.146551254682
 31
0.0
  0
LINE
  5
59FF
330
59FB
100
AcDbEntity
  8
2寸法線
 62
     0
370
    -2
100
AcDbLine
 10
12736.63660225333
 20
-5400.146551254682
 30
0.0
 11
12742.03660225333
 21
-5400.146551254682
 31
0.0
  0
INSERT
  5
5A00
330
59FB
100
AcDbEntity
  8
2寸法線
 62
     0
370
    -2
100
AcDbBlockReference
  2
2
 10
12734.83660225333
 20
-5400.146551254682
 30
0.0
 41
1.8
 42
1.8
 43
1.8
 50
180.0
  0
INSERT
  5
5A01
330
59FB
100
AcDbEntity
  8
2寸法線
 62
     0
370
    -2
100
AcDbBlockReference
  2
2
 10
12743.83660225333
 20
-5400.146551254682
 30
0.0
 41
1.8
 42
1.8
 43
1.8
  0
MTEXT
  5
5A02
330
59FB
100
AcDbEntity
  8
2寸法線
 62
     0
100
AcDbMText
 10
12739.30967918209
 20
-5398.146551254682
 30
0.0
 40
3.0
 41
0.0
 71
     5
 72
     1
  1
\A1;9
  7
KANJI
 73
     1
 44
1.0
1001
ACAD
1000
MTEXTBEGIN
1070
    73
1070
     1
1070
    44
1040
1.0
1070
    74
1070
     0
1000
MTEXTEND
  0
POINT
  5
5A03
330
59FB
100
AcDbEntity
  8
DEFPOINTS
 62
     0
100
AcDbPoint
 10
12734.83660225333
 20
-5362.802601684382
 30
0.0
  0
POINT
  5
5A04
330
59FB
100
AcDbEntity
  8
DEFPOINTS
 62
     0
100
AcDbPoint
 10
12743.83660225333
 20
-5362.802601684382
 30
0.0
  0
POINT
  5
5A05
330
59FB
100
AcDbEntity
  8
DEFPOINTS
 62
     0
100
AcDbPoint
 10
12743.83660225333
 20
-5400.146551254682
 30
0.0
  0
ENDBLK
  5
5A06
330
59FB
100
AcDbEntity
  8
0
100
AcDbBlockEnd
  0
BLOCK
  5
5A08
330
5A07
100
AcDbEntity
  8
0
100
AcDbBlockBegin
  2
*D10
 70
     1
 10
0.0
 20
0.0
 30
0.0
  3
*D10
  1

  0
LINE
  5
5A09
330
5A07
100
AcDbEntity
  8
2寸法線
 62
     0
370
    -2
100
AcDbLine
 10
12713.83660225333
 20
-5377.802601684382
 30
0.0
 11
12713.83660225333
 21
-5401.146551254682
 31
0.0
  0
LINE
  5
5A0A
330
5A07
100
AcDbEntity
  8
2寸法線
 62
     0
370
    -2
100
AcDbLine
 10
12734.83660225333
 20
-5363.802601684382
 30
0.0
 11
12734.83660225333
 21
-5401.146551254682
 31
0.0
  0
LINE
  5
5A0B
330
5A07
100
AcDbEntity
  8
2寸法線
 62
     0
370
    -2
100
AcDbLine
 10
12715.63660225333
 20
-5400.146551254682
 30
0.0
 11
12733.03660225333
 21
-5400.146551254682
 31
0.0
  0
INSERT
  5
5A0C
330
5A07
100
AcDbEntity
  8
2寸法線
 62
     0
370
    -2
100
AcDbBlockReference
  2
2
 10
12713.83660225333
 20
-5400.146551254682
 30
0.0
 41
1.8
 42
1.8
 43
1.8
 50
180.0
  0
INSERT
  5
5A0D
330
5A07
100
AcDbEntity
  8
2寸法線
 62
     0
370
    -2
100
AcDbBlockReference
  2
2
 10
12734.83660225333
 20
-5400.146551254682
 30
0.0
 41
1.8
 42
1.8
 43
1.8
  0
MTEXT
  5
5A0E
330
5A07
100
AcDbEntity
  8
2寸法線
 62
     0
100
AcDbMText
 10
12724.33660225333
 20
-5398.146551254682
 30
0.0
 40
3.0
 41
0.0
 71
     5
 72
     1
  1
\A1;21
  7
KANJI
 73
     1
 44
1.0
1001
ACAD
1000
MTEXTBEGIN
1070
    73
1070
     1
1070
    44
1040
1.0
1070
    74
1070
     0
1000
MTEXTEND
  0
POINT
  5
5A0F
330
5A07
100
AcDbEntity
  8
DEFPOINTS
 62
     0
100
AcDbPoint
 10
12713.83660225333
 20
-5376.802601684381
 30
0.0
  0
POINT
  5
5A10
330
5A07
100
AcDbEntity
  8
DEFPOINTS
 62
     0
100
AcDbPoint
 10
12734.83660225333
 20
-5362.802601684382
 30
0.0
  0
POINT
  5
5A11
330
5A07
100
AcDbEntity
  8
DEFPOINTS
 62
     0
100
AcDbPoint
 10
12734.83660225333
 20
-5400.146551254682
 30
0.0
  0
ENDBLK
  5
5A12
330
5A07
100
AcDbEntity
  8
0
100
AcDbBlockEnd
  0
BLOCK
  5
5A14
330
5A13
100
AcDbEntity
  8
0
100
AcDbBlockBegin
  2
*D11
 70
     1
 10
0.0
 20
0.0
 30
0.0
  3
*D11
  1

  0
LINE
  5
5A15
330
5A13
100
AcDbEntity
  8
2寸法線
 62
     0
370
    -2
100
AcDbLine
 10
12758.83660225333
 20
-5350.302601684383
 30
0.0
 11
12754.95912465673
 21
-5350.302601684383
 31
0.0
  0
LINE
  5
5A16
330
5A13
100
AcDbEntity
  8
2寸法線
 62
     0
370
    -2
100
AcDbLine
 10
12758.83660225333
 20
-5375.302601684381
 30
0.0
 11
12754.95912465673
 21
-5375.302601684381
 31
0.0
  0
LINE
  5
5A17
330
5A13
100
AcDbEntity
  8
2寸法線
 62
     0
370
    -2
100
AcDbLine
 10
12755.95912465673
 20
-5352.102601684383
 30
0.0
 11
12755.95912465673
 21
-5373.502601684381
 31
0.0
  0
INSERT
  5
5A18
330
5A13
100
AcDbEntity
  8
2寸法線
 62
     0
370
    -2
100
AcDbBlockReference
  2
2
 10
12755.95912465673
 20
-5350.302601684383
 30
0.0
 41
1.8
 42
1.8
 43
1.8
 50
90.0
  0
INSERT
  5
5A19
330
5A13
100
AcDbEntity
  8
2寸法線
 62
     0
370
    -2
100
AcDbBlockReference
  2
2
 10
12755.95912465673
 20
-5375.302601684381
 30
0.0
 41
1.8
 42
1.8
 43
1.8
 50
270.0
  0
MTEXT
  5
5A1A
330
5A13
100
AcDbEntity
  8
2寸法線
 62
     0
100
AcDbMText
 10
12753.95912465673
 20
-5362.802601684382
 30
0.0
 40
3.0
 41
0.0
 71
     5
 72
     1
  1
\A1;（25）
  7
KANJI
 11
0.0000000000000001
 21
1.0
 31
0.0
 73
     1
 44
1.0
1001
ACAD
1000
MTEXTBEGIN
1070
    73
1070
     1
1070
    44
1040
1.0
1070
    74
1070
     0
1000
MTEXTEND
  0
POINT
  5
5A1B
330
5A13
100
AcDbEntity
  8
DEFPOINTS
 62
     0
100
AcDbPoint
 10
12759.83660225333
 20
-5350.302601684383
 30
0.0
  0
POINT
  5
5A1C
330
5A13
100
AcDbEntity
  8
DEFPOINTS
 62
     0
100
AcDbPoint
 10
12759.83660225333
 20
-5375.302601684381
 30
0.0
  0
POINT
  5
5A1D
330
5A13
100
AcDbEntity
  8
DEFPOINTS
 62
     0
100
AcDbPoint
 10
12755.95912465673
 20
-5375.302601684381
 30
0.0
  0
ENDBLK
  5
5A1E
330
5A13
100
AcDbEntity
  8
0
100
AcDbBlockEnd
  0
BLOCK
  5
5ACF
330
5ACE
100
AcDbEntity
  8
0
100
AcDbBlockBegin
  2
*D13
 70
     1
 10
0.0
 20
0.0
 30
0.0
  3
*D13
  1

  0
LINE
  5
5AF2
330
5ACE
100
AcDbEntity
  8
2寸法線
 62
     0
370
    -2
100
AcDbLine
 10
1007.069294832021
 20
317.3362365323501
 30
0.0
 11
1007.069294832021
 21
279.9922869620496
 31
0.0
  0
LINE
  5
5AF3
330
5ACE
100
AcDbEntity
  8
2寸法線
 62
     0
370
    -2
100
AcDbLine
 10
1016.069294832021
 20
317.3362365323501
 30
0.0
 11
1016.069294832021
 21
279.9922869620496
 31
0.0
  0
LINE
  5
5AF4
330
5ACE
100
AcDbEntity
  8
2寸法線
 62
     0
370
    -2
100
AcDbLine
 10
1008.869294832021
 20
280.9922869620495
 30
0.0
 11
1014.269294832021
 21
280.9922869620495
 31
0.0
  0
INSERT
  5
5AF5
330
5ACE
100
AcDbEntity
  8
2寸法線
 62
     0
370
    -2
100
AcDbBlockReference
  2
2
 10
1007.069294832021
 20
280.9922869620495
 30
0.0
 41
1.8
 42
1.8
 43
1.8
 50
180.0
  0
INSERT
  5
5AF6
330
5ACE
100
AcDbEntity
  8
2寸法線
 62
     0
370
    -2
100
AcDbBlockReference
  2
2
 10
1016.069294832021
 20
280.9922869620495
 30
0.0
 41
1.8
 42
1.8
 43
1.8
  0
MTEXT
  5
5AF7
330
5ACE
100
AcDbEntity
  8
2寸法線
 62
     0
100
AcDbMText
 10
1011.542371760781
 20
282.7422869620495
 30
0.0
 40
2.5
 41
0.0
 71
     5
 72
     1
  1
\A1;9
  7
KANJI
 73
     1
 44
1.0
1001
ACAD
1000
MTEXTBEGIN
1070
    73
1070
     1
1070
    44
1040
1.0
1070
    74
1070
     0
1000
MTEXTEND
  0
POINT
  5
5AF8
330
5ACE
100
AcDbEntity
  8
DEFPOINTS
 62
     0
100
AcDbPoint
 10
1007.069294832021
 20
318.3362365323501
 30
0.0
  0
POINT
  5
5AF9
330
5ACE
100
AcDbEntity
  8
DEFPOINTS
 62
     0
100
AcDbPoint
 10
1016.069294832021
 20
318.3362365323501
 30
0.0
  0
POINT
  5
5AFA
330
5ACE
100
AcDbEntity
  8
DEFPOINTS
 62
     0
100
AcDbPoint
 10
1016.069294832021
 20
280.9922869620495
 30
0.0
  0
ENDBLK
  5
5AD0
330
5ACE
100
AcDbEntity
  8
0
100
AcDbBlockEnd
  0
BLOCK
  5
5ADB
330
5ADA
100
AcDbEntity
  8
0
100
AcDbBlockBegin
  2
*D14
 70
     1
 10
0.0
 20
0.0
 30
0.0
  3
*D14
  1

  0
LINE
  5
5AFB
330
5ADA
100
AcDbEntity
  8
2寸法線
 62
     0
370
    -2
100
AcDbLine
 10
986.0692948320211
 20
303.3362365323501
 30
0.0
 11
986.0692948320211
 21
279.9922869620496
 31
0.0
  0
LINE
  5
5AFC
330
5ADA
100
AcDbEntity
  8
2寸法線
 62
     0
370
    -2
100
AcDbLine
 10
1007.069294832021
 20
317.3362365323501
 30
0.0
 11
1007.069294832021
 21
279.9922869620496
 31
0.0
  0
LINE
  5
5AFD
330
5ADA
100
AcDbEntity
  8
2寸法線
 62
     0
370
    -2
100
AcDbLine
 10
987.869294832021
 20
280.9922869620495
 30
0.0
 11
1005.269294832021
 21
280.9922869620495
 31
0.0
  0
INSERT
  5
5AFE
330
5ADA
100
AcDbEntity
  8
2寸法線
 62
     0
370
    -2
100
AcDbBlockReference
  2
2
 10
986.0692948320211
 20
280.9922869620495
 30
0.0
 41
1.8
 42
1.8
 43
1.8
 50
180.0
  0
INSERT
  5
5AFF
330
5ADA
100
AcDbEntity
  8
2寸法線
 62
     0
370
    -2
100
AcDbBlockReference
  2
2
 10
1007.069294832021
 20
280.9922869620495
 30
0.0
 41
1.8
 42
1.8
 43
1.8
  0
MTEXT
  5
5B00
330
5ADA
100
AcDbEntity
  8
2寸法線
 62
     0
100
AcDbMText
 10
996.569294832021
 20
282.7422869620495
 30
0.0
 40
2.5
 41
0.0
 71
     5
 72
     1
  1
\A1;21
  7
KANJI
 73
     1
 44
1.0
1001
ACAD
1000
MTEXTBEGIN
1070
    73
1070
     1
1070
    44
1040
1.0
1070
    74
1070
     0
1000
MTEXTEND
  0
POINT
  5
5B01
330
5ADA
100
AcDbEntity
  8
DEFPOINTS
 62
     0
100
AcDbPoint
 10
986.0692948320211
 20
304.3362365323501
 30
0.0
  0
POINT
  5
5B02
330
5ADA
100
AcDbEntity
  8
DEFPOINTS
 62
     0
100
AcDbPoint
 10
1007.069294832021
 20
318.3362365323501
 30
0.0
  0
POINT
  5
5B03
330
5ADA
100
AcDbEntity
  8
DEFPOINTS
 62
     0
100
AcDbPoint
 10
1007.069294832021
 20
280.9922869620495
 30
0.0
  0
ENDBLK
  5
5ADC
330
5ADA
100
AcDbEntity
  8
0
100
AcDbBlockEnd
  0
BLOCK
  5
5AE7
330
5AE6
100
AcDbEntity
  8
0
100
AcDbBlockBegin
  2
*D15
 70
     1
 10
0.0
 20
0.0
 30
0.0
  3
*D15
  1

  0
LINE
  5
5B04
330
5AE6
100
AcDbEntity
  8
2寸法線
 62
     0
370
    -2
100
AcDbLine
 10
1031.069294832019
 20
330.8362365323484
 30
0.0
 11
1027.191817235427
 21
330.8362365323484
 31
0.0
  0
LINE
  5
5B05
330
5AE6
100
AcDbEntity
  8
2寸法線
 62
     0
370
    -2
100
AcDbLine
 10
1031.069294832019
 20
305.8362365323502
 30
0.0
 11
1027.191817235427
 21
305.8362365323502
 31
0.0
  0
LINE
  5
5B06
330
5AE6
100
AcDbEntity
  8
2寸法線
 62
     0
370
    -2
100
AcDbLine
 10
1028.191817235427
 20
329.0362365323484
 30
0.0
 11
1028.191817235427
 21
307.6362365323502
 31
0.0
  0
INSERT
  5
5B07
330
5AE6
100
AcDbEntity
  8
2寸法線
 62
     0
370
    -2
100
AcDbBlockReference
  2
2
 10
1028.191817235427
 20
330.8362365323484
 30
0.0
 41
1.8
 42
1.8
 43
1.8
 50
90.0
  0
INSERT
  5
5B08
330
5AE6
100
AcDbEntity
  8
2寸法線
 62
     0
370
    -2
100
AcDbBlockReference
  2
2
 10
1028.191817235427
 20
305.8362365323502
 30
0.0
 41
1.8
 42
1.8
 43
1.8
 50
270.0
  0
MTEXT
  5
5B09
330
5AE6
100
AcDbEntity
  8
2寸法線
 62
     0
100
AcDbMText
 10
1026.441817235427
 20
318.3362365323501
 30
0.0
 40
2.5
 41
0.0
 71
     5
 72
     1
  1
\A1;（25）
  7
KANJI
 11
0.0000000000000001
 21
1.0
 31
0.0
 73
     1
 44
1.0
1001
ACAD
1000
MTEXTBEGIN
1070
    73
1070
     1
1070
    44
1040
1.0
1070
    74
1070
     0
1000
MTEXTEND
  0
POINT
  5
5B0A
330
5AE6
100
AcDbEntity
  8
DEFPOINTS
 62
     0
100
AcDbPoint
 10
1032.06929483202
 20
330.8362365323484
 30
0.0
  0
POINT
  5
5B0B
330
5AE6
100
AcDbEntity
  8
DEFPOINTS
 62
     0
100
AcDbPoint
 10
1032.06929483202
 20
305.8362365323502
 30
0.0
  0
POINT
  5
5B0C
330
5AE6
100
AcDbEntity
  8
DEFPOINTS
 62
     0
100
AcDbPoint
 10
1028.191817235427
 20
305.8362365323502
 30
0.0
  0
ENDBLK
  5
5AE8
330
5AE6
100
AcDbEntity
  8
0
100
AcDbBlockEnd
  0
BLOCK
  5
5B0E
330
5B0D
100
AcDbEntity
  8
0
 48
3.0
100
AcDbBlockBegin
  2
3
 70
     0
 10
0.0
 20
0.0
 30
0.0
  3
3
  1

  0
HATCH
  5
5B0F
330
5B0D
100
AcDbEntity
  8
0
  6
ByBlock
 62
     0
 48
3.0
380
     1
100
AcDbHatch
 10
0.0
 20
0.0
 30
0.0
210
0.0
220
0.0
230
1.0
  2
SOLID
 70
     1
 71
     0
 91
        1
 92
        1
 93
        1
 72
     2
 10
0.0
 20
0.0
 40
0.25
 50
0.0
 51
360.0
 73
     1
 97
        0
 75
     0
 76
     1
 98
        1
 10
2.789654453480295
 20
-4.828347107262324
  0
LINE
  5
5B10
330
5B0D
100
AcDbEntity
  8
0
  6
ByBlock
 62
     0
 48
3.0
380
     1
100
AcDbLine
 10
-1.0
 20
0.0
 30
0.0
 11
0.0
 21
0.0
 31
0.0
  0
ENDBLK
  5
5B11
330
5B0D
100
AcDbEntity
  8
0
 48
3.0
100
AcDbBlockEnd
  0
BLOCK
  5
5B13
330
5B12
100
AcDbEntity
  8
0
100
AcDbBlockBegin
  2
A下
 70
     0
 10
0.0
 20
0.0
 30
0.0
  3
A下
  1

  0
MTEXT
  5
5B14
330
5B12
100
AcDbEntity
  8
2寸法線
 48
3.0
100
AcDbMText
 10
-6.45925198165969
 20
8.054572713239849
 30
0.0
 40
4.0
 41
5.411710672623538
 71
     1
 72
     5
  1
\fSwis721 BlkOul BT|b0|i0|c0|p82;A
  7
KANJI
 73
     1
 44
1.0
1001
ACAD
1000
MTEXTBEGIN
1070
    73
1070
     1
1070
    44
1040
1.0
1070
    74
1070
     0
1000
MTEXTEND
  0
LINE
  5
5B15
330
5B12
100
AcDbEntity
  8
2寸法線
 62
     1
100
AcDbLine
 10
-2.0
 20
4.0
 30
0.0
 11
-1.0
 21
4.0
 31
0.0
  0
LINE
  5
5B16
330
5B12
100
AcDbEntity
  8
2寸法線
 62
     1
100
AcDbLine
 10
-2.0
 20
4.0
 30
0.0
 11
0.0
 21
0.0
 31
0.0
  0
LINE
  5
5B17
330
5B12
100
AcDbEntity
  8
2寸法線
 62
     1
100
AcDbLine
 10
0.0
 20
0.0
 30
0.0
 11
2.0
 21
4.0
 31
0.0
  0
LINE
  5
5B18
330
5B12
100
AcDbEntity
  8
2寸法線
 62
     1
100
AcDbLine
 10
-1.0
 20
0.0
 30
0.0
 11
1.0
 21
0.0
 31
0.0
  0
LINE
  5
5B19
330
5B12
100
AcDbEntity
  8
2寸法線
 62
     1
100
AcDbLine
 10
1.0
 20
4.0
 30
0.0
 11
1.0
 21
8.0
 31
0.0
  0
LINE
  5
5B1A
330
5B12
100
AcDbEntity
  8
2寸法線
 62
     1
100
AcDbLine
 10
-1.0
 20
4.0
 30
0.0
 11
-1.0
 21
8.0
 31
0.0
  0
LINE
  5
5B1B
330
5B12
100
AcDbEntity
  8
2寸法線
 62
     1
100
AcDbLine
 10
1.0
 20
4.0
 30
0.0
 11
2.0
 21
4.0
 31
0.0
  0
LINE
  5
5B1C
330
5B12
100
AcDbEntity
  8
2寸法線
 62
     1
100
AcDbLine
 10
-1.0
 20
8.0
 30
0.0
 11
1.0
 21
8.0
 31
0.0
  0
ENDBLK
  5
5B1D
330
5B12
100
AcDbEntity
  8
0
100
AcDbBlockEnd
  0
BLOCK
  5
5B1F
330
5B1E
100
AcDbEntity
  8
0
100
AcDbBlockBegin
  2
Aダッシュ下
 70
     0
 10
0.0
 20
0.0
 30
0.0
  3
Aダッシュ下
  1

  0
LINE
  5
5B20
330
5B1E
100
AcDbEntity
  8
2寸法線
 62
     1
100
AcDbLine
 10
0.0
 20
0.0
 30
0.0
 11
-2.0
 21
4.0
 31
0.0
  0
LINE
  5
5B21
330
5B1E
100
AcDbEntity
  8
2寸法線
 62
     1
100
AcDbLine
 10
1.0
 20
0.0
 30
0.0
 11
-1.0
 21
0.0
 31
0.0
  0
LINE
  5
5B22
330
5B1E
100
AcDbEntity
  8
2寸法線
 62
     1
100
AcDbLine
 10
1.0
 20
8.0
 30
0.0
 11
-1.0
 21
8.0
 31
0.0
  0
LINE
  5
5B23
330
5B1E
100
AcDbEntity
  8
2寸法線
 62
     1
100
AcDbLine
 10
-1.0
 20
4.0
 30
0.0
 11
-1.0
 21
8.0
 31
0.0
  0
LINE
  5
5B24
330
5B1E
100
AcDbEntity
  8
2寸法線
 62
     1
100
AcDbLine
 10
-1.0
 20
4.0
 30
0.0
 11
-2.0
 21
4.0
 31
0.0
  0
MTEXT
  5
5B25
330
5B1E
100
AcDbEntity
  8
2寸法線
 48
3.0
100
AcDbMText
 10
2.314092341507148
 20
8.104396171036114
 30
0.0
 40
4.0
 41
9.252299999999999
 71
     1
 72
     5
  1
\fSwis721 BlkOul BT|b0|i0|c0|p82;A'
  7
KANJI
 73
     1
 44
1.0
1001
ACAD
1000
MTEXTBEGIN
1070
    73
1070
     1
1070
    44
1040
1.0
1070
    74
1070
     0
1000
MTEXTEND
  0
LINE
  5
5B26
330
5B1E
100
AcDbEntity
  8
2寸法線
 62
     1
100
AcDbLine
 10
2.0
 20
4.0
 30
0.0
 11
0.0
 21
0.0
 31
0.0
  0
LINE
  5
5B27
330
5B1E
100
AcDbEntity
  8
2寸法線
 62
     1
100
AcDbLine
 10
2.0
 20
4.0
 30
0.0
 11
1.0
 21
4.0
 31
0.0
  0
LINE
  5
5B28
330
5B1E
100
AcDbEntity
  8
2寸法線
 62
     1
100
AcDbLine
 10
1.0
 20
4.0
 30
0.0
 11
1.0
 21
8.0
 31
0.0
  0
ENDBLK
  5
5B29
330
5B1E
100
AcDbEntity
  8
0
100
AcDbBlockEnd
  0
BLOCK
  5
5B2B
330
5B2A
100
AcDbEntity
  8
0
100
AcDbBlockBegin
  2
*D19
 70
     1
 10
0.0
 20
0.0
 30
0.0
  3
*D19
  1

  0
LINE
  5
5B2C
330
5B2A
100
AcDbEntity
  8
2寸法線
 62
     0
370
    -2
100
AcDbLine
 10
12692.30745637715
 20
-5454.207447588213
 30
0.0
 11
12676.01832396373
 21
-5455.113032253114
 31
0.0
  0
MTEXT
  5
5B2D
330
5B2A
100
AcDbEntity
  8
2寸法線
 62
     0
100
AcDbMText
 10
12684.95048516953
 20
-5452.613365689693
 30
0.0
 40
3.0
 41
0.0
 71
     5
 72
     1
  1
\A1;（R30）
  7
KANJI
 11
0.998458203975168
 21
0.0555086922443834
 31
0.0
 73
     1
 44
1.0
1001
ACAD
1000
MTEXTBEGIN
1070
    73
1070
     1
1070
    44
1040
1.0
1070
    74
1070
     0
1000
MTEXTEND
  0
INSERT
  5
5B2E
330
5B2A
100
AcDbEntity
  8
2寸法線
 62
     0
370
    -2
100
AcDbBlockReference
  2
2
 10
12674.22109919657
 20
-5455.212947899154
 30
0.0
 41
1.8
 42
1.8
 43
1.8
 50
183.1820493170438
  0
POINT
  5
5B2F
330
5B2A
100
AcDbEntity
  8
DEFPOINTS
 62
     0
100
AcDbPoint
 10
12674.22109919657
 20
-5455.212947899154
 30
0.0
  0
POINT
  5
5B30
330
5B2A
100
AcDbEntity
  8
DEFPOINTS
 62
     0
100
AcDbPoint
 10
12704.17484531582
 20
-5453.547687131823
 30
0.0
  0
ENDBLK
  5
5B31
330
5B2A
100
AcDbEntity
  8
0
100
AcDbBlockEnd
  0
BLOCK
  5
5B33
330
5B32
100
AcDbEntity
  8
0
100
AcDbBlockBegin
  2
*D20
 70
     1
 10
0.0
 20
0.0
 30
0.0
  3
*D20
  1

  0
LINE
  5
5B34
330
5B32
100
AcDbEntity
  8
2寸法線
 62
     0
370
    -2
100
AcDbLine
 10
12810.94369943032
 20
-5465.043955765451
 30
0.0
 11
12802.45066195645
 21
-5465.043955765451
 31
0.0
  0
LINE
  5
5B35
330
5B32
100
AcDbEntity
  8
2寸法線
 62
     0
370
    -2
100
AcDbLine
 10
12811.0387118682
 20
-5447.543955765447
 30
0.0
 11
12802.45066195645
 21
-5447.543955765447
 31
0.0
  0
LINE
  5
5B36
330
5B32
100
AcDbEntity
  8
2寸法線
 62
     0
370
    -2
100
AcDbLine
 10
12803.45066195645
 20
-5463.243955765451
 30
0.0
 11
12803.45066195645
 21
-5449.343955765447
 31
0.0
  0
INSERT
  5
5B37
330
5B32
100
AcDbEntity
  8
2寸法線
 62
     0
370
    -2
100
AcDbBlockReference
  2
2
 10
12803.45066195645
 20
-5465.043955765451
 30
0.0
 41
1.8
 42
1.8
 43
1.8
 50
270.0
  0
INSERT
  5
5B38
330
5B32
100
AcDbEntity
  8
2寸法線
 62
     0
370
    -2
100
AcDbBlockReference
  2
2
 10
12803.45066195645
 20
-5447.543955765447
 30
0.0
 41
1.8
 42
1.8
 43
1.8
 50
90.0
  0
MTEXT
  5
5B39
330
5B32
100
AcDbEntity
  8
2寸法線
 62
     0
100
AcDbMText
 10
12801.45066195645
 20
-5456.293955765447
 30
0.0
 40
3.0
 41
0.0
 71
     5
 72
     1
  1
\A1;17.5
  7
KANJI
 11
0.0000000000000001
 21
1.0
 31
0.0
 73
     1
 44
1.0
1001
ACAD
1000
MTEXTBEGIN
1070
    73
1070
     1
1070
    44
1040
1.0
1070
    74
1070
     0
1000
MTEXTEND
  0
POINT
  5
5B3A
330
5B32
100
AcDbEntity
  8
DEFPOINTS
 62
     0
100
AcDbPoint
 10
12811.94369943032
 20
-5465.043955765451
 30
0.0
  0
POINT
  5
5B3B
330
5B32
100
AcDbEntity
  8
DEFPOINTS
 62
     0
100
AcDbPoint
 10
12812.0387118682
 20
-5447.543955765447
 30
0.0
  0
POINT
  5
5B3C
330
5B32
100
AcDbEntity
  8
DEFPOINTS
 62
     0
100
AcDbPoint
 10
12803.45066195645
 20
-5447.543955765447
 30
0.0
  0
ENDBLK
  5
5B3D
330
5B32
100
AcDbEntity
  8
0
100
AcDbBlockEnd
  0
BLOCK
  5
5B3F
330
5B3E
100
AcDbEntity
  8
0
100
AcDbBlockBegin
  2
*D21
 70
     1
 10
0.0
 20
0.0
 30
0.0
  3
*D21
  1

  0
LINE
  5
5B40
330
5B3E
100
AcDbEntity
  8
2寸法線
 62
     0
370
    -2
100
AcDbLine
 10
12811.0387118682
 20
-5447.543955765447
 30
0.0
 11
12802.45066195645
 21
-5447.543955765447
 31
0.0
  0
LINE
  5
5B41
330
5B3E
100
AcDbEntity
  8
2寸法線
 62
     0
370
    -2
100
AcDbLine
 10
12811.0387118682
 20
-5439.143955765448
 30
0.0
 11
12802.45066195645
 21
-5439.143955765448
 31
0.0
  0
LINE
  5
5B42
330
5B3E
100
AcDbEntity
  8
2寸法線
 62
     0
370
    -2
100
AcDbLine
 10
12803.45066195645
 20
-5445.743955765447
 30
0.0
 11
12803.45066195645
 21
-5440.943955765447
 31
0.0
  0
INSERT
  5
5B43
330
5B3E
100
AcDbEntity
  8
2寸法線
 62
     0
370
    -2
100
AcDbBlockReference
  2
2
 10
12803.45066195645
 20
-5447.543955765447
 30
0.0
 41
1.8
 42
1.8
 43
1.8
 50
270.0
  0
INSERT
  5
5B44
330
5B3E
100
AcDbEntity
  8
2寸法線
 62
     0
370
    -2
100
AcDbBlockReference
  2
2
 10
12803.45066195645
 20
-5439.143955765448
 30
0.0
 41
1.8
 42
1.8
 43
1.8
 50
90.0
  0
MTEXT
  5
5B45
330
5B3E
100
AcDbEntity
  8
2寸法線
 62
     0
100
AcDbMText
 10
12801.45066195645
 20
-5443.343955765445
 30
0.0
 40
3.0
 41
0.0
 71
     5
 72
     1
  1
\A1;8.4
  7
KANJI
 11
0.0000000000000001
 21
1.0
 31
0.0
 73
     1
 44
1.0
1001
ACAD
1000
MTEXTBEGIN
1070
    73
1070
     1
1070
    44
1040
1.0
1070
    74
1070
     0
1000
MTEXTEND
  0
POINT
  5
5B46
330
5B3E
100
AcDbEntity
  8
DEFPOINTS
 62
     0
100
AcDbPoint
 10
12812.0387118682
 20
-5447.543955765447
 30
0.0
  0
POINT
  5
5B47
330
5B3E
100
AcDbEntity
  8
DEFPOINTS
 62
     0
100
AcDbPoint
 10
12812.0387118682
 20
-5439.143955765448
 30
0.0
  0
POINT
  5
5B48
330
5B3E
100
AcDbEntity
  8
DEFPOINTS
 62
     0
100
AcDbPoint
 10
12803.45066195645
 20
-5439.143955765448
 30
0.0
  0
ENDBLK
  5
5B49
330
5B3E
100
AcDbEntity
  8
0
100
AcDbBlockEnd
  0
BLOCK
  5
5B4B
330
5B4A
100
AcDbEntity
  8
0
100
AcDbBlockBegin
  2
*D22
 70
     1
 10
0.0
 20
0.0
 30
0.0
  3
*D22
  1

  0
LINE
  5
5B4C
330
5B4A
100
AcDbEntity
  8
2寸法線
 62
     0
370
    -2
100
AcDbLine
 10
12811.03871186821
 20
-5439.143955765448
 30
0.0
 11
12802.45066195645
 21
-5439.143955765448
 31
0.0
  0
LINE
  5
5B4D
330
5B4A
100
AcDbEntity
  8
2寸法線
 62
     0
370
    -2
100
AcDbLine
 10
12811.03871186821
 20
-5430.743955765448
 30
0.0
 11
12802.45066195645
 21
-5430.743955765448
 31
0.0
  0
LINE
  5
5B4E
330
5B4A
100
AcDbEntity
  8
2寸法線
 62
     0
370
    -2
100
AcDbLine
 10
12803.45066195645
 20
-5437.343955765448
 30
0.0
 11
12803.45066195645
 21
-5432.543955765448
 31
0.0
  0
INSERT
  5
5B4F
330
5B4A
100
AcDbEntity
  8
2寸法線
 62
     0
370
    -2
100
AcDbBlockReference
  2
2
 10
12803.45066195645
 20
-5439.143955765448
 30
0.0
 41
1.8
 42
1.8
 43
1.8
 50
270.0
  0
INSERT
  5
5B50
330
5B4A
100
AcDbEntity
  8
2寸法線
 62
     0
370
    -2
100
AcDbBlockReference
  2
2
 10
12803.45066195645
 20
-5430.743955765448
 30
0.0
 41
1.8
 42
1.8
 43
1.8
 50
90.0
  0
MTEXT
  5
5B51
330
5B4A
100
AcDbEntity
  8
2寸法線
 62
     0
100
AcDbMText
 10
12801.45066195645
 20
-5434.943955765446
 30
0.0
 40
3.0
 41
0.0
 71
     5
 72
     1
  1
\A1;8.4
  7
KANJI
 11
0.0000000000000001
 21
1.0
 31
0.0
 73
     1
 44
1.0
1001
ACAD
1000
MTEXTBEGIN
1070
    73
1070
     1
1070
    44
1040
1.0
1070
    74
1070
     0
1000
MTEXTEND
  0
POINT
  5
5B52
330
5B4A
100
AcDbEntity
  8
DEFPOINTS
 62
     0
100
AcDbPoint
 10
12812.03871186821
 20
-5439.143955765448
 30
0.0
  0
POINT
  5
5B53
330
5B4A
100
AcDbEntity
  8
DEFPOINTS
 62
     0
100
AcDbPoint
 10
12812.03871186821
 20
-5430.743955765448
 30
0.0
  0
POINT
  5
5B54
330
5B4A
100
AcDbEntity
  8
DEFPOINTS
 62
     0
100
AcDbPoint
 10
12803.45066195645
 20
-5430.743955765448
 30
0.0
  0
ENDBLK
  5
5B55
330
5B4A
100
AcDbEntity
  8
0
100
AcDbBlockEnd
  0
BLOCK
  5
5B57
330
5B56
100
AcDbEntity
  8
0
100
AcDbBlockBegin
  2
*D23
 70
     1
 10
0.0
 20
0.0
 30
0.0
  3
*D23
  1

  0
LINE
  5
5B58
330
5B56
100
AcDbEntity
  8
2寸法線
 62
     0
370
    -2
100
AcDbLine
 10
12814.83871186821
 20
-5447.543955765447
 30
0.0
 11
12823.31154169223
 21
-5447.543955765447
 31
0.0
  0
LINE
  5
5B59
330
5B56
100
AcDbEntity
  8
2寸法線
 62
     0
370
    -2
100
AcDbLine
 10
12814.83871186821
 20
-5446.343955765446
 30
0.0
 11
12823.31154169223
 21
-5446.343955765446
 31
0.0
  0
LINE
  5
5B5A
330
5B56
100
AcDbEntity
  8
2寸法線
 62
     0
370
    -2
100
AcDbLine
 10
12822.31154169223
 20
-5444.543955765446
 30
0.0
 11
12822.31154169223
 21
-5442.743955765446
 31
0.0
  0
LINE
  5
5B5B
330
5B56
100
AcDbEntity
  8
2寸法線
 62
     0
370
    -2
100
AcDbLine
 10
12822.31154169223
 20
-5449.343955765447
 30
0.0
 11
12822.31154169223
 21
-5457.858241479733
 31
0.0
  0
LINE
  5
5B5C
330
5B56
100
AcDbEntity
  8
2寸法線
 62
     0
370
    -2
100
AcDbLine
 10
12822.31154169223
 20
-5446.343955765446
 30
0.0
 11
12822.31154169223
 21
-5447.543955765447
 31
0.0
  0
INSERT
  5
5B5D
330
5B56
100
AcDbEntity
  8
2寸法線
 62
     0
370
    -2
100
AcDbBlockReference
  2
2
 10
12822.31154169223
 20
-5446.343955765446
 30
0.0
 41
1.8
 42
1.8
 43
1.8
 50
270.0
  0
INSERT
  5
5B5E
330
5B56
100
AcDbEntity
  8
2寸法線
 62
     0
370
    -2
100
AcDbBlockReference
  2
2
 10
12822.31154169223
 20
-5447.543955765447
 30
0.0
 41
1.8
 42
1.8
 43
1.8
 50
90.0
  0
MTEXT
  5
5B5F
330
5B56
100
AcDbEntity
  8
2寸法線
 62
     0
100
AcDbMText
 10
12820.31154169223
 20
-5454.501098622589
 30
0.0
 40
3.0
 41
0.0
 71
     5
 72
     1
  1
\A1;1.2
  7
KANJI
 11
0.0000000000000001
 21
1.0
 31
0.0
 73
     1
 44
1.0
1001
ACAD
1000
MTEXTBEGIN
1070
    73
1070
     1
1070
    44
1040
1.0
1070
    74
1070
     0
1000
MTEXTEND
  0
POINT
  5
5B60
330
5B56
100
AcDbEntity
  8
DEFPOINTS
 62
     0
100
AcDbPoint
 10
12813.83871186821
 20
-5447.543955765447
 30
0.0
  0
POINT
  5
5B61
330
5B56
100
AcDbEntity
  8
DEFPOINTS
 62
     0
100
AcDbPoint
 10
12813.83871186821
 20
-5446.343955765446
 30
0.0
  0
POINT
  5
5B62
330
5B56
100
AcDbEntity
  8
DEFPOINTS
 62
     0
100
AcDbPoint
 10
12822.31154169223
 20
-5446.343955765446
 30
0.0
  0
ENDBLK
  5
5B63
330
5B56
100
AcDbEntity
  8
0
100
AcDbBlockEnd
  0
BLOCK
  5
5B65
330
5B64
100
AcDbEntity
  8
0
100
AcDbBlockBegin
  2
*D24
 70
     1
 10
0.0
 20
0.0
 30
0.0
  3
*D24
  1

  0
LINE
  5
5B66
330
5B64
100
AcDbEntity
  8
2寸法線
 62
     0
370
    -2
100
AcDbLine
 10
12811.0387118682
 20
-5425.043955765449
 30
0.0
 11
12796.06592206071
 21
-5425.043955765449
 31
0.0
  0
LINE
  5
5B67
330
5B64
100
AcDbEntity
  8
2寸法線
 62
     0
370
    -2
100
AcDbLine
 10
12811.0387118682
 20
-5465.043955765451
 30
0.0
 11
12796.06592206071
 21
-5465.043955765451
 31
0.0
  0
LINE
  5
5B68
330
5B64
100
AcDbEntity
  8
2寸法線
 62
     0
370
    -2
100
AcDbLine
 10
12797.06592206071
 20
-5426.843955765449
 30
0.0
 11
12797.06592206071
 21
-5463.243955765451
 31
0.0
  0
INSERT
  5
5B69
330
5B64
100
AcDbEntity
  8
2寸法線
 62
     0
370
    -2
100
AcDbBlockReference
  2
2
 10
12797.06592206071
 20
-5425.043955765449
 30
0.0
 41
1.8
 42
1.8
 43
1.8
 50
90.0
  0
INSERT
  5
5B6A
330
5B64
100
AcDbEntity
  8
2寸法線
 62
     0
370
    -2
100
AcDbBlockReference
  2
2
 10
12797.06592206071
 20
-5465.043955765451
 30
0.0
 41
1.8
 42
1.8
 43
1.8
 50
270.0
  0
MTEXT
  5
5B6B
330
5B64
100
AcDbEntity
  8
2寸法線
 62
     0
100
AcDbMText
 10
12795.06592206072
 20
-5445.043955765449
 30
0.0
 40
3.0
 41
0.0
 71
     5
 72
     1
  1
\A1;40
  7
KANJI
 11
0.0000000000000001
 21
1.0
 31
0.0
 73
     1
 44
1.0
1001
ACAD
1000
MTEXTBEGIN
1070
    73
1070
     1
1070
    44
1040
1.0
1070
    74
1070
     0
1000
MTEXTEND
  0
POINT
  5
5B6C
330
5B64
100
AcDbEntity
  8
DEFPOINTS
 62
     0
100
AcDbPoint
 10
12812.0387118682
 20
-5425.043955765449
 30
0.0
  0
POINT
  5
5B6D
330
5B64
100
AcDbEntity
  8
DEFPOINTS
 62
     0
100
AcDbPoint
 10
12812.0387118682
 20
-5465.043955765451
 30
0.0
  0
POINT
  5
5B6E
330
5B64
100
AcDbEntity
  8
DEFPOINTS
 62
     0
100
AcDbPoint
 10
12797.06592206071
 20
-5465.043955765451
 30
0.0
  0
ENDBLK
  5
5B6F
330
5B64
100
AcDbEntity
  8
0
100
AcDbBlockEnd
  0
BLOCK
  5
5B71
330
5B70
100
AcDbEntity
  8
0
100
AcDbBlockBegin
  2
*D25
 70
     1
 10
0.0
 20
0.0
 30
0.0
  3
*D25
  1

  0
LINE
  5
5B72
330
5B70
100
AcDbEntity
  8
2寸法線
 62
     0
370
    -2
100
AcDbLine
 10
12814.5387118682
 20
-5425.043955765447
 30
0.0
 11
12821.13176321509
 21
-5425.043955765447
 31
0.0
  0
LINE
  5
5B73
330
5B70
100
AcDbEntity
  8
2寸法線
 62
     0
370
    -2
100
AcDbLine
 10
12814.5387118682
 20
-5424.043955765448
 30
0.0
 11
12821.13176321509
 21
-5424.043955765448
 31
0.0
  0
LINE
  5
5B74
330
5B70
100
AcDbEntity
  8
2寸法線
 62
     0
370
    -2
100
AcDbLine
 10
12820.13176321509
 20
-5426.843955765447
 30
0.0
 11
12820.13176321509
 21
-5428.643955765448
 31
0.0
  0
LINE
  5
5B75
330
5B70
100
AcDbEntity
  8
2寸法線
 62
     0
370
    -2
100
AcDbLine
 10
12820.13176321509
 20
-5422.243955765447
 30
0.0
 11
12820.13176321509
 21
-5418.729670051162
 31
0.0
  0
LINE
  5
5B76
330
5B70
100
AcDbEntity
  8
2寸法線
 62
     0
370
    -2
100
AcDbLine
 10
12820.13176321509
 20
-5425.043955765447
 30
0.0
 11
12820.13176321509
 21
-5424.043955765448
 31
0.0
  0
INSERT
  5
5B77
330
5B70
100
AcDbEntity
  8
2寸法線
 62
     0
370
    -2
100
AcDbBlockReference
  2
2
 10
12820.13176321509
 20
-5425.043955765447
 30
0.0
 41
1.8
 42
1.8
 43
1.8
 50
90.0
  0
INSERT
  5
5B78
330
5B70
100
AcDbEntity
  8
2寸法線
 62
     0
370
    -2
100
AcDbBlockReference
  2
2
 10
12820.13176321509
 20
-5424.043955765448
 30
0.0
 41
1.8
 42
1.8
 43
1.8
 50
270.0
  0
MTEXT
  5
5B79
330
5B70
100
AcDbEntity
  8
2寸法線
 62
     0
100
AcDbMText
 10
12818.1317632151
 20
-5419.586812908303
 30
0.0
 40
3.0
 41
0.0
 71
     5
 72
     1
  1
\A1;1
  7
KANJI
 11
0.0000000000000001
 21
1.0
 31
0.0
 73
     1
 44
1.0
1001
ACAD
1000
MTEXTBEGIN
1070
    73
1070
     1
1070
    44
1040
1.0
1070
    74
1070
     0
1000
MTEXTEND
  0
POINT
  5
5B7A
330
5B70
100
AcDbEntity
  8
DEFPOINTS
 62
     0
100
AcDbPoint
 10
12813.5387118682
 20
-5425.043955765447
 30
0.0
  0
POINT
  5
5B7B
330
5B70
100
AcDbEntity
  8
DEFPOINTS
 62
     0
100
AcDbPoint
 10
12813.5387118682
 20
-5424.043955765448
 30
0.0
  0
POINT
  5
5B7C
330
5B70
100
AcDbEntity
  8
DEFPOINTS
 62
     0
100
AcDbPoint
 10
12820.13176321509
 20
-5424.043955765448
 30
0.0
  0
ENDBLK
  5
5B7D
330
5B70
100
AcDbEntity
  8
0
100
AcDbBlockEnd
  0
BLOCK
  5
5B7F
330
5B7E
100
AcDbEntity
  8
0
100
AcDbBlockBegin
  2
*D26
 70
     1
 10
0.0
 20
0.0
 30
0.0
  3
*D26
  1

  0
LINE
  5
5B80
330
5B7E
100
AcDbEntity
  8
2寸法線
 62
     0
370
    -2
100
AcDbLine
 10
12796.9887118682
 20
-5360.593955765445
 30
0.0
 11
12796.9887118682
 21
-5367.127334016927
 31
0.0
  0
LINE
  5
5B81
330
5B7E
100
AcDbEntity
  8
2寸法線
 62
     0
370
    -2
100
AcDbLine
 10
12797.9887118682
 20
-5360.593955765443
 30
0.0
 11
12797.9887118682
 21
-5367.127334016927
 31
0.0
  0
LINE
  5
5B82
330
5B7E
100
AcDbEntity
  8
2寸法線
 62
     0
370
    -2
100
AcDbLine
 10
12795.1887118682
 20
-5366.127334016927
 30
0.0
 11
12793.3887118682
 21
-5366.127334016927
 31
0.0
  0
LINE
  5
5B83
330
5B7E
100
AcDbEntity
  8
2寸法線
 62
     0
370
    -2
100
AcDbLine
 10
12799.7887118682
 20
-5366.127334016927
 30
0.0
 11
12803.30299758249
 21
-5366.127334016927
 31
0.0
  0
LINE
  5
5B84
330
5B7E
100
AcDbEntity
  8
2寸法線
 62
     0
370
    -2
100
AcDbLine
 10
12796.9887118682
 20
-5366.127334016927
 30
0.0
 11
12797.9887118682
 21
-5366.127334016927
 31
0.0
  0
INSERT
  5
5B85
330
5B7E
100
AcDbEntity
  8
2寸法線
 62
     0
370
    -2
100
AcDbBlockReference
  2
2
 10
12796.9887118682
 20
-5366.127334016927
 30
0.0
 41
1.8
 42
1.8
 43
1.8
  0
INSERT
  5
5B86
330
5B7E
100
AcDbEntity
  8
2寸法線
 62
     0
370
    -2
100
AcDbBlockReference
  2
2
 10
12797.9887118682
 20
-5366.127334016927
 30
0.0
 41
1.8
 42
1.8
 43
1.8
 50
180.0
  0
MTEXT
  5
5B87
330
5B7E
100
AcDbEntity
  8
2寸法線
 62
     0
100
AcDbMText
 10
12802.44585472535
 20
-5364.127334016927
 30
0.0
 40
3.0
 41
0.0
 71
     5
 72
     1
  1
\A1;1
  7
KANJI
 73
     1
 44
1.0
1001
ACAD
1000
MTEXTBEGIN
1070
    73
1070
     1
1070
    44
1040
1.0
1070
    74
1070
     0
1000
MTEXTEND
  0
POINT
  5
5B88
330
5B7E
100
AcDbEntity
  8
DEFPOINTS
 62
     0
100
AcDbPoint
 10
12796.9887118682
 20
-5359.593955765444
 30
0.0
  0
POINT
  5
5B89
330
5B7E
100
AcDbEntity
  8
DEFPOINTS
 62
     0
100
AcDbPoint
 10
12797.9887118682
 20
-5359.593955765443
 30
0.0
  0
POINT
  5
5B8A
330
5B7E
100
AcDbEntity
  8
DEFPOINTS
 62
     0
100
AcDbPoint
 10
12797.9887118682
 20
-5366.127334016927
 30
0.0
  0
ENDBLK
  5
5B8B
330
5B7E
100
AcDbEntity
  8
0
100
AcDbBlockEnd
  0
BLOCK
  5
5B8D
330
5B8C
100
AcDbEntity
  8
0
100
AcDbBlockBegin
  2
*D27
 70
     1
 10
0.0
 20
0.0
 30
0.0
  3
*D27
  1

  0
LINE
  5
5B8E
330
5B8C
100
AcDbEntity
  8
2寸法線
 62
     0
370
    -2
100
AcDbLine
 10
12828.9887118682
 20
-5386.043955765448
 30
0.0
 11
12818.31391191351
 21
-5386.043955765448
 31
0.0
  0
LINE
  5
5B8F
330
5B8C
100
AcDbEntity
  8
2寸法線
 62
     0
370
    -2
100
AcDbLine
 10
12828.9887118682
 20
-5384.043955765447
 30
0.0
 11
12818.31391191351
 21
-5384.043955765447
 31
0.0
  0
LINE
  5
5B90
330
5B8C
100
AcDbEntity
  8
2寸法線
 62
     0
370
    -2
100
AcDbLine
 10
12819.31391191351
 20
-5382.243955765447
 30
0.0
 11
12819.31391191351
 21
-5380.443955765446
 31
0.0
  0
LINE
  5
5B91
330
5B8C
100
AcDbEntity
  8
2寸法線
 62
     0
370
    -2
100
AcDbLine
 10
12819.31391191351
 20
-5387.843955765447
 30
0.0
 11
12819.31391191351
 21
-5396.901098622592
 31
0.0
  0
LINE
  5
5B92
330
5B8C
100
AcDbEntity
  8
2寸法線
 62
     0
370
    -2
100
AcDbLine
 10
12819.31391191351
 20
-5384.043955765447
 30
0.0
 11
12819.31391191351
 21
-5386.043955765448
 31
0.0
  0
INSERT
  5
5B93
330
5B8C
100
AcDbEntity
  8
2寸法線
 62
     0
370
    -2
100
AcDbBlockReference
  2
3
 10
12819.31391191351
 20
-5384.043955765447
 30
0.0
 41
1.8
 42
1.8
 43
1.8
 50
270.0
  0
INSERT
  5
5B94
330
5B8C
100
AcDbEntity
  8
2寸法線
 62
     0
370
    -2
100
AcDbBlockReference
  2
2
 10
12819.31391191351
 20
-5386.043955765448
 30
0.0
 41
1.8
 42
1.8
 43
1.8
 50
90.0
  0
MTEXT
  5
5B95
330
5B8C
100
AcDbEntity
  8
2寸法線
 62
     0
100
AcDbMText
 10
12817.31391191351
 20
-5393.272527194019
 30
0.0
 40
3.0
 41
0.0
 71
     5
 72
     1
  1
\A1;（2）
  7
KANJI
 11
0.0000000000000001
 21
1.0
 31
0.0
 73
     1
 44
1.0
1001
ACAD
1000
MTEXTBEGIN
1070
    73
1070
     1
1070
    44
1040
1.0
1070
    74
1070
     0
1000
MTEXTEND
  0
POINT
  5
5B96
330
5B8C
100
AcDbEntity
  8
DEFPOINTS
 62
     0
100
AcDbPoint
 10
12829.9887118682
 20
-5386.043955765448
 30
0.0
  0
POINT
  5
5B97
330
5B8C
100
AcDbEntity
  8
DEFPOINTS
 62
     0
100
AcDbPoint
 10
12829.9887118682
 20
-5384.043955765447
 30
0.0
  0
POINT
  5
5B98
330
5B8C
100
AcDbEntity
  8
DEFPOINTS
 62
     0
100
AcDbPoint
 10
12819.31391191351
 20
-5384.043955765447
 30
0.0
  0
ENDBLK
  5
5B99
330
5B8C
100
AcDbEntity
  8
0
100
AcDbBlockEnd
  0
BLOCK
  5
5B9B
330
5B9A
100
AcDbEntity
  8
0
100
AcDbBlockBegin
  2
*D28
 70
     1
 10
0.0
 20
0.0
 30
0.0
  3
*D28
  1

  0
LINE
  5
5B9C
330
5B9A
100
AcDbEntity
  8
2寸法線
 62
     0
370
    -2
100
AcDbLine
 10
12828.6054051021
 20
-5382.043955765447
 30
0.0
 11
12818.31391191351
 21
-5382.043955765447
 31
0.0
  0
LINE
  5
5B9D
330
5B9A
100
AcDbEntity
  8
2寸法線
 62
     0
370
    -2
100
AcDbLine
 10
12828.9887118682
 20
-5384.043955765447
 30
0.0
 11
12818.31391191351
 21
-5384.043955765447
 31
0.0
  0
LINE
  5
5B9E
330
5B9A
100
AcDbEntity
  8
2寸法線
 62
     0
370
    -2
100
AcDbLine
 10
12819.31391191351
 20
-5385.843955765448
 30
0.0
 11
12819.31391191351
 21
-5387.643955765447
 31
0.0
  0
LINE
  5
5B9F
330
5B9A
100
AcDbEntity
  8
2寸法線
 62
     0
370
    -2
100
AcDbLine
 10
12819.31391191351
 20
-5380.243955765447
 30
0.0
 11
12819.31391191351
 21
-5371.186812908304
 31
0.0
  0
LINE
  5
5BA0
330
5B9A
100
AcDbEntity
  8
2寸法線
 62
     0
370
    -2
100
AcDbLine
 10
12819.31391191351
 20
-5384.043955765447
 30
0.0
 11
12819.31391191351
 21
-5382.043955765447
 31
0.0
  0
INSERT
  5
5BA1
330
5B9A
100
AcDbEntity
  8
2寸法線
 62
     0
370
    -2
100
AcDbBlockReference
  2
3
 10
12819.31391191351
 20
-5384.043955765447
 30
0.0
 41
1.8
 42
1.8
 43
1.8
 50
90.0
  0
INSERT
  5
5BA2
330
5B9A
100
AcDbEntity
  8
2寸法線
 62
     0
370
    -2
100
AcDbBlockReference
  2
2
 10
12819.31391191351
 20
-5382.043955765447
 30
0.0
 41
1.8
 42
1.8
 43
1.8
 50
270.0
  0
MTEXT
  5
5BA3
330
5B9A
100
AcDbEntity
  8
2寸法線
 62
     0
100
AcDbMText
 10
12817.31391191351
 20
-5374.815384336874
 30
0.0
 40
3.0
 41
0.0
 71
     5
 72
     1
  1
\A1;（2）
  7
KANJI
 11
0.0000000000000001
 21
1.0
 31
0.0
 73
     1
 44
1.0
1001
ACAD
1000
MTEXTBEGIN
1070
    73
1070
     1
1070
    44
1040
1.0
1070
    74
1070
     0
1000
MTEXTEND
  0
POINT
  5
5BA4
330
5B9A
100
AcDbEntity
  8
DEFPOINTS
 62
     0
100
AcDbPoint
 10
12829.6054051021
 20
-5382.043955765447
 30
0.0
  0
POINT
  5
5BA5
330
5B9A
100
AcDbEntity
  8
DEFPOINTS
 62
     0
100
AcDbPoint
 10
12829.9887118682
 20
-5384.043955765447
 30
0.0
  0
POINT
  5
5BA6
330
5B9A
100
AcDbEntity
  8
DEFPOINTS
 62
     0
100
AcDbPoint
 10
12819.31391191351
 20
-5384.043955765447
 30
0.0
  0
ENDBLK
  5
5BA7
330
5B9A
100
AcDbEntity
  8
0
100
AcDbBlockEnd
  0
BLOCK
  5
5BA9
330
5BA8
100
AcDbEntity
  8
0
100
AcDbBlockBegin
  2
*D29
 70
     1
 10
0.0
 20
0.0
 30
0.0
  3
*D29
  1

  0
LINE
  5
5BAA
330
5BA8
100
AcDbEntity
  8
2寸法線
 62
     0
370
    -2
100
AcDbLine
 10
12828.6054051021
 20
-5379.043955765447
 30
0.0
 11
12823.48609621978
 21
-5379.043955765447
 31
0.0
  0
LINE
  5
5BAB
330
5BA8
100
AcDbEntity
  8
2寸法線
 62
     0
370
    -2
100
AcDbLine
 10
12828.6054051021
 20
-5382.043955765447
 30
0.0
 11
12823.48609621978
 21
-5382.043955765447
 31
0.0
  0
LINE
  5
5BAC
330
5BA8
100
AcDbEntity
  8
2寸法線
 62
     0
370
    -2
100
AcDbLine
 10
12824.48609621978
 20
-5383.843955765447
 30
0.0
 11
12824.48609621978
 21
-5385.643955765448
 31
0.0
  0
LINE
  5
5BAD
330
5BA8
100
AcDbEntity
  8
2寸法線
 62
     0
370
    -2
100
AcDbLine
 10
12824.48609621978
 20
-5377.243955765447
 30
0.0
 11
12824.48609621978
 21
-5368.186812908304
 31
0.0
  0
LINE
  5
5BAE
330
5BA8
100
AcDbEntity
  8
2寸法線
 62
     0
370
    -2
100
AcDbLine
 10
12824.48609621978
 20
-5382.043955765447
 30
0.0
 11
12824.48609621978
 21
-5379.043955765447
 31
0.0
  0
INSERT
  5
5BAF
330
5BA8
100
AcDbEntity
  8
2寸法線
 62
     0
370
    -2
100
AcDbBlockReference
  2
2
 10
12824.48609621978
 20
-5382.043955765447
 30
0.0
 41
1.8
 42
1.8
 43
1.8
 50
90.0
  0
INSERT
  5
5BB0
330
5BA8
100
AcDbEntity
  8
2寸法線
 62
     0
370
    -2
100
AcDbBlockReference
  2
2
 10
12824.48609621978
 20
-5379.043955765447
 30
0.0
 41
1.8
 42
1.8
 43
1.8
 50
270.0
  0
MTEXT
  5
5BB1
330
5BA8
100
AcDbEntity
  8
2寸法線
 62
     0
100
AcDbMText
 10
12822.48609621978
 20
-5371.815384336874
 30
0.0
 40
3.0
 41
0.0
 71
     5
 72
     1
  1
\A1;（3）
  7
KANJI
 11
0.0000000000000001
 21
1.0
 31
0.0
 73
     1
 44
1.0
1001
ACAD
1000
MTEXTBEGIN
1070
    73
1070
     1
1070
    44
1040
1.0
1070
    74
1070
     0
1000
MTEXTEND
  0
POINT
  5
5BB2
330
5BA8
100
AcDbEntity
  8
DEFPOINTS
 62
     0
100
AcDbPoint
 10
12829.6054051021
 20
-5379.043955765447
 30
0.0
  0
POINT
  5
5BB3
330
5BA8
100
AcDbEntity
  8
DEFPOINTS
 62
     0
100
AcDbPoint
 10
12829.6054051021
 20
-5382.043955765447
 30
0.0
  0
POINT
  5
5BB4
330
5BA8
100
AcDbEntity
  8
DEFPOINTS
 62
     0
100
AcDbPoint
 10
12824.48609621978
 20
-5382.043955765447
 30
0.0
  0
ENDBLK
  5
5BB5
330
5BA8
100
AcDbEntity
  8
0
100
AcDbBlockEnd
  0
BLOCK
  5
5BB7
330
5BB6
100
AcDbEntity
  8
0
100
AcDbBlockBegin
  2
*D30
 70
     1
 10
0.0
 20
0.0
 30
0.0
  3
*D30
  1

  0
LINE
  5
5BB8
330
5BB6
100
AcDbEntity
  8
2寸法線
 62
     0
370
    -2
100
AcDbLine
 10
12531.04649192741
 20
-5421.983636580816
 30
0.0
 11
12536.5464919274
 21
-5421.983636580815
 31
0.0
  0
LINE
  5
5BB9
330
5BB6
100
AcDbEntity
  8
2寸法線
 62
     0
370
    -2
100
AcDbLine
 10
12536.5464919274
 20
-5421.983636580815
 30
0.0
 11
12544.83203882095
 21
-5413.853882909753
 31
0.0
  0
MTEXT
  5
5BBA
330
5BB6
100
AcDbEntity
  8
2寸法線
 62
     0
100
AcDbMText
 10
12533.5464919274
 20
-5419.983636580814
 30
0.0
 40
3.0
 41
0.0
 71
     5
 72
     1
  1
\A1;R2
  7
KANJI
 73
     1
 44
1.0
1001
ACAD
1000
MTEXTBEGIN
1070
    73
1070
     1
1070
    44
1040
1.0
1070
    74
1070
     0
1000
MTEXTEND
  0
INSERT
  5
5BBB
330
5BB6
100
AcDbEntity
  8
2寸法線
 62
     0
370
    -2
100
AcDbBlockReference
  2
2
 10
12546.11685289426
 20
-5412.593227208529
 30
0.0
 41
1.8
 42
1.8
 43
1.8
 50
44.45623742340884
  0
POINT
  5
5BBC
330
5BB6
100
AcDbEntity
  8
DEFPOINTS
 62
     0
100
AcDbPoint
 10
12546.11685289426
 20
-5412.593227208529
 30
0.0
  0
POINT
  5
5BBD
330
5BB6
100
AcDbEntity
  8
DEFPOINTS
 62
     0
100
AcDbPoint
 10
12544.68928170169
 20
-5413.993955765446
 30
0.0
  0
ENDBLK
  5
5BBE
330
5BB6
100
AcDbEntity
  8
0
100
AcDbBlockEnd
  0
BLOCK
  5
5BC0
330
5BBF
100
AcDbEntity
  8
0
100
AcDbBlockBegin
  2
*D31
 70
     1
 10
0.0
 20
0.0
 30
0.0
  3
*D31
  1

  0
LINE
  5
5BC1
330
5BBF
100
AcDbEntity
  8
2寸法線
 62
     0
370
    -2
100
AcDbLine
 10
12821.6143035506
 20
-5406.149742646954
 30
0.0
 11
12815.97144640775
 21
-5406.149742646954
 31
0.0
  0
LINE
  5
5BC2
330
5BBF
100
AcDbEntity
  8
2寸法線
 62
     0
370
    -2
100
AcDbLine
 10
12815.97144640775
 20
-5406.149742646954
 30
0.0
 11
12812.16287743625
 21
-5409.915811779851
 31
0.0
  0
MTEXT
  5
5BC3
330
5BBF
100
AcDbEntity
  8
2寸法線
 62
     0
100
AcDbMText
 10
12819.04287497917
 20
-5404.149742646954
 30
0.0
 40
3.0
 41
0.0
 71
     5
 72
     1
  1
\A1;R4
  7
KANJI
 73
     1
 44
1.0
1001
ACAD
1000
MTEXTBEGIN
1070
    73
1070
     1
1070
    44
1040
1.0
1070
    74
1070
     0
1000
MTEXTEND
  0
INSERT
  5
5BC4
330
5BBF
100
AcDbEntity
  8
2寸法線
 62
     0
370
    -2
100
AcDbBlockReference
  2
2
 10
12810.8829639841
 20
-5411.181442671932
 30
0.0
 41
1.8
 42
1.8
 43
1.8
 50
224.6785277665254
  0
POINT
  5
5BC5
330
5BBF
100
AcDbEntity
  8
DEFPOINTS
 62
     0
100
AcDbPoint
 10
12810.8829639841
 20
-5411.181442671932
 30
0.0
  0
POINT
  5
5BC6
330
5BBF
100
AcDbEntity
  8
DEFPOINTS
 62
     0
100
AcDbPoint
 10
12808.03871186819
 20
-5413.993955765448
 30
0.0
  0
ENDBLK
  5
5BC7
330
5BBF
100
AcDbEntity
  8
0
100
AcDbBlockEnd
  0
BLOCK
  5
5BC9
330
5BC8
100
AcDbEntity
  8
0
100
AcDbBlockBegin
  2
*D32
 70
     1
 10
0.0
 20
0.0
 30
0.0
  3
*D32
  1

  0
LINE
  5
5BCA
330
5BC8
100
AcDbEntity
  8
2寸法線
 62
     0
370
    -2
100
AcDbLine
 10
12616.55822689012
 20
-5421.978380068729
 30
0.0
 11
12611.05822689012
 21
-5421.978380068731
 31
0.0
  0
LINE
  5
5BCB
330
5BC8
100
AcDbEntity
  8
2寸法線
 62
     0
370
    -2
100
AcDbLine
 10
12611.05822689012
 20
-5421.978380068731
 30
0.0
 11
12604.46337900335
 21
-5413.838557855083
 31
0.0
  0
MTEXT
  5
5BCC
330
5BC8
100
AcDbEntity
  8
2寸法線
 62
     0
100
AcDbMText
 10
12614.05822689012
 20
-5419.978380068732
 30
0.0
 40
3.0
 41
0.0
 71
     5
 72
     1
  1
\A1;R2
  7
KANJI
 73
     1
 44
1.0
1001
ACAD
1000
MTEXTBEGIN
1070
    73
1070
     1
1070
    44
1040
1.0
1070
    74
1070
     0
1000
MTEXTEND
  0
INSERT
  5
5BCD
330
5BC8
100
AcDbEntity
  8
2寸法線
 62
     0
370
    -2
100
AcDbBlockReference
  2
2
 10
12603.33025471817
 20
-5412.439976661751
 30
0.0
 41
1.8
 42
1.8
 43
1.8
 50
129.0142379552933
  0
POINT
  5
5BCE
330
5BC8
100
AcDbEntity
  8
DEFPOINTS
 62
     0
100
AcDbPoint
 10
12603.33025471817
 20
-5412.439976661751
 30
0.0
  0
POINT
  5
5BCF
330
5BC8
100
AcDbEntity
  8
DEFPOINTS
 62
     0
100
AcDbPoint
 10
12604.5892817017
 20
-5413.993955765453
 30
0.0
  0
ENDBLK
  5
5BD0
330
5BC8
100
AcDbEntity
  8
0
100
AcDbBlockEnd
  0
BLOCK
  5
5BD2
330
5BD1
100
AcDbEntity
  8
0
100
AcDbBlockBegin
  2
*D33
 70
     1
 10
0.0
 20
0.0
 30
0.0
  3
*D33
  1

  0
LINE
  5
5BD3
330
5BD1
100
AcDbEntity
  8
2寸法線
 62
     0
370
    -2
100
AcDbLine
 10
12695.99589684924
 20
-5379.50931121631
 30
0.0
 11
12683.15471764287
 21
-5369.255620126264
 31
0.0
  0
MTEXT
  5
5BD4
330
5BD1
100
AcDbEntity
  8
2寸法線
 62
     0
100
AcDbMText
 10
12692.1086806105
 20
-5373.845988571196
 30
0.0
 40
3.0
 41
0.0
 71
     5
 72
     1
  1
\A1;R25.5
  7
KANJI
 11
0.781439986200792
 21
-0.6239804067168344
 31
0.0
 73
     1
 44
1.0
1001
ACAD
1000
MTEXTBEGIN
1070
    73
1070
     1
1070
    44
1040
1.0
1070
    74
1070
     0
1000
MTEXTEND
  0
INSERT
  5
5BD5
330
5BD1
100
AcDbEntity
  8
2寸法線
 62
     0
370
    -2
100
AcDbBlockReference
  2
2
 10
12681.74812566771
 20
-5368.132455394174
 30
0.0
 41
1.8
 42
1.8
 43
1.8
 50
141.3926089135274
  0
POINT
  5
5BD6
330
5BD1
100
AcDbEntity
  8
DEFPOINTS
 62
     0
100
AcDbPoint
 10
12681.74812566771
 20
-5368.132455394174
 30
0.0
  0
POINT
  5
5BD7
330
5BD1
100
AcDbEntity
  8
DEFPOINTS
 62
     0
100
AcDbPoint
 10
12701.67484531583
 20
-5384.04395576545
 30
0.0
  0
ENDBLK
  5
5BD8
330
5BD1
100
AcDbEntity
  8
0
100
AcDbBlockEnd
  0
BLOCK
  5
5BDA
330
5BD9
100
AcDbEntity
  8
0
100
AcDbBlockBegin
  2
*D34
 70
     1
 10
0.0
 20
0.0
 30
0.0
  3
*D34
  1

  0
LINE
  5
5BDB
330
5BD9
100
AcDbEntity
  8
2寸法線
 62
     0
370
    -2
100
AcDbLine
 10
12726.67484531583
 20
-5409.993955765448
 30
0.0
 11
12738.9504184529
 21
-5409.993955765448
 31
0.0
  0
LINE
  5
5BDC
330
5BD9
100
AcDbEntity
  8
2寸法線
 62
     0
370
    -2
100
AcDbLine
 10
12726.67484531583
 20
-5358.093955765448
 30
0.0
 11
12738.9504184529
 21
-5358.093955765448
 31
0.0
  0
LINE
  5
5BDD
330
5BD9
100
AcDbEntity
  8
2寸法線
 62
     0
370
    -2
100
AcDbLine
 10
12737.9504184529
 20
-5408.193955765447
 30
0.0
 11
12737.9504184529
 21
-5359.893955765449
 31
0.0
  0
INSERT
  5
5BDE
330
5BD9
100
AcDbEntity
  8
2寸法線
 62
     0
370
    -2
100
AcDbBlockReference
  2
2
 10
12737.9504184529
 20
-5409.993955765448
 30
0.0
 41
1.8
 42
1.8
 43
1.8
 50
270.0
  0
INSERT
  5
5BDF
330
5BD9
100
AcDbEntity
  8
2寸法線
 62
     0
370
    -2
100
AcDbBlockReference
  2
2
 10
12737.9504184529
 20
-5358.093955765448
 30
0.0
 41
1.8
 42
1.8
 43
1.8
 50
90.0
  0
MTEXT
  5
5BE0
330
5BD9
100
AcDbEntity
  8
2寸法線
 62
     0
100
AcDbMText
 10
12735.9504184529
 20
-5384.043955765446
 30
0.0
 40
3.0
 41
0.0
 71
     5
 72
     1
  1
\A1;（カン合時）51.9
  7
KANJI
 11
0.0000000000000001
 21
1.0
 31
0.0
 73
     1
 44
1.0
1001
ACAD
1000
MTEXTBEGIN
1070
    73
1070
     1
1070
    44
1040
1.0
1070
    74
1070
     0
1000
MTEXTEND
  0
POINT
  5
5BE1
330
5BD9
100
AcDbEntity
  8
DEFPOINTS
 62
     0
100
AcDbPoint
 10
12725.67484531583
 20
-5409.993955765448
 30
0.0
  0
POINT
  5
5BE2
330
5BD9
100
AcDbEntity
  8
DEFPOINTS
 62
     0
100
AcDbPoint
 10
12725.67484531583
 20
-5358.093955765448
 30
0.0
  0
POINT
  5
5BE3
330
5BD9
100
AcDbEntity
  8
DEFPOINTS
 62
     0
100
AcDbPoint
 10
12737.9504184529
 20
-5358.093955765448
 30
0.0
  0
ENDBLK
  5
5BE4
330
5BD9
100
AcDbEntity
  8
0
100
AcDbBlockEnd
  0
BLOCK
  5
5BE6
330
5BE5
100
AcDbEntity
  8
0
100
AcDbBlockBegin
  2
*D35
 70
     1
 10
0.0
 20
0.0
 30
0.0
  3
*D35
  1

  0
LINE
  5
5BE7
330
5BE5
100
AcDbEntity
  8
2寸法線
 62
     0
370
    -2
100
AcDbLine
 10
12742.70019725298
 20
-5448.809255345519
 30
0.0
 11
12746.91448296727
 21
-5448.809255345517
 31
0.0
  0
LINE
  5
5BE8
330
5BE5
100
AcDbEntity
  8
2寸法線
 62
     0
370
    -2
100
AcDbLine
 10
12746.91448296727
 20
-5448.809255345517
 30
0.0
 11
12752.33967904044
 21
-5454.561526902914
 31
0.0
  0
MTEXT
  5
5BE9
330
5BE5
100
AcDbEntity
  8
2寸法線
 62
     0
100
AcDbMText
 10
12744.55734011012
 20
-5446.809255345518
 30
0.0
 40
3.0
 41
0.0
 71
     5
 72
     1
  1
\A1;R1
  7
KANJI
 73
     1
 44
1.0
1001
ACAD
1000
MTEXTBEGIN
1070
    73
1070
     1
1070
    44
1040
1.0
1070
    74
1070
     0
1000
MTEXTEND
  0
INSERT
  5
5BEA
330
5BE5
100
AcDbEntity
  8
2寸法線
 62
     0
370
    -2
100
AcDbBlockReference
  2
2
 10
12753.57469811266
 20
-5455.871003092557
 30
0.0
 41
1.8
 42
1.8
 43
1.8
 50
313.3238870048903
  0
POINT
  5
5BEB
330
5BE5
100
AcDbEntity
  8
DEFPOINTS
 62
     0
100
AcDbPoint
 10
12753.57469811266
 20
-5455.871003092557
 30
0.0
  0
POINT
  5
5BEC
330
5BE5
100
AcDbEntity
  8
DEFPOINTS
 62
     0
100
AcDbPoint
 10
12752.20245469907
 20
-5454.416029548497
 30
0.0
  0
ENDBLK
  5
5BED
330
5BE5
100
AcDbEntity
  8
0
100
AcDbBlockEnd
  0
BLOCK
  5
5BEF
330
5BEE
100
AcDbEntity
  8
0
100
AcDbBlockBegin
  2
*D36
 70
     1
 10
0.0
 20
0.0
 30
0.0
  3
*D36
  1

  0
LINE
  5
5BF0
330
5BEE
100
AcDbEntity
  8
2寸法線
 62
     0
370
    -2
100
AcDbLine
 10
12773.69902916297
 20
-5444.136687965005
 30
0.0
 11
12769.48474344868
 21
-5444.136687965005
 31
0.0
  0
LINE
  5
5BF1
330
5BEE
100
AcDbEntity
  8
2寸法線
 62
     0
370
    -2
100
AcDbLine
 10
12769.48474344868
 20
-5444.136687965005
 30
0.0
 11
12761.77362752974
 21
-5452.330057323534
 31
0.0
  0
MTEXT
  5
5BF2
330
5BEE
100
AcDbEntity
  8
2寸法線
 62
     0
100
AcDbMText
 10
12771.84188630583
 20
-5442.136687965005
 30
0.0
 40
3.0
 41
0.0
 71
     5
 72
     1
  1
\A1;R1
  7
KANJI
 73
     1
 44
1.0
1001
ACAD
1000
MTEXTBEGIN
1070
    73
1070
     1
1070
    44
1040
1.0
1070
    74
1070
     0
1000
MTEXTEND
  0
INSERT
  5
5BF3
330
5BEE
100
AcDbEntity
  8
2寸法線
 62
     0
370
    -2
100
AcDbBlockReference
  2
2
 10
12760.53999571908
 20
-5453.640840507635
 30
0.0
 41
1.8
 42
1.8
 43
1.8
 50
226.7367819698879
  0
POINT
  5
5BF4
330
5BEE
100
AcDbEntity
  8
DEFPOINTS
 62
     0
100
AcDbPoint
 10
12760.53999571908
 20
-5453.640840507635
 30
0.0
  0
POINT
  5
5BF5
330
5BEE
100
AcDbEntity
  8
DEFPOINTS
 62
     0
100
AcDbPoint
 10
12759.16929370723
 20
-5455.097266267743
 30
0.0
  0
ENDBLK
  5
5BF6
330
5BEE
100
AcDbEntity
  8
0
100
AcDbBlockEnd
  0
BLOCK
  5
5BF8
330
5BF7
100
AcDbEntity
  8
0
100
AcDbBlockBegin
  2
*D37
 70
     1
 10
0.0
 20
0.0
 30
0.0
  3
*D37
  1

  0
LINE
  5
5BF9
330
5BF7
100
AcDbEntity
  8
2寸法線
 62
     0
370
    -2
100
AcDbLine
 10
12760.33111619123
 20
-5451.097266267741
 30
0.0
 11
12760.33111619123
 21
-5437.652904944869
 31
0.0
  0
LINE
  5
5BFA
330
5BF7
100
AcDbEntity
  8
2寸法線
 62
     0
370
    -2
100
AcDbLine
 10
12762.33111619123
 20
-5455.604431875195
 30
0.0
 11
12762.33111619123
 21
-5437.652904944869
 31
0.0
  0
LINE
  5
5BFB
330
5BF7
100
AcDbEntity
  8
2寸法線
 62
     0
370
    -2
100
AcDbLine
 10
12758.53111619123
 20
-5438.652904944868
 30
0.0
 11
12756.73111619123
 21
-5438.652904944868
 31
0.0
  0
LINE
  5
5BFC
330
5BF7
100
AcDbEntity
  8
2寸法線
 62
     0
370
    -2
100
AcDbLine
 10
12764.13111619123
 20
-5438.652904944868
 30
0.0
 11
12767.64540190552
 21
-5438.652904944868
 31
0.0
  0
LINE
  5
5BFD
330
5BF7
100
AcDbEntity
  8
2寸法線
 62
     0
370
    -2
100
AcDbLine
 10
12760.33111619123
 20
-5438.652904944868
 30
0.0
 11
12762.33111619123
 21
-5438.652904944868
 31
0.0
  0
INSERT
  5
5BFE
330
5BF7
100
AcDbEntity
  8
2寸法線
 62
     0
370
    -2
100
AcDbBlockReference
  2
2
 10
12760.33111619123
 20
-5438.652904944868
 30
0.0
 41
1.8
 42
1.8
 43
1.8
  0
INSERT
  5
5BFF
330
5BF7
100
AcDbEntity
  8
2寸法線
 62
     0
370
    -2
100
AcDbBlockReference
  2
2
 10
12762.33111619123
 20
-5438.652904944868
 30
0.0
 41
1.8
 42
1.8
 43
1.8
 50
180.0
  0
MTEXT
  5
5C00
330
5BF7
100
AcDbEntity
  8
2寸法線
 62
     0
100
AcDbMText
 10
12766.78825904838
 20
-5436.652904944867
 30
0.0
 40
3.0
 41
0.0
 71
     5
 72
     1
  1
\A1;1
  7
KANJI
 73
     1
 44
1.0
1001
ACAD
1000
MTEXTBEGIN
1070
    73
1070
     1
1070
    44
1040
1.0
1070
    74
1070
     0
1000
MTEXTEND
  0
POINT
  5
5C01
330
5BF7
100
AcDbEntity
  8
DEFPOINTS
 62
     0
100
AcDbPoint
 10
12760.33111619123
 20
-5452.097266267741
 30
0.0
  0
POINT
  5
5C02
330
5BF7
100
AcDbEntity
  8
DEFPOINTS
 62
     0
100
AcDbPoint
 10
12762.33111619123
 20
-5456.604431875195
 30
0.0
  0
POINT
  5
5C03
330
5BF7
100
AcDbEntity
  8
DEFPOINTS
 62
     0
100
AcDbPoint
 10
12762.33111619123
 20
-5438.652904944868
 30
0.0
  0
ENDBLK
  5
5C04
330
5BF7
100
AcDbEntity
  8
0
100
AcDbBlockEnd
  0
BLOCK
  5
5C06
330
5C05
100
AcDbEntity
  8
0
100
AcDbBlockBegin
  2
*D38
 70
     1
 10
0.0
 20
0.0
 30
0.0
  3
*D38
  1

  0
LINE
  5
5C07
330
5C05
100
AcDbEntity
  8
2寸法線
 62
     0
370
    -2
100
AcDbLine
 10
12755.33111619124
 20
-5452.097266267741
 30
0.0
 11
12755.33111619124
 21
-5437.652904944869
 31
0.0
  0
LINE
  5
5C08
330
5C05
100
AcDbEntity
  8
2寸法線
 62
     0
370
    -2
100
AcDbLine
 10
12760.33111619123
 20
-5452.097266267741
 30
0.0
 11
12760.33111619123
 21
-5437.652904944869
 31
0.0
  0
LINE
  5
5C09
330
5C05
100
AcDbEntity
  8
2寸法線
 62
     0
370
    -2
100
AcDbLine
 10
12758.53111619123
 20
-5438.652904944868
 30
0.0
 11
12757.13111619124
 21
-5438.652904944868
 31
0.0
  0
LINE
  5
5C0A
330
5C05
100
AcDbEntity
  8
2寸法線
 62
     0
370
    -2
100
AcDbLine
 10
12755.33111619124
 20
-5438.652904944868
 30
0.0
 11
12746.24540190552
 21
-5438.652904944868
 31
0.0
  0
INSERT
  5
5C0B
330
5C05
100
AcDbEntity
  8
2寸法線
 62
     0
370
    -2
100
AcDbBlockReference
  2
2
 10
12760.33111619123
 20
-5438.652904944868
 30
0.0
 41
1.8
 42
1.8
 43
1.8
  0
INSERT
  5
5C0C
330
5C05
100
AcDbEntity
  8
2寸法線
 62
     0
370
    -2
100
AcDbBlockReference
  2
2
 10
12755.33111619124
 20
-5438.652904944868
 30
0.0
 41
1.8
 42
1.8
 43
1.8
 50
180.0
  0
MTEXT
  5
5C0D
330
5C05
100
AcDbEntity
  8
2寸法線
 62
     0
100
AcDbMText
 10
12749.88825904838
 20
-5436.652904944867
 30
0.0
 40
3.0
 41
0.0
 71
     5
 72
     1
  1
\A1;2.5
  7
KANJI
 73
     1
 44
1.0
1001
ACAD
1000
MTEXTBEGIN
1070
    73
1070
     1
1070
    44
1040
1.0
1070
    74
1070
     0
1000
MTEXTEND
  0
POINT
  5
5C0E
330
5C05
100
AcDbEntity
  8
DEFPOINTS
 62
     0
100
AcDbPoint
 10
12755.33111619124
 20
-5453.09726626774
 30
0.0
  0
POINT
  5
5C0F
330
5C05
100
AcDbEntity
  8
DEFPOINTS
 62
     0
100
AcDbPoint
 10
12760.33111619123
 20
-5453.09726626774
 30
0.0
  0
POINT
  5
5C10
330
5C05
100
AcDbEntity
  8
DEFPOINTS
 62
     0
100
AcDbPoint
 10
12760.33111619123
 20
-5438.652904944868
 30
0.0
  0
ENDBLK
  5
5C11
330
5C05
100
AcDbEntity
  8
0
100
AcDbBlockEnd
  0
BLOCK
  5
5C13
330
5C12
100
AcDbEntity
  8
0
100
AcDbBlockBegin
  2
*D39
 70
     1
 10
0.0
 20
0.0
 30
0.0
  3
*D39
  1

  0
LINE
  5
5C14
330
5C12
100
AcDbEntity
  8
2寸法線
 62
     0
370
    -2
100
AcDbLine
 10
12753.3200599717
 20
-5458.437124689111
 30
0.0
 11
12753.3200599717
 21
-5471.738378540336
 31
0.0
  0
LINE
  5
5C15
330
5C12
100
AcDbEntity
  8
2寸法線
 62
     0
370
    -2
100
AcDbLine
 10
12755.33111619124
 20
-5454.097266267741
 30
0.0
 11
12755.33111619124
 21
-5471.738378540336
 31
0.0
  0
LINE
  5
5C16
330
5C12
100
AcDbEntity
  8
2寸法線
 62
     0
370
    -2
100
AcDbLine
 10
12757.13111619124
 20
-5470.738378540335
 30
0.0
 11
12758.93111619124
 21
-5470.738378540335
 31
0.0
  0
LINE
  5
5C17
330
5C12
100
AcDbEntity
  8
2寸法線
 62
     0
370
    -2
100
AcDbLine
 10
12751.5200599717
 20
-5470.738378540335
 30
0.0
 11
12746.7264280602
 21
-5470.738378540335
 31
0.0
  0
LINE
  5
5C18
330
5C12
100
AcDbEntity
  8
2寸法線
 62
     0
370
    -2
100
AcDbLine
 10
12755.33111619124
 20
-5470.738378540335
 30
0.0
 11
12753.3200599717
 21
-5470.738378540335
 31
0.0
  0
INSERT
  5
5C19
330
5C12
100
AcDbEntity
  8
2寸法線
 62
     0
370
    -2
100
AcDbBlockReference
  2
2
 10
12755.33111619124
 20
-5470.738378540335
 30
0.0
 41
1.8
 42
1.8
 43
1.8
 50
180.0
  0
INSERT
  5
5C1A
330
5C12
100
AcDbEntity
  8
2寸法線
 62
     0
370
    -2
100
AcDbBlockReference
  2
2
 10
12753.3200599717
 20
-5470.738378540335
 30
0.0
 41
1.8
 42
1.8
 43
1.8
  0
MTEXT
  5
5C1B
330
5C12
100
AcDbEntity
  8
2寸法線
 62
     0
100
AcDbMText
 10
12747.58357091735
 20
-5468.738378540336
 30
0.0
 40
3.0
 41
0.0
 71
     5
 72
     1
  1
\A1;1
  7
KANJI
 73
     1
 44
1.0
1001
ACAD
1000
MTEXTBEGIN
1070
    73
1070
     1
1070
    44
1040
1.0
1070
    74
1070
     0
1000
MTEXTEND
  0
POINT
  5
5C1C
330
5C12
100
AcDbEntity
  8
DEFPOINTS
 62
     0
100
AcDbPoint
 10
12753.3200599717
 20
-5457.437124689111
 30
0.0
  0
POINT
  5
5C1D
330
5C12
100
AcDbEntity
  8
DEFPOINTS
 62
     0
100
AcDbPoint
 10
12755.33111619124
 20
-5453.09726626774
 30
0.0
  0
POINT
  5
5C1E
330
5C12
100
AcDbEntity
  8
DEFPOINTS
 62
     0
100
AcDbPoint
 10
12755.33111619124
 20
-5470.738378540335
 30
0.0
  0
ENDBLK
  5
5C1F
330
5C12
100
AcDbEntity
  8
0
100
AcDbBlockEnd
  0
BLOCK
  5
5C21
330
5C20
100
AcDbEntity
  8
0
100
AcDbBlockBegin
  2
*D40
 70
     1
 10
0.0
 20
0.0
 30
0.0
  3
*D40
  1

  0
LINE
  5
5C22
330
5C20
100
AcDbEntity
  8
2寸法線
 62
     0
370
    -2
100
AcDbLine
 10
12767.33111619124
 20
-5465.577945792717
 30
0.0
 11
12767.33111619124
 21
-5477.375966541919
 31
0.0
  0
LINE
  5
5C23
330
5C20
100
AcDbEntity
  8
2寸法線
 62
     0
370
    -2
100
AcDbLine
 10
12753.3200599717
 20
-5457.437124689111
 30
0.0
 11
12753.3200599717
 21
-5477.375966541919
 31
0.0
  0
LINE
  5
5C24
330
5C20
100
AcDbEntity
  8
2寸法線
 62
     0
370
    -2
100
AcDbLine
 10
12765.53111619124
 20
-5476.375966541919
 30
0.0
 11
12755.1200599717
 21
-5476.375966541919
 31
0.0
  0
INSERT
  5
5C25
330
5C20
100
AcDbEntity
  8
2寸法線
 62
     0
370
    -2
100
AcDbBlockReference
  2
2
 10
12767.33111619124
 20
-5476.375966541919
 30
0.0
 41
1.8
 42
1.8
 43
1.8
  0
INSERT
  5
5C26
330
5C20
100
AcDbEntity
  8
2寸法線
 62
     0
370
    -2
100
AcDbBlockReference
  2
2
 10
12753.3200599717
 20
-5476.375966541919
 30
0.0
 41
1.8
 42
1.8
 43
1.8
 50
180.0
  0
MTEXT
  5
5C27
330
5C20
100
AcDbEntity
  8
2寸法線
 62
     0
100
AcDbMText
 10
12760.29584865701
 20
-5474.375966541919
 30
0.0
 40
3.0
 41
0.0
 71
     5
 72
     1
  1
\A1;7
  7
KANJI
 73
     1
 44
1.0
1001
ACAD
1000
MTEXTBEGIN
1070
    73
1070
     1
1070
    44
1040
1.0
1070
    74
1070
     0
1000
MTEXTEND
  0
POINT
  5
5C28
330
5C20
100
AcDbEntity
  8
DEFPOINTS
 62
     0
100
AcDbPoint
 10
12767.33111619124
 20
-5464.577945792718
 30
0.0
  0
POINT
  5
5C29
330
5C20
100
AcDbEntity
  8
DEFPOINTS
 62
     0
100
AcDbPoint
 10
12753.3200599717
 20
-5456.43712468911
 30
0.0
  0
POINT
  5
5C2A
330
5C20
100
AcDbEntity
  8
DEFPOINTS
 62
     0
100
AcDbPoint
 10
12753.3200599717
 20
-5476.375966541919
 30
0.0
  0
ENDBLK
  5
5C2B
330
5C20
100
AcDbEntity
  8
0
100
AcDbBlockEnd
  0
BLOCK
  5
5C2D
330
5C2C
100
AcDbEntity
  8
0
100
AcDbBlockBegin
  2
*D41
 70
     1
 10
0.0
 20
0.0
 30
0.0
  3
*D41
  1

  0
LINE
  5
5C2E
330
5C2C
100
AcDbEntity
  8
2寸法線
 62
     0
370
    -2
100
AcDbLine
 10
12768.33111619124
 20
-5456.69726626775
 30
0.0
 11
12781.34437084883
 21
-5456.69726626775
 31
0.0
  0
LINE
  5
5C2F
330
5C2C
100
AcDbEntity
  8
2寸法線
 62
     0
370
    -2
100
AcDbLine
 10
12760.16929370723
 20
-5453.09726626774
 30
0.0
 11
12781.34437084883
 21
-5453.09726626774
 31
0.0
  0
LINE
  5
5C30
330
5C2C
100
AcDbEntity
  8
2寸法線
 62
     0
370
    -2
100
AcDbLine
 10
12780.34437084882
 20
-5458.49726626775
 30
0.0
 11
12780.34437084882
 21
-5460.29726626775
 31
0.0
  0
LINE
  5
5C31
330
5C2C
100
AcDbEntity
  8
2寸法線
 62
     0
370
    -2
100
AcDbLine
 10
12780.34437084882
 20
-5451.29726626774
 30
0.0
 11
12780.34437084882
 21
-5442.782980553456
 31
0.0
  0
LINE
  5
5C32
330
5C2C
100
AcDbEntity
  8
2寸法線
 62
     0
370
    -2
100
AcDbLine
 10
12780.34437084882
 20
-5456.69726626775
 30
0.0
 11
12780.34437084882
 21
-5453.09726626774
 31
0.0
  0
INSERT
  5
5C33
330
5C2C
100
AcDbEntity
  8
2寸法線
 62
     0
370
    -2
100
AcDbBlockReference
  2
2
 10
12780.34437084882
 20
-5456.69726626775
 30
0.0
 41
1.8
 42
1.8
 43
1.8
 50
90.0
  0
INSERT
  5
5C34
330
5C2C
100
AcDbEntity
  8
2寸法線
 62
     0
370
    -2
100
AcDbBlockReference
  2
2
 10
12780.34437084882
 20
-5453.09726626774
 30
0.0
 41
1.8
 42
1.8
 43
1.8
 50
270.0
  0
MTEXT
  5
5C35
330
5C2C
100
AcDbEntity
  8
2寸法線
 62
     0
100
AcDbMText
 10
12778.34437084883
 20
-5446.140123410597
 30
0.0
 40
3.0
 41
0.0
 71
     5
 72
     1
  1
\A1;1.8
  7
KANJI
 11
0.0000000000000001
 21
1.0
 31
0.0
 73
     1
 44
1.0
1001
ACAD
1000
MTEXTBEGIN
1070
    73
1070
     1
1070
    44
1040
1.0
1070
    74
1070
     0
1000
MTEXTEND
  0
POINT
  5
5C36
330
5C2C
100
AcDbEntity
  8
DEFPOINTS
 62
     0
100
AcDbPoint
 10
12767.33111619124
 20
-5456.69726626775
 30
0.0
  0
POINT
  5
5C37
330
5C2C
100
AcDbEntity
  8
DEFPOINTS
 62
     0
100
AcDbPoint
 10
12759.16929370723
 20
-5453.09726626774
 30
0.0
  0
POINT
  5
5C38
330
5C2C
100
AcDbEntity
  8
DEFPOINTS
 62
     0
100
AcDbPoint
 10
12780.34437084882
 20
-5453.09726626774
 30
0.0
  0
ENDBLK
  5
5C39
330
5C2C
100
AcDbEntity
  8
0
100
AcDbBlockEnd
  0
BLOCK
  5
5C3B
330
5C3A
100
AcDbEntity
  8
0
100
AcDbBlockBegin
  2
*D42
 70
     1
 10
0.0
 20
0.0
 30
0.0
  3
*D42
  1

  0
LINE
  5
5C3C
330
5C3A
100
AcDbEntity
  8
2寸法線
 62
     0
370
    -2
100
AcDbLine
 10
12661.01612217675
 20
-5474.271859455399
 30
0.0
 11
12665.23040789103
 21
-5474.271859455399
 31
0.0
  0
LINE
  5
5C3D
330
5C3A
100
AcDbEntity
  8
2寸法線
 62
     0
370
    -2
100
AcDbLine
 10
12665.23040789103
 20
-5474.271859455399
 30
0.0
 11
12674.04243687261
 21
-5465.964637289662
 31
0.0
  0
MTEXT
  5
5C3E
330
5C3A
100
AcDbEntity
  8
2寸法線
 62
     0
100
AcDbMText
 10
12662.87326503389
 20
-5472.271859455398
 30
0.0
 40
3.0
 41
0.0
 71
     5
 72
     1
  1
\A1;R1
  7
KANJI
 73
     1
 44
1.0
1001
ACAD
1000
MTEXTBEGIN
1070
    73
1070
     1
1070
    44
1040
1.0
1070
    74
1070
     0
1000
MTEXTEND
  0
INSERT
  5
5C3F
330
5C3A
100
AcDbEntity
  8
2寸法線
 62
     0
370
    -2
100
AcDbBlockReference
  2
2
 10
12675.35219144746
 20
-5464.729913452662
 30
0.0
 41
1.8
 42
1.8
 43
1.8
 50
43.31097043998792
  0
POINT
  5
5C40
330
5C3A
100
AcDbEntity
  8
DEFPOINTS
 62
     0
100
AcDbPoint
 10
12675.35219144746
 20
-5464.729913452662
 30
0.0
  0
POINT
  5
5C41
330
5C3A
100
AcDbEntity
  8
DEFPOINTS
 62
     0
100
AcDbPoint
 10
12676.07983287794
 20
-5464.043955765435
 30
0.0
  0
ENDBLK
  5
5C42
330
5C3A
100
AcDbEntity
  8
0
100
AcDbBlockEnd
  0
BLOCK
  5
5C44
330
5C43
100
AcDbEntity
  8
0
100
AcDbBlockBegin
  2
*D43
 70
     1
 10
0.0
 20
0.0
 30
0.0
  3
*D43
  1

  0
LINE
  5
5C45
330
5C43
100
AcDbEntity
  8
2寸法線
 62
     0
370
    -2
100
AcDbLine
 10
12676.17484531583
 20
-5466.043955765449
 30
0.0
 11
12676.17484531583
 21
-5480.450906722909
 31
0.0
  0
LINE
  5
5C46
330
5C43
100
AcDbEntity
  8
2寸法線
 62
     0
370
    -2
100
AcDbLine
 10
12674.17484531583
 20
-5456.043955765448
 30
0.0
 11
12674.17484531583
 21
-5480.450906722909
 31
0.0
  0
LINE
  5
5C47
330
5C43
100
AcDbEntity
  8
2寸法線
 62
     0
370
    -2
100
AcDbLine
 10
12672.37484531583
 20
-5479.45090672291
 30
0.0
 11
12670.57484531583
 21
-5479.45090672291
 31
0.0
  0
LINE
  5
5C48
330
5C43
100
AcDbEntity
  8
2寸法線
 62
     0
370
    -2
100
AcDbLine
 10
12677.97484531583
 20
-5479.45090672291
 30
0.0
 11
12682.77484531583
 21
-5479.45090672291
 31
0.0
  0
LINE
  5
5C49
330
5C43
100
AcDbEntity
  8
2寸法線
 62
     0
370
    -2
100
AcDbLine
 10
12674.17484531583
 20
-5479.45090672291
 30
0.0
 11
12676.17484531583
 21
-5479.45090672291
 31
0.0
  0
INSERT
  5
5C4A
330
5C43
100
AcDbEntity
  8
2寸法線
 62
     0
370
    -2
100
AcDbBlockReference
  2
2
 10
12674.17484531583
 20
-5479.45090672291
 30
0.0
 41
1.8
 42
1.8
 43
1.8
  0
INSERT
  5
5C4B
330
5C43
100
AcDbEntity
  8
2寸法線
 62
     0
370
    -2
100
AcDbBlockReference
  2
2
 10
12676.17484531583
 20
-5479.45090672291
 30
0.0
 41
1.8
 42
1.8
 43
1.8
 50
180.0
  0
MTEXT
  5
5C4C
330
5C43
100
AcDbEntity
  8
2寸法線
 62
     0
100
AcDbMText
 10
12681.27484531583
 20
-5477.450906722909
 30
0.0
 40
3.0
 41
0.0
 71
     5
 72
     1
  1
\A1;2
  7
KANJI
 73
     1
 44
1.0
1001
ACAD
1000
MTEXTBEGIN
1070
    73
1070
     1
1070
    44
1040
1.0
1070
    74
1070
     0
1000
MTEXTEND
  0
POINT
  5
5C4D
330
5C43
100
AcDbEntity
  8
DEFPOINTS
 62
     0
100
AcDbPoint
 10
12676.17484531583
 20
-5465.043955765449
 30
0.0
  0
POINT
  5
5C4E
330
5C43
100
AcDbEntity
  8
DEFPOINTS
 62
     0
100
AcDbPoint
 10
12674.17484531583
 20
-5455.043955765447
 30
0.0
  0
POINT
  5
5C4F
330
5C43
100
AcDbEntity
  8
DEFPOINTS
 62
     0
100
AcDbPoint
 10
12674.17484531583
 20
-5479.45090672291
 30
0.0
  0
ENDBLK
  5
5C50
330
5C43
100
AcDbEntity
  8
0
100
AcDbBlockEnd
  0
BLOCK
  5
5C52
330
5C51
100
AcDbEntity
  8
0
100
AcDbBlockBegin
  2
*D44
 70
     1
 10
0.0
 20
0.0
 30
0.0
  3
*D44
  1

  0
LINE
  5
5C53
330
5C51
100
AcDbEntity
  8
2寸法線
 62
     0
370
    -2
100
AcDbLine
 10
12676.17484531583
 20
-5466.043955765447
 30
0.0
 11
12676.17484531583
 21
-5474.859224614168
 31
0.0
  0
LINE
  5
5C54
330
5C51
100
AcDbEntity
  8
2寸法線
 62
     0
370
    -2
100
AcDbLine
 10
12675.17484531583
 20
-5466.043955765449
 30
0.0
 11
12675.17484531583
 21
-5474.859224614168
 31
0.0
  0
LINE
  5
5C55
330
5C51
100
AcDbEntity
  8
2寸法線
 62
     0
370
    -2
100
AcDbLine
 10
12673.37484531583
 20
-5473.859224614168
 30
0.0
 11
12671.57484531583
 21
-5473.859224614168
 31
0.0
  0
LINE
  5
5C56
330
5C51
100
AcDbEntity
  8
2寸法線
 62
     0
370
    -2
100
AcDbLine
 10
12677.97484531583
 20
-5473.859224614168
 30
0.0
 11
12681.48913103011
 21
-5473.859224614168
 31
0.0
  0
LINE
  5
5C57
330
5C51
100
AcDbEntity
  8
2寸法線
 62
     0
370
    -2
100
AcDbLine
 10
12675.17484531583
 20
-5473.859224614168
 30
0.0
 11
12676.17484531583
 21
-5473.859224614168
 31
0.0
  0
INSERT
  5
5C58
330
5C51
100
AcDbEntity
  8
2寸法線
 62
     0
370
    -2
100
AcDbBlockReference
  2
2
 10
12675.17484531583
 20
-5473.859224614168
 30
0.0
 41
1.8
 42
1.8
 43
1.8
  0
INSERT
  5
5C59
330
5C51
100
AcDbEntity
  8
2寸法線
 62
     0
370
    -2
100
AcDbBlockReference
  2
2
 10
12676.17484531583
 20
-5473.859224614168
 30
0.0
 41
1.8
 42
1.8
 43
1.8
 50
180.0
  0
MTEXT
  5
5C5A
330
5C51
100
AcDbEntity
  8
2寸法線
 62
     0
100
AcDbMText
 10
12680.63198817297
 20
-5471.859224614168
 30
0.0
 40
3.0
 41
0.0
 71
     5
 72
     1
  1
\A1;1
  7
KANJI
 73
     1
 44
1.0
1001
ACAD
1000
MTEXTBEGIN
1070
    73
1070
     1
1070
    44
1040
1.0
1070
    74
1070
     0
1000
MTEXTEND
  0
POINT
  5
5C5B
330
5C51
100
AcDbEntity
  8
DEFPOINTS
 62
     0
100
AcDbPoint
 10
12676.17484531583
 20
-5465.043955765447
 30
0.0
  0
POINT
  5
5C5C
330
5C51
100
AcDbEntity
  8
DEFPOINTS
 62
     0
100
AcDbPoint
 10
12675.17484531583
 20
-5465.043955765449
 30
0.0
  0
POINT
  5
5C5D
330
5C51
100
AcDbEntity
  8
DEFPOINTS
 62
     0
100
AcDbPoint
 10
12675.17484531583
 20
-5473.859224614168
 30
0.0
  0
ENDBLK
  5
5C5E
330
5C51
100
AcDbEntity
  8
0
100
AcDbBlockEnd
  0
BLOCK
  5
5C60
330
5C5F
100
AcDbEntity
  8
0
100
AcDbBlockBegin
  2
*D45
 70
     1
 10
0.0
 20
0.0
 30
0.0
  3
*D45
  1

  0
LINE
  5
5C61
330
5C5F
100
AcDbEntity
  8
2寸法線
 62
     0
370
    -2
100
AcDbLine
 10
12674.17484531583
 20
-5465.043955765449
 30
0.0
 11
12660.27687502907
 21
-5465.043955765449
 31
0.0
  0
LINE
  5
5C62
330
5C5F
100
AcDbEntity
  8
2寸法線
 62
     0
370
    -2
100
AcDbLine
 10
12673.17484531583
 20
-5455.043955765447
 30
0.0
 11
12660.27687502907
 21
-5455.043955765447
 31
0.0
  0
LINE
  5
5C63
330
5C5F
100
AcDbEntity
  8
2寸法線
 62
     0
370
    -2
100
AcDbLine
 10
12661.27687502907
 20
-5463.243955765449
 30
0.0
 11
12661.27687502907
 21
-5456.843955765447
 31
0.0
  0
INSERT
  5
5C64
330
5C5F
100
AcDbEntity
  8
2寸法線
 62
     0
370
    -2
100
AcDbBlockReference
  2
2
 10
12661.27687502907
 20
-5465.043955765449
 30
0.0
 41
1.8
 42
1.8
 43
1.8
 50
270.0
  0
INSERT
  5
5C65
330
5C5F
100
AcDbEntity
  8
2寸法線
 62
     0
370
    -2
100
AcDbBlockReference
  2
2
 10
12661.27687502907
 20
-5455.043955765447
 30
0.0
 41
1.8
 42
1.8
 43
1.8
 50
90.0
  0
MTEXT
  5
5C66
330
5C5F
100
AcDbEntity
  8
2寸法線
 62
     0
100
AcDbMText
 10
12659.27687502907
 20
-5460.043955765446
 30
0.0
 40
3.0
 41
0.0
 71
     5
 72
     1
  1
\A1;（10）
  7
KANJI
 11
0.0000000000000001
 21
1.0
 31
0.0
 73
     1
 44
1.0
1001
ACAD
1000
MTEXTBEGIN
1070
    73
1070
     1
1070
    44
1040
1.0
1070
    74
1070
     0
1000
MTEXTEND
  0
POINT
  5
5C67
330
5C5F
100
AcDbEntity
  8
DEFPOINTS
 62
     0
100
AcDbPoint
 10
12675.17484531583
 20
-5465.043955765449
 30
0.0
  0
POINT
  5
5C68
330
5C5F
100
AcDbEntity
  8
DEFPOINTS
 62
     0
100
AcDbPoint
 10
12674.17484531583
 20
-5455.043955765447
 30
0.0
  0
POINT
  5
5C69
330
5C5F
100
AcDbEntity
  8
DEFPOINTS
 62
     0
100
AcDbPoint
 10
12661.27687502907
 20
-5455.043955765447
 30
0.0
  0
ENDBLK
  5
5C6A
330
5C5F
100
AcDbEntity
  8
0
100
AcDbBlockEnd
  0
BLOCK
  5
5DD6
330
5DD5
100
AcDbEntity
  8
0
100
AcDbBlockBegin
  2
*D47
 70
     1
 10
0.0
 20
0.0
 30
0.0
  3
*D47
  1

  0
LINE
  5
5F16
330
5DD5
100
AcDbEntity
  8
2寸法線
 62
     0
370
    -2
100
AcDbLine
 10
1321.599130709224
 20
385.9891435838133
 30
0.0
 11
1306.759213256992
 21
397.8388286408924
 31
0.0
  0
MTEXT
  5
5F17
330
5DD5
100
AcDbEntity
  8
2寸法線
 62
     0
100
AcDbMText
 10
1316.442418987481
 20
393.3060037118099
 30
0.0
 40
4.0
 41
0.0
 71
     5
 72
     1
  1
\A1;R25.5
  7
KANJI
 11
0.7814399862008198
 21
-0.6239804067167997
 31
0.0
 73
     1
 44
1.0
1001
ACAD
1000
MTEXTBEGIN
1070
    73
1070
     1
1070
    44
1040
1.0
1070
    74
1070
     0
1000
MTEXTEND
  0
INSERT
  5
5F18
330
5DD5
100
AcDbEntity
  8
2寸法線
 62
     0
370
    -2
100
AcDbBlockReference
  2
2
 10
1305.35262128183
 20
398.9619933729827
 30
0.0
 41
1.8
 42
1.8
 43
1.8
 50
141.3926089135299
  0
POINT
  5
5F19
330
5DD5
100
AcDbEntity
  8
DEFPOINTS
 62
     0
100
AcDbPoint
 10
1305.35262128183
 20
398.9619933729827
 30
0.0
  0
POINT
  5
5F1A
330
5DD5
100
AcDbEntity
  8
DEFPOINTS
 62
     0
100
AcDbPoint
 10
1325.279340929948
 20
383.0504930017067
 30
0.0
  0
ENDBLK
  5
5DD7
330
5DD5
100
AcDbEntity
  8
0
100
AcDbBlockEnd
  0
BLOCK
  5
5DDE
330
5DDD
100
AcDbEntity
  8
0
100
AcDbBlockBegin
  2
*D48
 70
     1
 10
0.0
 20
0.0
 30
0.0
  3
*D48
  1

  0
LINE
  5
5F1B
330
5DDD
100
AcDbEntity
  8
2寸法線
 62
     0
370
    -2
100
AcDbLine
 10
1350.279340929945
 20
357.100493001709
 30
0.0
 11
1362.554914067019
 21
357.100493001709
 31
0.0
  0
LINE
  5
5F1C
330
5DDD
100
AcDbEntity
  8
2寸法線
 62
     0
370
    -2
100
AcDbLine
 10
1350.279340929945
 20
409.0004930017086
 30
0.0
 11
1362.554914067019
 21
409.0004930017086
 31
0.0
  0
LINE
  5
5F1D
330
5DDD
100
AcDbEntity
  8
2寸法線
 62
     0
370
    -2
100
AcDbLine
 10
1361.55491406702
 20
358.900493001709
 30
0.0
 11
1361.55491406702
 21
407.2004930017087
 31
0.0
  0
INSERT
  5
5F1E
330
5DDD
100
AcDbEntity
  8
2寸法線
 62
     0
370
    -2
100
AcDbBlockReference
  2
2
 10
1361.55491406702
 20
357.100493001709
 30
0.0
 41
1.8
 42
1.8
 43
1.8
 50
270.0
  0
INSERT
  5
5F1F
330
5DDD
100
AcDbEntity
  8
2寸法線
 62
     0
370
    -2
100
AcDbBlockReference
  2
2
 10
1361.55491406702
 20
409.0004930017086
 30
0.0
 41
1.8
 42
1.8
 43
1.8
 50
90.0
  0
MTEXT
  5
5F20
330
5DDD
100
AcDbEntity
  8
2寸法線
 62
     0
100
AcDbMText
 10
1359.804914067019
 20
383.0504930017084
 30
0.0
 40
2.5
 41
0.0
 71
     5
 72
     1
  1
\A1;（カン合時）51.9
  7
KANJI
 11
0.0000000000000001
 21
1.0
 31
0.0
 73
     1
 44
1.0
1001
ACAD
1000
MTEXTBEGIN
1070
    73
1070
     1
1070
    44
1040
1.0
1070
    74
1070
     0
1000
MTEXTEND
  0
POINT
  5
5F21
330
5DDD
100
AcDbEntity
  8
DEFPOINTS
 62
     0
100
AcDbPoint
 10
1349.279340929945
 20
357.100493001709
 30
0.0
  0
POINT
  5
5F22
330
5DDD
100
AcDbEntity
  8
DEFPOINTS
 62
     0
100
AcDbPoint
 10
1349.279340929945
 20
409.0004930017086
 30
0.0
  0
POINT
  5
5F23
330
5DDD
100
AcDbEntity
  8
DEFPOINTS
 62
     0
100
AcDbPoint
 10
1361.55491406702
 20
409.0004930017086
 30
0.0
  0
ENDBLK
  5
5DDF
330
5DDD
100
AcDbEntity
  8
0
100
AcDbBlockEnd
  0
BLOCK
  5
5DEA
330
5DE9
100
AcDbEntity
  8
0
100
AcDbBlockBegin
  2
*D49
 70
     1
 10
0.0
 20
0.0
 30
0.0
  3
*D49
  1

  0
LINE
  5
5F24
330
5DE9
100
AcDbEntity
  8
2寸法線
 62
     0
370
    -2
100
AcDbLine
 10
1365.066597629006
 20
318.2851934216397
 30
0.0
 11
1370.518978581387
 21
318.2851934216397
 31
0.0
  0
LINE
  5
5F25
330
5DE9
100
AcDbEntity
  8
2寸法線
 62
     0
370
    -2
100
AcDbLine
 10
1370.518978581387
 20
318.2851934216397
 30
0.0
 11
1375.944174654558
 21
312.5329218642452
 31
0.0
  0
MTEXT
  5
5F26
330
5DE9
100
AcDbEntity
  8
2寸法線
 62
     0
100
AcDbMText
 10
1367.542788105196
 20
320.7851934216395
 30
0.0
 40
4.0
 41
0.0
 71
     5
 72
     1
  1
\A1;R1
  7
KANJI
 73
     1
 44
1.0
1001
ACAD
1000
MTEXTBEGIN
1070
    73
1070
     1
1070
    44
1040
1.0
1070
    74
1070
     0
1000
MTEXTEND
  0
INSERT
  5
5F27
330
5DE9
100
AcDbEntity
  8
2寸法線
 62
     0
370
    -2
100
AcDbBlockReference
  2
2
 10
1377.179193726779
 20
311.2234456745992
 30
0.0
 41
1.8
 42
1.8
 43
1.8
 50
313.3238870048903
  0
POINT
  5
5F28
330
5DE9
100
AcDbEntity
  8
DEFPOINTS
 62
     0
100
AcDbPoint
 10
1377.179193726779
 20
311.2234456745992
 30
0.0
  0
POINT
  5
5F29
330
5DE9
100
AcDbEntity
  8
DEFPOINTS
 62
     0
100
AcDbPoint
 10
1375.80695031319
 20
312.6784192186607
 30
0.0
  0
ENDBLK
  5
5DEB
330
5DE9
100
AcDbEntity
  8
0
100
AcDbBlockEnd
  0
BLOCK
  5
5DF3
330
5DF2
100
AcDbEntity
  8
0
100
AcDbBlockBegin
  2
*D50
 70
     1
 10
0.0
 20
0.0
 30
0.0
  3
*D50
  1

  0
LINE
  5
5F2A
330
5DF2
100
AcDbEntity
  8
2寸法線
 62
     0
370
    -2
100
AcDbLine
 10
1398.541620015192
 20
322.9577608021517
 30
0.0
 11
1393.089239062811
 21
322.9577608021518
 31
0.0
  0
LINE
  5
5F2B
330
5DF2
100
AcDbEntity
  8
2寸法線
 62
     0
370
    -2
100
AcDbLine
 10
1393.089239062811
 20
322.9577608021518
 30
0.0
 11
1385.37812314386
 21
314.7643914436216
 31
0.0
  0
MTEXT
  5
5F2C
330
5DF2
100
AcDbEntity
  8
2寸法線
 62
     0
100
AcDbMText
 10
1396.065429539002
 20
325.4577608021517
 30
0.0
 40
4.0
 41
0.0
 71
     5
 72
     1
  1
\A1;R1
  7
KANJI
 73
     1
 44
1.0
1001
ACAD
1000
MTEXTBEGIN
1070
    73
1070
     1
1070
    44
1040
1.0
1070
    74
1070
     0
1000
MTEXTEND
  0
INSERT
  5
5F2D
330
5DF2
100
AcDbEntity
  8
2寸法線
 62
     0
370
    -2
100
AcDbBlockReference
  2
2
 10
1384.144491333196
 20
313.4536082595223
 30
0.0
 41
1.8
 42
1.8
 43
1.8
 50
226.7367819698521
  0
POINT
  5
5F2E
330
5DF2
100
AcDbEntity
  8
DEFPOINTS
 62
     0
100
AcDbPoint
 10
1384.144491333196
 20
313.4536082595223
 30
0.0
  0
POINT
  5
5F2F
330
5DF2
100
AcDbEntity
  8
DEFPOINTS
 62
     0
100
AcDbPoint
 10
1382.773789321349
 20
311.9971824994136
 30
0.0
  0
ENDBLK
  5
5DF4
330
5DF2
100
AcDbEntity
  8
0
100
AcDbBlockEnd
  0
BLOCK
  5
5DFC
330
5DFB
100
AcDbEntity
  8
0
100
AcDbBlockBegin
  2
*D51
 70
     1
 10
0.0
 20
0.0
 30
0.0
  3
*D51
  1

  0
LINE
  5
5F30
330
5DFB
100
AcDbEntity
  8
2寸法線
 62
     0
370
    -2
100
AcDbLine
 10
1383.935611805351
 20
315.9971824994163
 30
0.0
 11
1383.935611805351
 21
329.4415438222886
 31
0.0
  0
LINE
  5
5F31
330
5DFB
100
AcDbEntity
  8
2寸法線
 62
     0
370
    -2
100
AcDbLine
 10
1385.935611805351
 20
311.4900168919621
 30
0.0
 11
1385.935611805351
 21
329.4415438222886
 31
0.0
  0
LINE
  5
5F32
330
5DFB
100
AcDbEntity
  8
2寸法線
 62
     0
370
    -2
100
AcDbLine
 10
1382.135611805351
 20
328.4415438222886
 30
0.0
 11
1380.335611805351
 21
328.4415438222886
 31
0.0
  0
LINE
  5
5F33
330
5DFB
100
AcDbEntity
  8
2寸法線
 62
     0
370
    -2
100
AcDbLine
 10
1387.735611805351
 20
328.4415438222886
 30
0.0
 11
1391.190373710113
 21
328.4415438222886
 31
0.0
  0
LINE
  5
5F34
330
5DFB
100
AcDbEntity
  8
2寸法線
 62
     0
370
    -2
100
AcDbLine
 10
1383.935611805351
 20
328.4415438222886
 30
0.0
 11
1385.935611805351
 21
328.4415438222886
 31
0.0
  0
INSERT
  5
5F35
330
5DFB
100
AcDbEntity
  8
2寸法線
 62
     0
370
    -2
100
AcDbBlockReference
  2
2
 10
1383.935611805351
 20
328.4415438222886
 30
0.0
 41
1.8
 42
1.8
 43
1.8
  0
INSERT
  5
5F36
330
5DFB
100
AcDbEntity
  8
2寸法線
 62
     0
370
    -2
100
AcDbBlockReference
  2
2
 10
1385.935611805351
 20
328.4415438222886
 30
0.0
 41
1.8
 42
1.8
 43
1.8
 50
180.0
  0
MTEXT
  5
5F37
330
5DFB
100
AcDbEntity
  8
2寸法線
 62
     0
100
AcDbMText
 10
1390.392754662494
 20
330.1915438222886
 30
0.0
 40
2.5
 41
0.0
 71
     5
 72
     1
  1
\A1;1
  7
KANJI
 73
     1
 44
1.0
1001
ACAD
1000
MTEXTBEGIN
1070
    73
1070
     1
1070
    44
1040
1.0
1070
    74
1070
     0
1000
MTEXTEND
  0
POINT
  5
5F38
330
5DFB
100
AcDbEntity
  8
DEFPOINTS
 62
     0
100
AcDbPoint
 10
1383.935611805351
 20
314.9971824994163
 30
0.0
  0
POINT
  5
5F39
330
5DFB
100
AcDbEntity
  8
DEFPOINTS
 62
     0
100
AcDbPoint
 10
1385.935611805351
 20
310.4900168919621
 30
0.0
  0
POINT
  5
5F3A
330
5DFB
100
AcDbEntity
  8
DEFPOINTS
 62
     0
100
AcDbPoint
 10
1385.935611805351
 20
328.4415438222886
 30
0.0
  0
ENDBLK
  5
5DFD
330
5DFB
100
AcDbEntity
  8
0
100
AcDbBlockEnd
  0
BLOCK
  5
5E0A
330
5E09
100
AcDbEntity
  8
0
100
AcDbBlockBegin
  2
*D52
 70
     1
 10
0.0
 20
0.0
 30
0.0
  3
*D52
  1

  0
LINE
  5
5F3B
330
5E09
100
AcDbEntity
  8
2寸法線
 62
     0
370
    -2
100
AcDbLine
 10
1378.935611805355
 20
314.9971824994163
 30
0.0
 11
1378.935611805355
 21
329.4415438222886
 31
0.0
  0
LINE
  5
5F3C
330
5E09
100
AcDbEntity
  8
2寸法線
 62
     0
370
    -2
100
AcDbLine
 10
1383.935611805351
 20
314.9971824994163
 30
0.0
 11
1383.935611805351
 21
329.4415438222886
 31
0.0
  0
LINE
  5
5F3D
330
5E09
100
AcDbEntity
  8
2寸法線
 62
     0
370
    -2
100
AcDbLine
 10
1382.135611805351
 20
328.4415438222886
 30
0.0
 11
1380.735611805355
 21
328.4415438222886
 31
0.0
  0
LINE
  5
5F3E
330
5E09
100
AcDbEntity
  8
2寸法線
 62
     0
370
    -2
100
AcDbLine
 10
1378.935611805355
 20
328.4415438222886
 30
0.0
 11
1370.373707043449
 21
328.4415438222886
 31
0.0
  0
INSERT
  5
5F3F
330
5E09
100
AcDbEntity
  8
2寸法線
 62
     0
370
    -2
100
AcDbBlockReference
  2
2
 10
1383.935611805351
 20
328.4415438222886
 30
0.0
 41
1.8
 42
1.8
 43
1.8
  0
INSERT
  5
5F40
330
5E09
100
AcDbEntity
  8
2寸法線
 62
     0
370
    -2
100
AcDbBlockReference
  2
2
 10
1378.935611805355
 20
328.4415438222886
 30
0.0
 41
1.8
 42
1.8
 43
1.8
 50
180.0
  0
MTEXT
  5
5F41
330
5E09
100
AcDbEntity
  8
2寸法線
 62
     0
100
AcDbMText
 10
1373.492754662497
 20
330.1915438222886
 30
0.0
 40
2.5
 41
0.0
 71
     5
 72
     1
  1
\A1;2.5
  7
KANJI
 73
     1
 44
1.0
1001
ACAD
1000
MTEXTBEGIN
1070
    73
1070
     1
1070
    44
1040
1.0
1070
    74
1070
     0
1000
MTEXTEND
  0
POINT
  5
5F42
330
5E09
100
AcDbEntity
  8
DEFPOINTS
 62
     0
100
AcDbPoint
 10
1378.935611805355
 20
313.9971824994163
 30
0.0
  0
POINT
  5
5F43
330
5E09
100
AcDbEntity
  8
DEFPOINTS
 62
     0
100
AcDbPoint
 10
1383.935611805351
 20
313.9971824994163
 30
0.0
  0
POINT
  5
5F44
330
5E09
100
AcDbEntity
  8
DEFPOINTS
 62
     0
100
AcDbPoint
 10
1383.935611805351
 20
328.4415438222886
 30
0.0
  0
ENDBLK
  5
5E0B
330
5E09
100
AcDbEntity
  8
0
100
AcDbBlockEnd
  0
BLOCK
  5
5E17
330
5E16
100
AcDbEntity
  8
0
100
AcDbBlockBegin
  2
*D53
 70
     1
 10
0.0
 20
0.0
 30
0.0
  3
*D53
  1

  0
LINE
  5
5F45
330
5E16
100
AcDbEntity
  8
2寸法線
 62
     0
370
    -2
100
AcDbLine
 10
1376.924555585818
 20
308.6573240780463
 30
0.0
 11
1376.924555585818
 21
295.3560702268214
 31
0.0
  0
LINE
  5
5F46
330
5E16
100
AcDbEntity
  8
2寸法線
 62
     0
370
    -2
100
AcDbLine
 10
1378.935611805355
 20
312.9971824994163
 30
0.0
 11
1378.935611805355
 21
295.3560702268214
 31
0.0
  0
LINE
  5
5F47
330
5E16
100
AcDbEntity
  8
2寸法線
 62
     0
370
    -2
100
AcDbLine
 10
1380.735611805355
 20
296.3560702268214
 30
0.0
 11
1382.535611805354
 21
296.3560702268214
 31
0.0
  0
LINE
  5
5F48
330
5E16
100
AcDbEntity
  8
2寸法線
 62
     0
370
    -2
100
AcDbLine
 10
1375.124555585818
 20
296.3560702268214
 30
0.0
 11
1370.390447483845
 21
296.3560702268214
 31
0.0
  0
LINE
  5
5F49
330
5E16
100
AcDbEntity
  8
2寸法線
 62
     0
370
    -2
100
AcDbLine
 10
1378.935611805355
 20
296.3560702268214
 30
0.0
 11
1376.924555585818
 21
296.3560702268214
 31
0.0
  0
INSERT
  5
5F4A
330
5E16
100
AcDbEntity
  8
2寸法線
 62
     0
370
    -2
100
AcDbBlockReference
  2
2
 10
1378.935611805355
 20
296.3560702268214
 30
0.0
 41
1.8
 42
1.8
 43
1.8
 50
180.0
  0
INSERT
  5
5F4B
330
5E16
100
AcDbEntity
  8
2寸法線
 62
     0
370
    -2
100
AcDbBlockReference
  2
2
 10
1376.924555585818
 20
296.3560702268214
 30
0.0
 41
1.8
 42
1.8
 43
1.8
  0
MTEXT
  5
5F4C
330
5E16
100
AcDbEntity
  8
2寸法線
 62
     0
100
AcDbMText
 10
1371.188066531464
 20
298.1060702268214
 30
0.0
 40
2.5
 41
0.0
 71
     5
 72
     1
  1
\A1;1
  7
KANJI
 73
     1
 44
1.0
1001
ACAD
1000
MTEXTBEGIN
1070
    73
1070
     1
1070
    44
1040
1.0
1070
    74
1070
     0
1000
MTEXTEND
  0
POINT
  5
5F4D
330
5E16
100
AcDbEntity
  8
DEFPOINTS
 62
     0
100
AcDbPoint
 10
1376.924555585818
 20
309.6573240780462
 30
0.0
  0
POINT
  5
5F4E
330
5E16
100
AcDbEntity
  8
DEFPOINTS
 62
     0
100
AcDbPoint
 10
1378.935611805355
 20
313.9971824994163
 30
0.0
  0
POINT
  5
5F4F
330
5E16
100
AcDbEntity
  8
DEFPOINTS
 62
     0
100
AcDbPoint
 10
1378.935611805355
 20
296.3560702268214
 30
0.0
  0
ENDBLK
  5
5E18
330
5E16
100
AcDbEntity
  8
0
100
AcDbBlockEnd
  0
BLOCK
  5
5E25
330
5E24
100
AcDbEntity
  8
0
100
AcDbBlockBegin
  2
*D54
 70
     1
 10
0.0
 20
0.0
 30
0.0
  3
*D54
  1

  0
LINE
  5
5F50
330
5E24
100
AcDbEntity
  8
2寸法線
 62
     0
370
    -2
100
AcDbLine
 10
1390.935611805355
 20
301.5165029744394
 30
0.0
 11
1390.935611805355
 21
289.7184822252375
 31
0.0
  0
LINE
  5
5F51
330
5E24
100
AcDbEntity
  8
2寸法線
 62
     0
370
    -2
100
AcDbLine
 10
1376.924555585818
 20
309.6573240780462
 30
0.0
 11
1376.924555585818
 21
289.7184822252375
 31
0.0
  0
LINE
  5
5F52
330
5E24
100
AcDbEntity
  8
2寸法線
 62
     0
370
    -2
100
AcDbLine
 10
1389.135611805355
 20
290.7184822252375
 30
0.0
 11
1378.724555585818
 21
290.7184822252375
 31
0.0
  0
INSERT
  5
5F53
330
5E24
100
AcDbEntity
  8
2寸法線
 62
     0
370
    -2
100
AcDbBlockReference
  2
2
 10
1390.935611805355
 20
290.7184822252375
 30
0.0
 41
1.8
 42
1.8
 43
1.8
  0
INSERT
  5
5F54
330
5E24
100
AcDbEntity
  8
2寸法線
 62
     0
370
    -2
100
AcDbBlockReference
  2
2
 10
1376.924555585818
 20
290.7184822252375
 30
0.0
 41
1.8
 42
1.8
 43
1.8
 50
180.0
  0
MTEXT
  5
5F55
330
5E24
100
AcDbEntity
  8
2寸法線
 62
     0
100
AcDbMText
 10
1383.900344271125
 20
292.4684822252375
 30
0.0
 40
2.5
 41
0.0
 71
     5
 72
     1
  1
\A1;7
  7
KANJI
 73
     1
 44
1.0
1001
ACAD
1000
MTEXTBEGIN
1070
    73
1070
     1
1070
    44
1040
1.0
1070
    74
1070
     0
1000
MTEXTEND
  0
POINT
  5
5F56
330
5E24
100
AcDbEntity
  8
DEFPOINTS
 62
     0
100
AcDbPoint
 10
1390.935611805355
 20
302.5165029744394
 30
0.0
  0
POINT
  5
5F57
330
5E24
100
AcDbEntity
  8
DEFPOINTS
 62
     0
100
AcDbPoint
 10
1376.924555585818
 20
310.6573240780463
 30
0.0
  0
POINT
  5
5F58
330
5E24
100
AcDbEntity
  8
DEFPOINTS
 62
     0
100
AcDbPoint
 10
1376.924555585818
 20
290.7184822252375
 30
0.0
  0
ENDBLK
  5
5E26
330
5E24
100
AcDbEntity
  8
0
100
AcDbBlockEnd
  0
BLOCK
  5
5E31
330
5E30
100
AcDbEntity
  8
0
100
AcDbBlockBegin
  2
*D55
 70
     1
 10
0.0
 20
0.0
 30
0.0
  3
*D55
  1

  0
LINE
  5
5F59
330
5E30
100
AcDbEntity
  8
2寸法線
 62
     0
370
    -2
100
AcDbLine
 10
1391.935611805357
 20
310.397182499407
 30
0.0
 11
1404.948866462943
 21
310.397182499407
 31
0.0
  0
LINE
  5
5F5A
330
5E30
100
AcDbEntity
  8
2寸法線
 62
     0
370
    -2
100
AcDbLine
 10
1383.773789321344
 20
313.9971824994165
 30
0.0
 11
1404.948866462943
 21
313.9971824994165
 31
0.0
  0
LINE
  5
5F5B
330
5E30
100
AcDbEntity
  8
2寸法線
 62
     0
370
    -2
100
AcDbLine
 10
1403.948866462943
 20
308.597182499407
 30
0.0
 11
1403.948866462943
 21
306.797182499407
 31
0.0
  0
LINE
  5
5F5C
330
5E30
100
AcDbEntity
  8
2寸法線
 62
     0
370
    -2
100
AcDbLine
 10
1403.948866462943
 20
315.7971824994165
 30
0.0
 11
1403.948866462943
 21
323.3590872613212
 31
0.0
  0
LINE
  5
5F5D
330
5E30
100
AcDbEntity
  8
2寸法線
 62
     0
370
    -2
100
AcDbLine
 10
1403.948866462943
 20
310.397182499407
 30
0.0
 11
1403.948866462943
 21
313.9971824994165
 31
0.0
  0
INSERT
  5
5F5E
330
5E30
100
AcDbEntity
  8
2寸法線
 62
     0
370
    -2
100
AcDbBlockReference
  2
2
 10
1403.948866462943
 20
310.397182499407
 30
0.0
 41
1.8
 42
1.8
 43
1.8
 50
90.0
  0
INSERT
  5
5F5F
330
5E30
100
AcDbEntity
  8
2寸法線
 62
     0
370
    -2
100
AcDbBlockReference
  2
2
 10
1403.948866462943
 20
313.9971824994165
 30
0.0
 41
1.8
 42
1.8
 43
1.8
 50
270.0
  0
MTEXT
  5
5F60
330
5E30
100
AcDbEntity
  8
2寸法線
 62
     0
100
AcDbMText
 10
1402.198866462943
 20
320.4781348803684
 30
0.0
 40
2.5
 41
0.0
 71
     5
 72
     1
  1
\A1;1.8
  7
KANJI
 11
0.0000000000000001
 21
1.0
 31
0.0
 73
     1
 44
1.0
1001
ACAD
1000
MTEXTBEGIN
1070
    73
1070
     1
1070
    44
1040
1.0
1070
    74
1070
     0
1000
MTEXTEND
  0
POINT
  5
5F61
330
5E30
100
AcDbEntity
  8
DEFPOINTS
 62
     0
100
AcDbPoint
 10
1390.935611805357
 20
310.397182499407
 30
0.0
  0
POINT
  5
5F62
330
5E30
100
AcDbEntity
  8
DEFPOINTS
 62
     0
100
AcDbPoint
 10
1382.773789321344
 20
313.9971824994165
 30
0.0
  0
POINT
  5
5F63
330
5E30
100
AcDbEntity
  8
DEFPOINTS
 62
     0
100
AcDbPoint
 10
1403.948866462943
 20
313.9971824994165
 30
0.0
  0
ENDBLK
  5
5E32
330
5E30
100
AcDbEntity
  8
0
100
AcDbBlockEnd
  0
BLOCK
  5
5E3F
330
5E3E
100
AcDbEntity
  8
0
100
AcDbBlockBegin
  2
*D56
 70
     1
 10
0.0
 20
0.0
 30
0.0
  3
*D56
  1

  0
LINE
  5
5F64
330
5E3E
100
AcDbEntity
  8
2寸法線
 62
     0
370
    -2
100
AcDbLine
 10
1283.382522552784
 20
292.8225893117588
 30
0.0
 11
1288.834903505165
 21
292.8225893117589
 31
0.0
  0
LINE
  5
5F65
330
5E3E
100
AcDbEntity
  8
2寸法線
 62
     0
370
    -2
100
AcDbLine
 10
1288.834903505165
 20
292.8225893117589
 30
0.0
 11
1297.646932486726
 21
301.1298114774942
 31
0.0
  0
MTEXT
  5
5F66
330
5E3E
100
AcDbEntity
  8
2寸法線
 62
     0
100
AcDbMText
 10
1285.858713028974
 20
295.3225893117589
 30
0.0
 40
4.0
 41
0.0
 71
     5
 72
     1
  1
\A1;R1
  7
KANJI
 73
     1
 44
1.0
1001
ACAD
1000
MTEXTBEGIN
1070
    73
1070
     1
1070
    44
1040
1.0
1070
    74
1070
     0
1000
MTEXTEND
  0
INSERT
  5
5F67
330
5E3E
100
AcDbEntity
  8
2寸法線
 62
     0
370
    -2
100
AcDbBlockReference
  2
2
 10
1298.956687061576
 20
302.3645353144948
 30
0.0
 41
1.8
 42
1.8
 43
1.8
 50
43.31097044002581
  0
POINT
  5
5F68
330
5E3E
100
AcDbEntity
  8
DEFPOINTS
 62
     0
100
AcDbPoint
 10
1298.956687061576
 20
302.3645353144948
 30
0.0
  0
POINT
  5
5F69
330
5E3E
100
AcDbEntity
  8
DEFPOINTS
 62
     0
100
AcDbPoint
 10
1299.684328492054
 20
303.0504930017223
 30
0.0
  0
ENDBLK
  5
5E40
330
5E3E
100
AcDbEntity
  8
0
100
AcDbBlockEnd
  0
BLOCK
  5
5E48
330
5E47
100
AcDbEntity
  8
0
100
AcDbBlockBegin
  2
*D57
 70
     1
 10
0.0
 20
0.0
 30
0.0
  3
*D57
  1

  0
LINE
  5
5F6A
330
5E47
100
AcDbEntity
  8
2寸法線
 62
     0
370
    -2
100
AcDbLine
 10
1299.779340929946
 20
301.0504930017078
 30
0.0
 11
1299.779340929946
 21
286.6435420442476
 31
0.0
  0
LINE
  5
5F6B
330
5E47
100
AcDbEntity
  8
2寸法線
 62
     0
370
    -2
100
AcDbLine
 10
1297.779340929945
 20
311.0504930017096
 30
0.0
 11
1297.779340929945
 21
286.6435420442476
 31
0.0
  0
LINE
  5
5F6C
330
5E47
100
AcDbEntity
  8
2寸法線
 62
     0
370
    -2
100
AcDbLine
 10
1295.979340929945
 20
287.6435420442476
 30
0.0
 11
1294.179340929945
 21
287.6435420442476
 31
0.0
  0
LINE
  5
5F6D
330
5E47
100
AcDbEntity
  8
2寸法線
 62
     0
370
    -2
100
AcDbLine
 10
1301.579340929946
 20
287.6435420442476
 30
0.0
 11
1306.21267426328
 21
287.6435420442476
 31
0.0
  0
LINE
  5
5F6E
330
5E47
100
AcDbEntity
  8
2寸法線
 62
     0
370
    -2
100
AcDbLine
 10
1297.779340929945
 20
287.6435420442476
 30
0.0
 11
1299.779340929946
 21
287.6435420442476
 31
0.0
  0
INSERT
  5
5F6F
330
5E47
100
AcDbEntity
  8
2寸法線
 62
     0
370
    -2
100
AcDbBlockReference
  2
2
 10
1297.779340929945
 20
287.6435420442476
 30
0.0
 41
1.8
 42
1.8
 43
1.8
  0
INSERT
  5
5F70
330
5E47
100
AcDbEntity
  8
2寸法線
 62
     0
370
    -2
100
AcDbBlockReference
  2
2
 10
1299.779340929946
 20
287.6435420442476
 30
0.0
 41
1.8
 42
1.8
 43
1.8
 50
180.0
  0
MTEXT
  5
5F71
330
5E47
100
AcDbEntity
  8
2寸法線
 62
     0
100
AcDbMText
 10
1304.879340929947
 20
289.3935420442476
 30
0.0
 40
2.5
 41
0.0
 71
     5
 72
     1
  1
\A1;2
  7
KANJI
 73
     1
 44
1.0
1001
ACAD
1000
MTEXTBEGIN
1070
    73
1070
     1
1070
    44
1040
1.0
1070
    74
1070
     0
1000
MTEXTEND
  0
POINT
  5
5F72
330
5E47
100
AcDbEntity
  8
DEFPOINTS
 62
     0
100
AcDbPoint
 10
1299.779340929946
 20
302.0504930017078
 30
0.0
  0
POINT
  5
5F73
330
5E47
100
AcDbEntity
  8
DEFPOINTS
 62
     0
100
AcDbPoint
 10
1297.779340929945
 20
312.0504930017096
 30
0.0
  0
POINT
  5
5F74
330
5E47
100
AcDbEntity
  8
DEFPOINTS
 62
     0
100
AcDbPoint
 10
1297.779340929945
 20
287.6435420442476
 30
0.0
  0
ENDBLK
  5
5E49
330
5E47
100
AcDbEntity
  8
0
100
AcDbBlockEnd
  0
BLOCK
  5
5E56
330
5E55
100
AcDbEntity
  8
0
100
AcDbBlockBegin
  2
*D58
 70
     1
 10
0.0
 20
0.0
 30
0.0
  3
*D58
  1

  0
LINE
  5
5F75
330
5E55
100
AcDbEntity
  8
2寸法線
 62
     0
370
    -2
100
AcDbLine
 10
1299.779340929946
 20
301.0504930017096
 30
0.0
 11
1299.779340929946
 21
292.2352241529889
 31
0.0
  0
LINE
  5
5F76
330
5E55
100
AcDbEntity
  8
2寸法線
 62
     0
370
    -2
100
AcDbLine
 10
1298.779340929945
 20
301.0504930017078
 30
0.0
 11
1298.779340929945
 21
292.2352241529889
 31
0.0
  0
LINE
  5
5F77
330
5E55
100
AcDbEntity
  8
2寸法線
 62
     0
370
    -2
100
AcDbLine
 10
1296.979340929945
 20
293.2352241529888
 30
0.0
 11
1295.179340929945
 21
293.2352241529888
 31
0.0
  0
LINE
  5
5F78
330
5E55
100
AcDbEntity
  8
2寸法線
 62
     0
370
    -2
100
AcDbLine
 10
1301.579340929946
 20
293.2352241529888
 30
0.0
 11
1305.034102834709
 21
293.2352241529888
 31
0.0
  0
LINE
  5
5F79
330
5E55
100
AcDbEntity
  8
2寸法線
 62
     0
370
    -2
100
AcDbLine
 10
1298.779340929945
 20
293.2352241529888
 30
0.0
 11
1299.779340929946
 21
293.2352241529888
 31
0.0
  0
INSERT
  5
5F7A
330
5E55
100
AcDbEntity
  8
2寸法線
 62
     0
370
    -2
100
AcDbBlockReference
  2
2
 10
1298.779340929945
 20
293.2352241529888
 30
0.0
 41
1.8
 42
1.8
 43
1.8
  0
INSERT
  5
5F7B
330
5E55
100
AcDbEntity
  8
2寸法線
 62
     0
370
    -2
100
AcDbBlockReference
  2
2
 10
1299.779340929946
 20
293.2352241529888
 30
0.0
 41
1.8
 42
1.8
 43
1.8
 50
180.0
  0
MTEXT
  5
5F7C
330
5E55
100
AcDbEntity
  8
2寸法線
 62
     0
100
AcDbMText
 10
1304.23648378709
 20
294.9852241529888
 30
0.0
 40
2.5
 41
0.0
 71
     5
 72
     1
  1
\A1;1
  7
KANJI
 73
     1
 44
1.0
1001
ACAD
1000
MTEXTBEGIN
1070
    73
1070
     1
1070
    44
1040
1.0
1070
    74
1070
     0
1000
MTEXTEND
  0
POINT
  5
5F7D
330
5E55
100
AcDbEntity
  8
DEFPOINTS
 62
     0
100
AcDbPoint
 10
1299.779340929946
 20
302.0504930017096
 30
0.0
  0
POINT
  5
5F7E
330
5E55
100
AcDbEntity
  8
DEFPOINTS
 62
     0
100
AcDbPoint
 10
1298.779340929945
 20
302.0504930017078
 30
0.0
  0
POINT
  5
5F7F
330
5E55
100
AcDbEntity
  8
DEFPOINTS
 62
     0
100
AcDbPoint
 10
1298.779340929945
 20
293.2352241529888
 30
0.0
  0
ENDBLK
  5
5E57
330
5E55
100
AcDbEntity
  8
0
100
AcDbBlockEnd
  0
BLOCK
  5
5E64
330
5E63
100
AcDbEntity
  8
0
100
AcDbBlockBegin
  2
*D59
 70
     1
 10
0.0
 20
0.0
 30
0.0
  3
*D59
  1

  0
LINE
  5
5F80
330
5E63
100
AcDbEntity
  8
2寸法線
 62
     0
370
    -2
100
AcDbLine
 10
1297.779340929945
 20
302.0504930017079
 30
0.0
 11
1283.881370643187
 21
302.0504930017079
 31
0.0
  0
LINE
  5
5F81
330
5E63
100
AcDbEntity
  8
2寸法線
 62
     0
370
    -2
100
AcDbLine
 10
1296.779340929945
 20
312.0504930017097
 30
0.0
 11
1283.881370643187
 21
312.0504930017097
 31
0.0
  0
LINE
  5
5F82
330
5E63
100
AcDbEntity
  8
2寸法線
 62
     0
370
    -2
100
AcDbLine
 10
1284.881370643187
 20
303.8504930017079
 30
0.0
 11
1284.881370643187
 21
310.2504930017097
 31
0.0
  0
INSERT
  5
5F83
330
5E63
100
AcDbEntity
  8
2寸法線
 62
     0
370
    -2
100
AcDbBlockReference
  2
2
 10
1284.881370643187
 20
302.0504930017079
 30
0.0
 41
1.8
 42
1.8
 43
1.8
 50
270.0
  0
INSERT
  5
5F84
330
5E63
100
AcDbEntity
  8
2寸法線
 62
     0
370
    -2
100
AcDbBlockReference
  2
2
 10
1284.881370643187
 20
312.0504930017097
 30
0.0
 41
1.8
 42
1.8
 43
1.8
 50
90.0
  0
MTEXT
  5
5F85
330
5E63
100
AcDbEntity
  8
2寸法線
 62
     0
100
AcDbMText
 10
1283.131370643187
 20
307.0504930017084
 30
0.0
 40
2.5
 41
0.0
 71
     5
 72
     1
  1
\A1;（10）
  7
KANJI
 11
0.0000000000000001
 21
1.0
 31
0.0
 73
     1
 44
1.0
1001
ACAD
1000
MTEXTBEGIN
1070
    73
1070
     1
1070
    44
1040
1.0
1070
    74
1070
     0
1000
MTEXTEND
  0
POINT
  5
5F86
330
5E63
100
AcDbEntity
  8
DEFPOINTS
 62
     0
100
AcDbPoint
 10
1298.779340929945
 20
302.0504930017079
 30
0.0
  0
POINT
  5
5F87
330
5E63
100
AcDbEntity
  8
DEFPOINTS
 62
     0
100
AcDbPoint
 10
1297.779340929945
 20
312.0504930017097
 30
0.0
  0
POINT
  5
5F88
330
5E63
100
AcDbEntity
  8
DEFPOINTS
 62
     0
100
AcDbPoint
 10
1284.881370643187
 20
312.0504930017097
 30
0.0
  0
ENDBLK
  5
5E65
330
5E63
100
AcDbEntity
  8
0
100
AcDbBlockEnd
  0
BLOCK
  5
5E70
330
5E6F
100
AcDbEntity
  8
0
100
AcDbBlockBegin
  2
*D60
 70
     1
 10
0.0
 20
0.0
 30
0.0
  3
*D60
  1

  0
LINE
  5
5F89
330
5E6F
100
AcDbEntity
  8
2寸法線
 62
     0
370
    -2
100
AcDbLine
 10
1318.545979824613
 20
313.0334383956264
 30
0.0
 11
1299.622819577846
 21
311.9814165140429
 31
0.0
  0
MTEXT
  5
5F8A
330
5E6F
100
AcDbEntity
  8
2寸法線
 62
     0
100
AcDbMText
 10
1309.844240354196
 20
315.0535307877925
 30
0.0
 40
4.0
 41
0.0
 71
     5
 72
     1
  1
\A1;（R30）
  7
KANJI
 11
0.9984582039751696
 21
0.0555086922443542
 31
0.0
 73
     1
 44
1.0
1001
ACAD
1000
MTEXTBEGIN
1070
    73
1070
     1
1070
    44
1040
1.0
1070
    74
1070
     0
1000
MTEXTEND
  0
INSERT
  5
5F8B
330
5E6F
100
AcDbEntity
  8
2寸法線
 62
     0
370
    -2
100
AcDbBlockReference
  2
2
 10
1297.825594810691
 20
311.8815008680031
 30
0.0
 41
1.8
 42
1.8
 43
1.8
 50
183.1820493170422
  0
POINT
  5
5F8C
330
5E6F
100
AcDbEntity
  8
DEFPOINTS
 62
     0
100
AcDbPoint
 10
1297.825594810691
 20
311.8815008680031
 30
0.0
  0
POINT
  5
5F8D
330
5E6F
100
AcDbEntity
  8
DEFPOINTS
 62
     0
100
AcDbPoint
 10
1327.779340929943
 20
313.5467616353335
 30
0.0
  0
ENDBLK
  5
5E71
330
5E6F
100
AcDbEntity
  8
0
100
AcDbBlockEnd
  0
BLOCK
  5
5E78
330
5E77
100
AcDbEntity
  8
0
100
AcDbBlockBegin
  2
*D61
 70
     1
 10
0.0
 20
0.0
 30
0.0
  3
*D61
  1

  0
LINE
  5
5F8E
330
5E77
100
AcDbEntity
  8
2寸法線
 62
     0
370
    -2
100
AcDbLine
 10
1434.548195044441
 20
302.050493001706
 30
0.0
 11
1426.055157570567
 21
302.050493001706
 31
0.0
  0
LINE
  5
5F8F
330
5E77
100
AcDbEntity
  8
2寸法線
 62
     0
370
    -2
100
AcDbLine
 10
1434.643207482317
 20
319.5504930017097
 30
0.0
 11
1426.055157570567
 21
319.5504930017097
 31
0.0
  0
LINE
  5
5F90
330
5E77
100
AcDbEntity
  8
2寸法線
 62
     0
370
    -2
100
AcDbLine
 10
1427.055157570567
 20
303.8504930017061
 30
0.0
 11
1427.055157570567
 21
317.7504930017097
 31
0.0
  0
INSERT
  5
5F91
330
5E77
100
AcDbEntity
  8
2寸法線
 62
     0
370
    -2
100
AcDbBlockReference
  2
2
 10
1427.055157570567
 20
302.050493001706
 30
0.0
 41
1.8
 42
1.8
 43
1.8
 50
270.0
  0
INSERT
  5
5F92
330
5E77
100
AcDbEntity
  8
2寸法線
 62
     0
370
    -2
100
AcDbBlockReference
  2
2
 10
1427.055157570567
 20
319.5504930017097
 30
0.0
 41
1.8
 42
1.8
 43
1.8
 50
90.0
  0
MTEXT
  5
5F93
330
5E77
100
AcDbEntity
  8
2寸法線
 62
     0
100
AcDbMText
 10
1425.305157570567
 20
310.8004930017074
 30
0.0
 40
2.5
 41
0.0
 71
     5
 72
     1
  1
\A1;17.5
  7
KANJI
 11
0.0000000000000001
 21
1.0
 31
0.0
 73
     1
 44
1.0
1001
ACAD
1000
MTEXTBEGIN
1070
    73
1070
     1
1070
    44
1040
1.0
1070
    74
1070
     0
1000
MTEXTEND
  0
POINT
  5
5F94
330
5E77
100
AcDbEntity
  8
DEFPOINTS
 62
     0
100
AcDbPoint
 10
1435.548195044441
 20
302.050493001706
 30
0.0
  0
POINT
  5
5F95
330
5E77
100
AcDbEntity
  8
DEFPOINTS
 62
     0
100
AcDbPoint
 10
1435.643207482317
 20
319.5504930017097
 30
0.0
  0
POINT
  5
5F96
330
5E77
100
AcDbEntity
  8
DEFPOINTS
 62
     0
100
AcDbPoint
 10
1427.055157570567
 20
319.5504930017097
 30
0.0
  0
ENDBLK
  5
5E79
330
5E77
100
AcDbEntity
  8
0
100
AcDbBlockEnd
  0
BLOCK
  5
5E84
330
5E83
100
AcDbEntity
  8
0
100
AcDbBlockBegin
  2
*D62
 70
     1
 10
0.0
 20
0.0
 30
0.0
  3
*D62
  1

  0
LINE
  5
5F97
330
5E83
100
AcDbEntity
  8
2寸法線
 62
     0
370
    -2
100
AcDbLine
 10
1434.643207482317
 20
319.5504930017097
 30
0.0
 11
1426.055157570567
 21
319.5504930017097
 31
0.0
  0
LINE
  5
5F98
330
5E83
100
AcDbEntity
  8
2寸法線
 62
     0
370
    -2
100
AcDbLine
 10
1434.643207482317
 20
327.9504930017093
 30
0.0
 11
1426.055157570567
 21
327.9504930017093
 31
0.0
  0
LINE
  5
5F99
330
5E83
100
AcDbEntity
  8
2寸法線
 62
     0
370
    -2
100
AcDbLine
 10
1427.055157570567
 20
321.3504930017097
 30
0.0
 11
1427.055157570567
 21
326.1504930017093
 31
0.0
  0
INSERT
  5
5F9A
330
5E83
100
AcDbEntity
  8
2寸法線
 62
     0
370
    -2
100
AcDbBlockReference
  2
2
 10
1427.055157570567
 20
319.5504930017097
 30
0.0
 41
1.8
 42
1.8
 43
1.8
 50
270.0
  0
INSERT
  5
5F9B
330
5E83
100
AcDbEntity
  8
2寸法線
 62
     0
370
    -2
100
AcDbBlockReference
  2
2
 10
1427.055157570567
 20
327.9504930017093
 30
0.0
 41
1.8
 42
1.8
 43
1.8
 50
90.0
  0
MTEXT
  5
5F9C
330
5E83
100
AcDbEntity
  8
2寸法線
 62
     0
100
AcDbMText
 10
1425.305157570567
 20
323.750493001709
 30
0.0
 40
2.5
 41
0.0
 71
     5
 72
     1
  1
\A1;8.4
  7
KANJI
 11
0.0000000000000001
 21
1.0
 31
0.0
 73
     1
 44
1.0
1001
ACAD
1000
MTEXTBEGIN
1070
    73
1070
     1
1070
    44
1040
1.0
1070
    74
1070
     0
1000
MTEXTEND
  0
POINT
  5
5F9D
330
5E83
100
AcDbEntity
  8
DEFPOINTS
 62
     0
100
AcDbPoint
 10
1435.643207482317
 20
319.5504930017097
 30
0.0
  0
POINT
  5
5F9E
330
5E83
100
AcDbEntity
  8
DEFPOINTS
 62
     0
100
AcDbPoint
 10
1435.643207482317
 20
327.9504930017093
 30
0.0
  0
POINT
  5
5F9F
330
5E83
100
AcDbEntity
  8
DEFPOINTS
 62
     0
100
AcDbPoint
 10
1427.055157570567
 20
327.9504930017093
 30
0.0
  0
ENDBLK
  5
5E85
330
5E83
100
AcDbEntity
  8
0
100
AcDbBlockEnd
  0
BLOCK
  5
5E90
330
5E8F
100
AcDbEntity
  8
0
100
AcDbBlockBegin
  2
*D63
 70
     1
 10
0.0
 20
0.0
 30
0.0
  3
*D63
  1

  0
LINE
  5
5FA0
330
5E8F
100
AcDbEntity
  8
2寸法線
 62
     0
370
    -2
100
AcDbLine
 10
1434.643207482328
 20
327.9504930017093
 30
0.0
 11
1426.055157570567
 21
327.9504930017093
 31
0.0
  0
LINE
  5
5FA1
330
5E8F
100
AcDbEntity
  8
2寸法線
 62
     0
370
    -2
100
AcDbLine
 10
1434.643207482324
 20
336.350493001709
 30
0.0
 11
1426.055157570567
 21
336.350493001709
 31
0.0
  0
LINE
  5
5FA2
330
5E8F
100
AcDbEntity
  8
2寸法線
 62
     0
370
    -2
100
AcDbLine
 10
1427.055157570567
 20
329.7504930017093
 30
0.0
 11
1427.055157570567
 21
334.550493001709
 31
0.0
  0
INSERT
  5
5FA3
330
5E8F
100
AcDbEntity
  8
2寸法線
 62
     0
370
    -2
100
AcDbBlockReference
  2
2
 10
1427.055157570567
 20
327.9504930017093
 30
0.0
 41
1.8
 42
1.8
 43
1.8
 50
270.0
  0
INSERT
  5
5FA4
330
5E8F
100
AcDbEntity
  8
2寸法線
 62
     0
370
    -2
100
AcDbBlockReference
  2
2
 10
1427.055157570567
 20
336.350493001709
 30
0.0
 41
1.8
 42
1.8
 43
1.8
 50
90.0
  0
MTEXT
  5
5FA5
330
5E8F
100
AcDbEntity
  8
2寸法線
 62
     0
100
AcDbMText
 10
1425.305157570567
 20
332.1504930017086
 30
0.0
 40
2.5
 41
0.0
 71
     5
 72
     1
  1
\A1;8.4
  7
KANJI
 11
0.0000000000000001
 21
1.0
 31
0.0
 73
     1
 44
1.0
1001
ACAD
1000
MTEXTBEGIN
1070
    73
1070
     1
1070
    44
1040
1.0
1070
    74
1070
     0
1000
MTEXTEND
  0
POINT
  5
5FA6
330
5E8F
100
AcDbEntity
  8
DEFPOINTS
 62
     0
100
AcDbPoint
 10
1435.643207482328
 20
327.9504930017093
 30
0.0
  0
POINT
  5
5FA7
330
5E8F
100
AcDbEntity
  8
DEFPOINTS
 62
     0
100
AcDbPoint
 10
1435.643207482324
 20
336.350493001709
 30
0.0
  0
POINT
  5
5FA8
330
5E8F
100
AcDbEntity
  8
DEFPOINTS
 62
     0
100
AcDbPoint
 10
1427.055157570567
 20
336.350493001709
 30
0.0
  0
ENDBLK
  5
5E91
330
5E8F
100
AcDbEntity
  8
0
100
AcDbBlockEnd
  0
BLOCK
  5
5E9C
330
5E9B
100
AcDbEntity
  8
0
100
AcDbBlockBegin
  2
*D64
 70
     1
 10
0.0
 20
0.0
 30
0.0
  3
*D64
  1

  0
LINE
  5
5FA9
330
5E9B
100
AcDbEntity
  8
2寸法線
 62
     0
370
    -2
100
AcDbLine
 10
1438.443207482329
 20
319.5504930017097
 30
0.0
 11
1446.916037306353
 21
319.5504930017097
 31
0.0
  0
LINE
  5
5FAA
330
5E9B
100
AcDbEntity
  8
2寸法線
 62
     0
370
    -2
100
AcDbLine
 10
1438.443207482329
 20
320.7504930017104
 30
0.0
 11
1446.916037306353
 21
320.7504930017104
 31
0.0
  0
LINE
  5
5FAB
330
5E9B
100
AcDbEntity
  8
2寸法線
 62
     0
370
    -2
100
AcDbLine
 10
1445.916037306353
 20
322.5504930017105
 30
0.0
 11
1445.916037306353
 21
324.3504930017104
 31
0.0
  0
LINE
  5
5FAC
330
5E9B
100
AcDbEntity
  8
2寸法線
 62
     0
370
    -2
100
AcDbLine
 10
1445.916037306353
 20
317.7504930017097
 30
0.0
 11
1445.916037306353
 21
309.7123977636152
 31
0.0
  0
LINE
  5
5FAD
330
5E9B
100
AcDbEntity
  8
2寸法線
 62
     0
370
    -2
100
AcDbLine
 10
1445.916037306353
 20
320.7504930017104
 30
0.0
 11
1445.916037306353
 21
319.5504930017097
 31
0.0
  0
INSERT
  5
5FAE
330
5E9B
100
AcDbEntity
  8
2寸法線
 62
     0
370
    -2
100
AcDbBlockReference
  2
2
 10
1445.916037306353
 20
320.7504930017104
 30
0.0
 41
1.8
 42
1.8
 43
1.8
 50
270.0
  0
INSERT
  5
5FAF
330
5E9B
100
AcDbEntity
  8
2寸法線
 62
     0
370
    -2
100
AcDbBlockReference
  2
2
 10
1445.916037306353
 20
319.5504930017097
 30
0.0
 41
1.8
 42
1.8
 43
1.8
 50
90.0
  0
MTEXT
  5
5FB0
330
5E9B
100
AcDbEntity
  8
2寸法線
 62
     0
100
AcDbMText
 10
1444.166037306353
 20
312.593350144567
 30
0.0
 40
2.5
 41
0.0
 71
     5
 72
     1
  1
\A1;1.2
  7
KANJI
 11
0.0000000000000001
 21
1.0
 31
0.0
 73
     1
 44
1.0
1001
ACAD
1000
MTEXTBEGIN
1070
    73
1070
     1
1070
    44
1040
1.0
1070
    74
1070
     0
1000
MTEXTEND
  0
POINT
  5
5FB1
330
5E9B
100
AcDbEntity
  8
DEFPOINTS
 62
     0
100
AcDbPoint
 10
1437.443207482329
 20
319.5504930017097
 30
0.0
  0
POINT
  5
5FB2
330
5E9B
100
AcDbEntity
  8
DEFPOINTS
 62
     0
100
AcDbPoint
 10
1437.443207482329
 20
320.7504930017104
 30
0.0
  0
POINT
  5
5FB3
330
5E9B
100
AcDbEntity
  8
DEFPOINTS
 62
     0
100
AcDbPoint
 10
1445.916037306353
 20
320.7504930017104
 30
0.0
  0
ENDBLK
  5
5E9D
330
5E9B
100
AcDbEntity
  8
0
100
AcDbBlockEnd
  0
BLOCK
  5
5EAA
330
5EA9
100
AcDbEntity
  8
0
100
AcDbBlockBegin
  2
*D65
 70
     1
 10
0.0
 20
0.0
 30
0.0
  3
*D65
  1

  0
LINE
  5
5FB4
330
5EA9
100
AcDbEntity
  8
2寸法線
 62
     0
370
    -2
100
AcDbLine
 10
1434.643207482317
 20
342.0504930017079
 30
0.0
 11
1419.670417674834
 21
342.0504930017079
 31
0.0
  0
LINE
  5
5FB5
330
5EA9
100
AcDbEntity
  8
2寸法線
 62
     0
370
    -2
100
AcDbLine
 10
1434.643207482317
 20
302.050493001706
 30
0.0
 11
1419.670417674834
 21
302.050493001706
 31
0.0
  0
LINE
  5
5FB6
330
5EA9
100
AcDbEntity
  8
2寸法線
 62
     0
370
    -2
100
AcDbLine
 10
1420.670417674834
 20
340.2504930017079
 30
0.0
 11
1420.670417674834
 21
303.8504930017061
 31
0.0
  0
INSERT
  5
5FB7
330
5EA9
100
AcDbEntity
  8
2寸法線
 62
     0
370
    -2
100
AcDbBlockReference
  2
2
 10
1420.670417674834
 20
342.0504930017079
 30
0.0
 41
1.8
 42
1.8
 43
1.8
 50
90.0
  0
INSERT
  5
5FB8
330
5EA9
100
AcDbEntity
  8
2寸法線
 62
     0
370
    -2
100
AcDbBlockReference
  2
2
 10
1420.670417674834
 20
302.050493001706
 30
0.0
 41
1.8
 42
1.8
 43
1.8
 50
270.0
  0
MTEXT
  5
5FB9
330
5EA9
100
AcDbEntity
  8
2寸法線
 62
     0
100
AcDbMText
 10
1418.920417674834
 20
322.0504930017065
 30
0.0
 40
2.5
 41
0.0
 71
     5
 72
     1
  1
\A1;40
  7
KANJI
 11
0.0000000000000001
 21
1.0
 31
0.0
 73
     1
 44
1.0
1001
ACAD
1000
MTEXTBEGIN
1070
    73
1070
     1
1070
    44
1040
1.0
1070
    74
1070
     0
1000
MTEXTEND
  0
POINT
  5
5FBA
330
5EA9
100
AcDbEntity
  8
DEFPOINTS
 62
     0
100
AcDbPoint
 10
1435.643207482317
 20
342.0504930017079
 30
0.0
  0
POINT
  5
5FBB
330
5EA9
100
AcDbEntity
  8
DEFPOINTS
 62
     0
100
AcDbPoint
 10
1435.643207482317
 20
302.050493001706
 30
0.0
  0
POINT
  5
5FBC
330
5EA9
100
AcDbEntity
  8
DEFPOINTS
 62
     0
100
AcDbPoint
 10
1420.670417674834
 20
302.050493001706
 30
0.0
  0
ENDBLK
  5
5EAB
330
5EA9
100
AcDbEntity
  8
0
100
AcDbBlockEnd
  0
BLOCK
  5
5EB6
330
5EB5
100
AcDbEntity
  8
0
100
AcDbBlockBegin
  2
*D66
 70
     1
 10
0.0
 20
0.0
 30
0.0
  3
*D66
  1

  0
LINE
  5
5FBD
330
5EB5
100
AcDbEntity
  8
2寸法線
 62
     0
370
    -2
100
AcDbLine
 10
1438.143207482317
 20
342.0504930017097
 30
0.0
 11
1444.736258829214
 21
342.0504930017097
 31
0.0
  0
LINE
  5
5FBE
330
5EB5
100
AcDbEntity
  8
2寸法線
 62
     0
370
    -2
100
AcDbLine
 10
1438.143207482317
 20
343.0504930017097
 30
0.0
 11
1444.736258829214
 21
343.0504930017097
 31
0.0
  0
LINE
  5
5FBF
330
5EB5
100
AcDbEntity
  8
2寸法線
 62
     0
370
    -2
100
AcDbLine
 10
1443.736258829214
 20
340.2504930017097
 30
0.0
 11
1443.736258829214
 21
338.4504930017097
 31
0.0
  0
LINE
  5
5FC0
330
5EB5
100
AcDbEntity
  8
2寸法線
 62
     0
370
    -2
100
AcDbLine
 10
1443.736258829214
 20
344.8504930017097
 30
0.0
 11
1443.736258829214
 21
348.3052549064735
 31
0.0
  0
LINE
  5
5FC1
330
5EB5
100
AcDbEntity
  8
2寸法線
 62
     0
370
    -2
100
AcDbLine
 10
1443.736258829214
 20
342.0504930017097
 30
0.0
 11
1443.736258829214
 21
343.0504930017097
 31
0.0
  0
INSERT
  5
5FC2
330
5EB5
100
AcDbEntity
  8
2寸法線
 62
     0
370
    -2
100
AcDbBlockReference
  2
2
 10
1443.736258829214
 20
342.0504930017097
 30
0.0
 41
1.8
 42
1.8
 43
1.8
 50
90.0
  0
INSERT
  5
5FC3
330
5EB5
100
AcDbEntity
  8
2寸法線
 62
     0
370
    -2
100
AcDbBlockReference
  2
2
 10
1443.736258829214
 20
343.0504930017097
 30
0.0
 41
1.8
 42
1.8
 43
1.8
 50
270.0
  0
MTEXT
  5
5FC4
330
5EB5
100
AcDbEntity
  8
2寸法線
 62
     0
100
AcDbMText
 10
1441.986258829214
 20
347.507635858854
 30
0.0
 40
2.5
 41
0.0
 71
     5
 72
     1
  1
\A1;1
  7
KANJI
 11
0.0000000000000001
 21
1.0
 31
0.0
 73
     1
 44
1.0
1001
ACAD
1000
MTEXTBEGIN
1070
    73
1070
     1
1070
    44
1040
1.0
1070
    74
1070
     0
1000
MTEXTEND
  0
POINT
  5
5FC5
330
5EB5
100
AcDbEntity
  8
DEFPOINTS
 62
     0
100
AcDbPoint
 10
1437.143207482317
 20
342.0504930017097
 30
0.0
  0
POINT
  5
5FC6
330
5EB5
100
AcDbEntity
  8
DEFPOINTS
 62
     0
100
AcDbPoint
 10
1437.143207482317
 20
343.0504930017097
 30
0.0
  0
POINT
  5
5FC7
330
5EB5
100
AcDbEntity
  8
DEFPOINTS
 62
     0
100
AcDbPoint
 10
1443.736258829214
 20
343.0504930017097
 30
0.0
  0
ENDBLK
  5
5EB7
330
5EB5
100
AcDbEntity
  8
0
100
AcDbBlockEnd
  0
BLOCK
  5
5EC4
330
5EC3
100
AcDbEntity
  8
0
100
AcDbBlockBegin
  2
*D67
 70
     1
 10
0.0
 20
0.0
 30
0.0
  3
*D67
  1

  0
LINE
  5
5FC8
330
5EC3
100
AcDbEntity
  8
2寸法線
 62
     0
370
    -2
100
AcDbLine
 10
1420.593207482319
 20
406.5004930017121
 30
0.0
 11
1420.593207482319
 21
399.9671147502295
 31
0.0
  0
LINE
  5
5FC9
330
5EC3
100
AcDbEntity
  8
2寸法線
 62
     0
370
    -2
100
AcDbLine
 10
1421.593207482319
 20
406.5004930017139
 30
0.0
 11
1421.593207482319
 21
399.9671147502295
 31
0.0
  0
LINE
  5
5FCA
330
5EC3
100
AcDbEntity
  8
2寸法線
 62
     0
370
    -2
100
AcDbLine
 10
1418.793207482319
 20
400.9671147502294
 30
0.0
 11
1416.993207482319
 21
400.9671147502294
 31
0.0
  0
LINE
  5
5FCB
330
5EC3
100
AcDbEntity
  8
2寸法線
 62
     0
370
    -2
100
AcDbLine
 10
1423.393207482319
 20
400.9671147502294
 30
0.0
 11
1426.788445577557
 21
400.9671147502294
 31
0.0
  0
LINE
  5
5FCC
330
5EC3
100
AcDbEntity
  8
2寸法線
 62
     0
370
    -2
100
AcDbLine
 10
1420.593207482319
 20
400.9671147502294
 30
0.0
 11
1421.593207482319
 21
400.9671147502294
 31
0.0
  0
INSERT
  5
5FCD
330
5EC3
100
AcDbEntity
  8
2寸法線
 62
     0
370
    -2
100
AcDbBlockReference
  2
2
 10
1420.593207482319
 20
400.9671147502294
 30
0.0
 41
1.8
 42
1.8
 43
1.8
  0
INSERT
  5
5FCE
330
5EC3
100
AcDbEntity
  8
2寸法線
 62
     0
370
    -2
100
AcDbBlockReference
  2
2
 10
1421.593207482319
 20
400.9671147502294
 30
0.0
 41
1.8
 42
1.8
 43
1.8
 50
180.0
  0
MTEXT
  5
5FCF
330
5EC3
100
AcDbEntity
  8
2寸法線
 62
     0
100
AcDbMText
 10
1425.990826529938
 20
402.7171147502294
 30
0.0
 40
2.5
 41
0.0
 71
     5
 72
     1
  1
\A1;1
  7
KANJI
 73
     1
 44
1.0
1001
ACAD
1000
MTEXTBEGIN
1070
    73
1070
     1
1070
    44
1040
1.0
1070
    74
1070
     0
1000
MTEXTEND
  0
POINT
  5
5FD0
330
5EC3
100
AcDbEntity
  8
DEFPOINTS
 62
     0
100
AcDbPoint
 10
1420.593207482319
 20
407.500493001712
 30
0.0
  0
POINT
  5
5FD1
330
5EC3
100
AcDbEntity
  8
DEFPOINTS
 62
     0
100
AcDbPoint
 10
1421.593207482319
 20
407.5004930017139
 30
0.0
  0
POINT
  5
5FD2
330
5EC3
100
AcDbEntity
  8
DEFPOINTS
 62
     0
100
AcDbPoint
 10
1421.593207482319
 20
400.9671147502294
 30
0.0
  0
ENDBLK
  5
5EC5
330
5EC3
100
AcDbEntity
  8
0
100
AcDbBlockEnd
  0
BLOCK
  5
5ED2
330
5ED1
100
AcDbEntity
  8
0
100
AcDbBlockBegin
  2
*D68
 70
     1
 10
0.0
 20
0.0
 30
0.0
  3
*D68
  1

  0
LINE
  5
5FD3
330
5ED1
100
AcDbEntity
  8
2寸法線
 62
     0
370
    -2
100
AcDbLine
 10
1452.59320748232
 20
381.0504930017097
 30
0.0
 11
1441.918407527625
 21
381.0504930017097
 31
0.0
  0
LINE
  5
5FD4
330
5ED1
100
AcDbEntity
  8
2寸法線
 62
     0
370
    -2
100
AcDbLine
 10
1452.593207482322
 20
383.0504930017097
 30
0.0
 11
1441.918407527625
 21
383.0504930017097
 31
0.0
  0
LINE
  5
5FD5
330
5ED1
100
AcDbEntity
  8
2寸法線
 62
     0
370
    -2
100
AcDbLine
 10
1442.918407527624
 20
384.8504930017098
 30
0.0
 11
1442.918407527624
 21
386.6504930017098
 31
0.0
  0
LINE
  5
5FD6
330
5ED1
100
AcDbEntity
  8
2寸法線
 62
     0
370
    -2
100
AcDbLine
 10
1442.918407527624
 20
379.2504930017097
 30
0.0
 11
1442.918407527624
 21
371.2362072874241
 31
0.0
  0
LINE
  5
5FD7
330
5ED1
100
AcDbEntity
  8
2寸法線
 62
     0
370
    -2
100
AcDbLine
 10
1442.918407527624
 20
383.0504930017097
 30
0.0
 11
1442.918407527624
 21
381.0504930017097
 31
0.0
  0
INSERT
  5
5FD8
330
5ED1
100
AcDbEntity
  8
2寸法線
 62
     0
370
    -2
100
AcDbBlockReference
  2
3
 10
1442.918407527624
 20
383.0504930017097
 30
0.0
 41
1.8
 42
1.8
 43
1.8
 50
270.0
  0
INSERT
  5
5FD9
330
5ED1
100
AcDbEntity
  8
2寸法線
 62
     0
370
    -2
100
AcDbBlockReference
  2
2
 10
1442.918407527624
 20
381.0504930017097
 30
0.0
 41
1.8
 42
1.8
 43
1.8
 50
90.0
  0
MTEXT
  5
5FDA
330
5ED1
100
AcDbEntity
  8
2寸法線
 62
     0
100
AcDbMText
 10
1441.418407527624
 20
373.8219215731378
 30
0.0
 40
2.0
 41
0.0
 71
     5
 72
     1
  1
\A1;（2）
  7
KANJI
 11
0.0000000000000001
 21
1.0
 31
0.0
 73
     1
 44
1.0
1001
ACAD
1000
MTEXTBEGIN
1070
    73
1070
     1
1070
    44
1040
1.0
1070
    74
1070
     0
1000
MTEXTEND
  0
POINT
  5
5FDB
330
5ED1
100
AcDbEntity
  8
DEFPOINTS
 62
     0
100
AcDbPoint
 10
1453.59320748232
 20
381.0504930017097
 30
0.0
  0
POINT
  5
5FDC
330
5ED1
100
AcDbEntity
  8
DEFPOINTS
 62
     0
100
AcDbPoint
 10
1453.593207482322
 20
383.0504930017097
 30
0.0
  0
POINT
  5
5FDD
330
5ED1
100
AcDbEntity
  8
DEFPOINTS
 62
     0
100
AcDbPoint
 10
1442.918407527624
 20
383.0504930017097
 30
0.0
  0
ENDBLK
  5
5ED3
330
5ED1
100
AcDbEntity
  8
0
100
AcDbBlockEnd
  0
BLOCK
  5
5EE0
330
5EDF
100
AcDbEntity
  8
0
100
AcDbBlockBegin
  2
*D69
 70
     1
 10
0.0
 20
0.0
 30
0.0
  3
*D69
  1

  0
LINE
  5
5FDE
330
5EDF
100
AcDbEntity
  8
2寸法線
 62
     0
370
    -2
100
AcDbLine
 10
1452.209900716215
 20
385.0504930017098
 30
0.0
 11
1441.918407527625
 21
385.0504930017098
 31
0.0
  0
LINE
  5
5FDF
330
5EDF
100
AcDbEntity
  8
2寸法線
 62
     0
370
    -2
100
AcDbLine
 10
1452.593207482322
 20
383.0504930017097
 30
0.0
 11
1441.918407527625
 21
383.0504930017097
 31
0.0
  0
LINE
  5
5FE0
330
5EDF
100
AcDbEntity
  8
2寸法線
 62
     0
370
    -2
100
AcDbLine
 10
1442.918407527624
 20
381.2504930017097
 30
0.0
 11
1442.918407527624
 21
379.4504930017097
 31
0.0
  0
LINE
  5
5FE1
330
5EDF
100
AcDbEntity
  8
2寸法線
 62
     0
370
    -2
100
AcDbLine
 10
1442.918407527624
 20
386.8504930017098
 30
0.0
 11
1442.918407527624
 21
394.864778715998
 31
0.0
  0
LINE
  5
5FE2
330
5EDF
100
AcDbEntity
  8
2寸法線
 62
     0
370
    -2
100
AcDbLine
 10
1442.918407527624
 20
383.0504930017097
 30
0.0
 11
1442.918407527624
 21
385.0504930017098
 31
0.0
  0
INSERT
  5
5FE3
330
5EDF
100
AcDbEntity
  8
2寸法線
 62
     0
370
    -2
100
AcDbBlockReference
  2
3
 10
1442.918407527624
 20
383.0504930017097
 30
0.0
 41
1.8
 42
1.8
 43
1.8
 50
90.0
  0
INSERT
  5
5FE4
330
5EDF
100
AcDbEntity
  8
2寸法線
 62
     0
370
    -2
100
AcDbBlockReference
  2
2
 10
1442.918407527624
 20
385.0504930017098
 30
0.0
 41
1.8
 42
1.8
 43
1.8
 50
270.0
  0
MTEXT
  5
5FE5
330
5EDF
100
AcDbEntity
  8
2寸法線
 62
     0
100
AcDbMText
 10
1441.418407527624
 20
392.2790644302832
 30
0.0
 40
2.0
 41
0.0
 71
     5
 72
     1
  1
\A1;（2）
  7
KANJI
 11
0.0000000000000001
 21
1.0
 31
0.0
 73
     1
 44
1.0
1001
ACAD
1000
MTEXTBEGIN
1070
    73
1070
     1
1070
    44
1040
1.0
1070
    74
1070
     0
1000
MTEXTEND
  0
POINT
  5
5FE6
330
5EDF
100
AcDbEntity
  8
DEFPOINTS
 62
     0
100
AcDbPoint
 10
1453.209900716214
 20
385.0504930017098
 30
0.0
  0
POINT
  5
5FE7
330
5EDF
100
AcDbEntity
  8
DEFPOINTS
 62
     0
100
AcDbPoint
 10
1453.593207482322
 20
383.0504930017097
 30
0.0
  0
POINT
  5
5FE8
330
5EDF
100
AcDbEntity
  8
DEFPOINTS
 62
     0
100
AcDbPoint
 10
1442.918407527624
 20
383.0504930017097
 30
0.0
  0
ENDBLK
  5
5EE1
330
5EDF
100
AcDbEntity
  8
0
100
AcDbBlockEnd
  0
BLOCK
  5
5EEE
330
5EED
100
AcDbEntity
  8
0
100
AcDbBlockBegin
  2
*D70
 70
     1
 10
0.0
 20
0.0
 30
0.0
  3
*D70
  1

  0
LINE
  5
5FE9
330
5EED
100
AcDbEntity
  8
2寸法線
 62
     0
370
    -2
100
AcDbLine
 10
1452.209900716213
 20
388.0504930017098
 30
0.0
 11
1447.090591833901
 21
388.0504930017098
 31
0.0
  0
LINE
  5
5FEA
330
5EED
100
AcDbEntity
  8
2寸法線
 62
     0
370
    -2
100
AcDbLine
 10
1452.209900716215
 20
385.0504930017098
 30
0.0
 11
1447.090591833901
 21
385.0504930017098
 31
0.0
  0
LINE
  5
5FEB
330
5EED
100
AcDbEntity
  8
2寸法線
 62
     0
370
    -2
100
AcDbLine
 10
1448.090591833901
 20
383.2504930017098
 30
0.0
 11
1448.090591833901
 21
381.4504930017097
 31
0.0
  0
LINE
  5
5FEC
330
5EED
100
AcDbEntity
  8
2寸法線
 62
     0
370
    -2
100
AcDbLine
 10
1448.090591833901
 20
389.8504930017098
 30
0.0
 11
1448.090591833901
 21
397.864778715998
 31
0.0
  0
LINE
  5
5FED
330
5EED
100
AcDbEntity
  8
2寸法線
 62
     0
370
    -2
100
AcDbLine
 10
1448.090591833901
 20
385.0504930017098
 30
0.0
 11
1448.090591833901
 21
388.0504930017098
 31
0.0
  0
INSERT
  5
5FEE
330
5EED
100
AcDbEntity
  8
2寸法線
 62
     0
370
    -2
100
AcDbBlockReference
  2
2
 10
1448.090591833901
 20
385.0504930017098
 30
0.0
 41
1.8
 42
1.8
 43
1.8
 50
90.0
  0
INSERT
  5
5FEF
330
5EED
100
AcDbEntity
  8
2寸法線
 62
     0
370
    -2
100
AcDbBlockReference
  2
2
 10
1448.090591833901
 20
388.0504930017098
 30
0.0
 41
1.8
 42
1.8
 43
1.8
 50
270.0
  0
MTEXT
  5
5FF0
330
5EED
100
AcDbEntity
  8
2寸法線
 62
     0
100
AcDbMText
 10
1446.590591833901
 20
395.2790644302831
 30
0.0
 40
2.0
 41
0.0
 71
     5
 72
     1
  1
\A1;（3）
  7
KANJI
 11
0.0000000000000001
 21
1.0
 31
0.0
 73
     1
 44
1.0
1001
ACAD
1000
MTEXTBEGIN
1070
    73
1070
     1
1070
    44
1040
1.0
1070
    74
1070
     0
1000
MTEXTEND
  0
POINT
  5
5FF1
330
5EED
100
AcDbEntity
  8
DEFPOINTS
 62
     0
100
AcDbPoint
 10
1453.209900716213
 20
388.0504930017098
 30
0.0
  0
POINT
  5
5FF2
330
5EED
100
AcDbEntity
  8
DEFPOINTS
 62
     0
100
AcDbPoint
 10
1453.209900716214
 20
385.0504930017098
 30
0.0
  0
POINT
  5
5FF3
330
5EED
100
AcDbEntity
  8
DEFPOINTS
 62
     0
100
AcDbPoint
 10
1448.090591833901
 20
385.0504930017098
 30
0.0
  0
ENDBLK
  5
5EEF
330
5EED
100
AcDbEntity
  8
0
100
AcDbBlockEnd
  0
BLOCK
  5
5EFC
330
5EFB
100
AcDbEntity
  8
0
100
AcDbBlockBegin
  2
*D71
 70
     1
 10
0.0
 20
0.0
 30
0.0
  3
*D71
  1

  0
LINE
  5
5FF4
330
5EFB
100
AcDbEntity
  8
2寸法線
 62
     0
370
    -2
100
AcDbLine
 10
1152.984320874868
 20
345.1108121863418
 30
0.0
 11
1160.150987541535
 21
345.1108121863417
 31
0.0
  0
LINE
  5
5FF5
330
5EFB
100
AcDbEntity
  8
2寸法線
 62
     0
370
    -2
100
AcDbLine
 10
1160.150987541535
 20
345.1108121863417
 30
0.0
 11
1168.436534435068
 21
353.2405658574025
 31
0.0
  0
MTEXT
  5
5FF6
330
5EFB
100
AcDbEntity
  8
2寸法線
 62
     0
100
AcDbMText
 10
1156.317654208201
 20
347.6108121863417
 30
0.0
 40
4.0
 41
0.0
 71
     5
 72
     1
  1
\A1;R2
  7
KANJI
 73
     1
 44
1.0
1001
ACAD
1000
MTEXTBEGIN
1070
    73
1070
     1
1070
    44
1040
1.0
1070
    74
1070
     0
1000
MTEXTEND
  0
INSERT
  5
5FF7
330
5EFB
100
AcDbEntity
  8
2寸法線
 62
     0
370
    -2
100
AcDbBlockReference
  2
2
 10
1169.721348508375
 20
354.5012215586275
 30
0.0
 41
1.8
 42
1.8
 43
1.8
 50
44.45623742344537
  0
POINT
  5
5FF8
330
5EFB
100
AcDbEntity
  8
DEFPOINTS
 62
     0
100
AcDbPoint
 10
1169.721348508375
 20
354.5012215586275
 30
0.0
  0
POINT
  5
5FF9
330
5EFB
100
AcDbEntity
  8
DEFPOINTS
 62
     0
100
AcDbPoint
 10
1168.293777315812
 20
353.1004930017108
 30
0.0
  0
ENDBLK
  5
5EFD
330
5EFB
100
AcDbEntity
  8
0
100
AcDbBlockEnd
  0
BLOCK
  5
5F05
330
5F04
100
AcDbEntity
  8
0
100
AcDbBlockBegin
  2
*D72
 70
     1
 10
0.0
 20
0.0
 30
0.0
  3
*D72
  1

  0
LINE
  5
5FFA
330
5F04
100
AcDbEntity
  8
2寸法線
 62
     0
370
    -2
100
AcDbLine
 10
1446.933084879006
 20
360.9447061202027
 30
0.0
 11
1439.575942021863
 21
360.9447061202026
 31
0.0
  0
LINE
  5
5FFB
330
5F04
100
AcDbEntity
  8
2寸法線
 62
     0
370
    -2
100
AcDbLine
 10
1439.575942021863
 20
360.9447061202026
 30
0.0
 11
1435.767373050371
 21
357.178636987306
 31
0.0
  0
MTEXT
  5
5FFC
330
5F04
100
AcDbEntity
  8
2寸法線
 62
     0
100
AcDbMText
 10
1443.504513450435
 20
363.4447061202026
 30
0.0
 40
4.0
 41
0.0
 71
     5
 72
     1
  1
\A1;R4
  7
KANJI
 73
     1
 44
1.0
1001
ACAD
1000
MTEXTBEGIN
1070
    73
1070
     1
1070
    44
1040
1.0
1070
    74
1070
     0
1000
MTEXTEND
  0
INSERT
  5
5FFD
330
5F04
100
AcDbEntity
  8
2寸法線
 62
     0
370
    -2
100
AcDbBlockReference
  2
2
 10
1434.487459598214
 20
355.9130060952248
 30
0.0
 41
1.8
 42
1.8
 43
1.8
 50
224.6785277665256
  0
POINT
  5
5FFE
330
5F04
100
AcDbEntity
  8
DEFPOINTS
 62
     0
100
AcDbPoint
 10
1434.487459598214
 20
355.9130060952248
 30
0.0
  0
POINT
  5
5FFF
330
5F04
100
AcDbEntity
  8
DEFPOINTS
 62
     0
100
AcDbPoint
 10
1431.643207482309
 20
353.100493001708
 30
0.0
  0
ENDBLK
  5
5F06
330
5F04
100
AcDbEntity
  8
0
100
AcDbBlockEnd
  0
BLOCK
  5
5F0E
330
5F0D
100
AcDbEntity
  8
0
100
AcDbBlockBegin
  2
*D73
 70
     1
 10
0.0
 20
0.0
 30
0.0
  3
*D73
  1

  0
LINE
  5
6000
330
5F0D
100
AcDbEntity
  8
2寸法線
 62
     0
370
    -2
100
AcDbLine
 10
1241.829389170913
 20
345.1160686984258
 30
0.0
 11
1234.662722504247
 21
345.1160686984258
 31
0.0
  0
LINE
  5
6001
330
5F0D
100
AcDbEntity
  8
2寸法線
 62
     0
370
    -2
100
AcDbLine
 10
1234.662722504247
 20
345.1160686984258
 30
0.0
 11
1228.067874617465
 21
353.2558909120748
 31
0.0
  0
MTEXT
  5
6002
330
5F0D
100
AcDbEntity
  8
2寸法線
 62
     0
100
AcDbMText
 10
1238.49605583758
 20
347.6160686984258
 30
0.0
 40
4.0
 41
0.0
 71
     5
 72
     1
  1
\A1;R2
  7
KANJI
 73
     1
 44
1.0
1001
ACAD
1000
MTEXTBEGIN
1070
    73
1070
     1
1070
    44
1040
1.0
1070
    74
1070
     0
1000
MTEXTEND
  0
INSERT
  5
6003
330
5F0D
100
AcDbEntity
  8
2寸法線
 62
     0
370
    -2
100
AcDbBlockReference
  2
2
 10
1226.934750332286
 20
354.6544721054051
 30
0.0
 41
1.8
 42
1.8
 43
1.8
 50
129.0142379553338
  0
POINT
  5
6004
330
5F0D
100
AcDbEntity
  8
DEFPOINTS
 62
     0
100
AcDbPoint
 10
1226.934750332286
 20
354.6544721054051
 30
0.0
  0
POINT
  5
6005
330
5F0D
100
AcDbEntity
  8
DEFPOINTS
 62
     0
100
AcDbPoint
 10
1228.193777315819
 20
353.1004930017043
 30
0.0
  0
ENDBLK
  5
5F0F
330
5F0D
100
AcDbEntity
  8
0
100
AcDbBlockEnd
  0
ENDSEC
  0
SECTION
  2
ENTITIES
  0
ARC
  5
5A7D
330
49C2
100
AcDbEntity
  8
1外形線
100
AcDbCircle
 10
1198.243777315817
 20
97.71246437460741
 30
0.0
 40
2.149999999999636
100
AcDbArc
 50
270.0
 51
0.0013014501495927
  0
LINE
  5
5A7E
330
49C2
100
AcDbEntity
  8
1外形線
100
AcDbLine
 10
1222.193777315818
 20
89.06246437460778
 30
0.0
 11
1222.193777315818
 21
109.0624643746078
 31
0.0
  0
LINE
  5
5A7F
330
49C2
100
AcDbEntity
  8
1外形線
100
AcDbLine
 10
1224.193777315818
 20
109.5624643746077
 30
0.0
 11
1224.193777315818
 21
73.51246437460668
 31
0.0
  0
LINE
  5
5A80
330
49C2
100
AcDbEntity
  8
1外形線
100
AcDbLine
 10
1223.193777315818
 20
110.5624643746077
 30
0.0
 11
1198.243777315817
 21
110.5624643746077
 31
0.0
  0
ARC
  5
5A81
330
49C2
100
AcDbEntity
  8
1外形線
100
AcDbCircle
 10
1223.193777315818
 20
109.5624643746077
 30
0.0
 40
1.0
100
AcDbArc
 50
0.0
 51
90.0
  0
LINE
  5
5A82
330
49C2
100
AcDbEntity
  8
1外形線
100
AcDbLine
 10
1224.193777315818
 20
109.0624643746078
 30
0.0
 11
1222.193777315818
 21
109.0624643746078
 31
0.0
  0
LINE
  5
5A83
330
49C2
100
AcDbEntity
  8
1外形線
100
AcDbLine
 10
1198.243777315817
 20
124.5624643746078
 30
0.0
 11
1213.243777315819
 21
124.5624643746078
 31
0.0
  0
ARC
  5
5A84
330
49C2
100
AcDbEntity
  8
1外形線
100
AcDbCircle
 10
1198.243777315817
 20
102.4124643746081
 30
0.0
 40
2.149999999999636
100
AcDbArc
 50
359.9986985498504
 51
90.0
  0
LINE
  5
5A85
330
49C2
100
AcDbEntity
  8
1外形線
100
AcDbLine
 10
1200.393777315819
 20
102.4124155382405
 30
0.0
 11
1200.393777315819
 21
100.0624643746077
 31
0.0
  0
LINE
  5
5A86
330
49C2
100
AcDbEntity
  8
1外形線
100
AcDbLine
 10
1200.393777315819
 20
97.71251321097498
 30
0.0
 11
1200.393777315819
 21
100.0624643746077
 31
0.0
  0
LINE
  5
5A87
330
49C2
100
AcDbEntity
  8
1外形線
100
AcDbLine
 10
1213.243777315817
 20
124.5624643746078
 30
0.0
 11
1213.243777315817
 21
110.5624643746077
 31
0.0
  0
ARC
  5
5A88
330
49C2
100
AcDbEntity
  8
1外形線
100
AcDbCircle
 10
1212.243777315817
 20
124.5624643746078
 30
0.0
 40
1.0
100
AcDbArc
 50
0.0
 51
90.0
  0
LINE
  5
5A89
330
49C2
100
AcDbEntity
  8
1外形線
100
AcDbLine
 10
1198.243777315817
 20
125.5624643746077
 30
0.0
 11
1212.243777315817
 21
125.5624643746077
 31
0.0
  0
LINE
  5
5A8B
330
49C2
100
AcDbEntity
  8
1外形線
100
AcDbLine
 10
1263.243777315817
 20
18.61246437460886
 30
0.0
 11
1198.243777315817
 21
18.61246437460704
 31
0.0
  0
LINE
  5
5AA7
330
49C2
100
AcDbEntity
  8
1外形線
100
AcDbLine
 10
1278.243777315817
 20
44.56246437460777
 30
0.0
 11
1278.243777315819
 21
59.56246437460777
 31
0.0
  0
LINE
  5
5AA8
330
49C2
100
AcDbEntity
  8
1外形線
100
AcDbLine
 10
1278.243777315817
 20
44.56246437460777
 30
0.0
 11
1278.243777315819
 21
29.56246437460777
 31
0.0
  0
LINE
  5
5AA9
330
49C2
100
AcDbEntity
  8
1外形線
100
AcDbLine
 10
1264.243777315817
 20
69.51246437460667
 30
0.0
 11
1264.243777315821
 21
44.56246437460777
 31
0.0
  0
LINE
  5
5AAA
330
49C2
100
AcDbEntity
  8
1外形線
100
AcDbLine
 10
1264.243777315817
 20
19.61246437460886
 30
0.0
 11
1264.243777315821
 21
44.56246437460777
 31
0.0
  0
LINE
  5
5AAB
330
49C2
100
AcDbEntity
  8
1外形線
100
AcDbLine
 10
1242.743777315819
 20
20.61246437460704
 30
0.0
 11
1262.743777315817
 21
20.61246437460704
 31
0.0
  0
LINE
  5
5AAC
330
49C2
100
AcDbEntity
  8
1外形線
100
AcDbLine
 10
1262.743777315817
 20
18.61246437460886
 30
0.0
 11
1262.743777315817
 21
20.61246437460704
 31
0.0
  0
ARC
  5
5AAD
330
49C2
100
AcDbEntity
  8
1外形線
100
AcDbCircle
 10
1263.243777315817
 20
19.61246437460886
 30
0.0
 40
1.0
100
AcDbArc
 50
270.0
 51
0.0
  0
ARC
  5
5AAE
330
49C2
100
AcDbEntity
  8
1外形線
100
AcDbCircle
 10
1278.243777315817
 20
30.56246437460777
 30
0.0
 40
1.0
100
AcDbArc
 50
270.0
 51
0.0
  0
LINE
  5
5AAF
330
49C2
100
AcDbEntity
  8
1外形線
100
AcDbLine
 10
1278.243777315817
 20
29.56246437460777
 30
0.0
 11
1264.243777315817
 21
29.56246437460777
 31
0.0
  0
LINE
  5
5AB0
330
49C2
100
AcDbEntity
  8
1外形線
100
AcDbLine
 10
1279.243777315817
 20
44.56246437460777
 30
0.0
 11
1279.243777315817
 21
30.56246437460777
 31
0.0
  0
LINE
  5
5AB1
330
49C2
100
AcDbEntity
  8
1外形線
100
AcDbLine
 10
1242.743777315819
 20
18.61246437460704
 30
0.0
 11
1242.743777315819
 21
20.61246437460704
 31
0.0
  0
LINE
  5
5AB2
330
49C2
100
AcDbEntity
  8
1外形線
100
AcDbLine
 10
1242.743777315819
 20
70.5124643746085
 30
0.0
 11
1242.743777315819
 21
68.5124643746085
 31
0.0
  0
LINE
  5
5AB3
330
49C2
100
AcDbEntity
  8
1外形線
100
AcDbLine
 10
1279.243777315817
 20
44.56246437460777
 30
0.0
 11
1279.243777315817
 21
58.56246437460777
 31
0.0
  0
LINE
  5
5AB4
330
49C2
100
AcDbEntity
  8
1外形線
100
AcDbLine
 10
1278.243777315817
 20
59.56246437460777
 30
0.0
 11
1264.243777315817
 21
59.56246437460777
 31
0.0
  0
ARC
  5
5AB5
330
49C2
100
AcDbEntity
  8
1外形線
100
AcDbCircle
 10
1278.243777315817
 20
58.56246437460777
 30
0.0
 40
1.0
100
AcDbArc
 50
0.0
 51
90.0
  0
ARC
  5
5AB6
330
49C2
100
AcDbEntity
  8
1外形線
100
AcDbCircle
 10
1263.243777315817
 20
69.51246437460667
 30
0.0
 40
1.0
100
AcDbArc
 50
0.0
 51
90.0
  0
LINE
  5
5AB7
330
49C2
100
AcDbEntity
  8
1外形線
100
AcDbLine
 10
1262.743777315817
 20
70.51246437460668
 30
0.0
 11
1262.743777315817
 21
68.5124643746085
 31
0.0
  0
LINE
  5
5AB8
330
49C2
100
AcDbEntity
  8
1外形線
100
AcDbLine
 10
1242.743777315819
 20
68.5124643746085
 30
0.0
 11
1262.743777315817
 21
68.5124643746085
 31
0.0
  0
ARC
  5
5AB9
330
49C2
100
AcDbEntity
  8
1外形線
100
AcDbCircle
 10
1227.193777315818
 20
73.51246437460668
 30
0.0
 40
3.0
100
AcDbArc
 50
180.0
 51
270.0
  0
LINE
  5
5ABA
330
49C2
100
AcDbEntity
  8
1外形線
100
AcDbLine
 10
1263.243777315817
 20
70.51246437460668
 30
0.0
 11
1227.193777315818
 21
70.51246437460668
 31
0.0
  0
LINE
  5
5ABC
330
49C2
100
AcDbEntity
  8
1外形線
100
AcDbLine
 10
1256.09372847945
 20
42.41246437460813
 30
0.0
 11
1253.743777315817
 21
42.41246437460813
 31
0.0
  0
LINE
  5
5ABD
330
49C2
100
AcDbEntity
  8
1外形線
100
AcDbLine
 10
1256.09372847945
 20
46.7124643746074
 30
0.0
 11
1253.743777315817
 21
46.7124643746074
 31
0.0
  0
LINE
  5
5ABE
330
49C2
100
AcDbEntity
  8
1外形線
100
AcDbLine
 10
1251.393826152184
 20
46.7124643746074
 30
0.0
 11
1253.743777315817
 21
46.7124643746074
 31
0.0
  0
LINE
  5
5ABF
330
49C2
100
AcDbEntity
  8
1外形線
100
AcDbLine
 10
1251.393826152184
 20
42.41246437460813
 30
0.0
 11
1253.743777315817
 21
42.41246437460813
 31
0.0
  0
ARC
  5
5AC0
330
49C2
100
AcDbEntity
  8
1外形線
100
AcDbCircle
 10
1251.393777315819
 20
44.56246437460777
 30
0.0
 40
2.149999999999636
100
AcDbArc
 50
89.99869854985041
 51
180.0
  0
ARC
  5
5AC1
330
49C2
100
AcDbEntity
  8
1外形線
100
AcDbCircle
 10
1251.393777315819
 20
44.56246437460777
 30
0.0
 40
2.149999999999636
100
AcDbArc
 50
180.0
 51
270.0013014500454
  0
ARC
  5
5AC2
330
49C2
100
AcDbEntity
  8
1外形線
100
AcDbCircle
 10
1256.093777315819
 20
44.56246437460777
 30
0.0
 40
2.149999999999636
100
AcDbArc
 50
269.9986985498504
 51
0.0
  0
ARC
  5
5AC3
330
49C2
100
AcDbEntity
  8
1外形線
100
AcDbCircle
 10
1256.093777315819
 20
44.56246437460777
 30
0.0
 40
2.149999999999636
100
AcDbArc
 50
0.0
 51
90.00130145004538
  0
LINE
  5
5AC4
330
49C2
100
AcDbEntity
  8
1外形線
100
AcDbLine
 10
1224.193777315818
 20
89.06246437460778
 30
0.0
 11
1222.193777315818
 21
89.06246437460778
 31
0.0
  0
ARC
  5
5AC5
330
49C2
100
AcDbEntity
  8
1外形線
100
AcDbCircle
 10
1198.243777315817
 20
44.56246437460777
 30
0.0
 40
2.149999999999999
100
AcDbArc
 50
270.0
 51
90.0
  0
ARC
  5
5D28
330
49C2
100
AcDbEntity
  8
1外形線
100
AcDbCircle
 10
1433.478289158922
 20
223.4061091538579
 30
0.0
 40
27.5
100
AcDbArc
 50
90.0
 51
178.9363184387013
  0
ARC
  5
5D29
330
49C2
100
AcDbEntity
  8
1外形線
100
AcDbCircle
 10
1433.478289158922
 20
223.4061091538579
 30
0.0
 40
25.5
100
AcDbArc
 50
90.0
 51
178.9363184387013
  0
ARC
  5
5D2A
330
49C2
100
AcDbEntity
  8
1外形線
100
AcDbCircle
 10
1433.478289158922
 20
223.4061091538579
 30
0.0
 40
25.5
100
AcDbArc
 50
1.063681561298623
 51
90.0
  0
ARC
  5
5D2B
330
49C2
100
AcDbEntity
  8
1外形線
100
AcDbCircle
 10
1433.478289158922
 20
223.4061091538579
 30
0.0
 40
27.5
100
AcDbArc
 50
1.063681561298623
 51
90.0
  0
LINE
  5
5D2C
330
49C2
100
AcDbEntity
  8
1外形線
100
AcDbLine
 10
1461.428633858193
 20
199.4061091538597
 30
0.0
 11
1460.973550360644
 21
223.9166103282196
 31
0.0
  0
LINE
  5
5D2D
330
49C2
100
AcDbEntity
  8
1外形線
100
AcDbLine
 10
1459.428289158923
 20
199.4061091538578
 30
0.0
 11
1458.973895000517
 21
223.8794829700864
 31
0.0
  0
LINE
  5
5D2E
330
49C2
100
AcDbEntity
  8
1外形線
100
AcDbLine
 10
1405.527944459647
 20
199.4061091538597
 30
0.0
 11
1407.528289158921
 21
199.4061091538597
 31
0.0
  0
LINE
  5
5D2F
330
49C2
100
AcDbEntity
  8
1外形線
100
AcDbLine
 10
1405.527944459647
 20
199.4061091538597
 30
0.0
 11
1405.983027957198
 21
223.9166103282196
 31
0.0
  0
LINE
  5
5D30
330
49C2
100
AcDbEntity
  8
1外形線
100
AcDbLine
 10
1407.528289158921
 20
199.4061091538597
 30
0.0
 11
1407.982683317323
 21
223.8794829700864
 31
0.0
  0
LINE
  5
5D31
330
49C2
100
AcDbEntity
  8
1外形線
100
AcDbLine
 10
1461.428633858193
 20
199.4061091538597
 30
0.0
 11
1459.428289158923
 21
199.4061091538597
 31
0.0
  0
LINE
  5
5D32
330
49C2
100
AcDbEntity
  8
1外形線
100
AcDbLine
 10
1128.740045949449
 20
375.0031933009559
 30
0.0
 11
1168.293777315815
 21
375.0031933009559
 31
0.0
  0
LINE
  5
5D33
330
49C2
100
AcDbEntity
  8
1外形線
100
AcDbLine
 10
1117.24377731582
 20
402.9531933009584
 30
0.0
 11
1117.243777315816
 21
376.9081808630781
 31
0.0
  0
ARC
  5
5D34
330
49C2
100
AcDbEntity
  8
1外形線
100
AcDbCircle
 10
1168.293777315815
 20
373.0031933009559
 30
0.0
 40
2.0
100
AcDbArc
 50
0.0
 51
90.0
  0
ARC
  5
5D35
330
49C2
100
AcDbEntity
  8
1外形線
100
AcDbCircle
 10
1228.193777315822
 20
373.0031933009559
 30
0.0
 40
2.0
100
AcDbArc
 50
90.0
 51
180.0
  0
ARC
  5
5D36
330
49C2
100
AcDbEntity
  8
1外形線
100
AcDbCircle
 10
1128.740045949449
 20
405.0031933009649
 30
0.0
 40
30.0
100
AcDbArc
 50
264.2894068625289
 51
270.0
  0
ARC
  5
5D37
330
49C2
100
AcDbEntity
  8
1外形線
100
AcDbCircle
 10
1118.243777315816
 20
376.9081808630781
 30
0.0
 40
1.0
100
AcDbArc
 50
180.0
 51
264.2894068625289
  0
LINE
  5
5D38
330
49C2
100
AcDbEntity
  8
1外形線
100
AcDbLine
 10
1118.144273596794
 20
375.9131436728676
 30
0.0
 11
1125.754934378812
 21
375.1520775946647
 31
0.0
  0
LINE
  5
5D39
330
49C2
100
AcDbEntity
  8
1外形線
100
AcDbLine
 10
1128.740045949449
 20
430.903193300961
 30
0.0
 11
1198.243777315818
 21
430.9031933009627
 31
0.0
  0
LINE
  5
5D3A
330
49C2
100
AcDbEntity
  8
1外形線
100
AcDbLine
 10
1117.24377731582
 20
402.9531933009584
 30
0.0
 11
1117.243777315816
 21
428.9982057388388
 31
0.0
  0
LINE
  5
5D3B
330
49C2
100
AcDbEntity
  8
1外形線
100
AcDbLine
 10
1118.144273596794
 20
429.9932429290493
 30
0.0
 11
1125.754934378812
 21
430.7543090072522
 31
0.0
  0
ARC
  5
5D3C
330
49C2
100
AcDbEntity
  8
1外形線
100
AcDbCircle
 10
1118.243777315816
 20
428.9982057388388
 30
0.0
 40
1.0
100
AcDbArc
 50
95.71059313747111
 51
180.0
  0
ARC
  5
5D3D
330
49C2
100
AcDbEntity
  8
1外形線
100
AcDbCircle
 10
1128.740045949449
 20
400.9031933009518
 30
0.0
 40
30.0
100
AcDbArc
 50
90.0
 51
95.71059313747111
  0
LINE
  5
5D3E
330
49C2
100
AcDbEntity
  8
1外形線
100
AcDbLine
 10
1267.747508682188
 20
375.0031933009559
 30
0.0
 11
1228.193777315822
 21
375.0031933009559
 31
0.0
  0
LINE
  5
5D3F
330
49C2
100
AcDbEntity
  8
1外形線
100
AcDbLine
 10
1279.24377731582
 20
402.9531933009584
 30
0.0
 11
1279.24377731582
 21
376.9081808630781
 31
0.0
  0
LINE
  5
5D40
330
49C2
100
AcDbEntity
  8
1外形線
100
AcDbLine
 10
1278.343281034842
 20
375.9131436728676
 30
0.0
 11
1270.732620252824
 21
375.1520775946647
 31
0.0
  0
ARC
  5
5D41
330
49C2
100
AcDbEntity
  8
1外形線
100
AcDbCircle
 10
1278.243777315823
 20
376.9081808630781
 30
0.0
 40
1.0
100
AcDbArc
 50
275.7105931374711
 51
0.0
  0
ARC
  5
5D42
330
49C2
100
AcDbEntity
  8
1外形線
100
AcDbCircle
 10
1267.74750868219
 20
405.0031933009649
 30
0.0
 40
30.0
100
AcDbArc
 50
270.0
 51
275.7105931374711
  0
LINE
  5
5D43
330
49C2
100
AcDbEntity
  8
1外形線
100
AcDbLine
 10
1267.747508682188
 20
430.903193300961
 30
0.0
 11
1198.243777315818
 21
430.9031933009627
 31
0.0
  0
ARC
  5
5D44
330
49C2
100
AcDbEntity
  8
1外形線
100
AcDbCircle
 10
1267.74750868219
 20
400.9031933009518
 30
0.0
 40
30.0
100
AcDbArc
 50
84.28940686252888
 51
90.0
  0
ARC
  5
5D45
330
49C2
100
AcDbEntity
  8
1外形線
100
AcDbCircle
 10
1278.243777315823
 20
428.9982057388388
 30
0.0
 40
1.0
100
AcDbArc
 50
0.0
 51
84.28940686252888
  0
LINE
  5
5D46
330
49C2
100
AcDbEntity
  8
1外形線
100
AcDbLine
 10
1278.343281034842
 20
429.9932429290493
 30
0.0
 11
1270.732620252824
 21
430.7543090072522
 31
0.0
  0
LINE
  5
5D47
330
49C2
100
AcDbEntity
  8
1外形線
100
AcDbLine
 10
1279.24377731582
 20
402.9531933009584
 30
0.0
 11
1279.24377731582
 21
428.9982057388388
 31
0.0
  0
LINE
  5
5D48
330
49C2
100
AcDbEntity
  8
1外形線
100
AcDbLine
 10
1198.24377731582
 20
321.9531933009585
 30
0.0
 11
1224.2887897537
 21
321.9531933009566
 31
0.0
  0
ARC
  5
5D49
330
49C2
100
AcDbEntity
  8
1外形線
100
AcDbCircle
 10
1200.293777315826
 20
333.4494619345878
 30
0.0
 40
30.0
100
AcDbArc
 50
180.0
 51
185.7105931374678
  0
ARC
  5
5D4A
330
49C2
100
AcDbEntity
  8
1外形線
100
AcDbCircle
 10
1172.198764877939
 20
322.9531933009548
 30
0.0
 40
1.0
100
AcDbArc
 50
185.7105931374678
 51
270.0
  0
LINE
  5
5D4B
330
49C2
100
AcDbEntity
  8
1外形線
100
AcDbLine
 10
1171.203727687727
 20
322.8536895819343
 30
0.0
 11
1170.442661609526
 21
330.4643503639527
 31
0.0
  0
LINE
  5
5D4C
330
49C2
100
AcDbEntity
  8
1外形線
100
AcDbLine
 10
1198.24377731582
 20
321.9531933009585
 30
0.0
 11
1172.198764877939
 21
321.9531933009566
 31
0.0
  0
LINE
  5
5D4D
330
49C2
100
AcDbEntity
  8
1外形線
100
AcDbLine
 10
1225.283826943909
 20
322.8536895819343
 30
0.0
 11
1226.044893022114
 21
330.4643503639527
 31
0.0
  0
ARC
  5
5D4E
330
49C2
100
AcDbEntity
  8
1外形線
100
AcDbCircle
 10
1224.2887897537
 20
322.9531933009548
 30
0.0
 40
1.0
100
AcDbArc
 50
270.0
 51
354.2894068625321
  0
ARC
  5
5D4F
330
49C2
100
AcDbEntity
  8
1外形線
100
AcDbCircle
 10
1196.193777315813
 20
333.4494619345878
 30
0.0
 40
30.0
100
AcDbArc
 50
354.2894068625321
 51
0.0
  0
LINE
  5
5D50
330
49C2
100
AcDbEntity
  8
1外形線
100
AcDbLine
 10
1226.193777315821
 20
333.4494619345878
 30
0.0
 11
1226.193777315821
 21
373.0031933009541
 31
0.0
  0
LINE
  5
5D51
330
49C2
100
AcDbEntity
  8
1外形線
100
AcDbLine
 10
1170.293777315815
 20
333.4494619345878
 30
0.0
 11
1170.293777315815
 21
373.0031933009559
 31
0.0
  0
LINE
  5
5D52
330
49C2
100
AcDbEntity
  8
1外形線
100
AcDbLine
 10
1352.478289158922
 20
249.0011215917357
 30
0.0
 11
1352.478289158922
 21
199.4061091538597
 31
0.0
  0
LINE
  5
5D53
330
49C2
100
AcDbEntity
  8
1外形線
100
AcDbLine
 10
1405.527944459647
 20
199.4061091538597
 30
0.0
 11
1352.478289158922
 21
199.4061091538597
 31
0.0
  0
LINE
  5
5D54
330
49C2
100
AcDbEntity
  8
1外形線
100
AcDbLine
 10
1433.478289158922
 20
250.9061091538579
 30
0.0
 11
1363.974557792553
 21
250.9061091538579
 31
0.0
  0
ARC
  5
5D55
330
49C2
100
AcDbEntity
  8
1外形線
100
AcDbCircle
 10
1363.974557792553
 20
220.9061091538488
 30
0.0
 40
30.0
100
AcDbArc
 50
90.0
 51
95.71059313747117
  0
ARC
  5
5D56
330
49C2
100
AcDbEntity
  8
1外形線
100
AcDbCircle
 10
1353.47828915892
 20
249.0011215917357
 30
0.0
 40
1.0
100
AcDbArc
 50
95.71059313747117
 51
180.0
  0
LINE
  5
5D57
330
49C2
100
AcDbEntity
  8
1外形線
100
AcDbLine
 10
1353.3787854399
 20
249.9961587819462
 30
0.0
 11
1360.989446221918
 21
250.7572248601491
 31
0.0
  0
LINE
  5
5D63
330
49C2
100
AcDbEntity
  8
1外形線
100
AcDbLine
 10
1267.747508682188
 20
16.61246437460522
 30
0.0
 11
1198.243777315819
 21
16.6124643746034
 31
0.0
  0
LINE
  5
5D64
330
49C2
100
AcDbEntity
  8
1外形線
100
AcDbLine
 10
1267.747508682188
 20
72.51246437461031
 30
0.0
 11
1228.193777315821
 21
72.51246437461031
 31
0.0
  0
ARC
  5
5D65
330
49C2
100
AcDbEntity
  8
1外形線
100
AcDbCircle
 10
1267.747508682188
 20
46.61246437461431
 30
0.0
 40
30.0
100
AcDbArc
 50
270.0
 51
275.7105931374711
  0
ARC
  5
5D66
330
49C2
100
AcDbEntity
  8
1外形線
100
AcDbCircle
 10
1278.243777315821
 20
18.51745193672741
 30
0.0
 40
1.0
100
AcDbArc
 50
275.7105931374711
 51
0.0
  0
LINE
  5
5D67
330
49C2
100
AcDbEntity
  8
1外形線
100
AcDbLine
 10
1278.343281034843
 20
17.52241474651691
 30
0.0
 11
1270.732620252825
 21
16.76134866831398
 31
0.0
  0
LINE
  5
5D68
330
49C2
100
AcDbEntity
  8
1外形線
100
AcDbLine
 10
1279.243777315817
 20
44.56246437460777
 30
0.0
 11
1279.243777315821
 21
18.51745193672741
 31
0.0
  0
LINE
  5
5D69
330
49C2
100
AcDbEntity
  8
1外形線
100
AcDbLine
 10
1279.243777315817
 20
44.56246437460777
 30
0.0
 11
1279.243777315821
 21
70.60747681248813
 31
0.0
  0
LINE
  5
5D6A
330
49C2
100
AcDbEntity
  8
1外形線
100
AcDbLine
 10
1278.343281034843
 20
71.60251400269863
 30
0.0
 11
1270.732620252825
 21
72.36358008090156
 31
0.0
  0
ARC
  5
5D6B
330
49C2
100
AcDbEntity
  8
1外形線
100
AcDbCircle
 10
1278.243777315821
 20
70.60747681248813
 30
0.0
 40
1.0
100
AcDbArc
 50
0.0
 51
84.28940686252889
  0
ARC
  5
5D6C
330
49C2
100
AcDbEntity
  8
1外形線
100
AcDbCircle
 10
1267.747508682188
 20
42.51246437460122
 30
0.0
 40
30.0
100
AcDbArc
 50
84.28940686252889
 51
90.0
  0
LINE
  5
5D6D
330
49C2
100
AcDbEntity
  8
1外形線
100
AcDbLine
 10
1226.193777315822
 20
114.0661957409784
 30
0.0
 11
1226.193777315822
 21
74.51246437461032
 31
0.0
  0
LINE
  5
5D6E
330
49C2
100
AcDbEntity
  8
1外形線
100
AcDbLine
 10
1198.243777315817
 20
125.5624643746077
 30
0.0
 11
1224.288789753697
 21
125.5624643746096
 31
0.0
  0
LINE
  5
5D6F
330
49C2
100
AcDbEntity
  8
1外形線
100
AcDbLine
 10
1225.28382694391
 20
124.6619680936319
 30
0.0
 11
1226.044893022111
 21
117.0513073116135
 31
0.0
  0
ARC
  5
5D70
330
49C2
100
AcDbEntity
  8
1外形線
100
AcDbCircle
 10
1224.288789753697
 20
124.5624643746114
 30
0.0
 40
1.0
100
AcDbArc
 50
5.710593137464595
 51
90.0
  0
ARC
  5
5D71
330
49C2
100
AcDbEntity
  8
1外形線
100
AcDbCircle
 10
1196.19377731581
 20
114.0661957409784
 30
0.0
 40
30.0
100
AcDbArc
 50
0.0
 51
5.710593137464595
  0
ARC
  5
5D72
330
49C2
100
AcDbEntity
  8
1外形線
100
AcDbCircle
 10
1228.193777315821
 20
74.51246437461032
 30
0.0
 40
2.0
100
AcDbArc
 50
180.0
 51
270.0
  0
LINE
  5
5D74
330
49C2
100
AcDbEntity
  8
1外形線
100
AcDbLine
 10
1279.243777315819
 20
18.61246437460704
 30
0.0
 11
1198.243777315819
 21
18.6124643746034
 31
0.0
  0
LINE
  5
5D75
330
49C2
100
AcDbEntity
  8
1外形線
100
AcDbLine
 10
1279.243777315821
 20
70.51246437461031
 30
0.0
 11
1228.193777315821
 21
70.51246437461031
 31
0.0
  0
ARC
  5
5D76
330
49C2
100
AcDbEntity
  8
1外形線
100
AcDbCircle
 10
1228.193777315821
 20
74.51246437461032
 30
0.0
 40
4.0
100
AcDbArc
 50
180.0
 51
270.0
  0
LINE
  5
5D77
330
49C2
100
AcDbEntity
  8
1外形線
100
AcDbLine
 10
1224.193777315821
 20
125.5624643746114
 30
0.0
 11
1224.193777315821
 21
74.51246437461032
 31
0.0
  0
LINE
  5
6006
330
49C2
100
AcDbEntity
  8
1外形線
100
AcDbLine
 10
1128.74004594945
 20
16.61246437459584
 30
0.0
 11
1198.243777315819
 21
16.6124643746034
 31
0.0
  0
LINE
  5
6007
330
49C2
100
AcDbEntity
  8
1外形線
100
AcDbLine
 10
1128.740045949442
 20
72.51246437460094
 30
0.0
 11
1168.293777315809
 21
72.51246437460628
 31
0.0
  0
ARC
  5
6008
330
49C2
100
AcDbEntity
  8
1外形線
100
AcDbCircle
 10
1128.740045949446
 20
46.61246437460493
 30
0.0
 40
30.0
100
AcDbArc
 50
264.2894068625289
 51
270.0
  0
ARC
  5
6009
330
49C2
100
AcDbEntity
  8
1外形線
100
AcDbCircle
 10
1118.243777315817
 20
18.51745193671667
 30
0.0
 40
1.0
100
AcDbArc
 50
180.0000000000065
 51
264.2894068625289
  0
LINE
  5
600A
330
49C2
100
AcDbEntity
  8
1外形線
100
AcDbLine
 10
1118.144273596795
 20
17.52241474650611
 30
0.0
 11
1125.754934378813
 21
16.76134866830421
 31
0.0
  0
LINE
  5
600B
330
49C2
100
AcDbEntity
  8
1外形線
100
AcDbLine
 10
1117.243777315817
 20
44.56246437459685
 30
0.0
 11
1117.243777315817
 21
18.5174519367165
 31
0.0
  0
LINE
  5
600C
330
49C2
100
AcDbEntity
  8
1外形線
100
AcDbLine
 10
1117.243777315817
 20
44.56246437459685
 30
0.0
 11
1117.24377731581
 21
70.60747681247722
 31
0.0
  0
LINE
  5
600D
330
49C2
100
AcDbEntity
  8
1外形線
100
AcDbLine
 10
1118.144273596787
 20
71.60251400268783
 30
0.0
 11
1125.754934378806
 21
72.36358008089178
 31
0.0
  0
ARC
  5
600E
330
49C2
100
AcDbEntity
  8
1外形線
100
AcDbCircle
 10
1118.24377731581
 20
70.60747681247739
 30
0.0
 40
1.0
100
AcDbArc
 50
95.7105931374711
 51
180.0000000000065
  0
ARC
  5
600F
330
49C2
100
AcDbEntity
  8
1外形線
100
AcDbCircle
 10
1128.740045949446
 20
42.51246437459184
 30
0.0
 40
30.0
100
AcDbArc
 50
90.0
 51
95.7105931374711
  0
LINE
  5
6010
330
49C2
100
AcDbEntity
  8
1外形線
100
AcDbLine
 10
1170.293777315803
 20
114.0661957409746
 30
0.0
 11
1170.293777315808
 21
74.51246437460657
 31
0.0
  0
LINE
  5
6011
330
49C2
100
AcDbEntity
  8
1外形線
100
AcDbLine
 10
1198.243777315806
 20
125.5624643746077
 30
0.0
 11
1172.198764877925
 21
125.5624643746061
 31
0.0
  0
LINE
  5
6012
330
49C2
100
AcDbEntity
  8
1外形線
100
AcDbLine
 10
1171.203727687713
 20
124.6619680936283
 30
0.0
 11
1170.442661609513
 21
117.0513073116097
 31
0.0
  0
ARC
  5
6013
330
49C2
100
AcDbEntity
  8
1外形線
100
AcDbCircle
 10
1172.198764877926
 20
124.5624643746079
 30
0.0
 40
1.0
100
AcDbArc
 50
90.0
 51
174.2894068625419
  0
ARC
  5
6014
330
49C2
100
AcDbEntity
  8
1外形線
100
AcDbCircle
 10
1200.293777315814
 20
114.0661957409787
 30
0.0
 40
30.0
100
AcDbArc
 50
174.2894068625419
 51
180.0000000000065
  0
ARC
  5
6015
330
49C2
100
AcDbEntity
  8
1外形線
100
AcDbCircle
 10
1168.293777315808
 20
74.51246437460628
 30
0.0
 40
2.0
100
AcDbArc
 50
270.0
 51
0.0000000000065138
  0
LINE
  5
6016
330
49C2
100
AcDbEntity
  8
1外形線
100
AcDbLine
 10
1117.243777315819
 20
18.61246437459613
 30
0.0
 11
1198.243777315818
 21
18.6124643746034
 31
0.0
  0
LINE
  5
6017
330
49C2
100
AcDbEntity
  8
1外形線
100
AcDbLine
 10
1117.24377731581
 20
70.51246437459941
 30
0.0
 11
1168.293777315809
 21
70.51246437460628
 31
0.0
  0
ARC
  5
6018
330
49C2
100
AcDbEntity
  8
1外形線
100
AcDbCircle
 10
1168.293777315808
 20
74.51246437460628
 30
0.0
 40
4.0
100
AcDbArc
 50
270.0
 51
0.0000000000065138
  0
LINE
  5
6019
330
49C2
100
AcDbEntity
  8
1外形線
100
AcDbLine
 10
1172.293777315801
 20
125.5624643746079
 30
0.0
 11
1172.293777315808
 21
74.51246437460685
 31
0.0
  0
LINE
  5
603B
330
49C2
100
AcDbEntity
  8
1外形線
100
AcDbLine
 10
1418.47828915892
 20
205.4061091538561
 30
0.0
 11
1411.028289158921
 21
205.4061091538561
 31
0.0
  0
LINE
  5
603C
330
49C2
100
AcDbEntity
  8
1外形線
100
AcDbLine
 10
1419.97828915892
 20
203.906109153856
 30
0.0
 11
1419.978289158922
 21
205.4061091538561
 31
0.0
  0
LINE
  5
603D
330
49C2
100
AcDbEntity
  8
1外形線
100
AcDbLine
 10
1418.47828915892
 20
205.4061091538561
 30
0.0
 11
1419.978289158922
 21
205.4061091538561
 31
0.0
  0
LINE
  5
603E
330
49C2
100
AcDbEntity
  8
1外形線
100
AcDbLine
 10
1446.978289158922
 20
203.906109153856
 30
0.0
 11
1446.978289158924
 21
205.4061091538615
 31
0.0
  0
LINE
  5
603F
330
49C2
100
AcDbEntity
  8
1外形線
100
AcDbLine
 10
1446.978289158924
 20
205.4061091538615
 30
0.0
 11
1455.928289158914
 21
205.4061091538615
 31
0.0
  0
LINE
  5
6040
330
49C2
100
AcDbEntity
  8
1外形線
100
AcDbLine
 10
1455.928289158914
 20
205.4061091538615
 30
0.0
 11
1455.928289158916
 21
207.9061091538579
 31
0.0
  0
LINE
  5
6041
330
49C2
100
AcDbEntity
  8
1外形線
100
AcDbLine
 10
1433.47828915892
 20
199.4061091538597
 30
0.0
 11
1459.428289158914
 21
199.4061091538597
 31
0.0
  0
LINE
  5
6042
330
49C2
100
AcDbEntity
  8
1外形線
100
AcDbLine
 10
1459.428289158914
 20
199.4061091538597
 30
0.0
 11
1459.297265431589
 21
206.9124534651191
 31
0.0
  0
ARC
  5
6043
330
49C2
100
AcDbEntity
  8
1外形線
100
AcDbCircle
 10
1456.928289158916
 20
207.9061091538579
 30
0.0
 40
1.0
100
AcDbArc
 50
53.55395241088677
 51
180.0
  0
LINE
  5
6044
330
49C2
100
AcDbEntity
  8
1外形線
100
AcDbLine
 10
1458.891483310013
 20
207.6994176760445
 30
0.0
 11
1457.522354732497
 21
208.7105257712183
 31
0.0
  0
ARC
  5
6045
330
49C2
100
AcDbEntity
  8
1外形線
100
AcDbCircle
 10
1458.297417736432
 20
206.8950010586841
 30
0.0
 40
1.0
100
AcDbArc
 50
0.9999999999757156
 51
53.55395241088677
  0
LINE
  5
6046
330
49C2
100
AcDbEntity
  8
1外形線
100
AcDbLine
 10
1411.028289158921
 20
205.4061091538597
 30
0.0
 11
1411.028289158921
 21
207.9061091538615
 31
0.0
  0
LINE
  5
6047
330
49C2
100
AcDbEntity
  8
1外形線
100
AcDbLine
 10
1407.528289158921
 20
199.4061091538597
 30
0.0
 11
1407.659312886248
 21
206.9124534651246
 31
0.0
  0
ARC
  5
6048
330
49C2
100
AcDbEntity
  8
1外形線
100
AcDbCircle
 10
1408.659160581405
 20
206.8950010586895
 30
0.0
 40
1.0
100
AcDbArc
 50
126.4460475891132
 51
179.0000000000242
  0
LINE
  5
6049
330
49C2
100
AcDbEntity
  8
1外形線
100
AcDbLine
 10
1408.065095007823
 20
207.69941767605
 30
0.0
 11
1409.434223585342
 21
208.7105257712237
 31
0.0
  0
ARC
  5
604A
330
49C2
100
AcDbEntity
  8
1外形線
100
AcDbCircle
 10
1410.028289158922
 20
207.9061091538615
 30
0.0
 40
1.0
100
AcDbArc
 50
0.0
 51
126.4460475891132
  0
LINE
  5
604B
330
49C2
100
AcDbEntity
  8
1外形線
100
AcDbLine
 10
1433.47828915892
 20
199.4061091538597
 30
0.0
 11
1407.528289158921
 21
199.4061091538597
 31
0.0
  0
LINE
  5
604C
330
49C2
100
AcDbEntity
  8
1外形線
100
AcDbLine
 10
1419.97828915892
 20
203.906109153856
 30
0.0
 11
1433.47828915892
 21
203.906109153856
 31
0.0
  0
LINE
  5
604D
330
49C2
100
AcDbEntity
  8
1外形線
100
AcDbLine
 10
1418.47828915892
 20
201.906109153856
 30
0.0
 11
1418.47828915892
 21
205.4061091538561
 31
0.0
  0
LINE
  5
604E
330
49C2
100
AcDbEntity
  8
1外形線
100
AcDbLine
 10
1418.47828915892
 20
201.906109153856
 30
0.0
 11
1433.47828915892
 21
201.906109153856
 31
0.0
  0
LINE
  5
604F
330
49C2
100
AcDbEntity
  8
1外形線
100
AcDbLine
 10
1448.478289158922
 20
201.906109153856
 30
0.0
 11
1433.47828915892
 21
201.906109153856
 31
0.0
  0
LINE
  5
6050
330
49C2
100
AcDbEntity
  8
1外形線
100
AcDbLine
 10
1448.478289158922
 20
201.906109153856
 30
0.0
 11
1448.478289158922
 21
205.4061091538561
 31
0.0
  0
LINE
  5
6051
330
49C2
100
AcDbEntity
  8
1外形線
100
AcDbLine
 10
1446.978289158922
 20
203.906109153856
 30
0.0
 11
1433.47828915892
 21
203.906109153856
 31
0.0
  0
LINE
  5
6052
330
49C2
100
AcDbEntity
  8
1外形線
100
AcDbLine
 10
1448.478289158922
 20
205.4061091538561
 30
0.0
 11
1446.978289158922
 21
205.4061091538561
 31
0.0
  0
LINE
  5
6053
330
49C2
100
AcDbEntity
  8
1外形線
100
AcDbLine
 10
1448.478289158922
 20
205.4061091538561
 30
0.0
 11
1448.97828915892
 21
205.4061091538561
 31
0.0
  0
ARC
  5
6055
330
49C2
100
AcDbEntity
  8
1外形線
100
AcDbCircle
 10
1198.24377731582
 20
223.4061091538579
 30
0.0
 40
27.5
100
AcDbArc
 50
90.0
 51
178.9363184387014
  0
ARC
  5
6056
330
49C2
100
AcDbEntity
  8
1外形線
100
AcDbCircle
 10
1198.24377731582
 20
223.4061091538579
 30
0.0
 40
25.5
100
AcDbArc
 50
90.0
 51
178.9363184387014
  0
ARC
  5
6057
330
49C2
100
AcDbEntity
  8
1外形線
100
AcDbCircle
 10
1198.24377731582
 20
223.4061091538579
 30
0.0
 40
25.5
100
AcDbArc
 50
1.063681561298619
 51
90.0
  0
ARC
  5
6058
330
49C2
100
AcDbEntity
  8
1外形線
100
AcDbCircle
 10
1198.24377731582
 20
223.4061091538579
 30
0.0
 40
27.5
100
AcDbArc
 50
1.063681561298619
 51
90.0
  0
LINE
  5
6059
330
49C2
100
AcDbEntity
  8
1外形線
100
AcDbLine
 10
1226.194122015091
 20
199.4061091538597
 30
0.0
 11
1225.739038517542
 21
223.9166103282196
 31
0.0
  0
LINE
  5
605A
330
49C2
100
AcDbEntity
  8
1外形線
100
AcDbLine
 10
1224.19377731582
 20
199.4061091538578
 30
0.0
 11
1223.739383157415
 21
223.8794829700864
 31
0.0
  0
LINE
  5
605B
330
49C2
100
AcDbEntity
  8
1外形線
100
AcDbLine
 10
1170.293432616545
 20
199.4061091538597
 30
0.0
 11
1172.293777315819
 21
199.4061091538597
 31
0.0
  0
LINE
  5
605C
330
49C2
100
AcDbEntity
  8
1外形線
100
AcDbLine
 10
1170.293432616545
 20
199.4061091538597
 30
0.0
 11
1170.748516114096
 21
223.9166103282196
 31
0.0
  0
LINE
  5
605D
330
49C2
100
AcDbEntity
  8
1外形線
100
AcDbLine
 10
1172.293777315819
 20
199.4061091538597
 30
0.0
 11
1172.74817147422
 21
223.8794829700864
 31
0.0
  0
LINE
  5
605E
330
49C2
100
AcDbEntity
  8
1外形線
100
AcDbLine
 10
1226.194122015091
 20
199.4061091538597
 30
0.0
 11
1224.19377731582
 21
199.4061091538597
 31
0.0
  0
LINE
  5
605F
330
49C2
100
AcDbEntity
  8
1外形線
100
AcDbLine
 10
1117.24377731582
 20
249.0011215917357
 30
0.0
 11
1117.24377731582
 21
199.4061091538597
 31
0.0
  0
LINE
  5
6060
330
49C2
100
AcDbEntity
  8
1外形線
100
AcDbLine
 10
1170.293432616545
 20
199.4061091538597
 30
0.0
 11
1117.24377731582
 21
199.4061091538597
 31
0.0
  0
LINE
  5
6061
330
49C2
100
AcDbEntity
  8
1外形線
100
AcDbLine
 10
1198.24377731582
 20
250.9061091538579
 30
0.0
 11
1128.740045949451
 21
250.9061091538579
 31
0.0
  0
ARC
  5
6062
330
49C2
100
AcDbEntity
  8
1外形線
100
AcDbCircle
 10
1128.740045949451
 20
220.9061091538488
 30
0.0
 40
30.0
100
AcDbArc
 50
90.0
 51
95.71059313746459
  0
ARC
  5
6063
330
49C2
100
AcDbEntity
  8
1外形線
100
AcDbCircle
 10
1118.243777315818
 20
249.0011215917357
 30
0.0
 40
1.0
100
AcDbArc
 50
95.71059313746459
 51
180.0
  0
LINE
  5
6064
330
49C2
100
AcDbEntity
  8
1外形線
100
AcDbLine
 10
1118.144273596797
 20
249.9961587819462
 30
0.0
 11
1125.754934378816
 21
250.7572248601491
 31
0.0
  0
LINE
  5
6065
330
49C2
100
AcDbEntity
  8
1外形線
100
AcDbLine
 10
1183.243777315818
 20
205.4061091538561
 30
0.0
 11
1175.793777315819
 21
205.4061091538561
 31
0.0
  0
LINE
  5
6066
330
49C2
100
AcDbEntity
  8
1外形線
100
AcDbLine
 10
1184.743777315818
 20
203.906109153856
 30
0.0
 11
1184.74377731582
 21
205.4061091538561
 31
0.0
  0
LINE
  5
6067
330
49C2
100
AcDbEntity
  8
1外形線
100
AcDbLine
 10
1183.243777315818
 20
205.4061091538561
 30
0.0
 11
1184.74377731582
 21
205.4061091538561
 31
0.0
  0
LINE
  5
6068
330
49C2
100
AcDbEntity
  8
1外形線
100
AcDbLine
 10
1211.74377731582
 20
203.906109153856
 30
0.0
 11
1211.743777315822
 21
205.4061091538615
 31
0.0
  0
LINE
  5
6069
330
49C2
100
AcDbEntity
  8
1外形線
100
AcDbLine
 10
1211.743777315822
 20
205.4061091538615
 30
0.0
 11
1220.693777315811
 21
205.4061091538615
 31
0.0
  0
LINE
  5
606A
330
49C2
100
AcDbEntity
  8
1外形線
100
AcDbLine
 10
1220.693777315811
 20
205.4061091538615
 30
0.0
 11
1220.693777315813
 21
207.9061091538579
 31
0.0
  0
LINE
  5
606B
330
49C2
100
AcDbEntity
  8
1外形線
100
AcDbLine
 10
1198.243777315818
 20
199.4061091538597
 30
0.0
 11
1224.193777315812
 21
199.4061091538597
 31
0.0
  0
LINE
  5
606C
330
49C2
100
AcDbEntity
  8
1外形線
100
AcDbLine
 10
1224.193777315812
 20
199.4061091538597
 30
0.0
 11
1224.062753588487
 21
206.9124534651191
 31
0.0
  0
ARC
  5
606D
330
49C2
100
AcDbEntity
  8
1外形線
100
AcDbCircle
 10
1221.693777315813
 20
207.9061091538579
 30
0.0
 40
1.0
100
AcDbArc
 50
53.55395241088691
 51
180.0
  0
LINE
  5
606E
330
49C2
100
AcDbEntity
  8
1外形線
100
AcDbLine
 10
1223.656971466911
 20
207.6994176760445
 30
0.0
 11
1222.287842889395
 21
208.7105257712183
 31
0.0
  0
ARC
  5
606F
330
49C2
100
AcDbEntity
  8
1外形線
100
AcDbCircle
 10
1223.06290589333
 20
206.8950010586841
 30
0.0
 40
1.0
100
AcDbArc
 50
0.9999999999757104
 51
53.55395241088691
  0
LINE
  5
6070
330
49C2
100
AcDbEntity
  8
1外形線
100
AcDbLine
 10
1175.793777315819
 20
205.4061091538597
 30
0.0
 11
1175.793777315819
 21
207.9061091538615
 31
0.0
  0
LINE
  5
6071
330
49C2
100
AcDbEntity
  8
1外形線
100
AcDbLine
 10
1172.293777315819
 20
199.4061091538597
 30
0.0
 11
1172.424801043146
 21
206.9124534651246
 31
0.0
  0
ARC
  5
6072
330
49C2
100
AcDbEntity
  8
1外形線
100
AcDbCircle
 10
1173.424648738302
 20
206.8950010586895
 30
0.0
 40
1.0
100
AcDbArc
 50
126.4460475891131
 51
179.0000000000242
  0
LINE
  5
6073
330
49C2
100
AcDbEntity
  8
1外形線
100
AcDbLine
 10
1172.830583164721
 20
207.69941767605
 30
0.0
 11
1174.19971174224
 21
208.7105257712237
 31
0.0
  0
ARC
  5
6074
330
49C2
100
AcDbEntity
  8
1外形線
100
AcDbCircle
 10
1174.793777315819
 20
207.9061091538615
 30
0.0
 40
1.0
100
AcDbArc
 50
0.0
 51
126.4460475891131
  0
LINE
  5
6075
330
49C2
100
AcDbEntity
  8
1外形線
100
AcDbLine
 10
1198.243777315818
 20
199.4061091538597
 30
0.0
 11
1172.293777315819
 21
199.4061091538597
 31
0.0
  0
LINE
  5
6076
330
49C2
100
AcDbEntity
  8
1外形線
100
AcDbLine
 10
1184.743777315818
 20
203.906109153856
 30
0.0
 11
1198.243777315818
 21
203.906109153856
 31
0.0
  0
LINE
  5
6077
330
49C2
100
AcDbEntity
  8
1外形線
100
AcDbLine
 10
1183.243777315818
 20
201.906109153856
 30
0.0
 11
1183.243777315818
 21
205.4061091538561
 31
0.0
  0
LINE
  5
6078
330
49C2
100
AcDbEntity
  8
1外形線
100
AcDbLine
 10
1183.243777315818
 20
201.906109153856
 30
0.0
 11
1198.243777315818
 21
201.906109153856
 31
0.0
  0
LINE
  5
6079
330
49C2
100
AcDbEntity
  8
1外形線
100
AcDbLine
 10
1213.24377731582
 20
201.906109153856
 30
0.0
 11
1198.243777315818
 21
201.906109153856
 31
0.0
  0
LINE
  5
607A
330
49C2
100
AcDbEntity
  8
1外形線
100
AcDbLine
 10
1213.24377731582
 20
201.906109153856
 30
0.0
 11
1213.24377731582
 21
205.4061091538561
 31
0.0
  0
LINE
  5
607B
330
49C2
100
AcDbEntity
  8
1外形線
100
AcDbLine
 10
1211.74377731582
 20
203.906109153856
 30
0.0
 11
1198.243777315818
 21
203.906109153856
 31
0.0
  0
LINE
  5
607C
330
49C2
100
AcDbEntity
  8
1外形線
100
AcDbLine
 10
1213.24377731582
 20
205.4061091538561
 30
0.0
 11
1211.74377731582
 21
205.4061091538561
 31
0.0
  0
LINE
  5
607D
330
49C2
100
AcDbEntity
  8
1外形線
100
AcDbLine
 10
1213.24377731582
 20
205.4061091538561
 30
0.0
 11
1213.743777315818
 21
205.4061091538561
 31
0.0
  0
LINE
  5
607E
330
49C2
100
AcDbEntity
  8
1外形線
100
AcDbLine
 10
1279.24377731582
 20
249.0011215917357
 30
0.0
 11
1279.24377731582
 21
199.4061091538597
 31
0.0
  0
LINE
  5
607F
330
49C2
100
AcDbEntity
  8
1外形線
100
AcDbLine
 10
1226.194122015095
 20
199.4061091538597
 30
0.0
 11
1279.24377731582
 21
199.4061091538597
 31
0.0
  0
LINE
  5
6080
330
49C2
100
AcDbEntity
  8
1外形線
100
AcDbLine
 10
1198.24377731582
 20
250.9061091538579
 30
0.0
 11
1267.747508682188
 21
250.9061091538579
 31
0.0
  0
ARC
  5
6081
330
49C2
100
AcDbEntity
  8
1外形線
100
AcDbCircle
 10
1267.747508682188
 20
220.9061091538488
 30
0.0
 40
30.0
100
AcDbArc
 50
84.28940686252893
 51
90.0
  0
ARC
  5
6082
330
49C2
100
AcDbEntity
  8
1外形線
100
AcDbCircle
 10
1278.243777315822
 20
249.0011215917357
 30
0.0
 40
1.0
100
AcDbArc
 50
0.000000000000007
 51
84.28940686252893
  0
LINE
  5
6083
330
49C2
100
AcDbEntity
  8
1外形線
100
AcDbLine
 10
1278.343281034842
 20
249.9961587819462
 30
0.0
 11
1270.732620252824
 21
250.7572248601491
 31
0.0
  0
ARC
  5
6084
330
49C2
100
AcDbEntity
  8
1外形線
100
AcDbCircle
 10
1198.243777315817
 20
97.71246437460741
 30
0.0
 40
2.149999999999636
100
AcDbArc
 50
179.9986985498504
 51
270.0
  0
LINE
  5
6085
330
49C2
100
AcDbEntity
  8
1外形線
100
AcDbLine
 10
1174.293777315816
 20
89.06246437460778
 30
0.0
 11
1174.293777315816
 21
109.0624643746078
 31
0.0
  0
LINE
  5
6086
330
49C2
100
AcDbEntity
  8
1外形線
100
AcDbLine
 10
1172.293777315816
 20
109.5624643746077
 30
0.0
 11
1172.293777315816
 21
73.51246437460668
 31
0.0
  0
LINE
  5
6087
330
49C2
100
AcDbEntity
  8
1外形線
100
AcDbLine
 10
1173.293777315816
 20
110.5624643746077
 30
0.0
 11
1198.243777315817
 21
110.5624643746077
 31
0.0
  0
ARC
  5
6088
330
49C2
100
AcDbEntity
  8
1外形線
100
AcDbCircle
 10
1173.293777315816
 20
109.5624643746077
 30
0.0
 40
1.0
100
AcDbArc
 50
90.0
 51
180.0
  0
LINE
  5
6089
330
49C2
100
AcDbEntity
  8
1外形線
100
AcDbLine
 10
1172.293777315816
 20
109.0624643746078
 30
0.0
 11
1174.293777315816
 21
109.0624643746078
 31
0.0
  0
LINE
  5
608A
330
49C2
100
AcDbEntity
  8
1外形線
100
AcDbLine
 10
1198.243777315817
 20
124.5624643746078
 30
0.0
 11
1183.243777315815
 21
124.5624643746078
 31
0.0
  0
ARC
  5
608B
330
49C2
100
AcDbEntity
  8
1外形線
100
AcDbCircle
 10
1198.243777315817
 20
102.4124643746081
 30
0.0
 40
2.149999999999636
100
AcDbArc
 50
90.0
 51
180.0013014501496
  0
LINE
  5
608C
330
49C2
100
AcDbEntity
  8
1外形線
100
AcDbLine
 10
1196.093777315816
 20
102.4124155382405
 30
0.0
 11
1196.093777315816
 21
100.0624643746077
 31
0.0
  0
LINE
  5
608D
330
49C2
100
AcDbEntity
  8
1外形線
100
AcDbLine
 10
1196.093777315816
 20
97.71251321097498
 30
0.0
 11
1196.093777315816
 21
100.0624643746077
 31
0.0
  0
LINE
  5
608E
330
49C2
100
AcDbEntity
  8
1外形線
100
AcDbLine
 10
1183.243777315817
 20
124.5624643746078
 30
0.0
 11
1183.243777315817
 21
110.5624643746077
 31
0.0
  0
ARC
  5
608F
330
49C2
100
AcDbEntity
  8
1外形線
100
AcDbCircle
 10
1184.243777315817
 20
124.5624643746078
 30
0.0
 40
1.0
100
AcDbArc
 50
90.0
 51
180.0
  0
LINE
  5
6090
330
49C2
100
AcDbEntity
  8
1外形線
100
AcDbLine
 10
1198.243777315817
 20
125.5624643746077
 30
0.0
 11
1184.243777315817
 21
125.5624643746077
 31
0.0
  0
LINE
  5
6091
330
49C2
100
AcDbEntity
  8
1外形線
100
AcDbLine
 10
1133.243777315817
 20
18.61246437460886
 30
0.0
 11
1198.243777315817
 21
18.61246437460704
 31
0.0
  0
LINE
  5
6092
330
49C2
100
AcDbEntity
  8
1外形線
100
AcDbLine
 10
1118.243777315817
 20
44.56246437460777
 30
0.0
 11
1118.243777315815
 21
59.56246437460777
 31
0.0
  0
LINE
  5
6093
330
49C2
100
AcDbEntity
  8
1外形線
100
AcDbLine
 10
1118.243777315817
 20
44.56246437460777
 30
0.0
 11
1118.243777315815
 21
29.56246437460777
 31
0.0
  0
LINE
  5
6094
330
49C2
100
AcDbEntity
  8
1外形線
100
AcDbLine
 10
1132.243777315817
 20
69.51246437460667
 30
0.0
 11
1132.243777315813
 21
44.56246437460777
 31
0.0
  0
LINE
  5
6095
330
49C2
100
AcDbEntity
  8
1外形線
100
AcDbLine
 10
1132.243777315817
 20
19.61246437460886
 30
0.0
 11
1132.243777315813
 21
44.56246437460777
 31
0.0
  0
LINE
  5
6096
330
49C2
100
AcDbEntity
  8
1外形線
100
AcDbLine
 10
1153.743777315815
 20
20.61246437460704
 30
0.0
 11
1133.743777315817
 21
20.61246437460704
 31
0.0
  0
LINE
  5
6097
330
49C2
100
AcDbEntity
  8
1外形線
100
AcDbLine
 10
1133.743777315817
 20
18.61246437460886
 30
0.0
 11
1133.743777315817
 21
20.61246437460704
 31
0.0
  0
ARC
  5
6098
330
49C2
100
AcDbEntity
  8
1外形線
100
AcDbCircle
 10
1133.243777315817
 20
19.61246437460886
 30
0.0
 40
1.0
100
AcDbArc
 50
180.0
 51
270.0
  0
ARC
  5
6099
330
49C2
100
AcDbEntity
  8
1外形線
100
AcDbCircle
 10
1118.243777315817
 20
30.56246437460777
 30
0.0
 40
1.0
100
AcDbArc
 50
180.0
 51
270.0
  0
LINE
  5
609A
330
49C2
100
AcDbEntity
  8
1外形線
100
AcDbLine
 10
1118.243777315817
 20
29.56246437460777
 30
0.0
 11
1132.243777315817
 21
29.56246437460777
 31
0.0
  0
LINE
  5
609B
330
49C2
100
AcDbEntity
  8
1外形線
100
AcDbLine
 10
1117.243777315817
 20
44.56246437460777
 30
0.0
 11
1117.243777315817
 21
30.56246437460777
 31
0.0
  0
LINE
  5
609C
330
49C2
100
AcDbEntity
  8
1外形線
100
AcDbLine
 10
1153.743777315815
 20
18.61246437460704
 30
0.0
 11
1153.743777315815
 21
20.61246437460704
 31
0.0
  0
LINE
  5
609D
330
49C2
100
AcDbEntity
  8
1外形線
100
AcDbLine
 10
1153.743777315815
 20
70.5124643746085
 30
0.0
 11
1153.743777315815
 21
68.5124643746085
 31
0.0
  0
LINE
  5
609E
330
49C2
100
AcDbEntity
  8
1外形線
100
AcDbLine
 10
1117.243777315817
 20
44.56246437460777
 30
0.0
 11
1117.243777315817
 21
58.56246437460777
 31
0.0
  0
LINE
  5
609F
330
49C2
100
AcDbEntity
  8
1外形線
100
AcDbLine
 10
1118.243777315817
 20
59.56246437460777
 30
0.0
 11
1132.243777315817
 21
59.56246437460777
 31
0.0
  0
ARC
  5
60A0
330
49C2
100
AcDbEntity
  8
1外形線
100
AcDbCircle
 10
1118.243777315817
 20
58.56246437460777
 30
0.0
 40
1.0
100
AcDbArc
 50
90.0
 51
180.0
  0
ARC
  5
60A1
330
49C2
100
AcDbEntity
  8
1外形線
100
AcDbCircle
 10
1133.243777315817
 20
69.51246437460667
 30
0.0
 40
1.0
100
AcDbArc
 50
90.0
 51
180.0
  0
LINE
  5
60A2
330
49C2
100
AcDbEntity
  8
1外形線
100
AcDbLine
 10
1133.743777315817
 20
70.51246437460668
 30
0.0
 11
1133.743777315817
 21
68.5124643746085
 31
0.0
  0
LINE
  5
60A3
330
49C2
100
AcDbEntity
  8
1外形線
100
AcDbLine
 10
1153.743777315815
 20
68.5124643746085
 30
0.0
 11
1133.743777315817
 21
68.5124643746085
 31
0.0
  0
ARC
  5
60A4
330
49C2
100
AcDbEntity
  8
1外形線
100
AcDbCircle
 10
1169.293777315816
 20
73.51246437460668
 30
0.0
 40
3.0
100
AcDbArc
 50
270.0
 51
0.0
  0
LINE
  5
60A5
330
49C2
100
AcDbEntity
  8
1外形線
100
AcDbLine
 10
1133.243777315817
 20
70.51246437460668
 30
0.0
 11
1169.293777315816
 21
70.51246437460668
 31
0.0
  0
LINE
  5
60A6
330
49C2
100
AcDbEntity
  8
1外形線
100
AcDbLine
 10
1140.393826152184
 20
42.41246437460813
 30
0.0
 11
1142.743777315817
 21
42.41246437460813
 31
0.0
  0
LINE
  5
60A7
330
49C2
100
AcDbEntity
  8
1外形線
100
AcDbLine
 10
1140.393826152184
 20
46.7124643746074
 30
0.0
 11
1142.743777315817
 21
46.7124643746074
 31
0.0
  0
LINE
  5
60A8
330
49C2
100
AcDbEntity
  8
1外形線
100
AcDbLine
 10
1145.09372847945
 20
46.7124643746074
 30
0.0
 11
1142.743777315817
 21
46.7124643746074
 31
0.0
  0
LINE
  5
60A9
330
49C2
100
AcDbEntity
  8
1外形線
100
AcDbLine
 10
1145.09372847945
 20
42.41246437460813
 30
0.0
 11
1142.743777315817
 21
42.41246437460813
 31
0.0
  0
ARC
  5
60AA
330
49C2
100
AcDbEntity
  8
1外形線
100
AcDbCircle
 10
1145.093777315816
 20
44.56246437460777
 30
0.0
 40
2.149999999999636
100
AcDbArc
 50
0.0
 51
90.0013014501496
  0
ARC
  5
60AB
330
49C2
100
AcDbEntity
  8
1外形線
100
AcDbCircle
 10
1145.093777315816
 20
44.56246437460777
 30
0.0
 40
2.149999999999636
100
AcDbArc
 50
269.9986985499546
 51
0.0
  0
ARC
  5
60AC
330
49C2
100
AcDbEntity
  8
1外形線
100
AcDbCircle
 10
1140.393777315815
 20
44.56246437460777
 30
0.0
 40
2.149999999999636
100
AcDbArc
 50
180.0
 51
270.0013014501496
  0
ARC
  5
60AD
330
49C2
100
AcDbEntity
  8
1外形線
100
AcDbCircle
 10
1140.393777315815
 20
44.56246437460777
 30
0.0
 40
2.149999999999636
100
AcDbArc
 50
89.99869854995463
 51
180.0
  0
LINE
  5
60AE
330
49C2
100
AcDbEntity
  8
1外形線
100
AcDbLine
 10
1172.293777315816
 20
89.06246437460778
 30
0.0
 11
1174.293777315816
 21
89.06246437460778
 31
0.0
  0
ARC
  5
60AF
330
49C2
100
AcDbEntity
  8
1外形線
100
AcDbCircle
 10
1198.243777315817
 20
44.56246437460777
 30
0.0
 40
2.149999999999999
100
AcDbArc
 50
90.0
 51
270.0
  0
ENDSEC
  0
SECTION
  2
OBJECTS
  0
DICTIONARY
  5
495F
330
0
100
AcDbDictionary
281
     1
  3
ACAD_CIP_PREVIOUS_PRODUCT_INFO
350
49D3
  3
ACAD_COLOR
350
49B5
  3
ACAD_DETAILVIEWSTYLE
350
49BC
  3
ACAD_GROUP
350
4960
  3
ACAD_LAYOUT
350
49B4
  3
ACAD_MATERIAL
350
4963
  3
ACAD_MLEADERSTYLE
350
49B8
  3
ACAD_MLINESTYLE
350
49B1
  3
ACAD_PLOTSETTINGS
350
49B3
  3
ACAD_PLOTSTYLENAME
350
4961
  3
ACAD_SCALELIST
350
4995
  3
ACAD_SECTIONVIEWSTYLE
350
49BA
  3
ACAD_TABLESTYLE
350
49B6
  3
ACAD_VISUALSTYLE
350
497C
  3
ACDB_RECOMPOSE_DATA
350
60B8
  3
AcDbVariableDictionary
350
5990
  3
DWGPROPS
350
60B9
  0
DICTIONARY
  5
4AF8
330
4955
100
AcDbDictionary
280
     1
281
     1
  3
ACAD_LAYERSTATES
360
4AF9
  0
DICTIONARY
  5
594F
330
49A7
100
AcDbDictionary
280
     1
281
     1
  3
ADSK_XREC_LAYER_RECONCILED
360
5950
  0
DICTIONARY
  5
5951
330
49C7
100
AcDbDictionary
280
     1
281
     1
  3
ADSK_XREC_LAYER_RECONCILED
360
5952
  0
DICTIONARY
  5
4AEF
330
4AEE
100
AcDbDictionary
280
     1
281
     1
  3
ADSK_XREC_LAYER_RECONCILED
360
5953
  0
DICTIONARY
  5
4AF1
330
4AF0
100
AcDbDictionary
280
     1
281
     1
  3
ADSK_XREC_LAYER_RECONCILED
360
5954
  0
DICTIONARY
  5
4AF4
330
4AF3
100
AcDbDictionary
280
     1
281
     1
  3
ADSK_XREC_LAYER_RECONCILED
360
5955
  0
DICTIONARY
  5
5104
330
5103
100
AcDbDictionary
280
     1
281
     1
  3
ADSK_XREC_LAYER_RECONCILED
360
5956
  0
DICTIONARY
  5
5106
330
5105
100
AcDbDictionary
280
     1
281
     1
  3
ADSK_XREC_LAYER_RECONCILED
360
5957
  0
DICTIONARY
  5
5A20
330
5A1F
100
AcDbDictionary
280
     1
281
     1
  0
DICTIONARY
  5
5C6C
330
5C6B
100
AcDbDictionary
280
     1
281
     1
  0
XRECORD
  5
49D3
102
{ACAD_REACTORS
330
495F
102
}
330
495F
100
AcDbXrecord
280
     1
300
ACDLT
300
2023
300

  0
DICTIONARY
  5
49B5
102
{ACAD_REACTORS
330
495F
102
}
330
495F
100
AcDbDictionary
281
     1
  0
DICTIONARY
  5
49BC
102
{ACAD_REACTORS
330
495F
102
}
330
495F
100
AcDbDictionary
281
     1
  3
Imperial24
350
49BD
  3
Metric50
350
4AFB
  0
DICTIONARY
  5
4960
102
{ACAD_REACTORS
330
495F
102
}
330
495F
100
AcDbDictionary
281
     1
  0
DICTIONARY
  5
49B4
102
{ACAD_REACTORS
330
495F
102
}
330
495F
100
AcDbDictionary
281
     1
  3
Model
350
49C5
  3
レイアウト1
350
49C1
  0
DICTIONARY
  5
4963
102
{ACAD_REACTORS
330
495F
102
}
330
495F
100
AcDbDictionary
281
     1
  3
ByBlock
350
496C
  3
ByLayer
350
4964
  3
Global
350
4974
  0
DICTIONARY
  5
49B8
102
{ACAD_REACTORS
330
495F
102
}
330
495F
100
AcDbDictionary
281
     1
  3
Standard
350
49B9
  0
DICTIONARY
  5
49B1
102
{ACAD_REACTORS
330
495F
102
}
330
495F
100
AcDbDictionary
281
     1
  3
Standard
350
49B2
  0
DICTIONARY
  5
49B3
102
{ACAD_REACTORS
330
495F
102
}
330
495F
100
AcDbDictionary
281
     1
  0
ACDBDICTIONARYWDFLT
  5
4961
102
{ACAD_REACTORS
330
495F
102
}
330
495F
100
AcDbDictionary
281
     1
  3
Normal
350
4962
100
AcDbDictionaryWithDefault
340
4962
  0
DICTIONARY
  5
4995
102
{ACAD_REACTORS
330
495F
102
}
330
495F
100
AcDbDictionary
281
     1
  3
A0
350
4996
  3
A1
350
4997
  3
A2
350
4998
  3
A3
350
4999
  3
A4
350
499A
  3
A5
350
499B
  3
A6
350
499C
  3
A7
350
499D
  3
A8
350
499E
  3
A9
350
499F
  3
B0
350
49A0
  3
B1
350
49A1
  3
B2
350
49A2
  3
B3
350
49A3
  3
B4
350
49A4
  3
B5
350
49A5
  3
B6
350
49A6
  0
DICTIONARY
  5
49BA
102
{ACAD_REACTORS
330
495F
102
}
330
495F
100
AcDbDictionary
281
     1
  3
Imperial24
350
49BB
  3
Metric50
350
4AFA
  0
DICTIONARY
  5
49B6
102
{ACAD_REACTORS
330
495F
102
}
330
495F
100
AcDbDictionary
281
     1
  3
Standard
350
49B7
  0
DICTIONARY
  5
497C
102
{ACAD_REACTORS
330
495F
102
}
330
495F
100
AcDbDictionary
281
     1
  3
2dWireframe
350
4982
  3
Basic
350
4981
  3
Brighten
350
4988
  3
ColorChange
350
498C
  3
Conceptual
350
4985
  3
Dim
350
4987
  3
EdgeColorOff
350
4994
  3
Facepattern
350
498B
  3
Flat
350
497D
  3
FlatWithEdges
350
497E
  3
Gouraud
350
497F
  3
GouraudWithEdges
350
4980
  3
Hidden
350
4984
  3
JitterOff
350
4992
  3
Linepattern
350
498A
  3
OverhangOff
350
4993
  3
Realistic
350
4986
  3
Shaded
350
4991
  3
Shaded with edges
350
4990
  3
Shades of Gray
350
498D
  3
Sketchy
350
498E
  3
Thicken
350
4989
  3
Wireframe
350
4983
  3
X-Ray
350
498F
  0
XRECORD
  5
60B8
102
{ACAD_REACTORS
330
495F
102
}
330
495F
100
AcDbXrecord
280
     1
 90
        1
330
49B7
  0
DICTIONARY
  5
5990
102
{ACAD_REACTORS
330
495F
102
}
330
495F
100
AcDbDictionary
281
     1
  3
CANNOSCALE
350
5996
  3
CMLEADERSTYLE
350
5992
  3
CTABLESTYLE
350
5991
  3
CVIEWDETAILSTYLE
350
5993
  3
CVIEWSECTIONSTYLE
350
5994
  3
DIMASSOC
350
60B2
  3
INDEXCTL
350
60B1
  3
LAYEREVAL
350
5998
  3
LAYERNOTIFY
350
5999
  3
LIGHTINGUNITS
350
5997
  3
LOFTANG1
350
60B3
  3
LOFTANG2
350
60B4
  3
LONGITUDE
350
60B5
  3
MSLTSCALE
350
5995
  3
SORTENTS
350
60B0
  3
XCLIPFRAME
350
60B6
  0
XRECORD
  5
60B9
102
{ACAD_REACTORS
330
495F
102
}
330
495F
100
AcDbXrecord
280
     1
  1
DWGPROPS COOKIE
  2

  3

  4

  6

  7

  8
takaaki.hirami
  9

300
=
301
=
302
=
303
=
304
=
305
=
306
=
307
=
308
=
309
=
 40
0.0670127662037037
 41
2452048.587870371
 42
2460039.472800926
  1

 90
        0
  0
DICTIONARY
  5
4AF9
102
{ACAD_REACTORS
330
4AF8
102
}
330
4AF8
100
AcDbDictionary
281
     1
  0
XRECORD
  5
5950
102
{ACAD_REACTORS
330
594F
102
}
330
594F
100
AcDbXrecord
280
     1
290
     1
  0
XRECORD
  5
5952
102
{ACAD_REACTORS
330
5951
102
}
330
5951
100
AcDbXrecord
280
     1
290
     1
  0
XRECORD
  5
5953
102
{ACAD_REACTORS
330
4AEF
102
}
330
4AEF
100
AcDbXrecord
280
     1
290
     1
  0
XRECORD
  5
5954
102
{ACAD_REACTORS
330
4AF1
102
}
330
4AF1
100
AcDbXrecord
280
     1
290
     1
  0
XRECORD
  5
5955
102
{ACAD_REACTORS
330
4AF4
102
}
330
4AF4
100
AcDbXrecord
280
     1
290
     1
  0
XRECORD
  5
5956
102
{ACAD_REACTORS
330
5104
102
}
330
5104
100
AcDbXrecord
280
     1
290
     1
  0
XRECORD
  5
5957
102
{ACAD_REACTORS
330
5106
102
}
330
5106
100
AcDbXrecord
280
     1
290
     1
  0
ACDBDETAILVIEWSTYLE
  5
49BD
102
{ACAD_XDICTIONARY
360
60F1
102
}
102
{ACAD_REACTORS
330
49BC
102
}
330
49BC
100
AcDbModelDocViewStyle
 70
     0
  3
Imperial24
290
     0
100
AcDbDetailViewStyle
 70
     0
 71
     0
 90
        3
 71
     1
340
49A8
 40
0.24
340
0
 40
0.24
300

 40
0.36
280
     3
 71
     2
340
49AF
 90
       25
 71
     3
340
49A8
 40
0.24
 90
        1
 40
0.75
 90
        1
300
%<\AcVar ViewType \f "%tc1">% %<\AcVar ViewDetailId>%\PSCALE %<\AcVar ViewScale \f "%sn">%
 71
     4
340
49AF
 90
       25
340
49AF
 90
       25
280
     0
  0
ACDBDETAILVIEWSTYLE
  5
4AFB
102
{ACAD_XDICTIONARY
360
60F9
102
}
102
{ACAD_REACTORS
330
49BC
102
}
330
49BC
100
AcDbModelDocViewStyle
 70
     0
  3
Metric50
290
     0
100
AcDbDetailViewStyle
 70
     0
 71
     0
 90
        3
 71
     1
340
49A8
 40
5.0
340
0
 40
5.0
300

 40
0.0
280
     1
 71
     2
340
49AF
 90
       25
 71
     3
340
49A8
 40
5.0
 90
        0
 40
15.0
 90
        1
300
%<\AcVar ViewDetailId>% (%<\AcVar ViewScale \f "%sn">%)
 71
     4
340
49AF
 90
       25
340
49AF
 90
       25
280
     0
  0
LAYOUT
  5
49C5
102
{ACAD_XDICTIONARY
360
60F5
102
}
102
{ACAD_REACTORS
330
49B4
102
}
330
49B4
100
AcDbPlotSettings
  1

  2
SHARP MX-5151 (1502249400)
  4

  6

 40
0.0
 41
0.0
 42
0.0
 43
0.0
 44
0.0
 45
0.0
 46
0.0
 47
0.0
 48
0.0
 49
0.0
140
0.0
141
0.0
142
1.0
143
1.0
 70
  1712
 72
     0
 73
     0
 74
     0
  7

 75
     0
147
1.0
148
0.0
149
0.0
100
AcDbLayout
  1
Model
 70
     1
 71
     0
 10
0.0
 20
0.0
 11
12.0
 21
9.0
 12
0.0
 22
0.0
 32
0.0
 14
0.0
 24
0.0
 34
0.0
 15
0.0
 25
0.0
 35
0.0
146
0.0
 13
0.0
 23
0.0
 33
0.0
 16
1.0
 26
0.0
 36
0.0
 17
0.0
 27
1.0
 37
0.0
 76
     0
330
49C2
331
49C6
  0
LAYOUT
  5
49C1
102
{ACAD_XDICTIONARY
360
60F3
102
}
102
{ACAD_REACTORS
330
49B4
102
}
330
49B4
100
AcDbPlotSettings
  1

  2
SHARP MX-5151 (1502249400)
  4

  6

 40
0.0
 41
0.0
 42
0.0
 43
0.0
 44
0.0
 45
0.0
 46
0.0
 47
0.0
 48
0.0
 49
0.0
140
0.0
141
0.0
142
1.0
143
1.0
 70
   688
 72
     0
 73
     0
 74
     5
  7

 75
    16
147
1.0
148
0.0
149
0.0
100
AcDbLayout
  1
レイアウト1
 70
     1
 71
     1
 10
0.0
 20
0.0
 11
420.0
 21
297.0
 12
0.0
 22
0.0
 32
0.0
 14
1.000000000000000E+20
 24
1.000000000000000E+20
 34
1.000000000000000E+20
 15
-1.000000000000000E+20
 25
-1.000000000000000E+20
 35
-1.000000000000000E+20
146
0.0
 13
0.0
 23
0.0
 33
0.0
 16
1.0
 26
0.0
 36
0.0
 17
0.0
 27
1.0
 37
0.0
 76
     0
330
49BE
  0
MATERIAL
  5
496C
102
{ACAD_XDICTIONARY
360
496D
102
}
102
{ACAD_REACTORS
330
4963
102
}
330
4963
100
AcDbMaterial
  1
ByBlock
 72
     0
 43
0.0208333333333333
 43
0.0
 43
0.0
 43
0.0
 43
0.0
 43
0.0208333333333333
 43
0.0
 43
0.0
 43
0.0
 43
0.0
 43
1.0
 43
0.0
 43
0.0
 43
0.0
 43
0.0
 43
1.0
 77
     0
 47
0.0208333333333333
 47
0.0
 47
0.0
 47
0.0
 47
0.0
 47
0.0208333333333333
 47
0.0
 47
0.0
 47
0.0
 47
0.0
 47
1.0
 47
0.0
 47
0.0
 47
0.0
 47
0.0
 47
1.0
171
     0
 49
0.0208333333333333
 49
0.0
 49
0.0
 49
0.0
 49
0.0
 49
0.0208333333333333
 49
0.0
 49
0.0
 49
0.0
 49
0.0
 49
1.0
 49
0.0
 49
0.0
 49
0.0
 49
0.0
 49
1.0
175
     0
142
0.0208333333333333
142
0.0
142
0.0
142
0.0
142
0.0
142
0.0208333333333333
142
0.0
142
0.0
142
0.0
142
0.0
142
1.0
142
0.0
142
0.0
142
0.0
142
0.0
142
1.0
179
     0
144
0.0208333333333333
144
0.0
144
0.0
144
0.0
144
0.0
144
0.0208333333333333
144
0.0
144
0.0
144
0.0
144
0.0
144
1.0
144
0.0
144
0.0
144
0.0
144
0.0
144
1.0
147
0.0208333333333333
147
0.0
147
0.0
147
0.0
147
0.0
147
0.0208333333333333
147
0.0
147
0.0
147
0.0
147
0.0
147
1.0
147
0.0
147
0.0
147
0.0
147
0.0
147
1.0
  0
MATERIAL
  5
4964
102
{ACAD_XDICTIONARY
360
4965
102
}
102
{ACAD_REACTORS
330
4963
102
}
330
4963
100
AcDbMaterial
  1
ByLayer
 72
     0
 43
0.0208333333333333
 43
0.0
 43
0.0
 43
0.0
 43
0.0
 43
0.0208333333333333
 43
0.0
 43
0.0
 43
0.0
 43
0.0
 43
1.0
 43
0.0
 43
0.0
 43
0.0
 43
0.0
 43
1.0
 77
     0
 47
0.0208333333333333
 47
0.0
 47
0.0
 47
0.0
 47
0.0
 47
0.0208333333333333
 47
0.0
 47
0.0
 47
0.0
 47
0.0
 47
1.0
 47
0.0
 47
0.0
 47
0.0
 47
0.0
 47
1.0
171
     0
 49
0.0208333333333333
 49
0.0
 49
0.0
 49
0.0
 49
0.0
 49
0.0208333333333333
 49
0.0
 49
0.0
 49
0.0
 49
0.0
 49
1.0
 49
0.0
 49
0.0
 49
0.0
 49
0.0
 49
1.0
175
     0
142
0.0208333333333333
142
0.0
142
0.0
142
0.0
142
0.0
142
0.0208333333333333
142
0.0
142
0.0
142
0.0
142
0.0
142
1.0
142
0.0
142
0.0
142
0.0
142
0.0
142
1.0
179
     0
144
0.0208333333333333
144
0.0
144
0.0
144
0.0
144
0.0
144
0.0208333333333333
144
0.0
144
0.0
144
0.0
144
0.0
144
1.0
144
0.0
144
0.0
144
0.0
144
0.0
144
1.0
147
0.0208333333333333
147
0.0
147
0.0
147
0.0
147
0.0
147
0.0208333333333333
147
0.0
147
0.0
147
0.0
147
0.0
147
1.0
147
0.0
147
0.0
147
0.0
147
0.0
147
1.0
  0
MATERIAL
  5
4974
102
{ACAD_XDICTIONARY
360
4975
102
}
102
{ACAD_REACTORS
330
4963
102
}
330
4963
100
AcDbMaterial
  1
Global
 72
     0
 43
0.0208333333333333
 43
0.0
 43
0.0
 43
0.0
 43
0.0
 43
0.0208333333333333
 43
0.0
 43
0.0
 43
0.0
 43
0.0
 43
1.0
 43
0.0
 43
0.0
 43
0.0
 43
0.0
 43
1.0
 77
     0
 47
0.0208333333333333
 47
0.0
 47
0.0
 47
0.0
 47
0.0
 47
0.0208333333333333
 47
0.0
 47
0.0
 47
0.0
 47
0.0
 47
1.0
 47
0.0
 47
0.0
 47
0.0
 47
0.0
 47
1.0
171
     0
 49
0.0208333333333333
 49
0.0
 49
0.0
 49
0.0
 49
0.0
 49
0.0208333333333333
 49
0.0
 49
0.0
 49
0.0
 49
0.0
 49
1.0
 49
0.0
 49
0.0
 49
0.0
 49
0.0
 49
1.0
175
     0
142
0.0208333333333333
142
0.0
142
0.0
142
0.0
142
0.0
142
0.0208333333333333
142
0.0
142
0.0
142
0.0
142
0.0
142
1.0
142
0.0
142
0.0
142
0.0
142
0.0
142
1.0
179
     0
144
0.0208333333333333
144
0.0
144
0.0
144
0.0
144
0.0
144
0.0208333333333333
144
0.0
144
0.0
144
0.0
144
0.0
144
1.0
144
0.0
144
0.0
144
0.0
144
0.0
144
1.0
147
0.0208333333333333
147
0.0
147
0.0
147
0.0
147
0.0
147
0.0208333333333333
147
0.0
147
0.0
147
0.0
147
0.0
147
1.0
147
0.0
147
0.0
147
0.0
147
0.0
147
1.0
  0
MLEADERSTYLE
  5
49B9
102
{ACAD_REACTORS
330
49B8
102
}
330
49B8
100
AcDbMLeaderStyle
170
     2
171
     1
172
     0
 90
        2
 40
0.0
 41
0.0
173
     1
 91
-1056964608
340
49AD
 92
       -2
290
     1
 42
0.09
291
     1
 43
0.36
  3
Standard
 44
0.18
300

342
49A8
174
     1
178
     6
175
     1
176
     0
 93
-1056964608
 45
0.18
292
     0
297
     0
 46
0.18
 94
-1056964608
 47
1.0
 49
1.0
140
1.0
293
     1
141
0.0
294
     1
177
     0
142
1.0
295
     0
296
     0
143
0.125
1001
ACAD_MLEADERVER
1070
     2
  0
MLINESTYLE
  5
49B2
102
{ACAD_REACTORS
330
49B1
102
}
330
49B1
100
AcDbMlineStyle
  2
STANDARD
 70
     0
  3

 62
   256
 51
90.0
 52
90.0
 71
     2
 49
0.5
 62
   256
  6
BYLAYER
 49
-0.5
 62
   256
  6
BYLAYER
  0
ACDBPLACEHOLDER
  5
4962
102
{ACAD_REACTORS
330
4961
102
}
330
4961
  0
SCALE
  5
4996
102
{ACAD_REACTORS
330
4995
102
}
330
4995
100
AcDbScale
 70
     0
300
1:1
140
1.0
141
1.0
290
     1
  0
SCALE
  5
4997
102
{ACAD_REACTORS
330
4995
102
}
330
4995
100
AcDbScale
 70
     0
300
1/128" = 1'-0"
140
0.0078125
141
12.0
290
     0
  0
SCALE
  5
4998
102
{ACAD_REACTORS
330
4995
102
}
330
4995
100
AcDbScale
 70
     0
300
1/64" = 1'-0"
140
0.015625
141
12.0
290
     0
  0
SCALE
  5
4999
102
{ACAD_REACTORS
330
4995
102
}
330
4995
100
AcDbScale
 70
     0
300
1/32" = 1'-0"
140
0.03125
141
12.0
290
     0
  0
SCALE
  5
499A
102
{ACAD_REACTORS
330
4995
102
}
330
4995
100
AcDbScale
 70
     0
300
1/16" = 1'-0"
140
0.0625
141
12.0
290
     0
  0
SCALE
  5
499B
102
{ACAD_REACTORS
330
4995
102
}
330
4995
100
AcDbScale
 70
     0
300
3/32" = 1'-0"
140
0.09375
141
12.0
290
     0
  0
SCALE
  5
499C
102
{ACAD_REACTORS
330
4995
102
}
330
4995
100
AcDbScale
 70
     0
300
1/8" = 1'-0"
140
0.125
141
12.0
290
     0
  0
SCALE
  5
499D
102
{ACAD_REACTORS
330
4995
102
}
330
4995
100
AcDbScale
 70
     0
300
3/16" = 1'-0"
140
0.1875
141
12.0
290
     0
  0
SCALE
  5
499E
102
{ACAD_REACTORS
330
4995
102
}
330
4995
100
AcDbScale
 70
     0
300
1/4" = 1'-0"
140
0.25
141
12.0
290
     0
  0
SCALE
  5
499F
102
{ACAD_REACTORS
330
4995
102
}
330
4995
100
AcDbScale
 70
     0
300
3/8" = 1'-0"
140
0.375
141
12.0
290
     0
  0
SCALE
  5
49A0
102
{ACAD_REACTORS
330
4995
102
}
330
4995
100
AcDbScale
 70
     0
300
1/2" = 1'-0"
140
0.5
141
12.0
290
     0
  0
SCALE
  5
49A1
102
{ACAD_REACTORS
330
4995
102
}
330
4995
100
AcDbScale
 70
     0
300
3/4" = 1'-0"
140
0.75
141
12.0
290
     0
  0
SCALE
  5
49A2
102
{ACAD_REACTORS
330
4995
102
}
330
4995
100
AcDbScale
 70
     0
300
1" = 1'-0"
140
1.0
141
12.0
290
     0
  0
SCALE
  5
49A3
102
{ACAD_REACTORS
330
4995
102
}
330
4995
100
AcDbScale
 70
     0
300
1-1/2" = 1'-0"
140
1.5
141
12.0
290
     0
  0
SCALE
  5
49A4
102
{ACAD_REACTORS
330
4995
102
}
330
4995
100
AcDbScale
 70
     0
300
3" = 1'-0"
140
3.0
141
12.0
290
     0
  0
SCALE
  5
49A5
102
{ACAD_REACTORS
330
4995
102
}
330
4995
100
AcDbScale
 70
     0
300
6" = 1'-0"
140
6.0
141
12.0
290
     0
  0
SCALE
  5
49A6
102
{ACAD_REACTORS
330
4995
102
}
330
4995
100
AcDbScale
 70
     0
300
1'-0" = 1'-0"
140
12.0
141
12.0
290
     0
  0
ACDBSECTIONVIEWSTYLE
  5
49BB
102
{ACAD_XDICTIONARY
360
60EF
102
}
102
{ACAD_REACTORS
330
49BA
102
}
330
49BA
100
AcDbModelDocViewStyle
 70
     0
  3
Imperial24
290
     0
100
AcDbSectionViewStyle
 70
     0
 71
     0
 90
       78
 71
     1
340
49A8
 40
0.24
340
0
340
0
 40
0.24
300
I, O, Q, S, X, Z
 40
0.48
 90
        3
 40
0.18
 90
        1
 71
     2
340
49AF
 90
       25
340
49AF
 90
       50
 40
0.24
 40
0.0
 40
0.24
 71
     3
340
49A8
 40
0.24
 90
        1
 40
0.75
 90
        1
300
%<\AcVar ViewType \f "%tc1">% %<\AcVar ViewSectionStartId>%-%<\AcVar ViewSectionEndId>%\PSCALE %<\AcVar ViewScale \f "%sn">%
 71
     4
300
ANSI31
 40
1.0
 90
        0
290
     0
290
     0
 90
        6
 40
0.0
 40
1.570796326794896
 40
0.2617993877991494
 40
1.308996938995747
 40
-0.2617993877991494
 40
1.832595714594045
  0
ACDBSECTIONVIEWSTYLE
  5
4AFA
102
{ACAD_XDICTIONARY
360
60F7
102
}
102
{ACAD_REACTORS
330
49BA
102
}
330
49BA
100
AcDbModelDocViewStyle
 70
     0
  3
Metric50
290
     0
100
AcDbSectionViewStyle
 70
     0
 71
     0
 90
      102
 71
     1
340
49A8
 40
5.0
340
0
340
0
 40
5.0
300
I, O, Q, S, X, Z
 40
10.0
 90
        0
 40
2.5
 90
        0
 71
     2
340
49AF
 90
       25
340
49AF
 90
       50
 40
5.0
 40
2.5
 40
5.0
 71
     3
340
49A8
 40
5.0
 90
        0
 40
15.0
 90
        1
300
%<\AcVar ViewSectionStartId>%-%<\AcVar ViewSectionEndId>% (%<\AcVar ViewScale \f "%sn">%)
 71
     4
300
ANSI31
 40
1.0
 90
        0
290
     0
290
     0
 90
        6
 40
0.0
 40
1.570796326794896
 40
0.2617993877991494
 40
1.308996938995747
 40
-0.2617993877991494
 40
1.832595714594045
  0
TABLESTYLE
  5
49B7
102
{ACAD_XDICTIONARY
360
599F
102
}
102
{ACAD_REACTORS
330
49B6
102
}
330
49B6
100
AcDbTableStyle
  3
Standard
 70
     0
 71
     0
 40
0.06
 41
0.06
280
     0
281
     0
  7
STANDARD
140
0.18
170
     2
 62
     0
 63
     7
283
     0
274
    -2
284
     1
 64
     0
275
    -2
285
     1
 65
     0
276
    -2
286
     1
 66
     0
277
    -2
287
     1
 67
     0
278
    -2
288
     1
 68
     0
279
    -2
289
     1
 69
     0
  7
STANDARD
140
0.25
170
     5
 62
     0
 63
     7
283
     0
274
    -2
284
     1
 64
     0
275
    -2
285
     1
 65
     0
276
    -2
286
     1
 66
     0
277
    -2
287
     1
 67
     0
278
    -2
288
     1
 68
     0
279
    -2
289
     1
 69
     0
  7
STANDARD
140
0.18
170
     5
 62
     0
 63
     7
283
     0
274
    -2
284
     1
 64
     0
275
    -2
285
     1
 65
     0
276
    -2
286
     1
 66
     0
277
    -2
287
     1
 67
     0
278
    -2
288
     1
 68
     0
279
    -2
289
     1
 69
     0
  0
VISUALSTYLE
  5
4982
102
{ACAD_XDICTIONARY
360
60C7
102
}
102
{ACAD_REACTORS
330
497C
102
}
330
497C
100
AcDbVisualStyle
  2
2dWireframe
 70
     4
 71
     0
 72
     2
 73
     0
 90
        0
 40
-0.6
 41
-30.0
 62
     5
 63
     7
 74
     1
 91
        4
 64
     7
 65
   257
 75
     1
175
     1
 42
1.0
 92
        0
 66
   257
 43
1.0
 76
     1
 77
     6
 78
     2
 67
     7
 79
     5
170
     0
171
     0
290
     0
174
     0
 93
        1
 44
0.0
173
     0
291
     0
 45
0.0
1001
ACAD
1000
AcDbSavedByObjectVersion
1070
     0
  0
VISUALSTYLE
  5
4981
102
{ACAD_XDICTIONARY
360
60C5
102
}
102
{ACAD_REACTORS
330
497C
102
}
330
497C
100
AcDbVisualStyle
  2
Basic
 70
     7
 71
     1
 72
     0
 73
     1
 90
        0
 40
-0.6
 41
-30.0
 62
     5
 63
     7
 74
     0
 91
        4
 64
     7
 65
   257
 75
     1
175
     1
 42
1.0
 92
        8
 66
     7
 43
1.0
 76
     1
 77
     6
 78
     2
 67
     7
 79
     5
170
     0
171
     0
290
     0
174
     0
 93
        1
 44
0.0
173
     0
291
     1
 45
0.0
1001
ACAD
1000
AcDbSavedByObjectVersion
1070
     0
  0
VISUALSTYLE
  5
4988
102
{ACAD_XDICTIONARY
360
60D3
102
}
102
{ACAD_REACTORS
330
497C
102
}
330
497C
100
AcDbVisualStyle
  2
Brighten
 70
    12
 71
     2
 72
     2
 73
     0
 90
        0
 40
-0.6
 41
-30.0
 62
     5
 63
     7
 74
     1
 91
        4
 64
     7
 65
   257
 75
     1
175
     1
 42
1.0
 92
        8
 66
     7
 43
1.0
 76
     1
 77
     6
 78
     2
 67
     7
 79
     5
170
     0
171
     0
290
     0
174
     0
 93
        1
 44
50.0
173
     0
291
     1
 45
0.0
1001
ACAD
1000
AcDbSavedByObjectVersion
1070
     0
  0
VISUALSTYLE
  5
498C
102
{ACAD_XDICTIONARY
360
60DB
102
}
102
{ACAD_REACTORS
330
497C
102
}
330
497C
100
AcDbVisualStyle
  2
ColorChange
 70
    16
 71
     2
 72
     2
 73
     3
 90
        0
 40
-0.6
 41
-30.0
 62
     5
 63
     8
 74
     1
 91
        4
 64
     7
 65
   257
 75
     1
175
     1
 42
1.0
 92
        8
 66
     8
 43
1.0
 76
     1
 77
     6
 78
     2
 67
     7
 79
     5
170
     0
171
     0
290
     0
174
     0
 93
        1
 44
0.0
173
     0
291
     1
 45
0.0
1001
ACAD
1000
AcDbSavedByObjectVersion
1070
     0
  0
VISUALSTYLE
  5
4985
102
{ACAD_XDICTIONARY
360
60CD
102
}
102
{ACAD_REACTORS
330
497C
102
}
330
497C
100
AcDbVisualStyle
  2
Conceptual
 70
     9
 71
     3
 72
     2
 73
     0
 90
        0
 40
-0.6
 41
-30.0
 62
     5
 63
     7
 74
     2
 91
        2
 64
     7
 65
   257
 75
     1
175
     1
 42
179.0
 92
        8
 66
     7
 43
1.0
 76
     1
 77
     6
 78
     2
 67
     7
 79
     3
170
     0
171
     0
290
     0
174
     0
 93
        1
 44
0.0
173
     0
291
     0
 45
0.0
1001
ACAD
1000
AcDbSavedByObjectVersion
1070
     0
  0
VISUALSTYLE
  5
4987
102
{ACAD_XDICTIONARY
360
60D1
102
}
102
{ACAD_REACTORS
330
497C
102
}
330
497C
100
AcDbVisualStyle
  2
Dim
 70
    11
 71
     2
 72
     2
 73
     0
 90
        0
 40
-0.6
 41
-30.0
 62
     5
 63
     7
 74
     1
 91
        4
 64
     7
 65
   257
 75
     1
175
     1
 42
1.0
 92
        8
 66
     7
 43
1.0
 76
     1
 77
     6
 78
     2
 67
     7
 79
     5
170
     0
171
     0
290
     0
174
     0
 93
        1
 44
-50.0
173
     0
291
     1
 45
0.0
1001
ACAD
1000
AcDbSavedByObjectVersion
1070
     0
  0
VISUALSTYLE
  5
4994
102
{ACAD_XDICTIONARY
360
60EB
102
}
102
{ACAD_REACTORS
330
497C
102
}
330
497C
100
AcDbVisualStyle
  2
EdgeColorOff
 70
    22
 71
     2
 72
     2
 73
     0
 90
        0
 40
-0.6
 41
-30.0
 62
     5
 63
     7
 74
     1
 91
        4
 64
     7
 65
   257
 75
     1
175
     1
 42
1.0
 92
        8
 66
     7
 43
1.0
 76
     1
 77
     6
 78
     2
 67
     7
 79
     5
170
     0
171
     0
290
     0
174
     0
 93
        1
 44
0.0
173
     0
291
     1
 45
0.0
1001
ACAD
1000
AcDbSavedByObjectVersion
1070
     0
  0
VISUALSTYLE
  5
498B
102
{ACAD_XDICTIONARY
360
60D9
102
}
102
{ACAD_REACTORS
330
497C
102
}
330
497C
100
AcDbVisualStyle
  2
Facepattern
 70
    15
 71
     2
 72
     2
 73
     0
 90
        0
 40
-0.6
 41
-30.0
 62
     5
 63
     7
 74
     1
 91
        4
 64
     7
 65
   257
 75
     1
175
     1
 42
1.0
 92
        8
 66
     7
 43
1.0
 76
     1
 77
     6
 78
     2
 67
     7
 79
     5
170
     0
171
     0
290
     0
174
     0
 93
        1
 44
0.0
173
     0
291
     1
 45
0.0
1001
ACAD
1000
AcDbSavedByObjectVersion
1070
     0
  0
VISUALSTYLE
  5
497D
102
{ACAD_XDICTIONARY
360
60BD
102
}
102
{ACAD_REACTORS
330
497C
102
}
330
497C
100
AcDbVisualStyle
  2
Flat
 70
     0
 71
     2
 72
     1
 73
     1
 90
        2
 40
-0.6
 41
30.0
 62
     5
 63
     7
 74
     0
 91
        0
 64
     7
 65
   257
 75
     1
175
     1
 42
1.0
 92
        8
 66
     7
 43
1.0
 76
     1
 77
     6
 78
     2
 67
     7
 79
     5
170
     0
171
     0
290
     0
174
     0
 93
       13
 44
0.0
173
     0
291
     1
 45
0.0
1001
ACAD
1000
AcDbSavedByObjectVersion
1070
     0
  0
VISUALSTYLE
  5
497E
102
{ACAD_XDICTIONARY
360
60BF
102
}
102
{ACAD_REACTORS
330
497C
102
}
330
497C
100
AcDbVisualStyle
  2
FlatWithEdges
 70
     1
 71
     2
 72
     1
 73
     1
 90
        2
 40
-0.6
 41
30.0
 62
     5
 63
     7
 74
     1
 91
        0
 64
     7
 65
   257
 75
     1
175
     1
 42
1.0
 92
        0
 66
   257
 43
1.0
 76
     1
 77
     6
 78
     2
 67
     7
 79
     5
170
     0
171
     0
290
     0
174
     0
 93
       13
 44
0.0
173
     0
291
     1
 45
0.0
1001
ACAD
1000
AcDbSavedByObjectVersion
1070
     0
  0
VISUALSTYLE
  5
497F
102
{ACAD_XDICTIONARY
360
60C1
102
}
102
{ACAD_REACTORS
330
497C
102
}
330
497C
100
AcDbVisualStyle
  2
Gouraud
 70
     2
 71
     2
 72
     2
 73
     1
 90
        2
 40
-0.6
 41
30.0
 62
     5
 63
     7
 74
     0
 91
        0
 64
     7
 65
   257
 75
     1
175
     1
 42
1.0
 92
        0
 66
     7
 43
1.0
 76
     1
 77
     6
 78
     2
 67
     7
 79
     5
170
     0
171
     0
290
     0
174
     0
 93
       13
 44
0.0
173
     0
291
     1
 45
0.0
1001
ACAD
1000
AcDbSavedByObjectVersion
1070
     0
  0
VISUALSTYLE
  5
4980
102
{ACAD_XDICTIONARY
360
60C3
102
}
102
{ACAD_REACTORS
330
497C
102
}
330
497C
100
AcDbVisualStyle
  2
GouraudWithEdges
 70
     3
 71
     2
 72
     2
 73
     1
 90
        2
 40
-0.6
 41
30.0
 62
     5
 63
     7
 74
     1
 91
        0
 64
     7
 65
   257
 75
     1
175
     1
 42
1.0
 92
        0
 66
   257
 43
1.0
 76
     1
 77
     6
 78
     2
 67
     7
 79
     5
170
     0
171
     0
290
     0
174
     0
 93
       13
 44
0.0
173
     0
291
     1
 45
0.0
1001
ACAD
1000
AcDbSavedByObjectVersion
1070
     0
  0
VISUALSTYLE
  5
4984
102
{ACAD_XDICTIONARY
360
60CB
102
}
102
{ACAD_REACTORS
330
497C
102
}
330
497C
100
AcDbVisualStyle
  2
Hidden
 70
     6
 71
     1
 72
     2
 73
     2
 90
        0
 40
-0.6
 41
-30.0
 62
     5
 63
     7
 74
     2
 91
        2
 64
     7
 65
   257
 75
     2
175
     1
 42
40.0
 92
        0
 66
   257
 43
1.0
 76
     1
 77
     6
 78
     2
 67
     7
 79
     3
170
     0
171
     0
290
     0
174
     0
 93
        1
 44
0.0
173
     0
291
     0
 45
0.0
1001
ACAD
1000
AcDbSavedByObjectVersion
1070
     0
  0
VISUALSTYLE
  5
4992
102
{ACAD_XDICTIONARY
360
60E7
102
}
102
{ACAD_REACTORS
330
497C
102
}
330
497C
100
AcDbVisualStyle
  2
JitterOff
 70
    20
 71
     2
 72
     2
 73
     0
 90
        0
 40
-0.6
 41
-30.0
 62
     5
 63
     7
 74
     1
 91
        4
 64
     7
 65
   257
 75
     1
175
     1
 42
1.0
 92
       10
 66
     7
 43
1.0
 76
     1
 77
     6
 78
     2
 67
     7
 79
     5
170
     0
171
     0
290
     0
174
     0
 93
        1
 44
0.0
173
     0
291
     1
 45
0.0
1001
ACAD
1000
AcDbSavedByObjectVersion
1070
     0
  0
VISUALSTYLE
  5
498A
102
{ACAD_XDICTIONARY
360
60D7
102
}
102
{ACAD_REACTORS
330
497C
102
}
330
497C
100
AcDbVisualStyle
  2
Linepattern
 70
    14
 71
     2
 72
     2
 73
     0
 90
        0
 40
-0.6
 41
-30.0
 62
     5
 63
     7
 74
     1
 91
        4
 64
     7
 65
   257
 75
     7
175
     7
 42
1.0
 92
        8
 66
     7
 43
1.0
 76
     1
 77
     6
 78
     2
 67
     7
 79
     5
170
     0
171
     0
290
     0
174
     0
 93
        1
 44
0.0
173
     0
291
     1
 45
0.0
1001
ACAD
1000
AcDbSavedByObjectVersion
1070
     0
  0
VISUALSTYLE
  5
4993
102
{ACAD_XDICTIONARY
360
60E9
102
}
102
{ACAD_REACTORS
330
497C
102
}
330
497C
100
AcDbVisualStyle
  2
OverhangOff
 70
    21
 71
     2
 72
     2
 73
     0
 90
        0
 40
-0.6
 41
-30.0
 62
     5
 63
     7
 74
     1
 91
        4
 64
     7
 65
   257
 75
     1
175
     1
 42
1.0
 92
        9
 66
     7
 43
1.0
 76
     1
 77
     6
 78
     2
 67
     7
 79
     5
170
     0
171
     0
290
     0
174
     0
 93
        1
 44
0.0
173
     0
291
     1
 45
0.0
1001
ACAD
1000
AcDbSavedByObjectVersion
1070
     0
  0
VISUALSTYLE
  5
4986
102
{ACAD_XDICTIONARY
360
60CF
102
}
102
{ACAD_REACTORS
330
497C
102
}
330
497C
100
AcDbVisualStyle
  2
Realistic
 70
     8
 71
     2
 72
     3
 73
     0
 90
        2
 40
-0.6
 41
30.0
 62
     5
 63
     7
 74
     0
 91
        0
 64
     7
 65
   257
 75
     1
175
     1
 42
1.0
 92
        8
 66
   257
 43
1.0
 76
     1
 77
     6
 78
     2
 67
     7
 79
     3
170
     0
171
     0
290
     0
174
     0
 93
       13
 44
0.0
173
     0
291
     0
 45
0.0
1001
ACAD
1000
AcDbSavedByObjectVersion
1070
     0
  0
VISUALSTYLE
  5
4991
102
{ACAD_XDICTIONARY
360
60E5
102
}
102
{ACAD_REACTORS
330
497C
102
}
330
497C
100
AcDbVisualStyle
  2
Shaded
 70
    27
 71
     2
 72
     2
 73
     1
 90
        2
 40
-0.6
 41
30.0
 62
     5
 63
     7
 74
     0
 91
        4
 64
     7
 65
   257
 75
     1
175
     1
 42
1.0
 92
        8
 66
   257
 43
1.0
 76
     1
 77
     6
 78
     2
 67
     8
 79
     3
170
     0
171
     0
290
     0
174
     0
 93
        5
 44
0.0
173
     0
291
     0
 45
0.0
1001
ACAD
1000
AcDbSavedByObjectVersion
1070
     0
  0
VISUALSTYLE
  5
4990
102
{ACAD_XDICTIONARY
360
60E3
102
}
102
{ACAD_REACTORS
330
497C
102
}
330
497C
100
AcDbVisualStyle
  2
Shaded with edges
 70
    26
 71
     2
 72
     2
 73
     1
 90
        2
 40
-0.6
 41
30.0
 62
     5
 63
     7
 74
     1
 91
        2
 64
     7
 65
   257
 75
     2
175
     1
 42
1.0
 92
        8
 66
   257
 43
1.0
 76
     1
 77
     6
 78
     2
 67
     7
 79
     3
170
     0
171
     0
290
     0
174
     0
 93
        5
 44
0.0
173
     0
291
     0
 45
0.0
1001
ACAD
1000
AcDbSavedByObjectVersion
1070
     0
  0
VISUALSTYLE
  5
498D
102
{ACAD_XDICTIONARY
360
60DD
102
}
102
{ACAD_REACTORS
330
497C
102
}
330
497C
100
AcDbVisualStyle
  2
Shades of Gray
 70
    23
 71
     2
 72
     2
 73
     3
 90
        0
 40
-0.6
 41
-30.0
 62
     5
 63
     7
 74
     2
 91
        2
 64
     7
 65
     7
 75
     1
175
     1
 42
40.0
 92
        8
 66
     7
 43
1.0
 76
     1
 77
     6
 78
     2
 67
     7
 79
     3
170
     0
171
     0
290
     0
174
     0
 93
        1
 44
0.0
173
     0
291
     0
 45
0.0
1001
ACAD
1000
AcDbSavedByObjectVersion
1070
     0
  0
VISUALSTYLE
  5
498E
102
{ACAD_XDICTIONARY
360
60DF
102
}
102
{ACAD_REACTORS
330
497C
102
}
330
497C
100
AcDbVisualStyle
  2
Sketchy
 70
    24
 71
     1
 72
     2
 73
     2
 90
        0
 40
-0.6
 41
-30.0
 62
     5
 63
     7
 74
     2
 91
        2
 64
     7
 65
     7
 75
     1
175
     1
 42
40.0
 92
       11
 66
     7
 43
1.0
 76
     1
 77
     6
 78
     2
 67
     7
 79
     6
170
     0
171
     0
290
     0
174
     0
 93
        1
 44
0.0
173
     0
291
     0
 45
0.0
1001
ACAD
1000
AcDbSavedByObjectVersion
1070
     0
  0
VISUALSTYLE
  5
4989
102
{ACAD_XDICTIONARY
360
60D5
102
}
102
{ACAD_REACTORS
330
497C
102
}
330
497C
100
AcDbVisualStyle
  2
Thicken
 70
    13
 71
     2
 72
     2
 73
     0
 90
        0
 40
-0.6
 41
-30.0
 62
     5
 63
     7
 74
     1
 91
        4
 64
     7
 65
   257
 75
     1
175
     1
 42
1.0
 92
       12
 66
     7
 43
1.0
 76
     1
 77
     6
 78
     2
 67
     7
 79
     5
170
     0
171
     0
290
     0
174
     0
 93
        1
 44
0.0
173
     0
291
     1
 45
0.0
1001
ACAD
1000
AcDbSavedByObjectVersion
1070
     0
  0
VISUALSTYLE
  5
4983
102
{ACAD_XDICTIONARY
360
60C9
102
}
102
{ACAD_REACTORS
330
497C
102
}
330
497C
100
AcDbVisualStyle
  2
Wireframe
 70
     5
 71
     0
 72
     2
 73
     0
 90
        0
 40
-0.6
 41
-30.0
 62
     5
 63
     7
 74
     1
 91
        4
 64
     7
 65
   257
 75
     1
175
     1
 42
1.0
 92
        0
 66
   257
 43
1.0
 76
     1
 77
     6
 78
     2
 67
     7
 79
     3
170
     0
171
     0
290
     0
174
     0
 93
        1
 44
0.0
173
     0
291
     0
 45
0.0
1001
ACAD
1000
AcDbSavedByObjectVersion
1070
     0
  0
VISUALSTYLE
  5
498F
102
{ACAD_XDICTIONARY
360
60E1
102
}
102
{ACAD_REACTORS
330
497C
102
}
330
497C
100
AcDbVisualStyle
  2
X-Ray
 70
    25
 71
     2
 72
     2
 73
     1
 90
        1
 40
0.5
 41
-30.0
 62
     5
 63
     7
 74
     1
 91
        0
 64
     7
 65
   257
 75
     1
175
     1
 42
1.0
 92
        8
 66
     7
 43
1.0
 76
     1
 77
     6
 78
     2
 67
     7
 79
     3
170
     0
171
     0
290
     0
174
     0
 93
       13
 44
0.0
173
     0
291
     0
 45
0.0
1001
ACAD
1000
AcDbSavedByObjectVersion
1070
     0
  0
DICTIONARYVAR
  5
5996
102
{ACAD_REACTORS
330
5990
102
}
330
5990
100
DictionaryVariables
280
     0
  1
1:1
  0
DICTIONARYVAR
  5
5992
102
{ACAD_REACTORS
330
5990
102
}
330
5990
100
DictionaryVariables
280
     0
  1
STANDARD
  0
DICTIONARYVAR
  5
5991
102
{ACAD_REACTORS
330
5990
102
}
330
5990
100
DictionaryVariables
280
     0
  1
STANDARD
  0
DICTIONARYVAR
  5
5993
102
{ACAD_REACTORS
330
5990
102
}
330
5990
100
DictionaryVariables
280
     0
  1
Imperial24
  0
DICTIONARYVAR
  5
5994
102
{ACAD_REACTORS
330
5990
102
}
330
5990
100
DictionaryVariables
280
     0
  1
Imperial24
  0
DICTIONARYVAR
  5
60B2
102
{ACAD_REACTORS
330
5990
102
}
330
5990
100
DictionaryVariables
280
     0
  1
1
  0
DICTIONARYVAR
  5
60B1
102
{ACAD_REACTORS
330
5990
102
}
330
5990
100
DictionaryVariables
280
     0
  1
0
  0
DICTIONARYVAR
  5
5998
102
{ACAD_REACTORS
330
5990
102
}
330
5990
100
DictionaryVariables
280
     0
  1
1
  0
DICTIONARYVAR
  5
5999
102
{ACAD_REACTORS
330
5990
102
}
330
5990
100
DictionaryVariables
280
     0
  1
15
  0
DICTIONARYVAR
  5
5997
102
{ACAD_REACTORS
330
5990
102
}
330
5990
100
DictionaryVariables
280
     0
  1
0
  0
DICTIONARYVAR
  5
60B3
102
{ACAD_REACTORS
330
5990
102
}
330
5990
100
DictionaryVariables
280
     0
  1
1.570796
  0
DICTIONARYVAR
  5
60B4
102
{ACAD_REACTORS
330
5990
102
}
330
5990
100
DictionaryVariables
280
     0
  1
1.570796
  0
DICTIONARYVAR
  5
60B5
102
{ACAD_REACTORS
330
5990
102
}
330
5990
100
DictionaryVariables
280
     0
  1
-122.394000
  0
DICTIONARYVAR
  5
5995
102
{ACAD_REACTORS
330
5990
102
}
330
5990
100
DictionaryVariables
280
     0
  1
0
  0
DICTIONARYVAR
  5
60B0
102
{ACAD_REACTORS
330
5990
102
}
330
5990
100
DictionaryVariables
280
     0
  1
127
  0
DICTIONARYVAR
  5
60B6
102
{ACAD_REACTORS
330
5990
102
}
330
5990
100
DictionaryVariables
280
     0
  1
2
  0
DICTIONARY
  5
60F1
330
49BD
100
AcDbDictionary
280
     1
281
     1
  3
ACAD_XREC_ROUNDTRIP
360
60F2
  0
DICTIONARY
  5
60F9
330
4AFB
100
AcDbDictionary
280
     1
281
     1
  3
ACAD_XREC_ROUNDTRIP
360
60FA
  0
DICTIONARY
  5
60F5
330
49C5
100
AcDbDictionary
280
     1
281
     1
  3
ACAD_XREC_ROUNDTRIP
360
60F6
  0
DICTIONARY
  5
60F3
330
49C1
100
AcDbDictionary
280
     1
281
     1
  3
ACAD_XREC_ROUNDTRIP
360
60F4
  0
DICTIONARY
  5
496D
330
496C
100
AcDbDictionary
280
     1
281
     1
  3
ACAD_XREC_ROUNDTRIP
360
60BB
  3
BUMPTILE
360
496F
  3
DIFFUSETILE
360
496E
  3
OPACITYTILE
360
4972
  3
REFLECTIONTILE
360
4971
  3
REFRACTIONTILE
360
4973
  3
SPECULARTILE
360
4970
  0
DICTIONARY
  5
4965
330
4964
100
AcDbDictionary
280
     1
281
     1
  3
ACAD_XREC_ROUNDTRIP
360
60BA
  3
BUMPTILE
360
4967
  3
DIFFUSETILE
360
4966
  3
OPACITYTILE
360
496A
  3
REFLECTIONTILE
360
4969
  3
REFRACTIONTILE
360
496B
  3
SPECULARTILE
360
4968
  0
DICTIONARY
  5
4975
330
4974
100
AcDbDictionary
280
     1
281
     1
  3
ACAD_XREC_ROUNDTRIP
360
60BC
  3
BUMPTILE
360
4977
  3
DIFFUSETILE
360
4976
  3
OPACITYTILE
360
497A
  3
REFLECTIONTILE
360
4979
  3
REFRACTIONTILE
360
497B
  3
SPECULARTILE
360
4978
  0
DICTIONARY
  5
60EF
330
49BB
100
AcDbDictionary
280
     1
281
     1
  3
ACAD_XREC_ROUNDTRIP
360
60F0
  0
DICTIONARY
  5
60F7
330
4AFA
100
AcDbDictionary
280
     1
281
     1
  3
ACAD_XREC_ROUNDTRIP
360
60F8
  0
DICTIONARY
  5
599F
330
49B7
100
AcDbDictionary
280
     1
281
     1
  3
ACAD_ROUNDTRIP_2008_TABLESTYLE_CELLSTYLEMAP
360
60B7
  3
ACAD_XREC_ROUNDTRIP
360
60ED
  0
DICTIONARY
  5
60C7
330
4982
100
AcDbDictionary
280
     1
281
     1
  3
ACAD_XREC_ROUNDTRIP
360
60C8
  0
DICTIONARY
  5
60C5
330
4981
100
AcDbDictionary
280
     1
281
     1
  3
ACAD_XREC_ROUNDTRIP
360
60C6
  0
DICTIONARY
  5
60D3
330
4988
100
AcDbDictionary
280
     1
281
     1
  3
ACAD_XREC_ROUNDTRIP
360
60D4
  0
DICTIONARY
  5
60DB
330
498C
100
AcDbDictionary
280
     1
281
     1
  3
ACAD_XREC_ROUNDTRIP
360
60DC
  0
DICTIONARY
  5
60CD
330
4985
100
AcDbDictionary
280
     1
281
     1
  3
ACAD_XREC_ROUNDTRIP
360
60CE
  0
DICTIONARY
  5
60D1
330
4987
100
AcDbDictionary
280
     1
281
     1
  3
ACAD_XREC_ROUNDTRIP
360
60D2
  0
DICTIONARY
  5
60EB
330
4994
100
AcDbDictionary
280
     1
281
     1
  3
ACAD_XREC_ROUNDTRIP
360
60EC
  0
DICTIONARY
  5
60D9
330
498B
100
AcDbDictionary
280
     1
281
     1
  3
ACAD_XREC_ROUNDTRIP
360
60DA
  0
DICTIONARY
  5
60BD
330
497D
100
AcDbDictionary
280
     1
281
     1
  3
ACAD_XREC_ROUNDTRIP
360
60BE
  0
DICTIONARY
  5
60BF
330
497E
100
AcDbDictionary
280
     1
281
     1
  3
ACAD_XREC_ROUNDTRIP
360
60C0
  0
DICTIONARY
  5
60C1
330
497F
100
AcDbDictionary
280
     1
281
     1
  3
ACAD_XREC_ROUNDTRIP
360
60C2
  0
DICTIONARY
  5
60C3
330
4980
100
AcDbDictionary
280
     1
281
     1
  3
ACAD_XREC_ROUNDTRIP
360
60C4
  0
DICTIONARY
  5
60CB
330
4984
100
AcDbDictionary
280
     1
281
     1
  3
ACAD_XREC_ROUNDTRIP
360
60CC
  0
DICTIONARY
  5
60E7
330
4992
100
AcDbDictionary
280
     1
281
     1
  3
ACAD_XREC_ROUNDTRIP
360
60E8
  0
DICTIONARY
  5
60D7
330
498A
100
AcDbDictionary
280
     1
281
     1
  3
ACAD_XREC_ROUNDTRIP
360
60D8
  0
DICTIONARY
  5
60E9
330
4993
100
AcDbDictionary
280
     1
281
     1
  3
ACAD_XREC_ROUNDTRIP
360
60EA
  0
DICTIONARY
  5
60CF
330
4986
100
AcDbDictionary
280
     1
281
     1
  3
ACAD_XREC_ROUNDTRIP
360
60D0
  0
DICTIONARY
  5
60E5
330
4991
100
AcDbDictionary
280
     1
281
     1
  3
ACAD_XREC_ROUNDTRIP
360
60E6
  0
DICTIONARY
  5
60E3
330
4990
100
AcDbDictionary
280
     1
281
     1
  3
ACAD_XREC_ROUNDTRIP
360
60E4
  0
DICTIONARY
  5
60DD
330
498D
100
AcDbDictionary
280
     1
281
     1
  3
ACAD_XREC_ROUNDTRIP
360
60DE
  0
DICTIONARY
  5
60DF
330
498E
100
AcDbDictionary
280
     1
281
     1
  3
ACAD_XREC_ROUNDTRIP
360
60E0
  0
DICTIONARY
  5
60D5
330
4989
100
AcDbDictionary
280
     1
281
     1
  3
ACAD_XREC_ROUNDTRIP
360
60D6
  0
DICTIONARY
  5
60C9
330
4983
100
AcDbDictionary
280
     1
281
     1
  3
ACAD_XREC_ROUNDTRIP
360
60CA
  0
DICTIONARY
  5
60E1
330
498F
100
AcDbDictionary
280
     1
281
     1
  3
ACAD_XREC_ROUNDTRIP
360
60E2
  0
XRECORD
  5
60F2
102
{ACAD_REACTORS
330
60F1
102
}
330
60F1
100
AcDbXrecord
280
     1
102
DISPLAYNAME
  1
Imperial24
102
FLAGS
 90
        0
  0
XRECORD
  5
60FA
102
{ACAD_REACTORS
330
60F9
102
}
330
60F9
100
AcDbXrecord
280
     1
102
DISPLAYNAME
  1
Metric50
102
FLAGS
 90
        0
  0
XRECORD
  5
60F6
102
{ACAD_REACTORS
330
60F5
102
}
330
60F5
100
AcDbXrecord
280
     1
102
SHADEPLOT
 70
     0
102
SHADEPLOTRESLEVEL
 70
     2
102
SHADEPLOTCUSTOMDPI
 70
   300
  0
XRECORD
  5
60F4
102
{ACAD_REACTORS
330
60F3
102
}
330
60F3
100
AcDbXrecord
280
     1
102
SHADEPLOT
 70
     0
102
SHADEPLOTRESLEVEL
 70
     2
102
SHADEPLOTCUSTOMDPI
 70
   300
  0
XRECORD
  5
60BB
102
{ACAD_REACTORS
330
496D
102
}
330
496D
100
AcDbXrecord
280
     1
102
MATERIAL
148
0.0
149
0.0
149
0.0
 93
        0
 94
      127
282
     0
 72
     0
 77
     0
171
     0
175
     0
179
     0
273
     0
  0
XRECORD
  5
496F
102
{ACAD_REACTORS
330
496D
102
}
330
496D
100
AcDbXrecord
280
     1
270
     1
271
     1
  0
XRECORD
  5
496E
102
{ACAD_REACTORS
330
496D
102
}
330
496D
100
AcDbXrecord
280
     1
270
     1
271
     1
  0
XRECORD
  5
4972
102
{ACAD_REACTORS
330
496D
102
}
330
496D
100
AcDbXrecord
280
     1
270
     1
271
     1
  0
XRECORD
  5
4971
102
{ACAD_REACTORS
330
496D
102
}
330
496D
100
AcDbXrecord
280
     1
270
     1
271
     1
  0
XRECORD
  5
4973
102
{ACAD_REACTORS
330
496D
102
}
330
496D
100
AcDbXrecord
280
     1
270
     1
271
     1
  0
XRECORD
  5
4970
102
{ACAD_REACTORS
330
496D
102
}
330
496D
100
AcDbXrecord
280
     1
270
     1
271
     1
  0
XRECORD
  5
60BA
102
{ACAD_REACTORS
330
4965
102
}
330
4965
100
AcDbXrecord
280
     1
102
MATERIAL
148
0.0
149
0.0
149
0.0
 93
        0
 94
      127
282
     0
 72
     0
 77
     0
171
     0
175
     0
179
     0
273
     0
  0
XRECORD
  5
4967
102
{ACAD_REACTORS
330
4965
102
}
330
4965
100
AcDbXrecord
280
     1
270
     1
271
     1
  0
XRECORD
  5
4966
102
{ACAD_REACTORS
330
4965
102
}
330
4965
100
AcDbXrecord
280
     1
270
     1
271
     1
  0
XRECORD
  5
496A
102
{ACAD_REACTORS
330
4965
102
}
330
4965
100
AcDbXrecord
280
     1
270
     1
271
     1
  0
XRECORD
  5
4969
102
{ACAD_REACTORS
330
4965
102
}
330
4965
100
AcDbXrecord
280
     1
270
     1
271
     1
  0
XRECORD
  5
496B
102
{ACAD_REACTORS
330
4965
102
}
330
4965
100
AcDbXrecord
280
     1
270
     1
271
     1
  0
XRECORD
  5
4968
102
{ACAD_REACTORS
330
4965
102
}
330
4965
100
AcDbXrecord
280
     1
270
     1
271
     1
  0
XRECORD
  5
60BC
102
{ACAD_REACTORS
330
4975
102
}
330
4975
100
AcDbXrecord
280
     1
102
MATERIAL
148
0.0
149
0.0
149
0.0
 93
        0
 94
      127
282
     0
 72
     0
 77
     0
171
     0
175
     0
179
     0
273
     0
  0
XRECORD
  5
4977
102
{ACAD_REACTORS
330
4975
102
}
330
4975
100
AcDbXrecord
280
     1
270
     1
271
     1
  0
XRECORD
  5
4976
102
{ACAD_REACTORS
330
4975
102
}
330
4975
100
AcDbXrecord
280
     1
270
     1
271
     1
  0
XRECORD
  5
497A
102
{ACAD_REACTORS
330
4975
102
}
330
4975
100
AcDbXrecord
280
     1
270
     1
271
     1
  0
XRECORD
  5
4979
102
{ACAD_REACTORS
330
4975
102
}
330
4975
100
AcDbXrecord
280
     1
270
     1
271
     1
  0
XRECORD
  5
497B
102
{ACAD_REACTORS
330
4975
102
}
330
4975
100
AcDbXrecord
280
     1
270
     1
271
     1
  0
XRECORD
  5
4978
102
{ACAD_REACTORS
330
4975
102
}
330
4975
100
AcDbXrecord
280
     1
270
     1
271
     1
  0
XRECORD
  5
60F0
102
{ACAD_REACTORS
330
60EF
102
}
330
60EF
100
AcDbXrecord
280
     1
102
DISPLAYNAME
  1
Imperial24
102
FLAGS
 90
        0
  0
XRECORD
  5
60F8
102
{ACAD_REACTORS
330
60F7
102
}
330
60F7
100
AcDbXrecord
280
     1
102
DISPLAYNAME
  1
Metric50
102
FLAGS
 90
        0
  0
CELLSTYLEMAP
  5
60B7
102
{ACAD_REACTORS
330
599F
102
}
330
599F
100
AcDbCellStyleMap
 90
        3
300
CELLSTYLE
  1
TABLEFORMAT_BEGIN
 90
        5
170
     1
 91
        0
 92
    32768
 62
   257
 93
        1
300
CONTENTFORMAT
  1
CONTENTFORMAT_BEGIN
 90
        0
 91
        0
 92
      512
 93
        0
300

 40
0.0
140
1.0
 94
        5
 62
     0
340
49A8
144
0.25
309
CONTENTFORMAT_END
171
     1
301
MARGIN
  1
CELLMARGIN_BEGIN
 40
0.06
 40
0.06
 40
0.06
 40
0.06
 40
0.18
 40
0.18
309
CELLMARGIN_END
 94
        6
 95
        1
302
GRIDFORMAT
  1
GRIDFORMAT_BEGIN
 90
        0
 91
        1
 62
     0
 92
       -2
340
0
 93
        0
 40
0.045
309
GRIDFORMAT_END
 95
        2
302
GRIDFORMAT
  1
GRIDFORMAT_BEGIN
 90
        0
 91
        1
 62
     0
 92
       -2
340
0
 93
        0
 40
0.045
309
GRIDFORMAT_END
 95
        4
302
GRIDFORMAT
  1
GRIDFORMAT_BEGIN
 90
        0
 91
        1
 62
     0
 92
       -2
340
0
 93
        0
 40
0.045
309
GRIDFORMAT_END
 95
        8
302
GRIDFORMAT
  1
GRIDFORMAT_BEGIN
 90
        0
 91
        1
 62
     0
 92
       -2
340
0
 93
        0
 40
0.045
309
GRIDFORMAT_END
 95
       16
302
GRIDFORMAT
  1
GRIDFORMAT_BEGIN
 90
        0
 91
        1
 62
     0
 92
       -2
340
0
 93
        0
 40
0.045
309
GRIDFORMAT_END
 95
       32
302
GRIDFORMAT
  1
GRIDFORMAT_BEGIN
 90
        0
 91
        1
 62
     0
 92
       -2
340
0
 93
        0
 40
0.045
309
GRIDFORMAT_END
309
TABLEFORMAT_END
  1
CELLSTYLE_BEGIN
 90
        1
 91
        1
300
_TITLE
309
CELLSTYLE_END
300
CELLSTYLE
  1
TABLEFORMAT_BEGIN
 90
        5
170
     1
 91
        0
 92
        0
 62
   257
 93
        1
300
CONTENTFORMAT
  1
CONTENTFORMAT_BEGIN
 90
        0
 91
        0
 92
      512
 93
        0
300

 40
0.0
140
1.0
 94
        5
 62
     0
340
49A8
144
0.18
309
CONTENTFORMAT_END
171
     1
301
MARGIN
  1
CELLMARGIN_BEGIN
 40
0.06
 40
0.06
 40
0.06
 40
0.06
 40
0.18
 40
0.18
309
CELLMARGIN_END
 94
        6
 95
        1
302
GRIDFORMAT
  1
GRIDFORMAT_BEGIN
 90
        0
 91
        1
 62
     0
 92
       -2
340
0
 93
        0
 40
0.045
309
GRIDFORMAT_END
 95
        2
302
GRIDFORMAT
  1
GRIDFORMAT_BEGIN
 90
        0
 91
        1
 62
     0
 92
       -2
340
0
 93
        0
 40
0.045
309
GRIDFORMAT_END
 95
        4
302
GRIDFORMAT
  1
GRIDFORMAT_BEGIN
 90
        0
 91
        1
 62
     0
 92
       -2
340
0
 93
        0
 40
0.045
309
GRIDFORMAT_END
 95
        8
302
GRIDFORMAT
  1
GRIDFORMAT_BEGIN
 90
        0
 91
        1
 62
     0
 92
       -2
340
0
 93
        0
 40
0.045
309
GRIDFORMAT_END
 95
       16
302
GRIDFORMAT
  1
GRIDFORMAT_BEGIN
 90
        0
 91
        1
 62
     0
 92
       -2
340
0
 93
        0
 40
0.045
309
GRIDFORMAT_END
 95
       32
302
GRIDFORMAT
  1
GRIDFORMAT_BEGIN
 90
        0
 91
        1
 62
     0
 92
       -2
340
0
 93
        0
 40
0.045
309
GRIDFORMAT_END
309
TABLEFORMAT_END
  1
CELLSTYLE_BEGIN
 90
        2
 91
        1
300
_HEADER
309
CELLSTYLE_END
300
CELLSTYLE
  1
TABLEFORMAT_BEGIN
 90
        5
170
     1
 91
        0
 92
        0
 62
   257
 93
        1
300
CONTENTFORMAT
  1
CONTENTFORMAT_BEGIN
 90
        0
 91
        0
 92
      512
 93
        0
300

 40
0.0
140
1.0
 94
        2
 62
     0
340
49A8
144
0.18
309
CONTENTFORMAT_END
171
     1
301
MARGIN
  1
CELLMARGIN_BEGIN
 40
0.06
 40
0.06
 40
0.06
 40
0.06
 40
0.18
 40
0.18
309
CELLMARGIN_END
 94
        6
 95
        1
302
GRIDFORMAT
  1
GRIDFORMAT_BEGIN
 90
        0
 91
        1
 62
     0
 92
       -2
340
0
 93
        0
 40
0.045
309
GRIDFORMAT_END
 95
        2
302
GRIDFORMAT
  1
GRIDFORMAT_BEGIN
 90
        0
 91
        1
 62
     0
 92
       -2
340
0
 93
        0
 40
0.045
309
GRIDFORMAT_END
 95
        4
302
GRIDFORMAT
  1
GRIDFORMAT_BEGIN
 90
        0
 91
        1
 62
     0
 92
       -2
340
0
 93
        0
 40
0.045
309
GRIDFORMAT_END
 95
        8
302
GRIDFORMAT
  1
GRIDFORMAT_BEGIN
 90
        0
 91
        1
 62
     0
 92
       -2
340
0
 93
        0
 40
0.045
309
GRIDFORMAT_END
 95
       16
302
GRIDFORMAT
  1
GRIDFORMAT_BEGIN
 90
        0
 91
        1
 62
     0
 92
       -2
340
0
 93
        0
 40
0.045
309
GRIDFORMAT_END
 95
       32
302
GRIDFORMAT
  1
GRIDFORMAT_BEGIN
 90
        0
 91
        1
 62
     0
 92
       -2
340
0
 93
        0
 40
0.045
309
GRIDFORMAT_END
309
TABLEFORMAT_END
  1
CELLSTYLE_BEGIN
 90
        3
 91
        2
300
_DATA
309
CELLSTYLE_END
  0
XRECORD
  5
60ED
102
{ACAD_REACTORS
330
599F
102
}
330
599F
100
AcDbXrecord
280
     1
102
ACAD_ROUNDTRIP_PRE2007_TABLESTYLE
 90
      512
 91
        0
  1

 92
      512
 93
        0
  2

 94
      512
 95
        0
  3

  0
XRECORD
  5
60C8
102
{ACAD_REACTORS
330
60C7
102
}
330
60C7
100
AcDbXrecord
280
     1
102
RTVSPost2010Prop28
280
     1
102
RTVSPost2010PropOp28
 70
     1
102
RTVSPost2010Prop29
280
     1
102
RTVSPost2010PropOp29
 70
     1
102
RTVSPost2010Prop30
280
     0
102
RTVSPost2010PropOp30
 70
     1
102
RTVSPost2010Prop31
280
     0
102
RTVSPost2010PropOp31
 70
     1
102
RTVSPost2010Prop32
280
     0
102
RTVSPost2010PropOp32
 70
     1
102
RTVSPost2010Prop33
280
     0
102
RTVSPost2010PropOp33
 70
     1
102
RTVSPost2010Prop34
280
     0
102
RTVSPost2010PropOp34
 70
     1
102
RTVSPost2010Prop35
280
     0
102
RTVSPost2010PropOp35
 70
     1
102
RTVSPost2010Prop36
280
     0
102
RTVSPost2010PropOp36
 70
     1
102
RTVSPost2010Prop37
 90
       50
102
RTVSPost2010PropOp37
 70
     1
102
RTVSPost2010Prop38
140
0.0
102
RTVSPost2010PropOp38
 70
     1
102
RTVSPost2010Prop39
140
1.0
102
RTVSPost2010PropOp39
 70
     1
102
RTVSPost2010Prop40
 90
        0
102
RTVSPost2010PropOp40
 70
     1
102
RTVSPost2010Prop41ColorIndex
 90
       18
102
RTVSPost2010Prop41ColorRGB
 90
        0
102
RTVSPost2010PropOp41
 70
     1
102
RTVSPost2010Prop42
 90
       50
102
RTVSPost2010PropOp42
 70
     1
102
RTVSPost2010Prop43
 90
        3
102
RTVSPost2010PropOp43
 70
     1
102
RTVSPost2010Prop44ColorIndex
 90
        5
102
RTVSPost2010Prop44ColorRGB
 90
      255
102
RTVSPost2010PropOp44
 70
     1
102
RTVSPost2010Prop45
280
     0
102
RTVSPost2010PropOp45
 70
     1
102
RTVSPost2010Prop46
 90
       50
102
RTVSPost2010PropOp46
 70
     1
102
RTVSPost2010Prop47
 90
       50
102
RTVSPost2010PropOp47
 70
     1
102
RTVSPost2010Prop48
 90
       50
102
RTVSPost2010PropOp48
 70
     1
102
RTVSPost2010Prop49
280
     0
102
RTVSPost2010PropOp49
 70
     1
102
RTVSPost2010Prop50
 90
       50
102
RTVSPost2010PropOp50
 70
     1
102
RTVSPost2010Prop51ColorIndex
 90
      256
102
RTVSPost2010Prop51ColorRGB
 90
-16777216
102
RTVSPost2010PropOp51
 70
     0
102
RTVSPost2010Prop52
140
1.0
102
RTVSPost2010PropOp52
 70
     0
102
RTVSPost2010Prop53
 90
        2
102
RTVSPost2010PropOp53
 70
     1
102
RTVSPost2010Prop54
  1
strokes_ogs.tif
102
RTVSPost2010PropOp54
 70
     1
102
RTVSPost2010Prop55
280
     0
102
RTVSPost2010PropOp55
 70
     1
102
RTVSPost2010Prop56
140
1.0
102
RTVSPost2010PropOp56
 70
     1
102
RTVSPost2010Prop57
140
1.0
102
RTVSPost2010PropOp57
 70
     1
102
RTVSPropertyOp0
 70
     1
102
RTVSPropertyOp1
 70
     1
102
RTVSPropertyOp2
 70
     1
102
RTVSPropertyOp3
 70
     1
102
RTVSPropertyOp4
 70
     1
102
RTVSPropertyOp5
 70
     1
102
RTVSPropertyOp6
 70
     1
102
RTVSPropertyOp7
 70
     1
102
RTVSPropertyOp8
 70
     1
102
RTVSPropertyOp9
 70
     1
102
RTVSPropertyOp10
 70
     1
102
RTVSPropertyOp11
 70
     1
102
RTVSPropertyOp12
 70
     1
102
RTVSPropertyOp13
 70
     1
102
RTVSPropertyOp14
 70
     1
102
RTVSPropertyOp15
 70
     1
102
RTVSPropertyOp16
 70
     1
102
RTVSPropertyOp17
 70
     1
102
RTVSPropertyOp18
 70
     1
102
RTVSPropertyOp19
 70
     1
102
RTVSPropertyOp20
 70
     1
102
RTVSPropertyOp21
 70
     1
102
RTVSPropertyOp22
 70
     1
102
RTVSPropertyOp23
 70
     1
102
RTVSPropertyOp24
 70
     1
102
RTVSPropertyOp25
 70
     1
102
RTVSPropertyOp26
 70
     1
102
RTVSPropertyOp27
 70
     1
102
RTVSPropertyOp28
 70
     1
102
RTVSPropertyOp29
 70
     1
102
RTVSPropertyOp30
 70
     1
102
RTVSPropertyOp31
 70
     1
102
RTVSPropertyOp32
 70
     1
102
RTVSPropertyOp33
 70
     1
102
RTVSPropertyOp34
 70
     1
102
RTVSPropertyOp35
 70
     1
102
RTVSPropertyOp36
 70
     1
102
RTVSPropertyOp37
 70
     1
102
RTVSPropertyOp38
 70
     1
102
RTVSPropertyOp39
 70
     1
102
RTVSPropertyOp40
 70
     1
102
RTVSPropertyOp41
 70
     1
102
RTVSPropertyOp42
 70
     1
102
RTVSPropertyOp43
 70
     1
102
RTVSPropertyOp44
 70
     1
102
RTVSPropertyOp45
 70
     1
102
RTVSPropertyOp46
 70
     1
102
RTVSPropertyOp47
 70
     1
102
RTVSPropertyOp48
 70
     1
102
RTVSPropertyOp49
 70
     1
102
RTVSPropertyOp50
 70
     1
102
RTVSPropertyOp51
 70
     0
102
RTVSPropertyOp52
 70
     0
102
RTVSPropertyOp53
 70
     1
102
RTVSPropertyOp54
 70
     1
102
RTVSPropertyOp55
 70
     1
102
RTVSPropertyOp56
 70
     1
102
RTVSPropertyOp57
 70
     1
102
RTVSPropertyOp58
 70
     1
102
RTVSPropertyOp59
 70
     1
102
RTVSPropertyOp60
 70
     1
102
RTVSPropertyOp61
 70
     1
102
RTVSPropertyOp62
 70
     1
  0
XRECORD
  5
60C6
102
{ACAD_REACTORS
330
60C5
102
}
330
60C5
100
AcDbXrecord
280
     1
102
RTVSPost2010Prop28
280
     0
102
RTVSPost2010PropOp28
 70
     1
102
RTVSPost2010Prop29
280
     1
102
RTVSPost2010PropOp29
 70
     1
102
RTVSPost2010Prop30
280
     1
102
RTVSPost2010PropOp30
 70
     1
102
RTVSPost2010Prop31
280
     0
102
RTVSPost2010PropOp31
 70
     1
102
RTVSPost2010Prop32
280
     0
102
RTVSPost2010PropOp32
 70
     1
102
RTVSPost2010Prop33
280
     0
102
RTVSPost2010PropOp33
 70
     1
102
RTVSPost2010Prop34
280
     0
102
RTVSPost2010PropOp34
 70
     1
102
RTVSPost2010Prop35
280
     0
102
RTVSPost2010PropOp35
 70
     1
102
RTVSPost2010Prop36
280
     0
102
RTVSPost2010PropOp36
 70
     1
102
RTVSPost2010Prop37
 90
       50
102
RTVSPost2010PropOp37
 70
     1
102
RTVSPost2010Prop38
140
0.0
102
RTVSPost2010PropOp38
 70
     1
102
RTVSPost2010Prop39
140
1.0
102
RTVSPost2010PropOp39
 70
     1
102
RTVSPost2010Prop40
 90
        0
102
RTVSPost2010PropOp40
 70
     1
102
RTVSPost2010Prop41ColorIndex
 90
       18
102
RTVSPost2010Prop41ColorRGB
 90
        0
102
RTVSPost2010PropOp41
 70
     1
102
RTVSPost2010Prop42
 90
       50
102
RTVSPost2010PropOp42
 70
     1
102
RTVSPost2010Prop43
 90
        3
102
RTVSPost2010PropOp43
 70
     1
102
RTVSPost2010Prop44ColorIndex
 90
        5
102
RTVSPost2010Prop44ColorRGB
 90
      255
102
RTVSPost2010PropOp44
 70
     1
102
RTVSPost2010Prop45
280
     0
102
RTVSPost2010PropOp45
 70
     1
102
RTVSPost2010Prop46
 90
       50
102
RTVSPost2010PropOp46
 70
     1
102
RTVSPost2010Prop47
 90
       50
102
RTVSPost2010PropOp47
 70
     1
102
RTVSPost2010Prop48
 90
       50
102
RTVSPost2010PropOp48
 70
     1
102
RTVSPost2010Prop49
280
     0
102
RTVSPost2010PropOp49
 70
     1
102
RTVSPost2010Prop50
 90
       50
102
RTVSPost2010PropOp50
 70
     1
102
RTVSPost2010Prop51ColorIndex
 90
      256
102
RTVSPost2010Prop51ColorRGB
 90
-16777216
102
RTVSPost2010PropOp51
 70
     0
102
RTVSPost2010Prop52
140
1.0
102
RTVSPost2010PropOp52
 70
     0
102
RTVSPost2010Prop53
 90
        2
102
RTVSPost2010PropOp53
 70
     1
102
RTVSPost2010Prop54
  1
strokes_ogs.tif
102
RTVSPost2010PropOp54
 70
     1
102
RTVSPost2010Prop55
280
     0
102
RTVSPost2010PropOp55
 70
     1
102
RTVSPost2010Prop56
140
1.0
102
RTVSPost2010PropOp56
 70
     1
102
RTVSPost2010Prop57
140
1.0
102
RTVSPost2010PropOp57
 70
     1
102
RTVSPropertyOp0
 70
     1
102
RTVSPropertyOp1
 70
     1
102
RTVSPropertyOp2
 70
     1
102
RTVSPropertyOp3
 70
     1
102
RTVSPropertyOp4
 70
     1
102
RTVSPropertyOp5
 70
     1
102
RTVSPropertyOp6
 70
     1
102
RTVSPropertyOp7
 70
     1
102
RTVSPropertyOp8
 70
     1
102
RTVSPropertyOp9
 70
     1
102
RTVSPropertyOp10
 70
     1
102
RTVSPropertyOp11
 70
     1
102
RTVSPropertyOp12
 70
     1
102
RTVSPropertyOp13
 70
     1
102
RTVSPropertyOp14
 70
     1
102
RTVSPropertyOp15
 70
     1
102
RTVSPropertyOp16
 70
     1
102
RTVSPropertyOp17
 70
     1
102
RTVSPropertyOp18
 70
     1
102
RTVSPropertyOp19
 70
     1
102
RTVSPropertyOp20
 70
     1
102
RTVSPropertyOp21
 70
     1
102
RTVSPropertyOp22
 70
     1
102
RTVSPropertyOp23
 70
     1
102
RTVSPropertyOp24
 70
     1
102
RTVSPropertyOp25
 70
     1
102
RTVSPropertyOp26
 70
     1
102
RTVSPropertyOp27
 70
     1
102
RTVSPropertyOp28
 70
     1
102
RTVSPropertyOp29
 70
     1
102
RTVSPropertyOp30
 70
     1
102
RTVSPropertyOp31
 70
     1
102
RTVSPropertyOp32
 70
     1
102
RTVSPropertyOp33
 70
     1
102
RTVSPropertyOp34
 70
     1
102
RTVSPropertyOp35
 70
     1
102
RTVSPropertyOp36
 70
     1
102
RTVSPropertyOp37
 70
     1
102
RTVSPropertyOp38
 70
     1
102
RTVSPropertyOp39
 70
     1
102
RTVSPropertyOp40
 70
     1
102
RTVSPropertyOp41
 70
     1
102
RTVSPropertyOp42
 70
     1
102
RTVSPropertyOp43
 70
     1
102
RTVSPropertyOp44
 70
     1
102
RTVSPropertyOp45
 70
     1
102
RTVSPropertyOp46
 70
     1
102
RTVSPropertyOp47
 70
     1
102
RTVSPropertyOp48
 70
     1
102
RTVSPropertyOp49
 70
     1
102
RTVSPropertyOp50
 70
     1
102
RTVSPropertyOp51
 70
     0
102
RTVSPropertyOp52
 70
     0
102
RTVSPropertyOp53
 70
     1
102
RTVSPropertyOp54
 70
     1
102
RTVSPropertyOp55
 70
     1
102
RTVSPropertyOp56
 70
     1
102
RTVSPropertyOp57
 70
     1
102
RTVSPropertyOp58
 70
     1
102
RTVSPropertyOp59
 70
     1
102
RTVSPropertyOp60
 70
     1
102
RTVSPropertyOp61
 70
     1
102
RTVSPropertyOp62
 70
     1
  0
XRECORD
  5
60D4
102
{ACAD_REACTORS
330
60D3
102
}
330
60D3
100
AcDbXrecord
280
     1
102
RTVSPost2010Prop28
280
     0
102
RTVSPost2010PropOp28
 70
     1
102
RTVSPost2010Prop29
280
     1
102
RTVSPost2010PropOp29
 70
     1
102
RTVSPost2010Prop30
280
     1
102
RTVSPost2010PropOp30
 70
     1
102
RTVSPost2010Prop31
280
     0
102
RTVSPost2010PropOp31
 70
     1
102
RTVSPost2010Prop32
280
     0
102
RTVSPost2010PropOp32
 70
     1
102
RTVSPost2010Prop33
280
     0
102
RTVSPost2010PropOp33
 70
     1
102
RTVSPost2010Prop34
280
     0
102
RTVSPost2010PropOp34
 70
     1
102
RTVSPost2010Prop35
280
     0
102
RTVSPost2010PropOp35
 70
     1
102
RTVSPost2010Prop36
280
     0
102
RTVSPost2010PropOp36
 70
     1
102
RTVSPost2010Prop37
 90
       50
102
RTVSPost2010PropOp37
 70
     1
102
RTVSPost2010Prop38
140
0.0
102
RTVSPost2010PropOp38
 70
     1
102
RTVSPost2010Prop39
140
1.0
102
RTVSPost2010PropOp39
 70
     1
102
RTVSPost2010Prop40
 90
        0
102
RTVSPost2010PropOp40
 70
     1
102
RTVSPost2010Prop41ColorIndex
 90
       18
102
RTVSPost2010Prop41ColorRGB
 90
        0
102
RTVSPost2010PropOp41
 70
     1
102
RTVSPost2010Prop42
 90
       50
102
RTVSPost2010PropOp42
 70
     1
102
RTVSPost2010Prop43
 90
        3
102
RTVSPost2010PropOp43
 70
     1
102
RTVSPost2010Prop44ColorIndex
 90
        5
102
RTVSPost2010Prop44ColorRGB
 90
      255
102
RTVSPost2010PropOp44
 70
     1
102
RTVSPost2010Prop45
280
     0
102
RTVSPost2010PropOp45
 70
     1
102
RTVSPost2010Prop46
 90
       50
102
RTVSPost2010PropOp46
 70
     1
102
RTVSPost2010Prop47
 90
       50
102
RTVSPost2010PropOp47
 70
     1
102
RTVSPost2010Prop48
 90
       50
102
RTVSPost2010PropOp48
 70
     1
102
RTVSPost2010Prop49
280
     0
102
RTVSPost2010PropOp49
 70
     1
102
RTVSPost2010Prop50
 90
       50
102
RTVSPost2010PropOp50
 70
     1
102
RTVSPost2010Prop51ColorIndex
 90
      256
102
RTVSPost2010Prop51ColorRGB
 90
-16777216
102
RTVSPost2010PropOp51
 70
     0
102
RTVSPost2010Prop52
140
1.0
102
RTVSPost2010PropOp52
 70
     0
102
RTVSPost2010Prop53
 90
        2
102
RTVSPost2010PropOp53
 70
     1
102
RTVSPost2010Prop54
  1
strokes_ogs.tif
102
RTVSPost2010PropOp54
 70
     1
102
RTVSPost2010Prop55
280
     0
102
RTVSPost2010PropOp55
 70
     1
102
RTVSPost2010Prop56
140
1.0
102
RTVSPost2010PropOp56
 70
     1
102
RTVSPost2010Prop57
140
1.0
102
RTVSPost2010PropOp57
 70
     1
102
RTVSPropertyOp0
 70
     1
102
RTVSPropertyOp1
 70
     1
102
RTVSPropertyOp2
 70
     1
102
RTVSPropertyOp3
 70
     1
102
RTVSPropertyOp4
 70
     1
102
RTVSPropertyOp5
 70
     1
102
RTVSPropertyOp6
 70
     1
102
RTVSPropertyOp7
 70
     1
102
RTVSPropertyOp8
 70
     1
102
RTVSPropertyOp9
 70
     1
102
RTVSPropertyOp10
 70
     1
102
RTVSPropertyOp11
 70
     1
102
RTVSPropertyOp12
 70
     1
102
RTVSPropertyOp13
 70
     1
102
RTVSPropertyOp14
 70
     1
102
RTVSPropertyOp15
 70
     1
102
RTVSPropertyOp16
 70
     1
102
RTVSPropertyOp17
 70
     1
102
RTVSPropertyOp18
 70
     1
102
RTVSPropertyOp19
 70
     1
102
RTVSPropertyOp20
 70
     1
102
RTVSPropertyOp21
 70
     1
102
RTVSPropertyOp22
 70
     1
102
RTVSPropertyOp23
 70
     1
102
RTVSPropertyOp24
 70
     1
102
RTVSPropertyOp25
 70
     1
102
RTVSPropertyOp26
 70
     1
102
RTVSPropertyOp27
 70
     1
102
RTVSPropertyOp28
 70
     1
102
RTVSPropertyOp29
 70
     1
102
RTVSPropertyOp30
 70
     1
102
RTVSPropertyOp31
 70
     1
102
RTVSPropertyOp32
 70
     1
102
RTVSPropertyOp33
 70
     1
102
RTVSPropertyOp34
 70
     1
102
RTVSPropertyOp35
 70
     1
102
RTVSPropertyOp36
 70
     1
102
RTVSPropertyOp37
 70
     1
102
RTVSPropertyOp38
 70
     1
102
RTVSPropertyOp39
 70
     1
102
RTVSPropertyOp40
 70
     1
102
RTVSPropertyOp41
 70
     1
102
RTVSPropertyOp42
 70
     1
102
RTVSPropertyOp43
 70
     1
102
RTVSPropertyOp44
 70
     1
102
RTVSPropertyOp45
 70
     1
102
RTVSPropertyOp46
 70
     1
102
RTVSPropertyOp47
 70
     1
102
RTVSPropertyOp48
 70
     1
102
RTVSPropertyOp49
 70
     1
102
RTVSPropertyOp50
 70
     1
102
RTVSPropertyOp51
 70
     0
102
RTVSPropertyOp52
 70
     0
102
RTVSPropertyOp53
 70
     1
102
RTVSPropertyOp54
 70
     1
102
RTVSPropertyOp55
 70
     1
102
RTVSPropertyOp56
 70
     1
102
RTVSPropertyOp57
 70
     1
102
RTVSPropertyOp58
 70
     1
102
RTVSPropertyOp59
 70
     1
102
RTVSPropertyOp60
 70
     1
102
RTVSPropertyOp61
 70
     1
102
RTVSPropertyOp62
 70
     1
  0
XRECORD
  5
60DC
102
{ACAD_REACTORS
330
60DB
102
}
330
60DB
100
AcDbXrecord
280
     1
102
RTVSPost2010Prop28
280
     0
102
RTVSPost2010PropOp28
 70
     1
102
RTVSPost2010Prop29
280
     1
102
RTVSPost2010PropOp29
 70
     1
102
RTVSPost2010Prop30
280
     1
102
RTVSPost2010PropOp30
 70
     1
102
RTVSPost2010Prop31
280
     0
102
RTVSPost2010PropOp31
 70
     1
102
RTVSPost2010Prop32
280
     0
102
RTVSPost2010PropOp32
 70
     1
102
RTVSPost2010Prop33
280
     0
102
RTVSPost2010PropOp33
 70
     1
102
RTVSPost2010Prop34
280
     0
102
RTVSPost2010PropOp34
 70
     1
102
RTVSPost2010Prop35
280
     0
102
RTVSPost2010PropOp35
 70
     1
102
RTVSPost2010Prop36
280
     0
102
RTVSPost2010PropOp36
 70
     1
102
RTVSPost2010Prop37
 90
       50
102
RTVSPost2010PropOp37
 70
     1
102
RTVSPost2010Prop38
140
0.0
102
RTVSPost2010PropOp38
 70
     1
102
RTVSPost2010Prop39
140
1.0
102
RTVSPost2010PropOp39
 70
     1
102
RTVSPost2010Prop40
 90
        0
102
RTVSPost2010PropOp40
 70
     1
102
RTVSPost2010Prop41ColorIndex
 90
       18
102
RTVSPost2010Prop41ColorRGB
 90
        0
102
RTVSPost2010PropOp41
 70
     1
102
RTVSPost2010Prop42
 90
       50
102
RTVSPost2010PropOp42
 70
     1
102
RTVSPost2010Prop43
 90
        3
102
RTVSPost2010PropOp43
 70
     1
102
RTVSPost2010Prop44ColorIndex
 90
        5
102
RTVSPost2010Prop44ColorRGB
 90
      255
102
RTVSPost2010PropOp44
 70
     1
102
RTVSPost2010Prop45
280
     0
102
RTVSPost2010PropOp45
 70
     1
102
RTVSPost2010Prop46
 90
       50
102
RTVSPost2010PropOp46
 70
     1
102
RTVSPost2010Prop47
 90
       50
102
RTVSPost2010PropOp47
 70
     1
102
RTVSPost2010Prop48
 90
       50
102
RTVSPost2010PropOp48
 70
     1
102
RTVSPost2010Prop49
280
     0
102
RTVSPost2010PropOp49
 70
     1
102
RTVSPost2010Prop50
 90
       50
102
RTVSPost2010PropOp50
 70
     1
102
RTVSPost2010Prop51ColorIndex
 90
      256
102
RTVSPost2010Prop51ColorRGB
 90
-16777216
102
RTVSPost2010PropOp51
 70
     0
102
RTVSPost2010Prop52
140
1.0
102
RTVSPost2010PropOp52
 70
     0
102
RTVSPost2010Prop53
 90
        2
102
RTVSPost2010PropOp53
 70
     1
102
RTVSPost2010Prop54
  1
strokes_ogs.tif
102
RTVSPost2010PropOp54
 70
     1
102
RTVSPost2010Prop55
280
     0
102
RTVSPost2010PropOp55
 70
     1
102
RTVSPost2010Prop56
140
1.0
102
RTVSPost2010PropOp56
 70
     1
102
RTVSPost2010Prop57
140
1.0
102
RTVSPost2010PropOp57
 70
     1
102
RTVSPropertyOp0
 70
     1
102
RTVSPropertyOp1
 70
     1
102
RTVSPropertyOp2
 70
     1
102
RTVSPropertyOp3
 70
     1
102
RTVSPropertyOp4
 70
     1
102
RTVSPropertyOp5
 70
     1
102
RTVSPropertyOp6
 70
     1
102
RTVSPropertyOp7
 70
     1
102
RTVSPropertyOp8
 70
     1
102
RTVSPropertyOp9
 70
     1
102
RTVSPropertyOp10
 70
     1
102
RTVSPropertyOp11
 70
     1
102
RTVSPropertyOp12
 70
     1
102
RTVSPropertyOp13
 70
     1
102
RTVSPropertyOp14
 70
     1
102
RTVSPropertyOp15
 70
     1
102
RTVSPropertyOp16
 70
     1
102
RTVSPropertyOp17
 70
     1
102
RTVSPropertyOp18
 70
     1
102
RTVSPropertyOp19
 70
     1
102
RTVSPropertyOp20
 70
     1
102
RTVSPropertyOp21
 70
     1
102
RTVSPropertyOp22
 70
     1
102
RTVSPropertyOp23
 70
     1
102
RTVSPropertyOp24
 70
     1
102
RTVSPropertyOp25
 70
     1
102
RTVSPropertyOp26
 70
     1
102
RTVSPropertyOp27
 70
     1
102
RTVSPropertyOp28
 70
     1
102
RTVSPropertyOp29
 70
     1
102
RTVSPropertyOp30
 70
     1
102
RTVSPropertyOp31
 70
     1
102
RTVSPropertyOp32
 70
     1
102
RTVSPropertyOp33
 70
     1
102
RTVSPropertyOp34
 70
     1
102
RTVSPropertyOp35
 70
     1
102
RTVSPropertyOp36
 70
     1
102
RTVSPropertyOp37
 70
     1
102
RTVSPropertyOp38
 70
     1
102
RTVSPropertyOp39
 70
     1
102
RTVSPropertyOp40
 70
     1
102
RTVSPropertyOp41
 70
     1
102
RTVSPropertyOp42
 70
     1
102
RTVSPropertyOp43
 70
     1
102
RTVSPropertyOp44
 70
     1
102
RTVSPropertyOp45
 70
     1
102
RTVSPropertyOp46
 70
     1
102
RTVSPropertyOp47
 70
     1
102
RTVSPropertyOp48
 70
     1
102
RTVSPropertyOp49
 70
     1
102
RTVSPropertyOp50
 70
     1
102
RTVSPropertyOp51
 70
     0
102
RTVSPropertyOp52
 70
     0
102
RTVSPropertyOp53
 70
     1
102
RTVSPropertyOp54
 70
     1
102
RTVSPropertyOp55
 70
     1
102
RTVSPropertyOp56
 70
     1
102
RTVSPropertyOp57
 70
     1
102
RTVSPropertyOp58
 70
     1
102
RTVSPropertyOp59
 70
     1
102
RTVSPropertyOp60
 70
     1
102
RTVSPropertyOp61
 70
     1
102
RTVSPropertyOp62
 70
     1
  0
XRECORD
  5
60CE
102
{ACAD_REACTORS
330
60CD
102
}
330
60CD
100
AcDbXrecord
280
     1
102
RTVSPost2010Prop28
280
     0
102
RTVSPost2010PropOp28
 70
     1
102
RTVSPost2010Prop29
280
     1
102
RTVSPost2010PropOp29
 70
     1
102
RTVSPost2010Prop30
280
     1
102
RTVSPost2010PropOp30
 70
     1
102
RTVSPost2010Prop31
280
     0
102
RTVSPost2010PropOp31
 70
     1
102
RTVSPost2010Prop32
280
     0
102
RTVSPost2010PropOp32
 70
     1
102
RTVSPost2010Prop33
280
     0
102
RTVSPost2010PropOp33
 70
     1
102
RTVSPost2010Prop34
280
     0
102
RTVSPost2010PropOp34
 70
     1
102
RTVSPost2010Prop35
280
     0
102
RTVSPost2010PropOp35
 70
     1
102
RTVSPost2010Prop36
280
     0
102
RTVSPost2010PropOp36
 70
     1
102
RTVSPost2010Prop37
 90
       50
102
RTVSPost2010PropOp37
 70
     1
102
RTVSPost2010Prop38
140
0.0
102
RTVSPost2010PropOp38
 70
     1
102
RTVSPost2010Prop39
140
1.0
102
RTVSPost2010PropOp39
 70
     1
102
RTVSPost2010Prop40
 90
        0
102
RTVSPost2010PropOp40
 70
     1
102
RTVSPost2010Prop41ColorIndex
 90
       18
102
RTVSPost2010Prop41ColorRGB
 90
        0
102
RTVSPost2010PropOp41
 70
     1
102
RTVSPost2010Prop42
 90
       50
102
RTVSPost2010PropOp42
 70
     1
102
RTVSPost2010Prop43
 90
        3
102
RTVSPost2010PropOp43
 70
     1
102
RTVSPost2010Prop44ColorIndex
 90
        5
102
RTVSPost2010Prop44ColorRGB
 90
      255
102
RTVSPost2010PropOp44
 70
     1
102
RTVSPost2010Prop45
280
     0
102
RTVSPost2010PropOp45
 70
     1
102
RTVSPost2010Prop46
 90
       50
102
RTVSPost2010PropOp46
 70
     1
102
RTVSPost2010Prop47
 90
       50
102
RTVSPost2010PropOp47
 70
     1
102
RTVSPost2010Prop48
 90
       50
102
RTVSPost2010PropOp48
 70
     1
102
RTVSPost2010Prop49
280
     0
102
RTVSPost2010PropOp49
 70
     1
102
RTVSPost2010Prop50
 90
       50
102
RTVSPost2010PropOp50
 70
     1
102
RTVSPost2010Prop51ColorIndex
 90
      256
102
RTVSPost2010Prop51ColorRGB
 90
-16777216
102
RTVSPost2010PropOp51
 70
     0
102
RTVSPost2010Prop52
140
1.0
102
RTVSPost2010PropOp52
 70
     0
102
RTVSPost2010Prop53
 90
        2
102
RTVSPost2010PropOp53
 70
     1
102
RTVSPost2010Prop54
  1
strokes_ogs.tif
102
RTVSPost2010PropOp54
 70
     1
102
RTVSPost2010Prop55
280
     0
102
RTVSPost2010PropOp55
 70
     1
102
RTVSPost2010Prop56
140
1.0
102
RTVSPost2010PropOp56
 70
     1
102
RTVSPost2010Prop57
140
1.0
102
RTVSPost2010PropOp57
 70
     1
102
RTVSPropertyOp0
 70
     1
102
RTVSPropertyOp1
 70
     1
102
RTVSPropertyOp2
 70
     1
102
RTVSPropertyOp3
 70
     1
102
RTVSPropertyOp4
 70
     1
102
RTVSPropertyOp5
 70
     1
102
RTVSPropertyOp6
 70
     1
102
RTVSPropertyOp7
 70
     1
102
RTVSPropertyOp8
 70
     1
102
RTVSPropertyOp9
 70
     1
102
RTVSPropertyOp10
 70
     1
102
RTVSPropertyOp11
 70
     1
102
RTVSPropertyOp12
 70
     1
102
RTVSPropertyOp13
 70
     1
102
RTVSPropertyOp14
 70
     1
102
RTVSPropertyOp15
 70
     1
102
RTVSPropertyOp16
 70
     1
102
RTVSPropertyOp17
 70
     1
102
RTVSPropertyOp18
 70
     1
102
RTVSPropertyOp19
 70
     1
102
RTVSPropertyOp20
 70
     1
102
RTVSPropertyOp21
 70
     1
102
RTVSPropertyOp22
 70
     1
102
RTVSPropertyOp23
 70
     1
102
RTVSPropertyOp24
 70
     1
102
RTVSPropertyOp25
 70
     1
102
RTVSPropertyOp26
 70
     1
102
RTVSPropertyOp27
 70
     1
102
RTVSPropertyOp28
 70
     1
102
RTVSPropertyOp29
 70
     1
102
RTVSPropertyOp30
 70
     1
102
RTVSPropertyOp31
 70
     1
102
RTVSPropertyOp32
 70
     1
102
RTVSPropertyOp33
 70
     1
102
RTVSPropertyOp34
 70
     1
102
RTVSPropertyOp35
 70
     1
102
RTVSPropertyOp36
 70
     1
102
RTVSPropertyOp37
 70
     1
102
RTVSPropertyOp38
 70
     1
102
RTVSPropertyOp39
 70
     1
102
RTVSPropertyOp40
 70
     1
102
RTVSPropertyOp41
 70
     1
102
RTVSPropertyOp42
 70
     1
102
RTVSPropertyOp43
 70
     1
102
RTVSPropertyOp44
 70
     1
102
RTVSPropertyOp45
 70
     1
102
RTVSPropertyOp46
 70
     1
102
RTVSPropertyOp47
 70
     1
102
RTVSPropertyOp48
 70
     1
102
RTVSPropertyOp49
 70
     1
102
RTVSPropertyOp50
 70
     1
102
RTVSPropertyOp51
 70
     0
102
RTVSPropertyOp52
 70
     0
102
RTVSPropertyOp53
 70
     1
102
RTVSPropertyOp54
 70
     1
102
RTVSPropertyOp55
 70
     1
102
RTVSPropertyOp56
 70
     1
102
RTVSPropertyOp57
 70
     1
102
RTVSPropertyOp58
 70
     1
102
RTVSPropertyOp59
 70
     1
102
RTVSPropertyOp60
 70
     1
102
RTVSPropertyOp61
 70
     1
102
RTVSPropertyOp62
 70
     1
  0
XRECORD
  5
60D2
102
{ACAD_REACTORS
330
60D1
102
}
330
60D1
100
AcDbXrecord
280
     1
102
RTVSPost2010Prop28
280
     0
102
RTVSPost2010PropOp28
 70
     1
102
RTVSPost2010Prop29
280
     1
102
RTVSPost2010PropOp29
 70
     1
102
RTVSPost2010Prop30
280
     1
102
RTVSPost2010PropOp30
 70
     1
102
RTVSPost2010Prop31
280
     0
102
RTVSPost2010PropOp31
 70
     1
102
RTVSPost2010Prop32
280
     0
102
RTVSPost2010PropOp32
 70
     1
102
RTVSPost2010Prop33
280
     0
102
RTVSPost2010PropOp33
 70
     1
102
RTVSPost2010Prop34
280
     0
102
RTVSPost2010PropOp34
 70
     1
102
RTVSPost2010Prop35
280
     0
102
RTVSPost2010PropOp35
 70
     1
102
RTVSPost2010Prop36
280
     0
102
RTVSPost2010PropOp36
 70
     1
102
RTVSPost2010Prop37
 90
       50
102
RTVSPost2010PropOp37
 70
     1
102
RTVSPost2010Prop38
140
0.0
102
RTVSPost2010PropOp38
 70
     1
102
RTVSPost2010Prop39
140
1.0
102
RTVSPost2010PropOp39
 70
     1
102
RTVSPost2010Prop40
 90
        0
102
RTVSPost2010PropOp40
 70
     1
102
RTVSPost2010Prop41ColorIndex
 90
       18
102
RTVSPost2010Prop41ColorRGB
 90
        0
102
RTVSPost2010PropOp41
 70
     1
102
RTVSPost2010Prop42
 90
       50
102
RTVSPost2010PropOp42
 70
     1
102
RTVSPost2010Prop43
 90
        3
102
RTVSPost2010PropOp43
 70
     1
102
RTVSPost2010Prop44ColorIndex
 90
        5
102
RTVSPost2010Prop44ColorRGB
 90
      255
102
RTVSPost2010PropOp44
 70
     1
102
RTVSPost2010Prop45
280
     0
102
RTVSPost2010PropOp45
 70
     1
102
RTVSPost2010Prop46
 90
       50
102
RTVSPost2010PropOp46
 70
     1
102
RTVSPost2010Prop47
 90
       50
102
RTVSPost2010PropOp47
 70
     1
102
RTVSPost2010Prop48
 90
       50
102
RTVSPost2010PropOp48
 70
     1
102
RTVSPost2010Prop49
280
     0
102
RTVSPost2010PropOp49
 70
     1
102
RTVSPost2010Prop50
 90
       50
102
RTVSPost2010PropOp50
 70
     1
102
RTVSPost2010Prop51ColorIndex
 90
      256
102
RTVSPost2010Prop51ColorRGB
 90
-16777216
102
RTVSPost2010PropOp51
 70
     0
102
RTVSPost2010Prop52
140
1.0
102
RTVSPost2010PropOp52
 70
     0
102
RTVSPost2010Prop53
 90
        2
102
RTVSPost2010PropOp53
 70
     1
102
RTVSPost2010Prop54
  1
strokes_ogs.tif
102
RTVSPost2010PropOp54
 70
     1
102
RTVSPost2010Prop55
280
     0
102
RTVSPost2010PropOp55
 70
     1
102
RTVSPost2010Prop56
140
1.0
102
RTVSPost2010PropOp56
 70
     1
102
RTVSPost2010Prop57
140
1.0
102
RTVSPost2010PropOp57
 70
     1
102
RTVSPropertyOp0
 70
     1
102
RTVSPropertyOp1
 70
     1
102
RTVSPropertyOp2
 70
     1
102
RTVSPropertyOp3
 70
     1
102
RTVSPropertyOp4
 70
     1
102
RTVSPropertyOp5
 70
     1
102
RTVSPropertyOp6
 70
     1
102
RTVSPropertyOp7
 70
     1
102
RTVSPropertyOp8
 70
     1
102
RTVSPropertyOp9
 70
     1
102
RTVSPropertyOp10
 70
     1
102
RTVSPropertyOp11
 70
     1
102
RTVSPropertyOp12
 70
     1
102
RTVSPropertyOp13
 70
     1
102
RTVSPropertyOp14
 70
     1
102
RTVSPropertyOp15
 70
     1
102
RTVSPropertyOp16
 70
     1
102
RTVSPropertyOp17
 70
     1
102
RTVSPropertyOp18
 70
     1
102
RTVSPropertyOp19
 70
     1
102
RTVSPropertyOp20
 70
     1
102
RTVSPropertyOp21
 70
     1
102
RTVSPropertyOp22
 70
     1
102
RTVSPropertyOp23
 70
     1
102
RTVSPropertyOp24
 70
     1
102
RTVSPropertyOp25
 70
     1
102
RTVSPropertyOp26
 70
     1
102
RTVSPropertyOp27
 70
     1
102
RTVSPropertyOp28
 70
     1
102
RTVSPropertyOp29
 70
     1
102
RTVSPropertyOp30
 70
     1
102
RTVSPropertyOp31
 70
     1
102
RTVSPropertyOp32
 70
     1
102
RTVSPropertyOp33
 70
     1
102
RTVSPropertyOp34
 70
     1
102
RTVSPropertyOp35
 70
     1
102
RTVSPropertyOp36
 70
     1
102
RTVSPropertyOp37
 70
     1
102
RTVSPropertyOp38
 70
     1
102
RTVSPropertyOp39
 70
     1
102
RTVSPropertyOp40
 70
     1
102
RTVSPropertyOp41
 70
     1
102
RTVSPropertyOp42
 70
     1
102
RTVSPropertyOp43
 70
     1
102
RTVSPropertyOp44
 70
     1
102
RTVSPropertyOp45
 70
     1
102
RTVSPropertyOp46
 70
     1
102
RTVSPropertyOp47
 70
     1
102
RTVSPropertyOp48
 70
     1
102
RTVSPropertyOp49
 70
     1
102
RTVSPropertyOp50
 70
     1
102
RTVSPropertyOp51
 70
     0
102
RTVSPropertyOp52
 70
     0
102
RTVSPropertyOp53
 70
     1
102
RTVSPropertyOp54
 70
     1
102
RTVSPropertyOp55
 70
     1
102
RTVSPropertyOp56
 70
     1
102
RTVSPropertyOp57
 70
     1
102
RTVSPropertyOp58
 70
     1
102
RTVSPropertyOp59
 70
     1
102
RTVSPropertyOp60
 70
     1
102
RTVSPropertyOp61
 70
     1
102
RTVSPropertyOp62
 70
     1
  0
XRECORD
  5
60EC
102
{ACAD_REACTORS
330
60EB
102
}
330
60EB
100
AcDbXrecord
280
     1
102
RTVSPost2010Prop28
280
     0
102
RTVSPost2010PropOp28
 70
     1
102
RTVSPost2010Prop29
280
     1
102
RTVSPost2010PropOp29
 70
     1
102
RTVSPost2010Prop30
280
     1
102
RTVSPost2010PropOp30
 70
     1
102
RTVSPost2010Prop31
280
     0
102
RTVSPost2010PropOp31
 70
     1
102
RTVSPost2010Prop32
280
     0
102
RTVSPost2010PropOp32
 70
     1
102
RTVSPost2010Prop33
280
     0
102
RTVSPost2010PropOp33
 70
     1
102
RTVSPost2010Prop34
280
     0
102
RTVSPost2010PropOp34
 70
     1
102
RTVSPost2010Prop35
280
     0
102
RTVSPost2010PropOp35
 70
     1
102
RTVSPost2010Prop36
280
     0
102
RTVSPost2010PropOp36
 70
     1
102
RTVSPost2010Prop37
 90
       50
102
RTVSPost2010PropOp37
 70
     0
102
RTVSPost2010Prop38
140
0.0
102
RTVSPost2010PropOp38
 70
     0
102
RTVSPost2010Prop39
140
1.0
102
RTVSPost2010PropOp39
 70
     0
102
RTVSPost2010Prop40
 90
        0
102
RTVSPost2010PropOp40
 70
     0
102
RTVSPost2010Prop41ColorIndex
 90
       18
102
RTVSPost2010Prop41ColorRGB
 90
        0
102
RTVSPost2010PropOp41
 70
     0
102
RTVSPost2010Prop42
 90
       50
102
RTVSPost2010PropOp42
 70
     0
102
RTVSPost2010Prop43
 90
        3
102
RTVSPost2010PropOp43
 70
     0
102
RTVSPost2010Prop44ColorIndex
 90
        5
102
RTVSPost2010Prop44ColorRGB
 90
      255
102
RTVSPost2010PropOp44
 70
     0
102
RTVSPost2010Prop45
280
     0
102
RTVSPost2010PropOp45
 70
     1
102
RTVSPost2010Prop46
 90
       50
102
RTVSPost2010PropOp46
 70
     0
102
RTVSPost2010Prop47
 90
       50
102
RTVSPost2010PropOp47
 70
     0
102
RTVSPost2010Prop48
 90
       50
102
RTVSPost2010PropOp48
 70
     0
102
RTVSPost2010Prop49
280
     0
102
RTVSPost2010PropOp49
 70
     1
102
RTVSPost2010Prop50
 90
       50
102
RTVSPost2010PropOp50
 70
     0
102
RTVSPost2010Prop51ColorIndex
 90
      256
102
RTVSPost2010Prop51ColorRGB
 90
-16777216
102
RTVSPost2010PropOp51
 70
     0
102
RTVSPost2010Prop52
140
1.0
102
RTVSPost2010PropOp52
 70
     0
102
RTVSPost2010Prop53
 90
        2
102
RTVSPost2010PropOp53
 70
     0
102
RTVSPost2010Prop54
  1
strokes_ogs.tif
102
RTVSPost2010PropOp54
 70
     0
102
RTVSPost2010Prop55
280
     0
102
RTVSPost2010PropOp55
 70
     1
102
RTVSPost2010Prop56
140
1.0
102
RTVSPost2010PropOp56
 70
     0
102
RTVSPost2010Prop57
140
1.0
102
RTVSPost2010PropOp57
 70
     0
102
RTVSPropertyOp0
 70
     0
102
RTVSPropertyOp1
 70
     0
102
RTVSPropertyOp2
 70
     0
102
RTVSPropertyOp3
 70
     0
102
RTVSPropertyOp4
 70
     0
102
RTVSPropertyOp5
 70
     0
102
RTVSPropertyOp6
 70
     0
102
RTVSPropertyOp7
 70
     0
102
RTVSPropertyOp8
 70
     0
102
RTVSPropertyOp9
 70
     0
102
RTVSPropertyOp10
 70
     0
102
RTVSPropertyOp11
 70
     0
102
RTVSPropertyOp12
 70
     0
102
RTVSPropertyOp13
 70
     0
102
RTVSPropertyOp14
 70
     2
102
RTVSPropertyOp15
 70
     0
102
RTVSPropertyOp16
 70
     0
102
RTVSPropertyOp17
 70
     0
102
RTVSPropertyOp18
 70
     0
102
RTVSPropertyOp19
 70
     0
102
RTVSPropertyOp20
 70
     0
102
RTVSPropertyOp21
 70
     0
102
RTVSPropertyOp22
 70
     0
102
RTVSPropertyOp23
 70
     0
102
RTVSPropertyOp24
 70
     0
102
RTVSPropertyOp25
 70
     0
102
RTVSPropertyOp26
 70
     0
102
RTVSPropertyOp27
 70
     0
102
RTVSPropertyOp28
 70
     1
102
RTVSPropertyOp29
 70
     1
102
RTVSPropertyOp30
 70
     1
102
RTVSPropertyOp31
 70
     1
102
RTVSPropertyOp32
 70
     1
102
RTVSPropertyOp33
 70
     1
102
RTVSPropertyOp34
 70
     1
102
RTVSPropertyOp35
 70
     1
102
RTVSPropertyOp36
 70
     1
102
RTVSPropertyOp37
 70
     0
102
RTVSPropertyOp38
 70
     0
102
RTVSPropertyOp39
 70
     0
102
RTVSPropertyOp40
 70
     0
102
RTVSPropertyOp41
 70
     0
102
RTVSPropertyOp42
 70
     0
102
RTVSPropertyOp43
 70
     0
102
RTVSPropertyOp44
 70
     0
102
RTVSPropertyOp45
 70
     1
102
RTVSPropertyOp46
 70
     0
102
RTVSPropertyOp47
 70
     0
102
RTVSPropertyOp48
 70
     0
102
RTVSPropertyOp49
 70
     1
102
RTVSPropertyOp50
 70
     0
102
RTVSPropertyOp51
 70
     0
102
RTVSPropertyOp52
 70
     0
102
RTVSPropertyOp53
 70
     0
102
RTVSPropertyOp54
 70
     0
102
RTVSPropertyOp55
 70
     1
102
RTVSPropertyOp56
 70
     0
102
RTVSPropertyOp57
 70
     0
102
RTVSPropertyOp58
 70
     1
102
RTVSPropertyOp59
 70
     1
102
RTVSPropertyOp60
 70
     1
102
RTVSPropertyOp61
 70
     1
102
RTVSPropertyOp62
 70
     1
  0
XRECORD
  5
60DA
102
{ACAD_REACTORS
330
60D9
102
}
330
60D9
100
AcDbXrecord
280
     1
102
RTVSPost2010Prop28
280
     0
102
RTVSPost2010PropOp28
 70
     1
102
RTVSPost2010Prop29
280
     1
102
RTVSPost2010PropOp29
 70
     1
102
RTVSPost2010Prop30
280
     1
102
RTVSPost2010PropOp30
 70
     1
102
RTVSPost2010Prop31
280
     0
102
RTVSPost2010PropOp31
 70
     1
102
RTVSPost2010Prop32
280
     0
102
RTVSPost2010PropOp32
 70
     1
102
RTVSPost2010Prop33
280
     0
102
RTVSPost2010PropOp33
 70
     1
102
RTVSPost2010Prop34
280
     0
102
RTVSPost2010PropOp34
 70
     1
102
RTVSPost2010Prop35
280
     0
102
RTVSPost2010PropOp35
 70
     1
102
RTVSPost2010Prop36
280
     0
102
RTVSPost2010PropOp36
 70
     1
102
RTVSPost2010Prop37
 90
       50
102
RTVSPost2010PropOp37
 70
     1
102
RTVSPost2010Prop38
140
0.0
102
RTVSPost2010PropOp38
 70
     1
102
RTVSPost2010Prop39
140
1.0
102
RTVSPost2010PropOp39
 70
     1
102
RTVSPost2010Prop40
 90
        0
102
RTVSPost2010PropOp40
 70
     1
102
RTVSPost2010Prop41ColorIndex
 90
       18
102
RTVSPost2010Prop41ColorRGB
 90
        0
102
RTVSPost2010PropOp41
 70
     1
102
RTVSPost2010Prop42
 90
       50
102
RTVSPost2010PropOp42
 70
     1
102
RTVSPost2010Prop43
 90
        3
102
RTVSPost2010PropOp43
 70
     1
102
RTVSPost2010Prop44ColorIndex
 90
        5
102
RTVSPost2010Prop44ColorRGB
 90
      255
102
RTVSPost2010PropOp44
 70
     1
102
RTVSPost2010Prop45
280
     0
102
RTVSPost2010PropOp45
 70
     1
102
RTVSPost2010Prop46
 90
       50
102
RTVSPost2010PropOp46
 70
     1
102
RTVSPost2010Prop47
 90
       50
102
RTVSPost2010PropOp47
 70
     1
102
RTVSPost2010Prop48
 90
       50
102
RTVSPost2010PropOp48
 70
     1
102
RTVSPost2010Prop49
280
     0
102
RTVSPost2010PropOp49
 70
     1
102
RTVSPost2010Prop50
 90
       50
102
RTVSPost2010PropOp50
 70
     1
102
RTVSPost2010Prop51ColorIndex
 90
      256
102
RTVSPost2010Prop51ColorRGB
 90
-16777216
102
RTVSPost2010PropOp51
 70
     0
102
RTVSPost2010Prop52
140
1.0
102
RTVSPost2010PropOp52
 70
     0
102
RTVSPost2010Prop53
 90
        2
102
RTVSPost2010PropOp53
 70
     1
102
RTVSPost2010Prop54
  1
strokes_ogs.tif
102
RTVSPost2010PropOp54
 70
     1
102
RTVSPost2010Prop55
280
     0
102
RTVSPost2010PropOp55
 70
     1
102
RTVSPost2010Prop56
140
1.0
102
RTVSPost2010PropOp56
 70
     1
102
RTVSPost2010Prop57
140
1.0
102
RTVSPost2010PropOp57
 70
     1
102
RTVSPropertyOp0
 70
     1
102
RTVSPropertyOp1
 70
     1
102
RTVSPropertyOp2
 70
     1
102
RTVSPropertyOp3
 70
     1
102
RTVSPropertyOp4
 70
     1
102
RTVSPropertyOp5
 70
     1
102
RTVSPropertyOp6
 70
     1
102
RTVSPropertyOp7
 70
     1
102
RTVSPropertyOp8
 70
     1
102
RTVSPropertyOp9
 70
     1
102
RTVSPropertyOp10
 70
     1
102
RTVSPropertyOp11
 70
     1
102
RTVSPropertyOp12
 70
     1
102
RTVSPropertyOp13
 70
     1
102
RTVSPropertyOp14
 70
     1
102
RTVSPropertyOp15
 70
     1
102
RTVSPropertyOp16
 70
     1
102
RTVSPropertyOp17
 70
     1
102
RTVSPropertyOp18
 70
     1
102
RTVSPropertyOp19
 70
     1
102
RTVSPropertyOp20
 70
     1
102
RTVSPropertyOp21
 70
     1
102
RTVSPropertyOp22
 70
     1
102
RTVSPropertyOp23
 70
     1
102
RTVSPropertyOp24
 70
     1
102
RTVSPropertyOp25
 70
     1
102
RTVSPropertyOp26
 70
     1
102
RTVSPropertyOp27
 70
     1
102
RTVSPropertyOp28
 70
     1
102
RTVSPropertyOp29
 70
     1
102
RTVSPropertyOp30
 70
     1
102
RTVSPropertyOp31
 70
     1
102
RTVSPropertyOp32
 70
     1
102
RTVSPropertyOp33
 70
     1
102
RTVSPropertyOp34
 70
     1
102
RTVSPropertyOp35
 70
     1
102
RTVSPropertyOp36
 70
     1
102
RTVSPropertyOp37
 70
     1
102
RTVSPropertyOp38
 70
     1
102
RTVSPropertyOp39
 70
     1
102
RTVSPropertyOp40
 70
     1
102
RTVSPropertyOp41
 70
     1
102
RTVSPropertyOp42
 70
     1
102
RTVSPropertyOp43
 70
     1
102
RTVSPropertyOp44
 70
     1
102
RTVSPropertyOp45
 70
     1
102
RTVSPropertyOp46
 70
     1
102
RTVSPropertyOp47
 70
     1
102
RTVSPropertyOp48
 70
     1
102
RTVSPropertyOp49
 70
     1
102
RTVSPropertyOp50
 70
     1
102
RTVSPropertyOp51
 70
     0
102
RTVSPropertyOp52
 70
     0
102
RTVSPropertyOp53
 70
     1
102
RTVSPropertyOp54
 70
     1
102
RTVSPropertyOp55
 70
     1
102
RTVSPropertyOp56
 70
     1
102
RTVSPropertyOp57
 70
     1
102
RTVSPropertyOp58
 70
     1
102
RTVSPropertyOp59
 70
     1
102
RTVSPropertyOp60
 70
     1
102
RTVSPropertyOp61
 70
     1
102
RTVSPropertyOp62
 70
     1
  0
XRECORD
  5
60BE
102
{ACAD_REACTORS
330
60BD
102
}
330
60BD
100
AcDbXrecord
280
     1
102
RTVSPost2010Prop28
280
     0
102
RTVSPost2010PropOp28
 70
     1
102
RTVSPost2010Prop29
280
     1
102
RTVSPost2010PropOp29
 70
     1
102
RTVSPost2010Prop30
280
     1
102
RTVSPost2010PropOp30
 70
     1
102
RTVSPost2010Prop31
280
     0
102
RTVSPost2010PropOp31
 70
     1
102
RTVSPost2010Prop32
280
     0
102
RTVSPost2010PropOp32
 70
     1
102
RTVSPost2010Prop33
280
     0
102
RTVSPost2010PropOp33
 70
     1
102
RTVSPost2010Prop34
280
     0
102
RTVSPost2010PropOp34
 70
     1
102
RTVSPost2010Prop35
280
     0
102
RTVSPost2010PropOp35
 70
     1
102
RTVSPost2010Prop36
280
     0
102
RTVSPost2010PropOp36
 70
     1
102
RTVSPost2010Prop37
 90
       50
102
RTVSPost2010PropOp37
 70
     1
102
RTVSPost2010Prop38
140
0.0
102
RTVSPost2010PropOp38
 70
     1
102
RTVSPost2010Prop39
140
1.0
102
RTVSPost2010PropOp39
 70
     1
102
RTVSPost2010Prop40
 90
        0
102
RTVSPost2010PropOp40
 70
     1
102
RTVSPost2010Prop41ColorIndex
 90
       18
102
RTVSPost2010Prop41ColorRGB
 90
        0
102
RTVSPost2010PropOp41
 70
     1
102
RTVSPost2010Prop42
 90
       50
102
RTVSPost2010PropOp42
 70
     1
102
RTVSPost2010Prop43
 90
        3
102
RTVSPost2010PropOp43
 70
     1
102
RTVSPost2010Prop44ColorIndex
 90
        5
102
RTVSPost2010Prop44ColorRGB
 90
      255
102
RTVSPost2010PropOp44
 70
     1
102
RTVSPost2010Prop45
280
     0
102
RTVSPost2010PropOp45
 70
     1
102
RTVSPost2010Prop46
 90
       50
102
RTVSPost2010PropOp46
 70
     1
102
RTVSPost2010Prop47
 90
       50
102
RTVSPost2010PropOp47
 70
     1
102
RTVSPost2010Prop48
 90
       50
102
RTVSPost2010PropOp48
 70
     1
102
RTVSPost2010Prop49
280
     0
102
RTVSPost2010PropOp49
 70
     1
102
RTVSPost2010Prop50
 90
       50
102
RTVSPost2010PropOp50
 70
     1
102
RTVSPost2010Prop51ColorIndex
 90
      256
102
RTVSPost2010Prop51ColorRGB
 90
-16777216
102
RTVSPost2010PropOp51
 70
     0
102
RTVSPost2010Prop52
140
1.0
102
RTVSPost2010PropOp52
 70
     0
102
RTVSPost2010Prop53
 90
        2
102
RTVSPost2010PropOp53
 70
     1
102
RTVSPost2010Prop54
  1
strokes_ogs.tif
102
RTVSPost2010PropOp54
 70
     1
102
RTVSPost2010Prop55
280
     0
102
RTVSPost2010PropOp55
 70
     1
102
RTVSPost2010Prop56
140
1.0
102
RTVSPost2010PropOp56
 70
     1
102
RTVSPost2010Prop57
140
1.0
102
RTVSPost2010PropOp57
 70
     1
102
RTVSPropertyOp0
 70
     1
102
RTVSPropertyOp1
 70
     1
102
RTVSPropertyOp2
 70
     1
102
RTVSPropertyOp3
 70
     1
102
RTVSPropertyOp4
 70
     1
102
RTVSPropertyOp5
 70
     1
102
RTVSPropertyOp6
 70
     1
102
RTVSPropertyOp7
 70
     1
102
RTVSPropertyOp8
 70
     1
102
RTVSPropertyOp9
 70
     1
102
RTVSPropertyOp10
 70
     1
102
RTVSPropertyOp11
 70
     1
102
RTVSPropertyOp12
 70
     1
102
RTVSPropertyOp13
 70
     1
102
RTVSPropertyOp14
 70
     1
102
RTVSPropertyOp15
 70
     1
102
RTVSPropertyOp16
 70
     1
102
RTVSPropertyOp17
 70
     1
102
RTVSPropertyOp18
 70
     1
102
RTVSPropertyOp19
 70
     1
102
RTVSPropertyOp20
 70
     1
102
RTVSPropertyOp21
 70
     1
102
RTVSPropertyOp22
 70
     1
102
RTVSPropertyOp23
 70
     1
102
RTVSPropertyOp24
 70
     1
102
RTVSPropertyOp25
 70
     1
102
RTVSPropertyOp26
 70
     1
102
RTVSPropertyOp27
 70
     1
102
RTVSPropertyOp28
 70
     1
102
RTVSPropertyOp29
 70
     1
102
RTVSPropertyOp30
 70
     1
102
RTVSPropertyOp31
 70
     1
102
RTVSPropertyOp32
 70
     1
102
RTVSPropertyOp33
 70
     1
102
RTVSPropertyOp34
 70
     1
102
RTVSPropertyOp35
 70
     1
102
RTVSPropertyOp36
 70
     1
102
RTVSPropertyOp37
 70
     1
102
RTVSPropertyOp38
 70
     1
102
RTVSPropertyOp39
 70
     1
102
RTVSPropertyOp40
 70
     1
102
RTVSPropertyOp41
 70
     1
102
RTVSPropertyOp42
 70
     1
102
RTVSPropertyOp43
 70
     1
102
RTVSPropertyOp44
 70
     1
102
RTVSPropertyOp45
 70
     1
102
RTVSPropertyOp46
 70
     1
102
RTVSPropertyOp47
 70
     1
102
RTVSPropertyOp48
 70
     1
102
RTVSPropertyOp49
 70
     1
102
RTVSPropertyOp50
 70
     1
102
RTVSPropertyOp51
 70
     0
102
RTVSPropertyOp52
 70
     0
102
RTVSPropertyOp53
 70
     1
102
RTVSPropertyOp54
 70
     1
102
RTVSPropertyOp55
 70
     1
102
RTVSPropertyOp56
 70
     1
102
RTVSPropertyOp57
 70
     1
102
RTVSPropertyOp58
 70
     1
102
RTVSPropertyOp59
 70
     1
102
RTVSPropertyOp60
 70
     1
102
RTVSPropertyOp61
 70
     1
102
RTVSPropertyOp62
 70
     1
  0
XRECORD
  5
60C0
102
{ACAD_REACTORS
330
60BF
102
}
330
60BF
100
AcDbXrecord
280
     1
102
RTVSPost2010Prop28
280
     0
102
RTVSPost2010PropOp28
 70
     1
102
RTVSPost2010Prop29
280
     1
102
RTVSPost2010PropOp29
 70
     1
102
RTVSPost2010Prop30
280
     1
102
RTVSPost2010PropOp30
 70
     1
102
RTVSPost2010Prop31
280
     0
102
RTVSPost2010PropOp31
 70
     1
102
RTVSPost2010Prop32
280
     0
102
RTVSPost2010PropOp32
 70
     1
102
RTVSPost2010Prop33
280
     0
102
RTVSPost2010PropOp33
 70
     1
102
RTVSPost2010Prop34
280
     0
102
RTVSPost2010PropOp34
 70
     1
102
RTVSPost2010Prop35
280
     0
102
RTVSPost2010PropOp35
 70
     1
102
RTVSPost2010Prop36
280
     0
102
RTVSPost2010PropOp36
 70
     1
102
RTVSPost2010Prop37
 90
       50
102
RTVSPost2010PropOp37
 70
     1
102
RTVSPost2010Prop38
140
0.0
102
RTVSPost2010PropOp38
 70
     1
102
RTVSPost2010Prop39
140
1.0
102
RTVSPost2010PropOp39
 70
     1
102
RTVSPost2010Prop40
 90
        0
102
RTVSPost2010PropOp40
 70
     1
102
RTVSPost2010Prop41ColorIndex
 90
       18
102
RTVSPost2010Prop41ColorRGB
 90
        0
102
RTVSPost2010PropOp41
 70
     1
102
RTVSPost2010Prop42
 90
       50
102
RTVSPost2010PropOp42
 70
     1
102
RTVSPost2010Prop43
 90
        3
102
RTVSPost2010PropOp43
 70
     1
102
RTVSPost2010Prop44ColorIndex
 90
        5
102
RTVSPost2010Prop44ColorRGB
 90
      255
102
RTVSPost2010PropOp44
 70
     1
102
RTVSPost2010Prop45
280
     0
102
RTVSPost2010PropOp45
 70
     1
102
RTVSPost2010Prop46
 90
       50
102
RTVSPost2010PropOp46
 70
     1
102
RTVSPost2010Prop47
 90
       50
102
RTVSPost2010PropOp47
 70
     1
102
RTVSPost2010Prop48
 90
       50
102
RTVSPost2010PropOp48
 70
     1
102
RTVSPost2010Prop49
280
     0
102
RTVSPost2010PropOp49
 70
     1
102
RTVSPost2010Prop50
 90
       50
102
RTVSPost2010PropOp50
 70
     1
102
RTVSPost2010Prop51ColorIndex
 90
      256
102
RTVSPost2010Prop51ColorRGB
 90
-16777216
102
RTVSPost2010PropOp51
 70
     0
102
RTVSPost2010Prop52
140
1.0
102
RTVSPost2010PropOp52
 70
     0
102
RTVSPost2010Prop53
 90
        2
102
RTVSPost2010PropOp53
 70
     1
102
RTVSPost2010Prop54
  1
strokes_ogs.tif
102
RTVSPost2010PropOp54
 70
     1
102
RTVSPost2010Prop55
280
     0
102
RTVSPost2010PropOp55
 70
     1
102
RTVSPost2010Prop56
140
1.0
102
RTVSPost2010PropOp56
 70
     1
102
RTVSPost2010Prop57
140
1.0
102
RTVSPost2010PropOp57
 70
     1
102
RTVSPropertyOp0
 70
     1
102
RTVSPropertyOp1
 70
     1
102
RTVSPropertyOp2
 70
     1
102
RTVSPropertyOp3
 70
     1
102
RTVSPropertyOp4
 70
     1
102
RTVSPropertyOp5
 70
     1
102
RTVSPropertyOp6
 70
     1
102
RTVSPropertyOp7
 70
     1
102
RTVSPropertyOp8
 70
     1
102
RTVSPropertyOp9
 70
     1
102
RTVSPropertyOp10
 70
     1
102
RTVSPropertyOp11
 70
     1
102
RTVSPropertyOp12
 70
     1
102
RTVSPropertyOp13
 70
     1
102
RTVSPropertyOp14
 70
     1
102
RTVSPropertyOp15
 70
     1
102
RTVSPropertyOp16
 70
     1
102
RTVSPropertyOp17
 70
     1
102
RTVSPropertyOp18
 70
     1
102
RTVSPropertyOp19
 70
     1
102
RTVSPropertyOp20
 70
     1
102
RTVSPropertyOp21
 70
     1
102
RTVSPropertyOp22
 70
     1
102
RTVSPropertyOp23
 70
     1
102
RTVSPropertyOp24
 70
     1
102
RTVSPropertyOp25
 70
     1
102
RTVSPropertyOp26
 70
     1
102
RTVSPropertyOp27
 70
     1
102
RTVSPropertyOp28
 70
     1
102
RTVSPropertyOp29
 70
     1
102
RTVSPropertyOp30
 70
     1
102
RTVSPropertyOp31
 70
     1
102
RTVSPropertyOp32
 70
     1
102
RTVSPropertyOp33
 70
     1
102
RTVSPropertyOp34
 70
     1
102
RTVSPropertyOp35
 70
     1
102
RTVSPropertyOp36
 70
     1
102
RTVSPropertyOp37
 70
     1
102
RTVSPropertyOp38
 70
     1
102
RTVSPropertyOp39
 70
     1
102
RTVSPropertyOp40
 70
     1
102
RTVSPropertyOp41
 70
     1
102
RTVSPropertyOp42
 70
     1
102
RTVSPropertyOp43
 70
     1
102
RTVSPropertyOp44
 70
     1
102
RTVSPropertyOp45
 70
     1
102
RTVSPropertyOp46
 70
     1
102
RTVSPropertyOp47
 70
     1
102
RTVSPropertyOp48
 70
     1
102
RTVSPropertyOp49
 70
     1
102
RTVSPropertyOp50
 70
     1
102
RTVSPropertyOp51
 70
     0
102
RTVSPropertyOp52
 70
     0
102
RTVSPropertyOp53
 70
     1
102
RTVSPropertyOp54
 70
     1
102
RTVSPropertyOp55
 70
     1
102
RTVSPropertyOp56
 70
     1
102
RTVSPropertyOp57
 70
     1
102
RTVSPropertyOp58
 70
     1
102
RTVSPropertyOp59
 70
     1
102
RTVSPropertyOp60
 70
     1
102
RTVSPropertyOp61
 70
     1
102
RTVSPropertyOp62
 70
     1
  0
XRECORD
  5
60C2
102
{ACAD_REACTORS
330
60C1
102
}
330
60C1
100
AcDbXrecord
280
     1
102
RTVSPost2010Prop28
280
     0
102
RTVSPost2010PropOp28
 70
     1
102
RTVSPost2010Prop29
280
     1
102
RTVSPost2010PropOp29
 70
     1
102
RTVSPost2010Prop30
280
     1
102
RTVSPost2010PropOp30
 70
     1
102
RTVSPost2010Prop31
280
     0
102
RTVSPost2010PropOp31
 70
     1
102
RTVSPost2010Prop32
280
     0
102
RTVSPost2010PropOp32
 70
     1
102
RTVSPost2010Prop33
280
     0
102
RTVSPost2010PropOp33
 70
     1
102
RTVSPost2010Prop34
280
     0
102
RTVSPost2010PropOp34
 70
     1
102
RTVSPost2010Prop35
280
     0
102
RTVSPost2010PropOp35
 70
     1
102
RTVSPost2010Prop36
280
     0
102
RTVSPost2010PropOp36
 70
     1
102
RTVSPost2010Prop37
 90
       50
102
RTVSPost2010PropOp37
 70
     1
102
RTVSPost2010Prop38
140
0.0
102
RTVSPost2010PropOp38
 70
     1
102
RTVSPost2010Prop39
140
1.0
102
RTVSPost2010PropOp39
 70
     1
102
RTVSPost2010Prop40
 90
        0
102
RTVSPost2010PropOp40
 70
     1
102
RTVSPost2010Prop41ColorIndex
 90
       18
102
RTVSPost2010Prop41ColorRGB
 90
        0
102
RTVSPost2010PropOp41
 70
     1
102
RTVSPost2010Prop42
 90
       50
102
RTVSPost2010PropOp42
 70
     1
102
RTVSPost2010Prop43
 90
        3
102
RTVSPost2010PropOp43
 70
     1
102
RTVSPost2010Prop44ColorIndex
 90
        5
102
RTVSPost2010Prop44ColorRGB
 90
      255
102
RTVSPost2010PropOp44
 70
     1
102
RTVSPost2010Prop45
280
     0
102
RTVSPost2010PropOp45
 70
     1
102
RTVSPost2010Prop46
 90
       50
102
RTVSPost2010PropOp46
 70
     1
102
RTVSPost2010Prop47
 90
       50
102
RTVSPost2010PropOp47
 70
     1
102
RTVSPost2010Prop48
 90
       50
102
RTVSPost2010PropOp48
 70
     1
102
RTVSPost2010Prop49
280
     0
102
RTVSPost2010PropOp49
 70
     1
102
RTVSPost2010Prop50
 90
       50
102
RTVSPost2010PropOp50
 70
     1
102
RTVSPost2010Prop51ColorIndex
 90
      256
102
RTVSPost2010Prop51ColorRGB
 90
-16777216
102
RTVSPost2010PropOp51
 70
     0
102
RTVSPost2010Prop52
140
1.0
102
RTVSPost2010PropOp52
 70
     0
102
RTVSPost2010Prop53
 90
        2
102
RTVSPost2010PropOp53
 70
     1
102
RTVSPost2010Prop54
  1
strokes_ogs.tif
102
RTVSPost2010PropOp54
 70
     1
102
RTVSPost2010Prop55
280
     0
102
RTVSPost2010PropOp55
 70
     1
102
RTVSPost2010Prop56
140
1.0
102
RTVSPost2010PropOp56
 70
     1
102
RTVSPost2010Prop57
140
1.0
102
RTVSPost2010PropOp57
 70
     1
102
RTVSPropertyOp0
 70
     1
102
RTVSPropertyOp1
 70
     1
102
RTVSPropertyOp2
 70
     1
102
RTVSPropertyOp3
 70
     1
102
RTVSPropertyOp4
 70
     1
102
RTVSPropertyOp5
 70
     1
102
RTVSPropertyOp6
 70
     1
102
RTVSPropertyOp7
 70
     1
102
RTVSPropertyOp8
 70
     1
102
RTVSPropertyOp9
 70
     1
102
RTVSPropertyOp10
 70
     1
102
RTVSPropertyOp11
 70
     1
102
RTVSPropertyOp12
 70
     1
102
RTVSPropertyOp13
 70
     1
102
RTVSPropertyOp14
 70
     1
102
RTVSPropertyOp15
 70
     1
102
RTVSPropertyOp16
 70
     1
102
RTVSPropertyOp17
 70
     1
102
RTVSPropertyOp18
 70
     1
102
RTVSPropertyOp19
 70
     1
102
RTVSPropertyOp20
 70
     1
102
RTVSPropertyOp21
 70
     1
102
RTVSPropertyOp22
 70
     1
102
RTVSPropertyOp23
 70
     1
102
RTVSPropertyOp24
 70
     1
102
RTVSPropertyOp25
 70
     1
102
RTVSPropertyOp26
 70
     1
102
RTVSPropertyOp27
 70
     1
102
RTVSPropertyOp28
 70
     1
102
RTVSPropertyOp29
 70
     1
102
RTVSPropertyOp30
 70
     1
102
RTVSPropertyOp31
 70
     1
102
RTVSPropertyOp32
 70
     1
102
RTVSPropertyOp33
 70
     1
102
RTVSPropertyOp34
 70
     1
102
RTVSPropertyOp35
 70
     1
102
RTVSPropertyOp36
 70
     1
102
RTVSPropertyOp37
 70
     1
102
RTVSPropertyOp38
 70
     1
102
RTVSPropertyOp39
 70
     1
102
RTVSPropertyOp40
 70
     1
102
RTVSPropertyOp41
 70
     1
102
RTVSPropertyOp42
 70
     1
102
RTVSPropertyOp43
 70
     1
102
RTVSPropertyOp44
 70
     1
102
RTVSPropertyOp45
 70
     1
102
RTVSPropertyOp46
 70
     1
102
RTVSPropertyOp47
 70
     1
102
RTVSPropertyOp48
 70
     1
102
RTVSPropertyOp49
 70
     1
102
RTVSPropertyOp50
 70
     1
102
RTVSPropertyOp51
 70
     0
102
RTVSPropertyOp52
 70
     0
102
RTVSPropertyOp53
 70
     1
102
RTVSPropertyOp54
 70
     1
102
RTVSPropertyOp55
 70
     1
102
RTVSPropertyOp56
 70
     1
102
RTVSPropertyOp57
 70
     1
102
RTVSPropertyOp58
 70
     1
102
RTVSPropertyOp59
 70
     1
102
RTVSPropertyOp60
 70
     1
102
RTVSPropertyOp61
 70
     1
102
RTVSPropertyOp62
 70
     1
  0
XRECORD
  5
60C4
102
{ACAD_REACTORS
330
60C3
102
}
330
60C3
100
AcDbXrecord
280
     1
102
RTVSPost2010Prop28
280
     0
102
RTVSPost2010PropOp28
 70
     1
102
RTVSPost2010Prop29
280
     1
102
RTVSPost2010PropOp29
 70
     1
102
RTVSPost2010Prop30
280
     1
102
RTVSPost2010PropOp30
 70
     1
102
RTVSPost2010Prop31
280
     0
102
RTVSPost2010PropOp31
 70
     1
102
RTVSPost2010Prop32
280
     0
102
RTVSPost2010PropOp32
 70
     1
102
RTVSPost2010Prop33
280
     0
102
RTVSPost2010PropOp33
 70
     1
102
RTVSPost2010Prop34
280
     0
102
RTVSPost2010PropOp34
 70
     1
102
RTVSPost2010Prop35
280
     0
102
RTVSPost2010PropOp35
 70
     1
102
RTVSPost2010Prop36
280
     0
102
RTVSPost2010PropOp36
 70
     1
102
RTVSPost2010Prop37
 90
       50
102
RTVSPost2010PropOp37
 70
     1
102
RTVSPost2010Prop38
140
0.0
102
RTVSPost2010PropOp38
 70
     1
102
RTVSPost2010Prop39
140
1.0
102
RTVSPost2010PropOp39
 70
     1
102
RTVSPost2010Prop40
 90
        0
102
RTVSPost2010PropOp40
 70
     1
102
RTVSPost2010Prop41ColorIndex
 90
       18
102
RTVSPost2010Prop41ColorRGB
 90
        0
102
RTVSPost2010PropOp41
 70
     1
102
RTVSPost2010Prop42
 90
       50
102
RTVSPost2010PropOp42
 70
     1
102
RTVSPost2010Prop43
 90
        3
102
RTVSPost2010PropOp43
 70
     1
102
RTVSPost2010Prop44ColorIndex
 90
        5
102
RTVSPost2010Prop44ColorRGB
 90
      255
102
RTVSPost2010PropOp44
 70
     1
102
RTVSPost2010Prop45
280
     0
102
RTVSPost2010PropOp45
 70
     1
102
RTVSPost2010Prop46
 90
       50
102
RTVSPost2010PropOp46
 70
     1
102
RTVSPost2010Prop47
 90
       50
102
RTVSPost2010PropOp47
 70
     1
102
RTVSPost2010Prop48
 90
       50
102
RTVSPost2010PropOp48
 70
     1
102
RTVSPost2010Prop49
280
     0
102
RTVSPost2010PropOp49
 70
     1
102
RTVSPost2010Prop50
 90
       50
102
RTVSPost2010PropOp50
 70
     1
102
RTVSPost2010Prop51ColorIndex
 90
      256
102
RTVSPost2010Prop51ColorRGB
 90
-16777216
102
RTVSPost2010PropOp51
 70
     0
102
RTVSPost2010Prop52
140
1.0
102
RTVSPost2010PropOp52
 70
     0
102
RTVSPost2010Prop53
 90
        2
102
RTVSPost2010PropOp53
 70
     1
102
RTVSPost2010Prop54
  1
strokes_ogs.tif
102
RTVSPost2010PropOp54
 70
     1
102
RTVSPost2010Prop55
280
     0
102
RTVSPost2010PropOp55
 70
     1
102
RTVSPost2010Prop56
140
1.0
102
RTVSPost2010PropOp56
 70
     1
102
RTVSPost2010Prop57
140
1.0
102
RTVSPost2010PropOp57
 70
     1
102
RTVSPropertyOp0
 70
     1
102
RTVSPropertyOp1
 70
     1
102
RTVSPropertyOp2
 70
     1
102
RTVSPropertyOp3
 70
     1
102
RTVSPropertyOp4
 70
     1
102
RTVSPropertyOp5
 70
     1
102
RTVSPropertyOp6
 70
     1
102
RTVSPropertyOp7
 70
     1
102
RTVSPropertyOp8
 70
     1
102
RTVSPropertyOp9
 70
     1
102
RTVSPropertyOp10
 70
     1
102
RTVSPropertyOp11
 70
     1
102
RTVSPropertyOp12
 70
     1
102
RTVSPropertyOp13
 70
     1
102
RTVSPropertyOp14
 70
     1
102
RTVSPropertyOp15
 70
     1
102
RTVSPropertyOp16
 70
     1
102
RTVSPropertyOp17
 70
     1
102
RTVSPropertyOp18
 70
     1
102
RTVSPropertyOp19
 70
     1
102
RTVSPropertyOp20
 70
     1
102
RTVSPropertyOp21
 70
     1
102
RTVSPropertyOp22
 70
     1
102
RTVSPropertyOp23
 70
     1
102
RTVSPropertyOp24
 70
     1
102
RTVSPropertyOp25
 70
     1
102
RTVSPropertyOp26
 70
     1
102
RTVSPropertyOp27
 70
     1
102
RTVSPropertyOp28
 70
     1
102
RTVSPropertyOp29
 70
     1
102
RTVSPropertyOp30
 70
     1
102
RTVSPropertyOp31
 70
     1
102
RTVSPropertyOp32
 70
     1
102
RTVSPropertyOp33
 70
     1
102
RTVSPropertyOp34
 70
     1
102
RTVSPropertyOp35
 70
     1
102
RTVSPropertyOp36
 70
     1
102
RTVSPropertyOp37
 70
     1
102
RTVSPropertyOp38
 70
     1
102
RTVSPropertyOp39
 70
     1
102
RTVSPropertyOp40
 70
     1
102
RTVSPropertyOp41
 70
     1
102
RTVSPropertyOp42
 70
     1
102
RTVSPropertyOp43
 70
     1
102
RTVSPropertyOp44
 70
     1
102
RTVSPropertyOp45
 70
     1
102
RTVSPropertyOp46
 70
     1
102
RTVSPropertyOp47
 70
     1
102
RTVSPropertyOp48
 70
     1
102
RTVSPropertyOp49
 70
     1
102
RTVSPropertyOp50
 70
     1
102
RTVSPropertyOp51
 70
     0
102
RTVSPropertyOp52
 70
     0
102
RTVSPropertyOp53
 70
     1
102
RTVSPropertyOp54
 70
     1
102
RTVSPropertyOp55
 70
     1
102
RTVSPropertyOp56
 70
     1
102
RTVSPropertyOp57
 70
     1
102
RTVSPropertyOp58
 70
     1
102
RTVSPropertyOp59
 70
     1
102
RTVSPropertyOp60
 70
     1
102
RTVSPropertyOp61
 70
     1
102
RTVSPropertyOp62
 70
     1
  0
XRECORD
  5
60CC
102
{ACAD_REACTORS
330
60CB
102
}
330
60CB
100
AcDbXrecord
280
     1
102
RTVSPost2010Prop28
280
     0
102
RTVSPost2010PropOp28
 70
     1
102
RTVSPost2010Prop29
280
     1
102
RTVSPost2010PropOp29
 70
     1
102
RTVSPost2010Prop30
280
     1
102
RTVSPost2010PropOp30
 70
     1
102
RTVSPost2010Prop31
280
     0
102
RTVSPost2010PropOp31
 70
     1
102
RTVSPost2010Prop32
280
     0
102
RTVSPost2010PropOp32
 70
     1
102
RTVSPost2010Prop33
280
     0
102
RTVSPost2010PropOp33
 70
     1
102
RTVSPost2010Prop34
280
     0
102
RTVSPost2010PropOp34
 70
     1
102
RTVSPost2010Prop35
280
     0
102
RTVSPost2010PropOp35
 70
     1
102
RTVSPost2010Prop36
280
     0
102
RTVSPost2010PropOp36
 70
     1
102
RTVSPost2010Prop37
 90
       50
102
RTVSPost2010PropOp37
 70
     1
102
RTVSPost2010Prop38
140
0.0
102
RTVSPost2010PropOp38
 70
     1
102
RTVSPost2010Prop39
140
1.0
102
RTVSPost2010PropOp39
 70
     1
102
RTVSPost2010Prop40
 90
        0
102
RTVSPost2010PropOp40
 70
     1
102
RTVSPost2010Prop41ColorIndex
 90
       18
102
RTVSPost2010Prop41ColorRGB
 90
        0
102
RTVSPost2010PropOp41
 70
     1
102
RTVSPost2010Prop42
 90
       50
102
RTVSPost2010PropOp42
 70
     1
102
RTVSPost2010Prop43
 90
        3
102
RTVSPost2010PropOp43
 70
     1
102
RTVSPost2010Prop44ColorIndex
 90
        5
102
RTVSPost2010Prop44ColorRGB
 90
      255
102
RTVSPost2010PropOp44
 70
     1
102
RTVSPost2010Prop45
280
     0
102
RTVSPost2010PropOp45
 70
     1
102
RTVSPost2010Prop46
 90
       50
102
RTVSPost2010PropOp46
 70
     1
102
RTVSPost2010Prop47
 90
       50
102
RTVSPost2010PropOp47
 70
     1
102
RTVSPost2010Prop48
 90
       50
102
RTVSPost2010PropOp48
 70
     1
102
RTVSPost2010Prop49
280
     0
102
RTVSPost2010PropOp49
 70
     1
102
RTVSPost2010Prop50
 90
       50
102
RTVSPost2010PropOp50
 70
     1
102
RTVSPost2010Prop51ColorIndex
 90
      256
102
RTVSPost2010Prop51ColorRGB
 90
-16777216
102
RTVSPost2010PropOp51
 70
     0
102
RTVSPost2010Prop52
140
1.0
102
RTVSPost2010PropOp52
 70
     0
102
RTVSPost2010Prop53
 90
        2
102
RTVSPost2010PropOp53
 70
     1
102
RTVSPost2010Prop54
  1
strokes_ogs.tif
102
RTVSPost2010PropOp54
 70
     1
102
RTVSPost2010Prop55
280
     0
102
RTVSPost2010PropOp55
 70
     1
102
RTVSPost2010Prop56
140
1.0
102
RTVSPost2010PropOp56
 70
     1
102
RTVSPost2010Prop57
140
1.0
102
RTVSPost2010PropOp57
 70
     1
102
RTVSPropertyOp0
 70
     1
102
RTVSPropertyOp1
 70
     1
102
RTVSPropertyOp2
 70
     1
102
RTVSPropertyOp3
 70
     1
102
RTVSPropertyOp4
 70
     1
102
RTVSPropertyOp5
 70
     1
102
RTVSPropertyOp6
 70
     1
102
RTVSPropertyOp7
 70
     1
102
RTVSPropertyOp8
 70
     1
102
RTVSPropertyOp9
 70
     1
102
RTVSPropertyOp10
 70
     1
102
RTVSPropertyOp11
 70
     1
102
RTVSPropertyOp12
 70
     1
102
RTVSPropertyOp13
 70
     1
102
RTVSPropertyOp14
 70
     1
102
RTVSPropertyOp15
 70
     1
102
RTVSPropertyOp16
 70
     1
102
RTVSPropertyOp17
 70
     1
102
RTVSPropertyOp18
 70
     1
102
RTVSPropertyOp19
 70
     1
102
RTVSPropertyOp20
 70
     1
102
RTVSPropertyOp21
 70
     1
102
RTVSPropertyOp22
 70
     1
102
RTVSPropertyOp23
 70
     1
102
RTVSPropertyOp24
 70
     1
102
RTVSPropertyOp25
 70
     1
102
RTVSPropertyOp26
 70
     1
102
RTVSPropertyOp27
 70
     1
102
RTVSPropertyOp28
 70
     1
102
RTVSPropertyOp29
 70
     1
102
RTVSPropertyOp30
 70
     1
102
RTVSPropertyOp31
 70
     1
102
RTVSPropertyOp32
 70
     1
102
RTVSPropertyOp33
 70
     1
102
RTVSPropertyOp34
 70
     1
102
RTVSPropertyOp35
 70
     1
102
RTVSPropertyOp36
 70
     1
102
RTVSPropertyOp37
 70
     1
102
RTVSPropertyOp38
 70
     1
102
RTVSPropertyOp39
 70
     1
102
RTVSPropertyOp40
 70
     1
102
RTVSPropertyOp41
 70
     1
102
RTVSPropertyOp42
 70
     1
102
RTVSPropertyOp43
 70
     1
102
RTVSPropertyOp44
 70
     1
102
RTVSPropertyOp45
 70
     1
102
RTVSPropertyOp46
 70
     1
102
RTVSPropertyOp47
 70
     1
102
RTVSPropertyOp48
 70
     1
102
RTVSPropertyOp49
 70
     1
102
RTVSPropertyOp50
 70
     1
102
RTVSPropertyOp51
 70
     0
102
RTVSPropertyOp52
 70
     0
102
RTVSPropertyOp53
 70
     1
102
RTVSPropertyOp54
 70
     1
102
RTVSPropertyOp55
 70
     1
102
RTVSPropertyOp56
 70
     1
102
RTVSPropertyOp57
 70
     1
102
RTVSPropertyOp58
 70
     1
102
RTVSPropertyOp59
 70
     1
102
RTVSPropertyOp60
 70
     1
102
RTVSPropertyOp61
 70
     1
102
RTVSPropertyOp62
 70
     1
  0
XRECORD
  5
60E8
102
{ACAD_REACTORS
330
60E7
102
}
330
60E7
100
AcDbXrecord
280
     1
102
RTVSPost2010Prop28
280
     0
102
RTVSPost2010PropOp28
 70
     1
102
RTVSPost2010Prop29
280
     1
102
RTVSPost2010PropOp29
 70
     1
102
RTVSPost2010Prop30
280
     1
102
RTVSPost2010PropOp30
 70
     1
102
RTVSPost2010Prop31
280
     0
102
RTVSPost2010PropOp31
 70
     1
102
RTVSPost2010Prop32
280
     0
102
RTVSPost2010PropOp32
 70
     1
102
RTVSPost2010Prop33
280
     0
102
RTVSPost2010PropOp33
 70
     1
102
RTVSPost2010Prop34
280
     0
102
RTVSPost2010PropOp34
 70
     1
102
RTVSPost2010Prop35
280
     0
102
RTVSPost2010PropOp35
 70
     1
102
RTVSPost2010Prop36
280
     0
102
RTVSPost2010PropOp36
 70
     1
102
RTVSPost2010Prop37
 90
       50
102
RTVSPost2010PropOp37
 70
     0
102
RTVSPost2010Prop38
140
0.0
102
RTVSPost2010PropOp38
 70
     0
102
RTVSPost2010Prop39
140
1.0
102
RTVSPost2010PropOp39
 70
     0
102
RTVSPost2010Prop40
 90
        0
102
RTVSPost2010PropOp40
 70
     0
102
RTVSPost2010Prop41ColorIndex
 90
       18
102
RTVSPost2010Prop41ColorRGB
 90
        0
102
RTVSPost2010PropOp41
 70
     0
102
RTVSPost2010Prop42
 90
       50
102
RTVSPost2010PropOp42
 70
     0
102
RTVSPost2010Prop43
 90
        3
102
RTVSPost2010PropOp43
 70
     0
102
RTVSPost2010Prop44ColorIndex
 90
        5
102
RTVSPost2010Prop44ColorRGB
 90
      255
102
RTVSPost2010PropOp44
 70
     0
102
RTVSPost2010Prop45
280
     0
102
RTVSPost2010PropOp45
 70
     1
102
RTVSPost2010Prop46
 90
       50
102
RTVSPost2010PropOp46
 70
     0
102
RTVSPost2010Prop47
 90
       50
102
RTVSPost2010PropOp47
 70
     0
102
RTVSPost2010Prop48
 90
       50
102
RTVSPost2010PropOp48
 70
     0
102
RTVSPost2010Prop49
280
     0
102
RTVSPost2010PropOp49
 70
     1
102
RTVSPost2010Prop50
 90
       50
102
RTVSPost2010PropOp50
 70
     0
102
RTVSPost2010Prop51ColorIndex
 90
      256
102
RTVSPost2010Prop51ColorRGB
 90
-16777216
102
RTVSPost2010PropOp51
 70
     0
102
RTVSPost2010Prop52
140
1.0
102
RTVSPost2010PropOp52
 70
     0
102
RTVSPost2010Prop53
 90
        2
102
RTVSPost2010PropOp53
 70
     0
102
RTVSPost2010Prop54
  1
strokes_ogs.tif
102
RTVSPost2010PropOp54
 70
     0
102
RTVSPost2010Prop55
280
     0
102
RTVSPost2010PropOp55
 70
     1
102
RTVSPost2010Prop56
140
1.0
102
RTVSPost2010PropOp56
 70
     0
102
RTVSPost2010Prop57
140
1.0
102
RTVSPost2010PropOp57
 70
     0
102
RTVSPropertyOp0
 70
     0
102
RTVSPropertyOp1
 70
     0
102
RTVSPropertyOp2
 70
     0
102
RTVSPropertyOp3
 70
     0
102
RTVSPropertyOp4
 70
     0
102
RTVSPropertyOp5
 70
     0
102
RTVSPropertyOp6
 70
     0
102
RTVSPropertyOp7
 70
     0
102
RTVSPropertyOp8
 70
     0
102
RTVSPropertyOp9
 70
     0
102
RTVSPropertyOp10
 70
     0
102
RTVSPropertyOp11
 70
     0
102
RTVSPropertyOp12
 70
     0
102
RTVSPropertyOp13
 70
     0
102
RTVSPropertyOp14
 70
     2
102
RTVSPropertyOp15
 70
     0
102
RTVSPropertyOp16
 70
     0
102
RTVSPropertyOp17
 70
     0
102
RTVSPropertyOp18
 70
     0
102
RTVSPropertyOp19
 70
     0
102
RTVSPropertyOp20
 70
     0
102
RTVSPropertyOp21
 70
     0
102
RTVSPropertyOp22
 70
     0
102
RTVSPropertyOp23
 70
     0
102
RTVSPropertyOp24
 70
     0
102
RTVSPropertyOp25
 70
     0
102
RTVSPropertyOp26
 70
     0
102
RTVSPropertyOp27
 70
     0
102
RTVSPropertyOp28
 70
     1
102
RTVSPropertyOp29
 70
     1
102
RTVSPropertyOp30
 70
     1
102
RTVSPropertyOp31
 70
     1
102
RTVSPropertyOp32
 70
     1
102
RTVSPropertyOp33
 70
     1
102
RTVSPropertyOp34
 70
     1
102
RTVSPropertyOp35
 70
     1
102
RTVSPropertyOp36
 70
     1
102
RTVSPropertyOp37
 70
     0
102
RTVSPropertyOp38
 70
     0
102
RTVSPropertyOp39
 70
     0
102
RTVSPropertyOp40
 70
     0
102
RTVSPropertyOp41
 70
     0
102
RTVSPropertyOp42
 70
     0
102
RTVSPropertyOp43
 70
     0
102
RTVSPropertyOp44
 70
     0
102
RTVSPropertyOp45
 70
     1
102
RTVSPropertyOp46
 70
     0
102
RTVSPropertyOp47
 70
     0
102
RTVSPropertyOp48
 70
     0
102
RTVSPropertyOp49
 70
     1
102
RTVSPropertyOp50
 70
     0
102
RTVSPropertyOp51
 70
     0
102
RTVSPropertyOp52
 70
     0
102
RTVSPropertyOp53
 70
     0
102
RTVSPropertyOp54
 70
     0
102
RTVSPropertyOp55
 70
     1
102
RTVSPropertyOp56
 70
     0
102
RTVSPropertyOp57
 70
     0
102
RTVSPropertyOp58
 70
     1
102
RTVSPropertyOp59
 70
     1
102
RTVSPropertyOp60
 70
     1
102
RTVSPropertyOp61
 70
     1
102
RTVSPropertyOp62
 70
     1
  0
XRECORD
  5
60D8
102
{ACAD_REACTORS
330
60D7
102
}
330
60D7
100
AcDbXrecord
280
     1
102
RTVSPost2010Prop28
280
     0
102
RTVSPost2010PropOp28
 70
     1
102
RTVSPost2010Prop29
280
     1
102
RTVSPost2010PropOp29
 70
     1
102
RTVSPost2010Prop30
280
     1
102
RTVSPost2010PropOp30
 70
     1
102
RTVSPost2010Prop31
280
     0
102
RTVSPost2010PropOp31
 70
     1
102
RTVSPost2010Prop32
280
     0
102
RTVSPost2010PropOp32
 70
     1
102
RTVSPost2010Prop33
280
     0
102
RTVSPost2010PropOp33
 70
     1
102
RTVSPost2010Prop34
280
     0
102
RTVSPost2010PropOp34
 70
     1
102
RTVSPost2010Prop35
280
     0
102
RTVSPost2010PropOp35
 70
     1
102
RTVSPost2010Prop36
280
     0
102
RTVSPost2010PropOp36
 70
     1
102
RTVSPost2010Prop37
 90
       50
102
RTVSPost2010PropOp37
 70
     1
102
RTVSPost2010Prop38
140
0.0
102
RTVSPost2010PropOp38
 70
     1
102
RTVSPost2010Prop39
140
1.0
102
RTVSPost2010PropOp39
 70
     1
102
RTVSPost2010Prop40
 90
        0
102
RTVSPost2010PropOp40
 70
     1
102
RTVSPost2010Prop41ColorIndex
 90
       18
102
RTVSPost2010Prop41ColorRGB
 90
        0
102
RTVSPost2010PropOp41
 70
     1
102
RTVSPost2010Prop42
 90
       50
102
RTVSPost2010PropOp42
 70
     1
102
RTVSPost2010Prop43
 90
        3
102
RTVSPost2010PropOp43
 70
     1
102
RTVSPost2010Prop44ColorIndex
 90
        5
102
RTVSPost2010Prop44ColorRGB
 90
      255
102
RTVSPost2010PropOp44
 70
     1
102
RTVSPost2010Prop45
280
     0
102
RTVSPost2010PropOp45
 70
     1
102
RTVSPost2010Prop46
 90
       50
102
RTVSPost2010PropOp46
 70
     1
102
RTVSPost2010Prop47
 90
       50
102
RTVSPost2010PropOp47
 70
     1
102
RTVSPost2010Prop48
 90
       50
102
RTVSPost2010PropOp48
 70
     1
102
RTVSPost2010Prop49
280
     0
102
RTVSPost2010PropOp49
 70
     1
102
RTVSPost2010Prop50
 90
       50
102
RTVSPost2010PropOp50
 70
     1
102
RTVSPost2010Prop51ColorIndex
 90
      256
102
RTVSPost2010Prop51ColorRGB
 90
-16777216
102
RTVSPost2010PropOp51
 70
     0
102
RTVSPost2010Prop52
140
1.0
102
RTVSPost2010PropOp52
 70
     0
102
RTVSPost2010Prop53
 90
        2
102
RTVSPost2010PropOp53
 70
     1
102
RTVSPost2010Prop54
  1
strokes_ogs.tif
102
RTVSPost2010PropOp54
 70
     1
102
RTVSPost2010Prop55
280
     0
102
RTVSPost2010PropOp55
 70
     1
102
RTVSPost2010Prop56
140
1.0
102
RTVSPost2010PropOp56
 70
     1
102
RTVSPost2010Prop57
140
1.0
102
RTVSPost2010PropOp57
 70
     1
102
RTVSPropertyOp0
 70
     1
102
RTVSPropertyOp1
 70
     1
102
RTVSPropertyOp2
 70
     1
102
RTVSPropertyOp3
 70
     1
102
RTVSPropertyOp4
 70
     1
102
RTVSPropertyOp5
 70
     1
102
RTVSPropertyOp6
 70
     1
102
RTVSPropertyOp7
 70
     1
102
RTVSPropertyOp8
 70
     1
102
RTVSPropertyOp9
 70
     1
102
RTVSPropertyOp10
 70
     1
102
RTVSPropertyOp11
 70
     1
102
RTVSPropertyOp12
 70
     1
102
RTVSPropertyOp13
 70
     1
102
RTVSPropertyOp14
 70
     1
102
RTVSPropertyOp15
 70
     1
102
RTVSPropertyOp16
 70
     1
102
RTVSPropertyOp17
 70
     1
102
RTVSPropertyOp18
 70
     1
102
RTVSPropertyOp19
 70
     1
102
RTVSPropertyOp20
 70
     1
102
RTVSPropertyOp21
 70
     1
102
RTVSPropertyOp22
 70
     1
102
RTVSPropertyOp23
 70
     1
102
RTVSPropertyOp24
 70
     1
102
RTVSPropertyOp25
 70
     1
102
RTVSPropertyOp26
 70
     1
102
RTVSPropertyOp27
 70
     1
102
RTVSPropertyOp28
 70
     1
102
RTVSPropertyOp29
 70
     1
102
RTVSPropertyOp30
 70
     1
102
RTVSPropertyOp31
 70
     1
102
RTVSPropertyOp32
 70
     1
102
RTVSPropertyOp33
 70
     1
102
RTVSPropertyOp34
 70
     1
102
RTVSPropertyOp35
 70
     1
102
RTVSPropertyOp36
 70
     1
102
RTVSPropertyOp37
 70
     1
102
RTVSPropertyOp38
 70
     1
102
RTVSPropertyOp39
 70
     1
102
RTVSPropertyOp40
 70
     1
102
RTVSPropertyOp41
 70
     1
102
RTVSPropertyOp42
 70
     1
102
RTVSPropertyOp43
 70
     1
102
RTVSPropertyOp44
 70
     1
102
RTVSPropertyOp45
 70
     1
102
RTVSPropertyOp46
 70
     1
102
RTVSPropertyOp47
 70
     1
102
RTVSPropertyOp48
 70
     1
102
RTVSPropertyOp49
 70
     1
102
RTVSPropertyOp50
 70
     1
102
RTVSPropertyOp51
 70
     0
102
RTVSPropertyOp52
 70
     0
102
RTVSPropertyOp53
 70
     1
102
RTVSPropertyOp54
 70
     1
102
RTVSPropertyOp55
 70
     1
102
RTVSPropertyOp56
 70
     1
102
RTVSPropertyOp57
 70
     1
102
RTVSPropertyOp58
 70
     1
102
RTVSPropertyOp59
 70
     1
102
RTVSPropertyOp60
 70
     1
102
RTVSPropertyOp61
 70
     1
102
RTVSPropertyOp62
 70
     1
  0
XRECORD
  5
60EA
102
{ACAD_REACTORS
330
60E9
102
}
330
60E9
100
AcDbXrecord
280
     1
102
RTVSPost2010Prop28
280
     0
102
RTVSPost2010PropOp28
 70
     1
102
RTVSPost2010Prop29
280
     1
102
RTVSPost2010PropOp29
 70
     1
102
RTVSPost2010Prop30
280
     1
102
RTVSPost2010PropOp30
 70
     1
102
RTVSPost2010Prop31
280
     0
102
RTVSPost2010PropOp31
 70
     1
102
RTVSPost2010Prop32
280
     0
102
RTVSPost2010PropOp32
 70
     1
102
RTVSPost2010Prop33
280
     0
102
RTVSPost2010PropOp33
 70
     1
102
RTVSPost2010Prop34
280
     0
102
RTVSPost2010PropOp34
 70
     1
102
RTVSPost2010Prop35
280
     0
102
RTVSPost2010PropOp35
 70
     1
102
RTVSPost2010Prop36
280
     0
102
RTVSPost2010PropOp36
 70
     1
102
RTVSPost2010Prop37
 90
       50
102
RTVSPost2010PropOp37
 70
     0
102
RTVSPost2010Prop38
140
0.0
102
RTVSPost2010PropOp38
 70
     0
102
RTVSPost2010Prop39
140
1.0
102
RTVSPost2010PropOp39
 70
     0
102
RTVSPost2010Prop40
 90
        0
102
RTVSPost2010PropOp40
 70
     0
102
RTVSPost2010Prop41ColorIndex
 90
       18
102
RTVSPost2010Prop41ColorRGB
 90
        0
102
RTVSPost2010PropOp41
 70
     0
102
RTVSPost2010Prop42
 90
       50
102
RTVSPost2010PropOp42
 70
     0
102
RTVSPost2010Prop43
 90
        3
102
RTVSPost2010PropOp43
 70
     0
102
RTVSPost2010Prop44ColorIndex
 90
        5
102
RTVSPost2010Prop44ColorRGB
 90
      255
102
RTVSPost2010PropOp44
 70
     0
102
RTVSPost2010Prop45
280
     0
102
RTVSPost2010PropOp45
 70
     1
102
RTVSPost2010Prop46
 90
       50
102
RTVSPost2010PropOp46
 70
     0
102
RTVSPost2010Prop47
 90
       50
102
RTVSPost2010PropOp47
 70
     0
102
RTVSPost2010Prop48
 90
       50
102
RTVSPost2010PropOp48
 70
     0
102
RTVSPost2010Prop49
280
     0
102
RTVSPost2010PropOp49
 70
     1
102
RTVSPost2010Prop50
 90
       50
102
RTVSPost2010PropOp50
 70
     0
102
RTVSPost2010Prop51ColorIndex
 90
      256
102
RTVSPost2010Prop51ColorRGB
 90
-16777216
102
RTVSPost2010PropOp51
 70
     0
102
RTVSPost2010Prop52
140
1.0
102
RTVSPost2010PropOp52
 70
     0
102
RTVSPost2010Prop53
 90
        2
102
RTVSPost2010PropOp53
 70
     0
102
RTVSPost2010Prop54
  1
strokes_ogs.tif
102
RTVSPost2010PropOp54
 70
     0
102
RTVSPost2010Prop55
280
     0
102
RTVSPost2010PropOp55
 70
     1
102
RTVSPost2010Prop56
140
1.0
102
RTVSPost2010PropOp56
 70
     0
102
RTVSPost2010Prop57
140
1.0
102
RTVSPost2010PropOp57
 70
     0
102
RTVSPropertyOp0
 70
     0
102
RTVSPropertyOp1
 70
     0
102
RTVSPropertyOp2
 70
     0
102
RTVSPropertyOp3
 70
     0
102
RTVSPropertyOp4
 70
     0
102
RTVSPropertyOp5
 70
     0
102
RTVSPropertyOp6
 70
     0
102
RTVSPropertyOp7
 70
     0
102
RTVSPropertyOp8
 70
     0
102
RTVSPropertyOp9
 70
     0
102
RTVSPropertyOp10
 70
     0
102
RTVSPropertyOp11
 70
     0
102
RTVSPropertyOp12
 70
     0
102
RTVSPropertyOp13
 70
     0
102
RTVSPropertyOp14
 70
     2
102
RTVSPropertyOp15
 70
     0
102
RTVSPropertyOp16
 70
     0
102
RTVSPropertyOp17
 70
     0
102
RTVSPropertyOp18
 70
     0
102
RTVSPropertyOp19
 70
     0
102
RTVSPropertyOp20
 70
     0
102
RTVSPropertyOp21
 70
     0
102
RTVSPropertyOp22
 70
     0
102
RTVSPropertyOp23
 70
     0
102
RTVSPropertyOp24
 70
     0
102
RTVSPropertyOp25
 70
     0
102
RTVSPropertyOp26
 70
     0
102
RTVSPropertyOp27
 70
     0
102
RTVSPropertyOp28
 70
     1
102
RTVSPropertyOp29
 70
     1
102
RTVSPropertyOp30
 70
     1
102
RTVSPropertyOp31
 70
     1
102
RTVSPropertyOp32
 70
     1
102
RTVSPropertyOp33
 70
     1
102
RTVSPropertyOp34
 70
     1
102
RTVSPropertyOp35
 70
     1
102
RTVSPropertyOp36
 70
     1
102
RTVSPropertyOp37
 70
     0
102
RTVSPropertyOp38
 70
     0
102
RTVSPropertyOp39
 70
     0
102
RTVSPropertyOp40
 70
     0
102
RTVSPropertyOp41
 70
     0
102
RTVSPropertyOp42
 70
     0
102
RTVSPropertyOp43
 70
     0
102
RTVSPropertyOp44
 70
     0
102
RTVSPropertyOp45
 70
     1
102
RTVSPropertyOp46
 70
     0
102
RTVSPropertyOp47
 70
     0
102
RTVSPropertyOp48
 70
     0
102
RTVSPropertyOp49
 70
     1
102
RTVSPropertyOp50
 70
     0
102
RTVSPropertyOp51
 70
     0
102
RTVSPropertyOp52
 70
     0
102
RTVSPropertyOp53
 70
     0
102
RTVSPropertyOp54
 70
     0
102
RTVSPropertyOp55
 70
     1
102
RTVSPropertyOp56
 70
     0
102
RTVSPropertyOp57
 70
     0
102
RTVSPropertyOp58
 70
     1
102
RTVSPropertyOp59
 70
     1
102
RTVSPropertyOp60
 70
     1
102
RTVSPropertyOp61
 70
     1
102
RTVSPropertyOp62
 70
     1
  0
XRECORD
  5
60D0
102
{ACAD_REACTORS
330
60CF
102
}
330
60CF
100
AcDbXrecord
280
     1
102
RTVSPost2010Prop28
280
     0
102
RTVSPost2010PropOp28
 70
     1
102
RTVSPost2010Prop29
280
     1
102
RTVSPost2010PropOp29
 70
     1
102
RTVSPost2010Prop30
280
     1
102
RTVSPost2010PropOp30
 70
     1
102
RTVSPost2010Prop31
280
     0
102
RTVSPost2010PropOp31
 70
     1
102
RTVSPost2010Prop32
280
     0
102
RTVSPost2010PropOp32
 70
     1
102
RTVSPost2010Prop33
280
     0
102
RTVSPost2010PropOp33
 70
     1
102
RTVSPost2010Prop34
280
     0
102
RTVSPost2010PropOp34
 70
     1
102
RTVSPost2010Prop35
280
     0
102
RTVSPost2010PropOp35
 70
     1
102
RTVSPost2010Prop36
280
     0
102
RTVSPost2010PropOp36
 70
     1
102
RTVSPost2010Prop37
 90
       50
102
RTVSPost2010PropOp37
 70
     1
102
RTVSPost2010Prop38
140
0.0
102
RTVSPost2010PropOp38
 70
     1
102
RTVSPost2010Prop39
140
1.0
102
RTVSPost2010PropOp39
 70
     1
102
RTVSPost2010Prop40
 90
        0
102
RTVSPost2010PropOp40
 70
     1
102
RTVSPost2010Prop41ColorIndex
 90
       18
102
RTVSPost2010Prop41ColorRGB
 90
        0
102
RTVSPost2010PropOp41
 70
     1
102
RTVSPost2010Prop42
 90
       50
102
RTVSPost2010PropOp42
 70
     1
102
RTVSPost2010Prop43
 90
        3
102
RTVSPost2010PropOp43
 70
     1
102
RTVSPost2010Prop44ColorIndex
 90
        5
102
RTVSPost2010Prop44ColorRGB
 90
      255
102
RTVSPost2010PropOp44
 70
     1
102
RTVSPost2010Prop45
280
     0
102
RTVSPost2010PropOp45
 70
     1
102
RTVSPost2010Prop46
 90
       50
102
RTVSPost2010PropOp46
 70
     1
102
RTVSPost2010Prop47
 90
       50
102
RTVSPost2010PropOp47
 70
     1
102
RTVSPost2010Prop48
 90
       50
102
RTVSPost2010PropOp48
 70
     1
102
RTVSPost2010Prop49
280
     0
102
RTVSPost2010PropOp49
 70
     1
102
RTVSPost2010Prop50
 90
       50
102
RTVSPost2010PropOp50
 70
     1
102
RTVSPost2010Prop51ColorIndex
 90
      256
102
RTVSPost2010Prop51ColorRGB
 90
-16777216
102
RTVSPost2010PropOp51
 70
     0
102
RTVSPost2010Prop52
140
1.0
102
RTVSPost2010PropOp52
 70
     0
102
RTVSPost2010Prop53
 90
        2
102
RTVSPost2010PropOp53
 70
     1
102
RTVSPost2010Prop54
  1
strokes_ogs.tif
102
RTVSPost2010PropOp54
 70
     1
102
RTVSPost2010Prop55
280
     0
102
RTVSPost2010PropOp55
 70
     1
102
RTVSPost2010Prop56
140
1.0
102
RTVSPost2010PropOp56
 70
     1
102
RTVSPost2010Prop57
140
1.0
102
RTVSPost2010PropOp57
 70
     1
102
RTVSPropertyOp0
 70
     1
102
RTVSPropertyOp1
 70
     1
102
RTVSPropertyOp2
 70
     1
102
RTVSPropertyOp3
 70
     1
102
RTVSPropertyOp4
 70
     1
102
RTVSPropertyOp5
 70
     1
102
RTVSPropertyOp6
 70
     1
102
RTVSPropertyOp7
 70
     1
102
RTVSPropertyOp8
 70
     1
102
RTVSPropertyOp9
 70
     1
102
RTVSPropertyOp10
 70
     1
102
RTVSPropertyOp11
 70
     1
102
RTVSPropertyOp12
 70
     1
102
RTVSPropertyOp13
 70
     1
102
RTVSPropertyOp14
 70
     1
102
RTVSPropertyOp15
 70
     1
102
RTVSPropertyOp16
 70
     1
102
RTVSPropertyOp17
 70
     1
102
RTVSPropertyOp18
 70
     1
102
RTVSPropertyOp19
 70
     1
102
RTVSPropertyOp20
 70
     1
102
RTVSPropertyOp21
 70
     1
102
RTVSPropertyOp22
 70
     1
102
RTVSPropertyOp23
 70
     1
102
RTVSPropertyOp24
 70
     1
102
RTVSPropertyOp25
 70
     1
102
RTVSPropertyOp26
 70
     1
102
RTVSPropertyOp27
 70
     1
102
RTVSPropertyOp28
 70
     1
102
RTVSPropertyOp29
 70
     1
102
RTVSPropertyOp30
 70
     1
102
RTVSPropertyOp31
 70
     1
102
RTVSPropertyOp32
 70
     1
102
RTVSPropertyOp33
 70
     1
102
RTVSPropertyOp34
 70
     1
102
RTVSPropertyOp35
 70
     1
102
RTVSPropertyOp36
 70
     1
102
RTVSPropertyOp37
 70
     1
102
RTVSPropertyOp38
 70
     1
102
RTVSPropertyOp39
 70
     1
102
RTVSPropertyOp40
 70
     1
102
RTVSPropertyOp41
 70
     1
102
RTVSPropertyOp42
 70
     1
102
RTVSPropertyOp43
 70
     1
102
RTVSPropertyOp44
 70
     1
102
RTVSPropertyOp45
 70
     1
102
RTVSPropertyOp46
 70
     1
102
RTVSPropertyOp47
 70
     1
102
RTVSPropertyOp48
 70
     1
102
RTVSPropertyOp49
 70
     1
102
RTVSPropertyOp50
 70
     1
102
RTVSPropertyOp51
 70
     0
102
RTVSPropertyOp52
 70
     0
102
RTVSPropertyOp53
 70
     1
102
RTVSPropertyOp54
 70
     1
102
RTVSPropertyOp55
 70
     1
102
RTVSPropertyOp56
 70
     1
102
RTVSPropertyOp57
 70
     1
102
RTVSPropertyOp58
 70
     1
102
RTVSPropertyOp59
 70
     1
102
RTVSPropertyOp60
 70
     1
102
RTVSPropertyOp61
 70
     1
102
RTVSPropertyOp62
 70
     1
  0
XRECORD
  5
60E6
102
{ACAD_REACTORS
330
60E5
102
}
330
60E5
100
AcDbXrecord
280
     1
102
RTVSPost2010Prop28
280
     0
102
RTVSPost2010PropOp28
 70
     1
102
RTVSPost2010Prop29
280
     1
102
RTVSPost2010PropOp29
 70
     1
102
RTVSPost2010Prop30
280
     1
102
RTVSPost2010PropOp30
 70
     1
102
RTVSPost2010Prop31
280
     0
102
RTVSPost2010PropOp31
 70
     1
102
RTVSPost2010Prop32
280
     0
102
RTVSPost2010PropOp32
 70
     1
102
RTVSPost2010Prop33
280
     0
102
RTVSPost2010PropOp33
 70
     1
102
RTVSPost2010Prop34
280
     0
102
RTVSPost2010PropOp34
 70
     1
102
RTVSPost2010Prop35
280
     0
102
RTVSPost2010PropOp35
 70
     1
102
RTVSPost2010Prop36
280
     0
102
RTVSPost2010PropOp36
 70
     1
102
RTVSPost2010Prop37
 90
       50
102
RTVSPost2010PropOp37
 70
     1
102
RTVSPost2010Prop38
140
0.0
102
RTVSPost2010PropOp38
 70
     1
102
RTVSPost2010Prop39
140
1.0
102
RTVSPost2010PropOp39
 70
     1
102
RTVSPost2010Prop40
 90
        0
102
RTVSPost2010PropOp40
 70
     1
102
RTVSPost2010Prop41ColorIndex
 90
       18
102
RTVSPost2010Prop41ColorRGB
 90
        0
102
RTVSPost2010PropOp41
 70
     1
102
RTVSPost2010Prop42
 90
       50
102
RTVSPost2010PropOp42
 70
     1
102
RTVSPost2010Prop43
 90
        3
102
RTVSPost2010PropOp43
 70
     1
102
RTVSPost2010Prop44ColorIndex
 90
        5
102
RTVSPost2010Prop44ColorRGB
 90
      255
102
RTVSPost2010PropOp44
 70
     1
102
RTVSPost2010Prop45
280
     0
102
RTVSPost2010PropOp45
 70
     1
102
RTVSPost2010Prop46
 90
       50
102
RTVSPost2010PropOp46
 70
     1
102
RTVSPost2010Prop47
 90
       50
102
RTVSPost2010PropOp47
 70
     1
102
RTVSPost2010Prop48
 90
       50
102
RTVSPost2010PropOp48
 70
     1
102
RTVSPost2010Prop49
280
     0
102
RTVSPost2010PropOp49
 70
     1
102
RTVSPost2010Prop50
 90
       50
102
RTVSPost2010PropOp50
 70
     1
102
RTVSPost2010Prop51ColorIndex
 90
      256
102
RTVSPost2010Prop51ColorRGB
 90
-16777216
102
RTVSPost2010PropOp51
 70
     0
102
RTVSPost2010Prop52
140
1.0
102
RTVSPost2010PropOp52
 70
     0
102
RTVSPost2010Prop53
 90
        2
102
RTVSPost2010PropOp53
 70
     1
102
RTVSPost2010Prop54
  1
strokes_ogs.tif
102
RTVSPost2010PropOp54
 70
     1
102
RTVSPost2010Prop55
280
     0
102
RTVSPost2010PropOp55
 70
     1
102
RTVSPost2010Prop56
140
1.0
102
RTVSPost2010PropOp56
 70
     1
102
RTVSPost2010Prop57
140
1.0
102
RTVSPost2010PropOp57
 70
     1
102
RTVSPropertyOp0
 70
     1
102
RTVSPropertyOp1
 70
     1
102
RTVSPropertyOp2
 70
     1
102
RTVSPropertyOp3
 70
     1
102
RTVSPropertyOp4
 70
     1
102
RTVSPropertyOp5
 70
     1
102
RTVSPropertyOp6
 70
     1
102
RTVSPropertyOp7
 70
     1
102
RTVSPropertyOp8
 70
     1
102
RTVSPropertyOp9
 70
     1
102
RTVSPropertyOp10
 70
     1
102
RTVSPropertyOp11
 70
     1
102
RTVSPropertyOp12
 70
     1
102
RTVSPropertyOp13
 70
     1
102
RTVSPropertyOp14
 70
     1
102
RTVSPropertyOp15
 70
     1
102
RTVSPropertyOp16
 70
     1
102
RTVSPropertyOp17
 70
     1
102
RTVSPropertyOp18
 70
     1
102
RTVSPropertyOp19
 70
     1
102
RTVSPropertyOp20
 70
     1
102
RTVSPropertyOp21
 70
     1
102
RTVSPropertyOp22
 70
     1
102
RTVSPropertyOp23
 70
     1
102
RTVSPropertyOp24
 70
     1
102
RTVSPropertyOp25
 70
     1
102
RTVSPropertyOp26
 70
     1
102
RTVSPropertyOp27
 70
     1
102
RTVSPropertyOp28
 70
     1
102
RTVSPropertyOp29
 70
     1
102
RTVSPropertyOp30
 70
     1
102
RTVSPropertyOp31
 70
     1
102
RTVSPropertyOp32
 70
     1
102
RTVSPropertyOp33
 70
     1
102
RTVSPropertyOp34
 70
     1
102
RTVSPropertyOp35
 70
     1
102
RTVSPropertyOp36
 70
     1
102
RTVSPropertyOp37
 70
     1
102
RTVSPropertyOp38
 70
     1
102
RTVSPropertyOp39
 70
     1
102
RTVSPropertyOp40
 70
     1
102
RTVSPropertyOp41
 70
     1
102
RTVSPropertyOp42
 70
     1
102
RTVSPropertyOp43
 70
     1
102
RTVSPropertyOp44
 70
     1
102
RTVSPropertyOp45
 70
     1
102
RTVSPropertyOp46
 70
     1
102
RTVSPropertyOp47
 70
     1
102
RTVSPropertyOp48
 70
     1
102
RTVSPropertyOp49
 70
     1
102
RTVSPropertyOp50
 70
     1
102
RTVSPropertyOp51
 70
     0
102
RTVSPropertyOp52
 70
     0
102
RTVSPropertyOp53
 70
     1
102
RTVSPropertyOp54
 70
     1
102
RTVSPropertyOp55
 70
     1
102
RTVSPropertyOp56
 70
     1
102
RTVSPropertyOp57
 70
     1
102
RTVSPropertyOp58
 70
     1
102
RTVSPropertyOp59
 70
     1
102
RTVSPropertyOp60
 70
     1
102
RTVSPropertyOp61
 70
     1
102
RTVSPropertyOp62
 70
     1
  0
XRECORD
  5
60E4
102
{ACAD_REACTORS
330
60E3
102
}
330
60E3
100
AcDbXrecord
280
     1
102
RTVSPost2010Prop28
280
     0
102
RTVSPost2010PropOp28
 70
     1
102
RTVSPost2010Prop29
280
     1
102
RTVSPost2010PropOp29
 70
     1
102
RTVSPost2010Prop30
280
     1
102
RTVSPost2010PropOp30
 70
     1
102
RTVSPost2010Prop31
280
     0
102
RTVSPost2010PropOp31
 70
     1
102
RTVSPost2010Prop32
280
     0
102
RTVSPost2010PropOp32
 70
     1
102
RTVSPost2010Prop33
280
     0
102
RTVSPost2010PropOp33
 70
     1
102
RTVSPost2010Prop34
280
     0
102
RTVSPost2010PropOp34
 70
     1
102
RTVSPost2010Prop35
280
     0
102
RTVSPost2010PropOp35
 70
     1
102
RTVSPost2010Prop36
280
     0
102
RTVSPost2010PropOp36
 70
     1
102
RTVSPost2010Prop37
 90
       50
102
RTVSPost2010PropOp37
 70
     1
102
RTVSPost2010Prop38
140
0.0
102
RTVSPost2010PropOp38
 70
     1
102
RTVSPost2010Prop39
140
1.0
102
RTVSPost2010PropOp39
 70
     1
102
RTVSPost2010Prop40
 90
        0
102
RTVSPost2010PropOp40
 70
     1
102
RTVSPost2010Prop41ColorIndex
 90
       18
102
RTVSPost2010Prop41ColorRGB
 90
        0
102
RTVSPost2010PropOp41
 70
     1
102
RTVSPost2010Prop42
 90
       50
102
RTVSPost2010PropOp42
 70
     1
102
RTVSPost2010Prop43
 90
        3
102
RTVSPost2010PropOp43
 70
     1
102
RTVSPost2010Prop44ColorIndex
 90
        5
102
RTVSPost2010Prop44ColorRGB
 90
      255
102
RTVSPost2010PropOp44
 70
     1
102
RTVSPost2010Prop45
280
     0
102
RTVSPost2010PropOp45
 70
     1
102
RTVSPost2010Prop46
 90
       50
102
RTVSPost2010PropOp46
 70
     1
102
RTVSPost2010Prop47
 90
       50
102
RTVSPost2010PropOp47
 70
     1
102
RTVSPost2010Prop48
 90
       50
102
RTVSPost2010PropOp48
 70
     1
102
RTVSPost2010Prop49
280
     0
102
RTVSPost2010PropOp49
 70
     1
102
RTVSPost2010Prop50
 90
       50
102
RTVSPost2010PropOp50
 70
     1
102
RTVSPost2010Prop51ColorIndex
 90
      256
102
RTVSPost2010Prop51ColorRGB
 90
-16777216
102
RTVSPost2010PropOp51
 70
     0
102
RTVSPost2010Prop52
140
1.0
102
RTVSPost2010PropOp52
 70
     0
102
RTVSPost2010Prop53
 90
        2
102
RTVSPost2010PropOp53
 70
     1
102
RTVSPost2010Prop54
  1
strokes_ogs.tif
102
RTVSPost2010PropOp54
 70
     1
102
RTVSPost2010Prop55
280
     0
102
RTVSPost2010PropOp55
 70
     1
102
RTVSPost2010Prop56
140
1.0
102
RTVSPost2010PropOp56
 70
     1
102
RTVSPost2010Prop57
140
1.0
102
RTVSPost2010PropOp57
 70
     1
102
RTVSPropertyOp0
 70
     1
102
RTVSPropertyOp1
 70
     1
102
RTVSPropertyOp2
 70
     1
102
RTVSPropertyOp3
 70
     1
102
RTVSPropertyOp4
 70
     1
102
RTVSPropertyOp5
 70
     1
102
RTVSPropertyOp6
 70
     1
102
RTVSPropertyOp7
 70
     1
102
RTVSPropertyOp8
 70
     1
102
RTVSPropertyOp9
 70
     1
102
RTVSPropertyOp10
 70
     1
102
RTVSPropertyOp11
 70
     1
102
RTVSPropertyOp12
 70
     1
102
RTVSPropertyOp13
 70
     1
102
RTVSPropertyOp14
 70
     1
102
RTVSPropertyOp15
 70
     1
102
RTVSPropertyOp16
 70
     1
102
RTVSPropertyOp17
 70
     1
102
RTVSPropertyOp18
 70
     1
102
RTVSPropertyOp19
 70
     1
102
RTVSPropertyOp20
 70
     1
102
RTVSPropertyOp21
 70
     1
102
RTVSPropertyOp22
 70
     1
102
RTVSPropertyOp23
 70
     1
102
RTVSPropertyOp24
 70
     1
102
RTVSPropertyOp25
 70
     1
102
RTVSPropertyOp26
 70
     1
102
RTVSPropertyOp27
 70
     1
102
RTVSPropertyOp28
 70
     1
102
RTVSPropertyOp29
 70
     1
102
RTVSPropertyOp30
 70
     1
102
RTVSPropertyOp31
 70
     1
102
RTVSPropertyOp32
 70
     1
102
RTVSPropertyOp33
 70
     1
102
RTVSPropertyOp34
 70
     1
102
RTVSPropertyOp35
 70
     1
102
RTVSPropertyOp36
 70
     1
102
RTVSPropertyOp37
 70
     1
102
RTVSPropertyOp38
 70
     1
102
RTVSPropertyOp39
 70
     1
102
RTVSPropertyOp40
 70
     1
102
RTVSPropertyOp41
 70
     1
102
RTVSPropertyOp42
 70
     1
102
RTVSPropertyOp43
 70
     1
102
RTVSPropertyOp44
 70
     1
102
RTVSPropertyOp45
 70
     1
102
RTVSPropertyOp46
 70
     1
102
RTVSPropertyOp47
 70
     1
102
RTVSPropertyOp48
 70
     1
102
RTVSPropertyOp49
 70
     1
102
RTVSPropertyOp50
 70
     1
102
RTVSPropertyOp51
 70
     0
102
RTVSPropertyOp52
 70
     0
102
RTVSPropertyOp53
 70
     1
102
RTVSPropertyOp54
 70
     1
102
RTVSPropertyOp55
 70
     1
102
RTVSPropertyOp56
 70
     1
102
RTVSPropertyOp57
 70
     1
102
RTVSPropertyOp58
 70
     1
102
RTVSPropertyOp59
 70
     1
102
RTVSPropertyOp60
 70
     1
102
RTVSPropertyOp61
 70
     1
102
RTVSPropertyOp62
 70
     1
  0
XRECORD
  5
60DE
102
{ACAD_REACTORS
330
60DD
102
}
330
60DD
100
AcDbXrecord
280
     1
102
RTVSPost2010Prop28
280
     0
102
RTVSPost2010PropOp28
 70
     1
102
RTVSPost2010Prop29
280
     1
102
RTVSPost2010PropOp29
 70
     1
102
RTVSPost2010Prop30
280
     1
102
RTVSPost2010PropOp30
 70
     1
102
RTVSPost2010Prop31
280
     0
102
RTVSPost2010PropOp31
 70
     1
102
RTVSPost2010Prop32
280
     0
102
RTVSPost2010PropOp32
 70
     1
102
RTVSPost2010Prop33
280
     0
102
RTVSPost2010PropOp33
 70
     1
102
RTVSPost2010Prop34
280
     0
102
RTVSPost2010PropOp34
 70
     1
102
RTVSPost2010Prop35
280
     0
102
RTVSPost2010PropOp35
 70
     1
102
RTVSPost2010Prop36
280
     0
102
RTVSPost2010PropOp36
 70
     1
102
RTVSPost2010Prop37
 90
       50
102
RTVSPost2010PropOp37
 70
     1
102
RTVSPost2010Prop38
140
0.0
102
RTVSPost2010PropOp38
 70
     1
102
RTVSPost2010Prop39
140
1.0
102
RTVSPost2010PropOp39
 70
     1
102
RTVSPost2010Prop40
 90
        0
102
RTVSPost2010PropOp40
 70
     1
102
RTVSPost2010Prop41ColorIndex
 90
       18
102
RTVSPost2010Prop41ColorRGB
 90
        0
102
RTVSPost2010PropOp41
 70
     1
102
RTVSPost2010Prop42
 90
       50
102
RTVSPost2010PropOp42
 70
     1
102
RTVSPost2010Prop43
 90
        3
102
RTVSPost2010PropOp43
 70
     1
102
RTVSPost2010Prop44ColorIndex
 90
        5
102
RTVSPost2010Prop44ColorRGB
 90
      255
102
RTVSPost2010PropOp44
 70
     1
102
RTVSPost2010Prop45
280
     0
102
RTVSPost2010PropOp45
 70
     1
102
RTVSPost2010Prop46
 90
       50
102
RTVSPost2010PropOp46
 70
     1
102
RTVSPost2010Prop47
 90
       50
102
RTVSPost2010PropOp47
 70
     1
102
RTVSPost2010Prop48
 90
       50
102
RTVSPost2010PropOp48
 70
     1
102
RTVSPost2010Prop49
280
     0
102
RTVSPost2010PropOp49
 70
     1
102
RTVSPost2010Prop50
 90
       50
102
RTVSPost2010PropOp50
 70
     1
102
RTVSPost2010Prop51ColorIndex
 90
      256
102
RTVSPost2010Prop51ColorRGB
 90
-16777216
102
RTVSPost2010PropOp51
 70
     0
102
RTVSPost2010Prop52
140
1.0
102
RTVSPost2010PropOp52
 70
     0
102
RTVSPost2010Prop53
 90
        2
102
RTVSPost2010PropOp53
 70
     1
102
RTVSPost2010Prop54
  1
strokes_ogs.tif
102
RTVSPost2010PropOp54
 70
     1
102
RTVSPost2010Prop55
280
     0
102
RTVSPost2010PropOp55
 70
     1
102
RTVSPost2010Prop56
140
1.0
102
RTVSPost2010PropOp56
 70
     1
102
RTVSPost2010Prop57
140
1.0
102
RTVSPost2010PropOp57
 70
     1
102
RTVSPropertyOp0
 70
     1
102
RTVSPropertyOp1
 70
     1
102
RTVSPropertyOp2
 70
     1
102
RTVSPropertyOp3
 70
     1
102
RTVSPropertyOp4
 70
     1
102
RTVSPropertyOp5
 70
     1
102
RTVSPropertyOp6
 70
     1
102
RTVSPropertyOp7
 70
     1
102
RTVSPropertyOp8
 70
     1
102
RTVSPropertyOp9
 70
     1
102
RTVSPropertyOp10
 70
     1
102
RTVSPropertyOp11
 70
     1
102
RTVSPropertyOp12
 70
     1
102
RTVSPropertyOp13
 70
     1
102
RTVSPropertyOp14
 70
     1
102
RTVSPropertyOp15
 70
     1
102
RTVSPropertyOp16
 70
     1
102
RTVSPropertyOp17
 70
     1
102
RTVSPropertyOp18
 70
     1
102
RTVSPropertyOp19
 70
     1
102
RTVSPropertyOp20
 70
     1
102
RTVSPropertyOp21
 70
     1
102
RTVSPropertyOp22
 70
     1
102
RTVSPropertyOp23
 70
     1
102
RTVSPropertyOp24
 70
     1
102
RTVSPropertyOp25
 70
     1
102
RTVSPropertyOp26
 70
     1
102
RTVSPropertyOp27
 70
     1
102
RTVSPropertyOp28
 70
     1
102
RTVSPropertyOp29
 70
     1
102
RTVSPropertyOp30
 70
     1
102
RTVSPropertyOp31
 70
     1
102
RTVSPropertyOp32
 70
     1
102
RTVSPropertyOp33
 70
     1
102
RTVSPropertyOp34
 70
     1
102
RTVSPropertyOp35
 70
     1
102
RTVSPropertyOp36
 70
     1
102
RTVSPropertyOp37
 70
     1
102
RTVSPropertyOp38
 70
     1
102
RTVSPropertyOp39
 70
     1
102
RTVSPropertyOp40
 70
     1
102
RTVSPropertyOp41
 70
     1
102
RTVSPropertyOp42
 70
     1
102
RTVSPropertyOp43
 70
     1
102
RTVSPropertyOp44
 70
     1
102
RTVSPropertyOp45
 70
     1
102
RTVSPropertyOp46
 70
     1
102
RTVSPropertyOp47
 70
     1
102
RTVSPropertyOp48
 70
     1
102
RTVSPropertyOp49
 70
     1
102
RTVSPropertyOp50
 70
     1
102
RTVSPropertyOp51
 70
     0
102
RTVSPropertyOp52
 70
     0
102
RTVSPropertyOp53
 70
     1
102
RTVSPropertyOp54
 70
     1
102
RTVSPropertyOp55
 70
     1
102
RTVSPropertyOp56
 70
     1
102
RTVSPropertyOp57
 70
     1
102
RTVSPropertyOp58
 70
     1
102
RTVSPropertyOp59
 70
     1
102
RTVSPropertyOp60
 70
     1
102
RTVSPropertyOp61
 70
     1
102
RTVSPropertyOp62
 70
     1
  0
XRECORD
  5
60E0
102
{ACAD_REACTORS
330
60DF
102
}
330
60DF
100
AcDbXrecord
280
     1
102
RTVSPost2010Prop28
280
     0
102
RTVSPost2010PropOp28
 70
     1
102
RTVSPost2010Prop29
280
     1
102
RTVSPost2010PropOp29
 70
     1
102
RTVSPost2010Prop30
280
     1
102
RTVSPost2010PropOp30
 70
     1
102
RTVSPost2010Prop31
280
     0
102
RTVSPost2010PropOp31
 70
     1
102
RTVSPost2010Prop32
280
     0
102
RTVSPost2010PropOp32
 70
     1
102
RTVSPost2010Prop33
280
     0
102
RTVSPost2010PropOp33
 70
     1
102
RTVSPost2010Prop34
280
     0
102
RTVSPost2010PropOp34
 70
     1
102
RTVSPost2010Prop35
280
     0
102
RTVSPost2010PropOp35
 70
     1
102
RTVSPost2010Prop36
280
     0
102
RTVSPost2010PropOp36
 70
     1
102
RTVSPost2010Prop37
 90
       50
102
RTVSPost2010PropOp37
 70
     1
102
RTVSPost2010Prop38
140
0.0
102
RTVSPost2010PropOp38
 70
     1
102
RTVSPost2010Prop39
140
1.0
102
RTVSPost2010PropOp39
 70
     1
102
RTVSPost2010Prop40
 90
        0
102
RTVSPost2010PropOp40
 70
     1
102
RTVSPost2010Prop41ColorIndex
 90
       18
102
RTVSPost2010Prop41ColorRGB
 90
        0
102
RTVSPost2010PropOp41
 70
     1
102
RTVSPost2010Prop42
 90
       50
102
RTVSPost2010PropOp42
 70
     1
102
RTVSPost2010Prop43
 90
        3
102
RTVSPost2010PropOp43
 70
     1
102
RTVSPost2010Prop44ColorIndex
 90
        5
102
RTVSPost2010Prop44ColorRGB
 90
      255
102
RTVSPost2010PropOp44
 70
     1
102
RTVSPost2010Prop45
280
     0
102
RTVSPost2010PropOp45
 70
     1
102
RTVSPost2010Prop46
 90
       50
102
RTVSPost2010PropOp46
 70
     1
102
RTVSPost2010Prop47
 90
       50
102
RTVSPost2010PropOp47
 70
     1
102
RTVSPost2010Prop48
 90
       50
102
RTVSPost2010PropOp48
 70
     1
102
RTVSPost2010Prop49
280
     0
102
RTVSPost2010PropOp49
 70
     1
102
RTVSPost2010Prop50
 90
       50
102
RTVSPost2010PropOp50
 70
     1
102
RTVSPost2010Prop51ColorIndex
 90
      256
102
RTVSPost2010Prop51ColorRGB
 90
-16777216
102
RTVSPost2010PropOp51
 70
     0
102
RTVSPost2010Prop52
140
1.0
102
RTVSPost2010PropOp52
 70
     0
102
RTVSPost2010Prop53
 90
        2
102
RTVSPost2010PropOp53
 70
     1
102
RTVSPost2010Prop54
  1
strokes_ogs.tif
102
RTVSPost2010PropOp54
 70
     1
102
RTVSPost2010Prop55
280
     0
102
RTVSPost2010PropOp55
 70
     1
102
RTVSPost2010Prop56
140
1.0
102
RTVSPost2010PropOp56
 70
     1
102
RTVSPost2010Prop57
140
1.0
102
RTVSPost2010PropOp57
 70
     1
102
RTVSPropertyOp0
 70
     1
102
RTVSPropertyOp1
 70
     1
102
RTVSPropertyOp2
 70
     1
102
RTVSPropertyOp3
 70
     1
102
RTVSPropertyOp4
 70
     1
102
RTVSPropertyOp5
 70
     1
102
RTVSPropertyOp6
 70
     1
102
RTVSPropertyOp7
 70
     1
102
RTVSPropertyOp8
 70
     1
102
RTVSPropertyOp9
 70
     1
102
RTVSPropertyOp10
 70
     1
102
RTVSPropertyOp11
 70
     1
102
RTVSPropertyOp12
 70
     1
102
RTVSPropertyOp13
 70
     1
102
RTVSPropertyOp14
 70
     1
102
RTVSPropertyOp15
 70
     1
102
RTVSPropertyOp16
 70
     1
102
RTVSPropertyOp17
 70
     1
102
RTVSPropertyOp18
 70
     1
102
RTVSPropertyOp19
 70
     1
102
RTVSPropertyOp20
 70
     1
102
RTVSPropertyOp21
 70
     1
102
RTVSPropertyOp22
 70
     1
102
RTVSPropertyOp23
 70
     1
102
RTVSPropertyOp24
 70
     1
102
RTVSPropertyOp25
 70
     1
102
RTVSPropertyOp26
 70
     1
102
RTVSPropertyOp27
 70
     1
102
RTVSPropertyOp28
 70
     1
102
RTVSPropertyOp29
 70
     1
102
RTVSPropertyOp30
 70
     1
102
RTVSPropertyOp31
 70
     1
102
RTVSPropertyOp32
 70
     1
102
RTVSPropertyOp33
 70
     1
102
RTVSPropertyOp34
 70
     1
102
RTVSPropertyOp35
 70
     1
102
RTVSPropertyOp36
 70
     1
102
RTVSPropertyOp37
 70
     1
102
RTVSPropertyOp38
 70
     1
102
RTVSPropertyOp39
 70
     1
102
RTVSPropertyOp40
 70
     1
102
RTVSPropertyOp41
 70
     1
102
RTVSPropertyOp42
 70
     1
102
RTVSPropertyOp43
 70
     1
102
RTVSPropertyOp44
 70
     1
102
RTVSPropertyOp45
 70
     1
102
RTVSPropertyOp46
 70
     1
102
RTVSPropertyOp47
 70
     1
102
RTVSPropertyOp48
 70
     1
102
RTVSPropertyOp49
 70
     1
102
RTVSPropertyOp50
 70
     1
102
RTVSPropertyOp51
 70
     0
102
RTVSPropertyOp52
 70
     0
102
RTVSPropertyOp53
 70
     1
102
RTVSPropertyOp54
 70
     1
102
RTVSPropertyOp55
 70
     1
102
RTVSPropertyOp56
 70
     1
102
RTVSPropertyOp57
 70
     1
102
RTVSPropertyOp58
 70
     1
102
RTVSPropertyOp59
 70
     1
102
RTVSPropertyOp60
 70
     1
102
RTVSPropertyOp61
 70
     1
102
RTVSPropertyOp62
 70
     1
  0
XRECORD
  5
60D6
102
{ACAD_REACTORS
330
60D5
102
}
330
60D5
100
AcDbXrecord
280
     1
102
RTVSPost2010Prop28
280
     0
102
RTVSPost2010PropOp28
 70
     1
102
RTVSPost2010Prop29
280
     1
102
RTVSPost2010PropOp29
 70
     1
102
RTVSPost2010Prop30
280
     1
102
RTVSPost2010PropOp30
 70
     1
102
RTVSPost2010Prop31
280
     0
102
RTVSPost2010PropOp31
 70
     1
102
RTVSPost2010Prop32
280
     0
102
RTVSPost2010PropOp32
 70
     1
102
RTVSPost2010Prop33
280
     0
102
RTVSPost2010PropOp33
 70
     1
102
RTVSPost2010Prop34
280
     0
102
RTVSPost2010PropOp34
 70
     1
102
RTVSPost2010Prop35
280
     0
102
RTVSPost2010PropOp35
 70
     1
102
RTVSPost2010Prop36
280
     0
102
RTVSPost2010PropOp36
 70
     1
102
RTVSPost2010Prop37
 90
       50
102
RTVSPost2010PropOp37
 70
     1
102
RTVSPost2010Prop38
140
0.0
102
RTVSPost2010PropOp38
 70
     1
102
RTVSPost2010Prop39
140
1.0
102
RTVSPost2010PropOp39
 70
     1
102
RTVSPost2010Prop40
 90
        0
102
RTVSPost2010PropOp40
 70
     1
102
RTVSPost2010Prop41ColorIndex
 90
       18
102
RTVSPost2010Prop41ColorRGB
 90
        0
102
RTVSPost2010PropOp41
 70
     1
102
RTVSPost2010Prop42
 90
       50
102
RTVSPost2010PropOp42
 70
     1
102
RTVSPost2010Prop43
 90
        3
102
RTVSPost2010PropOp43
 70
     1
102
RTVSPost2010Prop44ColorIndex
 90
        5
102
RTVSPost2010Prop44ColorRGB
 90
      255
102
RTVSPost2010PropOp44
 70
     1
102
RTVSPost2010Prop45
280
     0
102
RTVSPost2010PropOp45
 70
     1
102
RTVSPost2010Prop46
 90
       50
102
RTVSPost2010PropOp46
 70
     1
102
RTVSPost2010Prop47
 90
       50
102
RTVSPost2010PropOp47
 70
     1
102
RTVSPost2010Prop48
 90
       50
102
RTVSPost2010PropOp48
 70
     1
102
RTVSPost2010Prop49
280
     0
102
RTVSPost2010PropOp49
 70
     1
102
RTVSPost2010Prop50
 90
       50
102
RTVSPost2010PropOp50
 70
     1
102
RTVSPost2010Prop51ColorIndex
 90
      256
102
RTVSPost2010Prop51ColorRGB
 90
-16777216
102
RTVSPost2010PropOp51
 70
     0
102
RTVSPost2010Prop52
140
1.0
102
RTVSPost2010PropOp52
 70
     0
102
RTVSPost2010Prop53
 90
        2
102
RTVSPost2010PropOp53
 70
     1
102
RTVSPost2010Prop54
  1
strokes_ogs.tif
102
RTVSPost2010PropOp54
 70
     1
102
RTVSPost2010Prop55
280
     0
102
RTVSPost2010PropOp55
 70
     1
102
RTVSPost2010Prop56
140
1.0
102
RTVSPost2010PropOp56
 70
     1
102
RTVSPost2010Prop57
140
1.0
102
RTVSPost2010PropOp57
 70
     1
102
RTVSPropertyOp0
 70
     1
102
RTVSPropertyOp1
 70
     1
102
RTVSPropertyOp2
 70
     1
102
RTVSPropertyOp3
 70
     1
102
RTVSPropertyOp4
 70
     1
102
RTVSPropertyOp5
 70
     1
102
RTVSPropertyOp6
 70
     1
102
RTVSPropertyOp7
 70
     1
102
RTVSPropertyOp8
 70
     1
102
RTVSPropertyOp9
 70
     1
102
RTVSPropertyOp10
 70
     1
102
RTVSPropertyOp11
 70
     1
102
RTVSPropertyOp12
 70
     1
102
RTVSPropertyOp13
 70
     1
102
RTVSPropertyOp14
 70
     1
102
RTVSPropertyOp15
 70
     1
102
RTVSPropertyOp16
 70
     1
102
RTVSPropertyOp17
 70
     1
102
RTVSPropertyOp18
 70
     1
102
RTVSPropertyOp19
 70
     1
102
RTVSPropertyOp20
 70
     1
102
RTVSPropertyOp21
 70
     1
102
RTVSPropertyOp22
 70
     1
102
RTVSPropertyOp23
 70
     1
102
RTVSPropertyOp24
 70
     1
102
RTVSPropertyOp25
 70
     1
102
RTVSPropertyOp26
 70
     1
102
RTVSPropertyOp27
 70
     1
102
RTVSPropertyOp28
 70
     1
102
RTVSPropertyOp29
 70
     1
102
RTVSPropertyOp30
 70
     1
102
RTVSPropertyOp31
 70
     1
102
RTVSPropertyOp32
 70
     1
102
RTVSPropertyOp33
 70
     1
102
RTVSPropertyOp34
 70
     1
102
RTVSPropertyOp35
 70
     1
102
RTVSPropertyOp36
 70
     1
102
RTVSPropertyOp37
 70
     1
102
RTVSPropertyOp38
 70
     1
102
RTVSPropertyOp39
 70
     1
102
RTVSPropertyOp40
 70
     1
102
RTVSPropertyOp41
 70
     1
102
RTVSPropertyOp42
 70
     1
102
RTVSPropertyOp43
 70
     1
102
RTVSPropertyOp44
 70
     1
102
RTVSPropertyOp45
 70
     1
102
RTVSPropertyOp46
 70
     1
102
RTVSPropertyOp47
 70
     1
102
RTVSPropertyOp48
 70
     1
102
RTVSPropertyOp49
 70
     1
102
RTVSPropertyOp50
 70
     1
102
RTVSPropertyOp51
 70
     0
102
RTVSPropertyOp52
 70
     0
102
RTVSPropertyOp53
 70
     1
102
RTVSPropertyOp54
 70
     1
102
RTVSPropertyOp55
 70
     1
102
RTVSPropertyOp56
 70
     1
102
RTVSPropertyOp57
 70
     1
102
RTVSPropertyOp58
 70
     1
102
RTVSPropertyOp59
 70
     1
102
RTVSPropertyOp60
 70
     1
102
RTVSPropertyOp61
 70
     1
102
RTVSPropertyOp62
 70
     1
  0
XRECORD
  5
60CA
102
{ACAD_REACTORS
330
60C9
102
}
330
60C9
100
AcDbXrecord
280
     1
102
RTVSPost2010Prop28
280
     0
102
RTVSPost2010PropOp28
 70
     1
102
RTVSPost2010Prop29
280
     1
102
RTVSPost2010PropOp29
 70
     1
102
RTVSPost2010Prop30
280
     1
102
RTVSPost2010PropOp30
 70
     1
102
RTVSPost2010Prop31
280
     0
102
RTVSPost2010PropOp31
 70
     1
102
RTVSPost2010Prop32
280
     0
102
RTVSPost2010PropOp32
 70
     1
102
RTVSPost2010Prop33
280
     0
102
RTVSPost2010PropOp33
 70
     1
102
RTVSPost2010Prop34
280
     0
102
RTVSPost2010PropOp34
 70
     1
102
RTVSPost2010Prop35
280
     0
102
RTVSPost2010PropOp35
 70
     1
102
RTVSPost2010Prop36
280
     0
102
RTVSPost2010PropOp36
 70
     1
102
RTVSPost2010Prop37
 90
       50
102
RTVSPost2010PropOp37
 70
     1
102
RTVSPost2010Prop38
140
0.0
102
RTVSPost2010PropOp38
 70
     1
102
RTVSPost2010Prop39
140
1.0
102
RTVSPost2010PropOp39
 70
     1
102
RTVSPost2010Prop40
 90
        0
102
RTVSPost2010PropOp40
 70
     1
102
RTVSPost2010Prop41ColorIndex
 90
       18
102
RTVSPost2010Prop41ColorRGB
 90
        0
102
RTVSPost2010PropOp41
 70
     1
102
RTVSPost2010Prop42
 90
       50
102
RTVSPost2010PropOp42
 70
     1
102
RTVSPost2010Prop43
 90
        3
102
RTVSPost2010PropOp43
 70
     1
102
RTVSPost2010Prop44ColorIndex
 90
        5
102
RTVSPost2010Prop44ColorRGB
 90
      255
102
RTVSPost2010PropOp44
 70
     1
102
RTVSPost2010Prop45
280
     0
102
RTVSPost2010PropOp45
 70
     1
102
RTVSPost2010Prop46
 90
       50
102
RTVSPost2010PropOp46
 70
     1
102
RTVSPost2010Prop47
 90
       50
102
RTVSPost2010PropOp47
 70
     1
102
RTVSPost2010Prop48
 90
       50
102
RTVSPost2010PropOp48
 70
     1
102
RTVSPost2010Prop49
280
     0
102
RTVSPost2010PropOp49
 70
     1
102
RTVSPost2010Prop50
 90
       50
102
RTVSPost2010PropOp50
 70
     1
102
RTVSPost2010Prop51ColorIndex
 90
      256
102
RTVSPost2010Prop51ColorRGB
 90
-16777216
102
RTVSPost2010PropOp51
 70
     0
102
RTVSPost2010Prop52
140
1.0
102
RTVSPost2010PropOp52
 70
     0
102
RTVSPost2010Prop53
 90
        2
102
RTVSPost2010PropOp53
 70
     1
102
RTVSPost2010Prop54
  1
strokes_ogs.tif
102
RTVSPost2010PropOp54
 70
     1
102
RTVSPost2010Prop55
280
     0
102
RTVSPost2010PropOp55
 70
     1
102
RTVSPost2010Prop56
140
1.0
102
RTVSPost2010PropOp56
 70
     1
102
RTVSPost2010Prop57
140
1.0
102
RTVSPost2010PropOp57
 70
     1
102
RTVSPropertyOp0
 70
     1
102
RTVSPropertyOp1
 70
     1
102
RTVSPropertyOp2
 70
     1
102
RTVSPropertyOp3
 70
     1
102
RTVSPropertyOp4
 70
     1
102
RTVSPropertyOp5
 70
     1
102
RTVSPropertyOp6
 70
     1
102
RTVSPropertyOp7
 70
     1
102
RTVSPropertyOp8
 70
     1
102
RTVSPropertyOp9
 70
     1
102
RTVSPropertyOp10
 70
     1
102
RTVSPropertyOp11
 70
     1
102
RTVSPropertyOp12
 70
     1
102
RTVSPropertyOp13
 70
     1
102
RTVSPropertyOp14
 70
     1
102
RTVSPropertyOp15
 70
     1
102
RTVSPropertyOp16
 70
     1
102
RTVSPropertyOp17
 70
     1
102
RTVSPropertyOp18
 70
     1
102
RTVSPropertyOp19
 70
     1
102
RTVSPropertyOp20
 70
     1
102
RTVSPropertyOp21
 70
     1
102
RTVSPropertyOp22
 70
     1
102
RTVSPropertyOp23
 70
     1
102
RTVSPropertyOp24
 70
     1
102
RTVSPropertyOp25
 70
     1
102
RTVSPropertyOp26
 70
     1
102
RTVSPropertyOp27
 70
     1
102
RTVSPropertyOp28
 70
     1
102
RTVSPropertyOp29
 70
     1
102
RTVSPropertyOp30
 70
     1
102
RTVSPropertyOp31
 70
     1
102
RTVSPropertyOp32
 70
     1
102
RTVSPropertyOp33
 70
     1
102
RTVSPropertyOp34
 70
     1
102
RTVSPropertyOp35
 70
     1
102
RTVSPropertyOp36
 70
     1
102
RTVSPropertyOp37
 70
     1
102
RTVSPropertyOp38
 70
     1
102
RTVSPropertyOp39
 70
     1
102
RTVSPropertyOp40
 70
     1
102
RTVSPropertyOp41
 70
     1
102
RTVSPropertyOp42
 70
     1
102
RTVSPropertyOp43
 70
     1
102
RTVSPropertyOp44
 70
     1
102
RTVSPropertyOp45
 70
     1
102
RTVSPropertyOp46
 70
     1
102
RTVSPropertyOp47
 70
     1
102
RTVSPropertyOp48
 70
     1
102
RTVSPropertyOp49
 70
     1
102
RTVSPropertyOp50
 70
     1
102
RTVSPropertyOp51
 70
     0
102
RTVSPropertyOp52
 70
     0
102
RTVSPropertyOp53
 70
     1
102
RTVSPropertyOp54
 70
     1
102
RTVSPropertyOp55
 70
     1
102
RTVSPropertyOp56
 70
     1
102
RTVSPropertyOp57
 70
     1
102
RTVSPropertyOp58
 70
     1
102
RTVSPropertyOp59
 70
     1
102
RTVSPropertyOp60
 70
     1
102
RTVSPropertyOp61
 70
     1
102
RTVSPropertyOp62
 70
     1
  0
XRECORD
  5
60E2
102
{ACAD_REACTORS
330
60E1
102
}
330
60E1
100
AcDbXrecord
280
     1
102
RTVSPost2010Prop28
280
     0
102
RTVSPost2010PropOp28
 70
     1
102
RTVSPost2010Prop29
280
     1
102
RTVSPost2010PropOp29
 70
     1
102
RTVSPost2010Prop30
280
     1
102
RTVSPost2010PropOp30
 70
     1
102
RTVSPost2010Prop31
280
     0
102
RTVSPost2010PropOp31
 70
     1
102
RTVSPost2010Prop32
280
     0
102
RTVSPost2010PropOp32
 70
     1
102
RTVSPost2010Prop33
280
     0
102
RTVSPost2010PropOp33
 70
     1
102
RTVSPost2010Prop34
280
     0
102
RTVSPost2010PropOp34
 70
     1
102
RTVSPost2010Prop35
280
     0
102
RTVSPost2010PropOp35
 70
     1
102
RTVSPost2010Prop36
280
     0
102
RTVSPost2010PropOp36
 70
     1
102
RTVSPost2010Prop37
 90
       50
102
RTVSPost2010PropOp37
 70
     1
102
RTVSPost2010Prop38
140
0.0
102
RTVSPost2010PropOp38
 70
     1
102
RTVSPost2010Prop39
140
1.0
102
RTVSPost2010PropOp39
 70
     1
102
RTVSPost2010Prop40
 90
        0
102
RTVSPost2010PropOp40
 70
     1
102
RTVSPost2010Prop41ColorIndex
 90
       18
102
RTVSPost2010Prop41ColorRGB
 90
        0
102
RTVSPost2010PropOp41
 70
     1
102
RTVSPost2010Prop42
 90
       50
102
RTVSPost2010PropOp42
 70
     1
102
RTVSPost2010Prop43
 90
        3
102
RTVSPost2010PropOp43
 70
     1
102
RTVSPost2010Prop44ColorIndex
 90
        5
102
RTVSPost2010Prop44ColorRGB
 90
      255
102
RTVSPost2010PropOp44
 70
     1
102
RTVSPost2010Prop45
280
     0
102
RTVSPost2010PropOp45
 70
     1
102
RTVSPost2010Prop46
 90
       50
102
RTVSPost2010PropOp46
 70
     1
102
RTVSPost2010Prop47
 90
       50
102
RTVSPost2010PropOp47
 70
     1
102
RTVSPost2010Prop48
 90
       50
102
RTVSPost2010PropOp48
 70
     1
102
RTVSPost2010Prop49
280
     0
102
RTVSPost2010PropOp49
 70
     1
102
RTVSPost2010Prop50
 90
       50
102
RTVSPost2010PropOp50
 70
     1
102
RTVSPost2010Prop51ColorIndex
 90
      256
102
RTVSPost2010Prop51ColorRGB
 90
-16777216
102
RTVSPost2010PropOp51
 70
     0
102
RTVSPost2010Prop52
140
1.0
102
RTVSPost2010PropOp52
 70
     0
102
RTVSPost2010Prop53
 90
        2
102
RTVSPost2010PropOp53
 70
     1
102
RTVSPost2010Prop54
  1
strokes_ogs.tif
102
RTVSPost2010PropOp54
 70
     1
102
RTVSPost2010Prop55
280
     0
102
RTVSPost2010PropOp55
 70
     1
102
RTVSPost2010Prop56
140
1.0
102
RTVSPost2010PropOp56
 70
     1
102
RTVSPost2010Prop57
140
1.0
102
RTVSPost2010PropOp57
 70
     1
102
RTVSPropertyOp0
 70
     1
102
RTVSPropertyOp1
 70
     1
102
RTVSPropertyOp2
 70
     1
102
RTVSPropertyOp3
 70
     1
102
RTVSPropertyOp4
 70
     1
102
RTVSPropertyOp5
 70
     1
102
RTVSPropertyOp6
 70
     1
102
RTVSPropertyOp7
 70
     1
102
RTVSPropertyOp8
 70
     1
102
RTVSPropertyOp9
 70
     1
102
RTVSPropertyOp10
 70
     1
102
RTVSPropertyOp11
 70
     1
102
RTVSPropertyOp12
 70
     1
102
RTVSPropertyOp13
 70
     1
102
RTVSPropertyOp14
 70
     1
102
RTVSPropertyOp15
 70
     1
102
RTVSPropertyOp16
 70
     1
102
RTVSPropertyOp17
 70
     1
102
RTVSPropertyOp18
 70
     1
102
RTVSPropertyOp19
 70
     1
102
RTVSPropertyOp20
 70
     1
102
RTVSPropertyOp21
 70
     1
102
RTVSPropertyOp22
 70
     1
102
RTVSPropertyOp23
 70
     1
102
RTVSPropertyOp24
 70
     1
102
RTVSPropertyOp25
 70
     1
102
RTVSPropertyOp26
 70
     1
102
RTVSPropertyOp27
 70
     1
102
RTVSPropertyOp28
 70
     1
102
RTVSPropertyOp29
 70
     1
102
RTVSPropertyOp30
 70
     1
102
RTVSPropertyOp31
 70
     1
102
RTVSPropertyOp32
 70
     1
102
RTVSPropertyOp33
 70
     1
102
RTVSPropertyOp34
 70
     1
102
RTVSPropertyOp35
 70
     1
102
RTVSPropertyOp36
 70
     1
102
RTVSPropertyOp37
 70
     1
102
RTVSPropertyOp38
 70
     1
102
RTVSPropertyOp39
 70
     1
102
RTVSPropertyOp40
 70
     1
102
RTVSPropertyOp41
 70
     1
102
RTVSPropertyOp42
 70
     1
102
RTVSPropertyOp43
 70
     1
102
RTVSPropertyOp44
 70
     1
102
RTVSPropertyOp45
 70
     1
102
RTVSPropertyOp46
 70
     1
102
RTVSPropertyOp47
 70
     1
102
RTVSPropertyOp48
 70
     1
102
RTVSPropertyOp49
 70
     1
102
RTVSPropertyOp50
 70
     1
102
RTVSPropertyOp51
 70
     0
102
RTVSPropertyOp52
 70
     0
102
RTVSPropertyOp53
 70
     1
102
RTVSPropertyOp54
 70
     1
102
RTVSPropertyOp55
 70
     1
102
RTVSPropertyOp56
 70
     1
102
RTVSPropertyOp57
 70
     1
102
RTVSPropertyOp58
 70
     1
102
RTVSPropertyOp59
 70
     1
102
RTVSPropertyOp60
 70
     1
102
RTVSPropertyOp61
 70
     1
102
RTVSPropertyOp62
 70
     1
  0
ENDSEC
  0
EOF
