  0
SECTION
  2
HEADER
  9
$ACADVER
  1
AC1024
  9
$ACADMAINTVER
 70
   226
  9
$DWGCODEPAGE
  3
ANSI_932
  9
$LASTSAVEDBY
  1
hirotaka.yamamoto
  9
$INSBASE
 10
0.0
 20
0.0
 30
0.0
  9
$EXTMIN
 10
26.87071689238814
 20
25.00938473798749
 30
0.0
  9
$EXTMAX
 10
649.7308604476617
 20
112.7146486274341
 30
0.0
  9
$LIMMIN
 10
0.0
 20
0.0
  9
$LIMMAX
 10
420.0
 20
297.0
  9
$ORTHOMODE
 70
     0
  9
$REGENMODE
 70
     1
  9
$FILLMODE
 70
     1
  9
$QTEXTMODE
 70
     0
  9
$MIRRTEXT
 70
     1
  9
$LTSCALE
 40
1.0
  9
$ATTMODE
 70
     1
  9
$TEXTSIZE
 40
2.5
  9
$TRACEWID
 40
1.0
  9
$TEXTSTYLE
  7
STANDARD
  9
$CLAYER
  8
0
  9
$CELTYPE
  6
ByLayer
  9
$CECOLOR
 62
   256
  9
$CELTSCALE
 40
1.0
  9
$DISPSILH
 70
     0
  9
$DIMSCALE
 40
1.0
  9
$DIMASZ
 40
2.5
  9
$DIMEXO
 40
0.625
  9
$DIMDLI
 40
3.75
  9
$DIMRND
 40
0.0
  9
$DIMDLE
 40
0.0
  9
$DIMEXE
 40
1.25
  9
$DIMTP
 40
0.0
  9
$DIMTM
 40
0.0
  9
$DIMTXT
 40
2.5
  9
$DIMCEN
 40
2.5
  9
$DIMTSZ
 40
0.0
  9
$DIMTOL
 70
     0
  9
$DIMLIM
 70
     0
  9
$DIMTIH
 70
     0
  9
$DIMTOH
 70
     0
  9
$DIMSE1
 70
     0
  9
$DIMSE2
 70
     0
  9
$DIMTAD
 70
     1
  9
$DIMZIN
 70
     8
  9
$DIMBLK
  1

  9
$DIMASO
 70
     1
  9
$DIMSHO
 70
     1
  9
$DIMPOST
  1

  9
$DIMAPOST
  1

  9
$DIMALT
 70
     0
  9
$DIMALTD
 70
     3
  9
$DIMALTF
 40
0.03937007874016
  9
$DIMLFAC
 40
1.0
  9
$DIMTOFL
 70
     1
  9
$DIMTVP
 40
0.0
  9
$DIMTIX
 70
     0
  9
$DIMSOXD
 70
     0
  9
$DIMSAH
 70
     0
  9
$DIMBLK1
  1

  9
$DIMBLK2
  1

  9
$DIMSTYLE
  2
ISO-25
  9
$DIMCLRD
 70
     0
  9
$DIMCLRE
 70
     0
  9
$DIMCLRT
 70
     0
  9
$DIMTFAC
 40
1.0
  9
$DIMGAP
 40
0.625
  9
$DIMJUST
 70
     0
  9
$DIMSD1
 70
     0
  9
$DIMSD2
 70
     0
  9
$DIMTOLJ
 70
     1
  9
$DIMTZIN
 70
     0
  9
$DIMALTZ
 70
     0
  9
$DIMALTTZ
 70
     0
  9
$DIMUPT
 70
     0
  9
$DIMDEC
 70
     4
  9
$DIMTDEC
 70
     4
  9
$DIMALTU
 70
     2
  9
$DIMALTTD
 70
     2
  9
$DIMTXSTY
  7
STANDARD
  9
$DIMAUNIT
 70
     0
  9
$DIMADEC
 70
     0
  9
$DIMALTRND
 40
0.0
  9
$DIMAZIN
 70
     0
  9
$DIMDSEP
 70
    46
  9
$DIMATFIT
 70
     3
  9
$DIMFRAC
 70
     0
  9
$DIMLDRBLK
  1

  9
$DIMLUNIT
 70
     2
  9
$DIMLWD
 70
    -2
  9
$DIMLWE
 70
    -2
  9
$DIMTMOVE
 70
     0
  9
$DIMFXL
 40
1.0
  9
$DIMFXLON
 70
     0
  9
$DIMJOGANG
 40
0.7853981633974483
  9
$DIMTFILL
 70
     0
  9
$DIMTFILLCLR
 70
     0
  9
$DIMARCSYM
 70
     0
  9
$DIMLTYPE
  6

  9
$DIMLTEX1
  6

  9
$DIMLTEX2
  6

  9
$DIMTXTDIRECTION
 70
     0
  9
$LUNITS
 70
     2
  9
$LUPREC
 70
     4
  9
$SKETCHINC
 40
1.0
  9
$FILLETRAD
 40
10.0
  9
$AUNITS
 70
     0
  9
$AUPREC
 70
     0
  9
$MENU
  1
.
  9
$ELEVATION
 40
0.0
  9
$PELEVATION
 40
0.0
  9
$THICKNESS
 40
0.0
  9
$LIMCHECK
 70
     0
  9
$CHAMFERA
 40
10.0
  9
$CHAMFERB
 40
10.0
  9
$CHAMFERC
 40
0.0
  9
$CHAMFERD
 40
0.0
  9
$SKPOLY
 70
     0
  9
$TDCREATE
 40
2452048.587870371
  9
$TDUCREATE
 40
2452048.212870371
  9
$TDUPDATE
 40
2459732.629722223
  9
$TDUUPDATE
 40
2459732.254722222
  9
$TDINDWG
 40
0.0428797917
  9
$TDUSRTIMER
 40
0.0428797917
  9
$USRTIMER
 70
     1
  9
$ANGBASE
 50
0.0
  9
$ANGDIR
 70
     0
  9
$PDMODE
 70
     0
  9
$PDSIZE
 40
0.0
  9
$PLINEWID
 40
0.0
  9
$SPLFRAME
 70
     0
  9
$SPLINETYPE
 70
     6
  9
$SPLINESEGS
 70
     8
  9
$HANDSEED
  5
6F3C
  9
$SURFTAB1
 70
     6
  9
$SURFTAB2
 70
     6
  9
$SURFTYPE
 70
     6
  9
$SURFU
 70
     6
  9
$SURFV
 70
     6
  9
$UCSBASE
  2

  9
$UCSNAME
  2

  9
$UCSORG
 10
0.0
 20
0.0
 30
0.0
  9
$UCSXDIR
 10
1.0
 20
0.0
 30
0.0
  9
$UCSYDIR
 10
0.0
 20
1.0
 30
0.0
  9
$UCSORTHOREF
  2

  9
$UCSORTHOVIEW
 70
     0
  9
$UCSORGTOP
 10
0.0
 20
0.0
 30
0.0
  9
$UCSORGBOTTOM
 10
0.0
 20
0.0
 30
0.0
  9
$UCSORGLEFT
 10
0.0
 20
0.0
 30
0.0
  9
$UCSORGRIGHT
 10
0.0
 20
0.0
 30
0.0
  9
$UCSORGFRONT
 10
0.0
 20
0.0
 30
0.0
  9
$UCSORGBACK
 10
0.0
 20
0.0
 30
0.0
  9
$PUCSBASE
  2

  9
$PUCSNAME
  2

  9
$PUCSORG
 10
0.0
 20
0.0
 30
0.0
  9
$PUCSXDIR
 10
1.0
 20
0.0
 30
0.0
  9
$PUCSYDIR
 10
0.0
 20
1.0
 30
0.0
  9
$PUCSORTHOREF
  2

  9
$PUCSORTHOVIEW
 70
     0
  9
$PUCSORGTOP
 10
0.0
 20
0.0
 30
0.0
  9
$PUCSORGBOTTOM
 10
0.0
 20
0.0
 30
0.0
  9
$PUCSORGLEFT
 10
0.0
 20
0.0
 30
0.0
  9
$PUCSORGRIGHT
 10
0.0
 20
0.0
 30
0.0
  9
$PUCSORGFRONT
 10
0.0
 20
0.0
 30
0.0
  9
$PUCSORGBACK
 10
0.0
 20
0.0
 30
0.0
  9
$USERI1
 70
     0
  9
$USERI2
 70
     0
  9
$USERI3
 70
     0
  9
$USERI4
 70
     0
  9
$USERI5
 70
     0
  9
$USERR1
 40
0.0
  9
$USERR2
 40
0.0
  9
$USERR3
 40
0.0
  9
$USERR4
 40
0.0
  9
$USERR5
 40
0.0
  9
$WORLDVIEW
 70
     1
  9
$SHADEDGE
 70
     3
  9
$SHADEDIF
 70
    70
  9
$TILEMODE
 70
     1
  9
$MAXACTVP
 70
    64
  9
$PINSBASE
 10
0.0
 20
0.0
 30
0.0
  9
$PLIMCHECK
 70
     0
  9
$PEXTMIN
 10
1.000000000000000E+20
 20
1.000000000000000E+20
 30
1.000000000000000E+20
  9
$PEXTMAX
 10
-1.000000000000000E+20
 20
-1.000000000000000E+20
 30
-1.000000000000000E+20
  9
$PLIMMIN
 10
0.0
 20
0.0
  9
$PLIMMAX
 10
420.0
 20
297.0
  9
$UNITMODE
 70
     0
  9
$VISRETAIN
 70
     1
  9
$PLINEGEN
 70
     0
  9
$PSLTSCALE
 70
     1
  9
$TREEDEPTH
 70
  3020
  9
$CMLSTYLE
  2
Standard
  9
$CMLJUST
 70
     0
  9
$CMLSCALE
 40
1.0
  9
$PROXYGRAPHICS
 70
     1
  9
$MEASUREMENT
 70
     0
  9
$CELWEIGHT
370
    -1
  9
$ENDCAPS
280
     0
  9
$JOINSTYLE
280
     0
  9
$LWDISPLAY
290
     0
  9
$INSUNITS
 70
     0
  9
$HYPERLINKBASE
  1

  9
$STYLESHEET
  1

  9
$XEDIT
290
     1
  9
$CEPSNTYPE
380
     0
  9
$PSTYLEMODE
290
     1
  9
$FINGERPRINTGUID
  2
{C81C5727-FF03-5A4A-86E0-A8205BDF2933}
  9
$VERSIONGUID
  2
{1B5F9B89-37DE-EC42-8507-A5A4EF387DC4}
  9
$EXTNAMES
290
     1
  9
$PSVPSCALE
 40
0.0
  9
$OLESTARTUP
290
     0
  9
$SORTENTS
280
   127
  9
$INDEXCTL
280
     0
  9
$HIDETEXT
280
     0
  9
$XCLIPFRAME
280
     2
  9
$HALOGAP
280
     0
  9
$OBSCOLOR
 70
   257
  9
$OBSLTYPE
280
     0
  9
$INTERSECTIONDISPLAY
280
     0
  9
$INTERSECTIONCOLOR
 70
   257
  9
$DIMASSOC
280
     1
  9
$PROJECTNAME
  1

  9
$CAMERADISPLAY
290
     0
  9
$LENSLENGTH
 40
50.0
  9
$CAMERAHEIGHT
 40
0.0
  9
$STEPSPERSEC
 40
2.0
  9
$STEPSIZE
 40
6.0
  9
$3DDWFPREC
 40
2.0
  9
$PSOLWIDTH
 40
0.25
  9
$PSOLHEIGHT
 40
4.0
  9
$LOFTANG1
 40
1.570796326794896
  9
$LOFTANG2
 40
1.570796326794896
  9
$LOFTMAG1
 40
0.0
  9
$LOFTMAG2
 40
0.0
  9
$LOFTPARAM
 70
     7
  9
$LOFTNORMALS
280
     1
  9
$LATITUDE
 40
37.795
  9
$LONGITUDE
 40
-122.394
  9
$NORTHDIRECTION
 40
0.0
  9
$TIMEZONE
 70
 -8000
  9
$LIGHTGLYPHDISPLAY
280
     1
  9
$TILEMODELIGHTSYNCH
280
     1
  9
$CMATERIAL
347
6BD6
  9
$SOLIDHIST
280
     0
  9
$SHOWHIST
280
     1
  9
$DWFFRAME
280
     2
  9
$DGNFRAME
280
     0
  9
$REALWORLDSCALE
290
     1
  9
$INTERFERECOLOR
 62
     1
  9
$INTERFEREOBJVS
345
6BF8
  9
$INTERFEREVPVS
346
6BF5
  9
$CSHADOW
280
     0
  9
$SHADOWPLANELOCATION
 40
0.0
  0
ENDSEC
  0
SECTION
  2
CLASSES
  0
CLASS
  1
ACDBDICTIONARYWDFLT
  2
AcDbDictionaryWithDefault
  3
ObjectDBX Classes
 90
        0
 91
        1
280
     0
281
     0
  0
CLASS
  1
MATERIAL
  2
AcDbMaterial
  3
ObjectDBX Classes
 90
     1153
 91
        3
280
     0
281
     0
  0
CLASS
  1
VISUALSTYLE
  2
AcDbVisualStyle
  3
ObjectDBX Classes
 90
     4095
 91
       24
280
     0
281
     0
  0
CLASS
  1
SCALE
  2
AcDbScale
  3
ObjectDBX Classes
 90
     1153
 91
       17
280
     0
281
     0
  0
CLASS
  1
TABLESTYLE
  2
AcDbTableStyle
  3
ObjectDBX Classes
 90
     4095
 91
        1
280
     0
281
     0
  0
CLASS
  1
MLEADERSTYLE
  2
AcDbMLeaderStyle
  3
ACDB_MLEADERSTYLE_CLASS
 90
     4095
 91
        1
280
     0
281
     0
  0
CLASS
  1
ACDBSECTIONVIEWSTYLE
  2
AcDbSectionViewStyle
  3
ObjectDBX Classes
 90
     1025
 91
        2
280
     0
281
     0
  0
CLASS
  1
ACDBDETAILVIEWSTYLE
  2
AcDbDetailViewStyle
  3
ObjectDBX Classes
 90
     1025
 91
        2
280
     0
281
     0
  0
CLASS
  1
DICTIONARYVAR
  2
AcDbDictionaryVar
  3
ObjectDBX Classes
 90
        0
 91
        9
280
     0
281
     0
  0
CLASS
  1
CELLSTYLEMAP
  2
AcDbCellStyleMap
  3
ObjectDBX Classes
 90
     1152
 91
        1
280
     0
281
     0
  0
ENDSEC
  0
SECTION
  2
TABLES
  0
TABLE
  2
VPORT
  5
6BCD
330
0
100
AcDbSymbolTable
 70
     1
  0
VPORT
  5
6C38
330
6BCD
100
AcDbSymbolTableRecord
100
AcDbViewportTableRecord
  2
*ACTIVE
 70
     0
 10
0.0
 20
0.0
 11
1.0
 21
1.0
 12
420.6851841055675
 22
124.0058999463946
 13
0.0
 23
0.0
 14
10.0
 24
10.0
 15
10.0
 25
10.0
 16
0.0
 26
0.0
 36
1.0
 17
0.0
 27
0.0
 37
0.0
 40
940.0327971746804
 41
1.896758703481392
 42
50.0
 43
0.0
 44
0.0
 50
0.0
 51
0.0
 71
     0
 72
   100
 73
     1
 74
     3
 75
     0
 76
     0
 77
     0
 78
     0
281
     0
 65
     1
110
0.0
120
0.0
130
0.0
111
1.0
121
0.0
131
0.0
112
0.0
122
1.0
132
0.0
 79
     0
146
0.0
348
6BF4
 60
     3
 61
     5
292
     1
282
     0
141
0.0
142
0.0
 63
   250
421
  3355443
1001
ACAD_NAV_VCDISPLAY
1070
     3
  0
ENDTAB
  0
TABLE
  2
LTYPE
  5
6BCA
330
0
100
AcDbSymbolTable
 70
     3
  0
LTYPE
  5
6C1F
330
6BCA
100
AcDbSymbolTableRecord
100
AcDbLinetypeTableRecord
  2
ByBlock
 70
     0
  3

 72
    65
 73
     0
 40
0.0
  0
LTYPE
  5
6C20
330
6BCA
100
AcDbSymbolTableRecord
100
AcDbLinetypeTableRecord
  2
ByLayer
 70
     0
  3

 72
    65
 73
     0
 40
0.0
  0
LTYPE
  5
6C21
330
6BCA
100
AcDbSymbolTableRecord
100
AcDbLinetypeTableRecord
  2
CONTINUOUS
 70
     0
  3
Solid line
 72
    65
 73
     0
 40
0.0
  0
LTYPE
  5
6CE1
330
6BCA
100
AcDbSymbolTableRecord
100
AcDbLinetypeTableRecord
  2
CENTER
 70
     0
  3
Center ____ _ ____ _ ____ _ ____ _ ____ _ ____
 72
    65
 73
     4
 40
50.8
 49
31.75
 74
     0
 49
-6.349999999999999
 74
     0
 49
6.349999999999999
 74
     0
 49
-6.349999999999999
 74
     0
  0
LTYPE
  5
6CE2
330
6BCA
100
AcDbSymbolTableRecord
100
AcDbLinetypeTableRecord
  2
PHANTOM
 70
     0
  3
Phantom ______  __  __  ______  __  __  ______
 72
    65
 73
     6
 40
63.5
 49
31.75
 74
     0
 49
-6.349999999999999
 74
     0
 49
6.349999999999999
 74
     0
 49
-6.349999999999999
 74
     0
 49
6.349999999999999
 74
     0
 49
-6.349999999999999
 74
     0
  0
ENDTAB
  0
TABLE
  2
LAYER
  5
6BC7
102
{ACAD_XDICTIONARY
360
6CEB
102
}
330
0
100
AcDbSymbolTable
 70
     5
  0
LAYER
  5
6C19
102
{ACAD_XDICTIONARY
360
6EF0
102
}
330
6BC7
100
AcDbSymbolTableRecord
100
AcDbLayerTableRecord
  2
0
 70
     0
 62
     7
  6
CONTINUOUS
370
    -3
390
6BD4
347
6BE6
  0
LAYER
  5
6C39
102
{ACAD_XDICTIONARY
360
6EF2
102
}
330
6BC7
100
AcDbSymbolTableRecord
100
AcDbLayerTableRecord
  2
1外形線
 70
     0
 62
     3
  6
CONTINUOUS
370
    -3
390
6BD4
347
6BE6
  0
LAYER
  5
6C3A
102
{ACAD_XDICTIONARY
360
6EF4
102
}
330
6BC7
100
AcDbSymbolTableRecord
100
AcDbLayerTableRecord
  2
4太線
 70
     0
 62
     6
  6
CONTINUOUS
370
    -3
390
6BD4
347
6BE6
  0
LAYER
  5
6CE3
102
{ACAD_XDICTIONARY
360
6CE4
102
}
330
6BC7
100
AcDbSymbolTableRecord
100
AcDbLayerTableRecord
  2
2寸法線
 70
     0
 62
     2
  6
CONTINUOUS
370
    -3
390
6BD4
347
6BE6
  0
LAYER
  5
6CE5
330
6BC7
100
AcDbSymbolTableRecord
100
AcDbLayerTableRecord
  2
DEFPOINTS
 70
     0
 62
     7
  6
CONTINUOUS
290
     0
370
    -3
390
6BD4
347
6BE6
  0
ENDTAB
  0
TABLE
  2
STYLE
  5
6BC8
330
0
100
AcDbSymbolTable
 70
     3
  0
STYLE
  5
6C1A
330
6BC8
100
AcDbSymbolTableRecord
100
AcDbTextStyleTableRecord
  2
STANDARD
 70
     0
 40
0.0
 41
1.0
 50
0.0
 71
     0
 42
2.5
  3
txt
  4

  0
STYLE
  5
6C1E
330
6BC8
100
AcDbSymbolTableRecord
100
AcDbTextStyleTableRecord
  2
Annotative
 70
     0
 40
0.0
 41
1.0
 50
0.0
 71
     0
 42
0.2
  3
txt
  4

1001
AcadAnnotative
1000
AnnotativeData
1002
{
1070
     1
1070
     1
1002
}
  0
STYLE
  5
6C3B
330
6BC8
100
AcDbSymbolTableRecord
100
AcDbTextStyleTableRecord
  2
KANJI
 70
     0
 40
0.0
 41
1.0
 50
0.0
 71
     0
 42
10.0
  3
simplex
  4
bigfont
  0
ENDTAB
  0
TABLE
  2
VIEW
  5
6BCB
330
0
100
AcDbSymbolTable
 70
     0
  0
ENDTAB
  0
TABLE
  2
UCS
  5
6BCC
330
0
100
AcDbSymbolTable
 70
     0
  0
ENDTAB
  0
TABLE
  2
APPID
  5
6BCE
330
0
100
AcDbSymbolTable
 70
     5
  0
APPID
  5
6C1B
330
6BCE
100
AcDbSymbolTableRecord
100
AcDbRegAppTableRecord
  2
ACAD
 70
     0
  0
APPID
  5
6C22
330
6BCE
100
AcDbSymbolTableRecord
100
AcDbRegAppTableRecord
  2
AcadAnnotative
 70
     0
  0
APPID
  5
6CE8
330
6BCE
100
AcDbSymbolTableRecord
100
AcDbRegAppTableRecord
  2
ACAD_PSEXT
 70
     0
  0
APPID
  5
6CE9
330
6BCE
100
AcDbSymbolTableRecord
100
AcDbRegAppTableRecord
  2
ACAD_NAV_VCDISPLAY
 70
     0
  0
APPID
  5
6CEA
330
6BCE
100
AcDbSymbolTableRecord
100
AcDbRegAppTableRecord
  2
Acad_TC
 70
     0
  0
ENDTAB
  0
TABLE
  2
DIMSTYLE
  5
6BCF
330
0
100
AcDbSymbolTable
 70
     5
100
AcDbDimStyleTable
 71
     0
  0
DIMSTYLE
105
6C1C
330
6BCF
100
AcDbSymbolTableRecord
100
AcDbDimStyleTableRecord
  2
STANDARD
 70
     0
 41
1.0
 42
1.0
 43
6.0
 44
1.0
 73
     0
 74
     0
 77
     1
 78
     8
140
2.5
141
0.0
147
0.5
172
     1
173
     1
274
     3
279
     2
284
     8
285
     8
286
     8
340
6C1A
  0
DIMSTYLE
105
6C1D
330
6BCF
100
AcDbSymbolTableRecord
100
AcDbDimStyleTableRecord
  2
Annotative
 70
     0
340
6C1A
1001
AcadAnnotative
1000
AnnotativeData
1002
{
1070
     1
1070
     1
1002
}
  0
DIMSTYLE
105
6C3C
330
6BCF
100
AcDbSymbolTableRecord
100
AcDbDimStyleTableRecord
  2
ISO-25
 70
     0
 41
2.5
 42
0.625
 43
3.75
 44
1.25
 73
     0
 74
     0
 77
     1
 78
     8
140
2.5
141
2.5
143
0.03937007874016
147
0.625
171
     3
172
     1
274
     3
279
     2
284
     8
285
     8
286
     8
340
6C1A
  0
DIMSTYLE
105
6CE6
102
{ACAD_REACTORS
330
6D29
330
6D2B
330
6D2C
330
6D2D
330
6D2E
330
6D77
330
6D78
102
}
330
6BCF
100
AcDbSymbolTableRecord
100
AcDbDimStyleTableRecord
  2
M
 70
     0
 40
0.0
 41
2.0
 42
1.0
 43
0.0
 44
1.0
 73
     0
 74
     0
 77
     1
 78
     8
140
2.5
141
0.0
147
0.5
172
     1
173
     1
284
     8
340
6C3B
341
6C47
343
6C47
344
6C47
  0
DIMSTYLE
105
6CE7
102
{ACAD_REACTORS
330
6D25
330
6D26
330
6D2A
330
6D2F
102
}
330
6BCF
100
AcDbSymbolTableRecord
100
AcDbDimStyleTableRecord
  2
M$4
 70
     0
 40
0.0
 41
2.0
 42
1.0
 43
0.0
 44
1.0
 73
     0
 77
     1
 78
     8
140
2.5
141
0.0
147
0.5
173
     1
284
     8
340
6C3B
341
6C47
343
6C47
344
6C47
  0
ENDTAB
  0
TABLE
  2
BLOCK_RECORD
  5
6BC6
330
0
100
AcDbSymbolTable
 70
    29
  0
BLOCK_RECORD
  5
6C34
330
6BC6
100
AcDbSymbolTableRecord
100
AcDbBlockTableRecord
  2
*Model_Space
340
6C37
 70
     0
280
     1
281
     0
  0
BLOCK_RECORD
  5
6C30
330
6BC6
100
AcDbSymbolTableRecord
100
AcDbBlockTableRecord
  2
*Paper_Space
340
6C33
 70
     0
280
     1
281
     0
  0
BLOCK_RECORD
  5
6C40
330
6BC6
100
AcDbSymbolTableRecord
100
AcDbBlockTableRecord
  2
$MODEL_SPACE
340
0
 70
     0
280
     1
281
     0
  0
BLOCK_RECORD
  5
6C42
330
6BC6
100
AcDbSymbolTableRecord
100
AcDbBlockTableRecord
  2
$PAPER_SPACE
340
0
 70
     0
280
     1
281
     0
  0
BLOCK_RECORD
  5
6C44
330
6BC6
100
AcDbSymbolTableRecord
100
AcDbBlockTableRecord
  2
1
340
0
 70
     0
280
     1
281
     0
  0
BLOCK_RECORD
  5
6C47
330
6BC6
100
AcDbSymbolTableRecord
100
AcDbBlockTableRecord
  2
2
340
0
102
{BLKREFS
331
6E96
331
6E9B
331
6EA3
331
6EA4
331
6EAC
331
6EB3
331
6EB4
331
6EBC
331
6EBD
331
6C68
331
6C70
331
6C7B
331
6C7C
331
6C87
331
6C91
331
6C92
331
6C9D
331
6C9E
331
6CAB
331
6CAC
331
6CB9
331
6CBA
331
6CC5
331
6CCE
331
6CCF
331
6CDA
331
6CDB
331
6EC7
331
6EC8
331
6ED2
331
6ED3
331
6EDB
331
6EE1
331
6EE2
331
6EEA
331
6EEB
102
}
 70
     0
280
     1
281
     0
  0
BLOCK_RECORD
  5
6C4B
330
6BC6
100
AcDbSymbolTableRecord
100
AcDbBlockTableRecord
  2
A上
340
0
102
{BLKREFS
102
}
 70
     0
280
     1
281
     0
  0
BLOCK_RECORD
  5
6C57
330
6BC6
100
AcDbSymbolTableRecord
100
AcDbBlockTableRecord
  2
Aダッシュ上
340
0
102
{BLKREFS
102
}
 70
     0
280
     1
281
     0
  0
BLOCK_RECORD
  5
6C63
330
6BC6
100
AcDbSymbolTableRecord
100
AcDbBlockTableRecord
  2
*D6
340
0
 70
     0
280
     1
281
     0
  0
BLOCK_RECORD
  5
6C6C
330
6BC6
100
AcDbSymbolTableRecord
100
AcDbBlockTableRecord
  2
*D7
340
0
 70
     0
280
     1
281
     0
  0
BLOCK_RECORD
  5
6C74
330
6BC6
100
AcDbSymbolTableRecord
100
AcDbBlockTableRecord
  2
*D8
340
0
 70
     0
280
     1
281
     0
  0
BLOCK_RECORD
  5
6C82
330
6BC6
100
AcDbSymbolTableRecord
100
AcDbBlockTableRecord
  2
*D9
340
0
 70
     0
280
     1
281
     0
  0
BLOCK_RECORD
  5
6C8B
330
6BC6
100
AcDbSymbolTableRecord
100
AcDbBlockTableRecord
  2
*D10
340
0
 70
     0
280
     1
281
     0
  0
BLOCK_RECORD
  5
6C98
330
6BC6
100
AcDbSymbolTableRecord
100
AcDbBlockTableRecord
  2
*D11
340
0
 70
     0
280
     1
281
     0
  0
BLOCK_RECORD
  5
6CA4
330
6BC6
100
AcDbSymbolTableRecord
100
AcDbBlockTableRecord
  2
*D12
340
0
 70
     0
280
     1
281
     0
  0
BLOCK_RECORD
  5
6CB2
330
6BC6
100
AcDbSymbolTableRecord
100
AcDbBlockTableRecord
  2
*D13
340
0
 70
     0
280
     1
281
     0
  0
BLOCK_RECORD
  5
6CC0
330
6BC6
100
AcDbSymbolTableRecord
100
AcDbBlockTableRecord
  2
*D14
340
0
 70
     0
280
     1
281
     0
  0
BLOCK_RECORD
  5
6CC9
330
6BC6
100
AcDbSymbolTableRecord
100
AcDbBlockTableRecord
  2
*D15
340
0
 70
     0
280
     1
281
     0
  0
BLOCK_RECORD
  5
6CD5
330
6BC6
100
AcDbSymbolTableRecord
100
AcDbBlockTableRecord
  2
*D16
340
0
 70
     0
280
     1
281
     0
  0
BLOCK_RECORD
  5
6E15
330
6BC6
100
AcDbSymbolTableRecord
100
AcDbBlockTableRecord
  2
*D18
340
0
 70
     0
280
     1
281
     0
  0
BLOCK_RECORD
  5
6E1E
330
6BC6
100
AcDbSymbolTableRecord
100
AcDbBlockTableRecord
  2
*D19
340
0
 70
     0
280
     1
281
     0
  0
BLOCK_RECORD
  5
6E26
330
6BC6
100
AcDbSymbolTableRecord
100
AcDbBlockTableRecord
  2
*D20
340
0
 70
     0
280
     1
281
     0
  0
BLOCK_RECORD
  5
6E34
330
6BC6
100
AcDbSymbolTableRecord
100
AcDbBlockTableRecord
  2
*D21
340
0
 70
     0
280
     1
281
     0
  0
BLOCK_RECORD
  5
6E3D
330
6BC6
100
AcDbSymbolTableRecord
100
AcDbBlockTableRecord
  2
*D22
340
0
 70
     0
280
     1
281
     0
  0
BLOCK_RECORD
  5
6E4A
330
6BC6
100
AcDbSymbolTableRecord
100
AcDbBlockTableRecord
  2
*D23
340
0
 70
     0
280
     1
281
     0
  0
BLOCK_RECORD
  5
6E56
330
6BC6
100
AcDbSymbolTableRecord
100
AcDbBlockTableRecord
  2
*D24
340
0
 70
     0
280
     1
281
     0
  0
BLOCK_RECORD
  5
6E64
330
6BC6
100
AcDbSymbolTableRecord
100
AcDbBlockTableRecord
  2
*D25
340
0
 70
     0
280
     1
281
     0
  0
BLOCK_RECORD
  5
6E72
330
6BC6
100
AcDbSymbolTableRecord
100
AcDbBlockTableRecord
  2
*D26
340
0
 70
     0
280
     1
281
     0
  0
BLOCK_RECORD
  5
6E7B
330
6BC6
100
AcDbSymbolTableRecord
100
AcDbBlockTableRecord
  2
*D27
340
0
 70
     0
280
     1
281
     0
  0
BLOCK_RECORD
  5
6E87
330
6BC6
100
AcDbSymbolTableRecord
100
AcDbBlockTableRecord
  2
*D28
340
0
 70
     0
280
     1
281
     0
  0
ENDTAB
  0
ENDSEC
  0
SECTION
  2
BLOCKS
  0
BLOCK
  5
6C35
330
6C34
100
AcDbEntity
  8
0
100
AcDbBlockBegin
  2
*Model_Space
 70
     0
 10
0.0
 20
0.0
 30
0.0
  3
*Model_Space
  1

  0
ENDBLK
  5
6C36
330
6C34
100
AcDbEntity
  8
0
100
AcDbBlockEnd
  0
BLOCK
  5
6C31
330
6C30
100
AcDbEntity
 67
     1
  8
0
100
AcDbBlockBegin
  2
*Paper_Space
 70
     0
 10
0.0
 20
0.0
 30
0.0
  3
*Paper_Space
  1

  0
ENDBLK
  5
6C32
330
6C30
100
AcDbEntity
 67
     1
  8
0
100
AcDbBlockEnd
  0
BLOCK
  5
6C41
330
6C40
100
AcDbEntity
  8
0
100
AcDbBlockBegin
  2
$MODEL_SPACE
 70
     0
 10
0.0
 20
0.0
 30
0.0
  3
$MODEL_SPACE
  1

  0
ENDBLK
  5
21
330
6C40
100
AcDbEntity
  8
0
100
AcDbBlockEnd
  0
BLOCK
  5
6C43
330
6C42
100
AcDbEntity
  8
0
100
AcDbBlockBegin
  2
$PAPER_SPACE
 70
     0
 10
0.0
 20
0.0
 30
0.0
  3
$PAPER_SPACE
  1

  0
ENDBLK
  5
1D
330
6C42
100
AcDbEntity
  8
0
100
AcDbBlockEnd
  0
BLOCK
  5
6C45
330
6C44
100
AcDbEntity
  8
0
100
AcDbBlockBegin
  2
1
 70
     0
 10
0.0
 20
0.0
 30
0.0
  3
1
  1

  0
SOLID
  5
2C
330
6C44
100
AcDbEntity
  8
0
  6
ByBlock
 62
     0
100
AcDbTrace
 10
-1.811110924292051
 20
0.4852857095671653
 30
0.0
 11
-1.811110924292051
 21
-0.4852857095673643
 31
0.0
 12
0.0
 22
0.0
 32
0.0
 13
0.0
 23
0.0
 33
0.0
  0
ENDBLK
  5
2E
330
6C44
100
AcDbEntity
  8
0
100
AcDbBlockEnd
  0
BLOCK
  5
6C48
330
6C47
100
AcDbEntity
  8
0
 48
3.0
100
AcDbBlockBegin
  2
2
 70
     0
 10
0.0
 20
0.0
 30
0.0
  3
2
  1

  0
HATCH
  5
6C49
330
6C47
100
AcDbEntity
  8
0
  6
ByBlock
 62
     0
 48
3.0
100
AcDbHatch
 10
0.0
 20
0.0
 30
0.0
210
0.0
220
0.0
230
1.0
  2
SOLID
 70
     1
 71
     0
 91
        1
 92
        1
 93
        3
 72
     1
 10
-0.9999999999983515
 20
0.2679491924306774
 11
0.0
 21
0.0
 72
     1
 10
0.0
 20
0.0
 11
-0.9999999999983515
 21
-0.2679491924306765
 72
     1
 10
-0.9999999999983524
 20
-0.267949192430676
 11
-0.9999999999983524
 21
0.2679491924306774
 97
        0
 75
     0
 76
     1
 98
        1
 10
2.995745117231336
 20
-4.124946096263201
450
        0
451
        0
460
0.0
461
0.0
452
        0
462
0.0
453
        0
470

  0
ENDBLK
  5
6C4A
330
6C47
100
AcDbEntity
  8
0
 48
3.0
100
AcDbBlockEnd
  0
BLOCK
  5
6C4C
330
6C4B
100
AcDbEntity
  8
0
100
AcDbBlockBegin
  2
A上
 70
     0
 10
0.0
 20
0.0
 30
0.0
  3
A上
  1

  0
LINE
  5
6C4D
330
6C4B
100
AcDbEntity
  8
2寸法線
 62
     1
100
AcDbLine
 10
0.0
 20
0.0
 30
0.0
 11
2.0
 21
-4.0
 31
0.0
  0
LINE
  5
6C4E
330
6C4B
100
AcDbEntity
  8
2寸法線
 62
     1
100
AcDbLine
 10
-2.0
 20
-4.0
 30
0.0
 11
0.0
 21
0.0
 31
0.0
  0
LINE
  5
6C4F
330
6C4B
100
AcDbEntity
  8
2寸法線
 62
     1
100
AcDbLine
 10
-2.0
 20
-4.0
 30
0.0
 11
-1.0
 21
-4.0
 31
0.0
  0
MTEXT
  5
6C50
330
6C4B
100
AcDbEntity
  8
2寸法線
 48
3.0
100
AcDbMText
 10
-6.437715484720229
 20
-3.982863795634784
 30
0.0
 40
4.0
 41
5.411710672623538
 46
0.0
 71
     1
 72
     5
  1
\fSwis721 BlkOul BT|b0|i0|c0|p82;A
  7
KANJI
 73
     1
 44
1.0
  0
LINE
  5
6C51
330
6C4B
100
AcDbEntity
  8
2寸法線
 62
     1
100
AcDbLine
 10
-1.0
 20
-4.0
 30
0.0
 11
-1.0
 21
-8.0
 31
0.0
  0
LINE
  5
6C52
330
6C4B
100
AcDbEntity
  8
2寸法線
 62
     1
100
AcDbLine
 10
1.0
 20
-4.0
 30
0.0
 11
1.0
 21
-8.0
 31
0.0
  0
LINE
  5
6C53
330
6C4B
100
AcDbEntity
  8
2寸法線
 62
     1
100
AcDbLine
 10
-1.0
 20
-8.0
 30
0.0
 11
1.0
 21
-8.0
 31
0.0
  0
LINE
  5
6C54
330
6C4B
100
AcDbEntity
  8
2寸法線
 62
     1
100
AcDbLine
 10
1.0
 20
-4.0
 30
0.0
 11
2.0
 21
-4.0
 31
0.0
  0
LINE
  5
6C55
330
6C4B
100
AcDbEntity
  8
2寸法線
 62
     1
100
AcDbLine
 10
-1.0
 20
0.0
 30
0.0
 11
1.0
 21
0.0
 31
0.0
  0
ENDBLK
  5
6C56
330
6C4B
100
AcDbEntity
  8
0
100
AcDbBlockEnd
  0
BLOCK
  5
6C58
330
6C57
100
AcDbEntity
  8
0
100
AcDbBlockBegin
  2
Aダッシュ上
 70
     0
 10
0.0
 20
0.0
 30
0.0
  3
Aダッシュ上
  1

  0
LINE
  5
6C59
330
6C57
100
AcDbEntity
  8
2寸法線
 62
     1
100
AcDbLine
 10
0.0
 20
0.0
 30
0.0
 11
-2.0
 21
-4.0
 31
0.0
  0
LINE
  5
6C5A
330
6C57
100
AcDbEntity
  8
2寸法線
 62
     1
100
AcDbLine
 10
-1.0
 20
-4.0
 30
0.0
 11
-2.0
 21
-4.0
 31
0.0
  0
LINE
  5
6C5B
330
6C57
100
AcDbEntity
  8
2寸法線
 62
     1
100
AcDbLine
 10
2.0
 20
-4.0
 30
0.0
 11
0.0
 21
0.0
 31
0.0
  0
MTEXT
  5
6C5C
330
6C57
100
AcDbEntity
  8
2寸法線
 48
3.0
100
AcDbMText
 10
2.335628838446609
 20
-3.933040337838406
 30
0.0
 40
4.0
 41
9.252299999999999
 46
0.0
 71
     1
 72
     5
  1
\fSwis721 BlkOul BT|b0|i0|c0|p82;A'
  7
KANJI
 73
     1
 44
1.0
  0
LINE
  5
6C5D
330
6C57
100
AcDbEntity
  8
2寸法線
 62
     1
100
AcDbLine
 10
1.0
 20
-4.0
 30
0.0
 11
1.0
 21
-8.0
 31
0.0
  0
LINE
  5
6C5E
330
6C57
100
AcDbEntity
  8
2寸法線
 62
     1
100
AcDbLine
 10
-1.0
 20
-4.0
 30
0.0
 11
-1.0
 21
-8.0
 31
0.0
  0
LINE
  5
6C5F
330
6C57
100
AcDbEntity
  8
2寸法線
 62
     1
100
AcDbLine
 10
1.0
 20
-8.0
 30
0.0
 11
-1.0
 21
-8.0
 31
0.0
  0
LINE
  5
6C60
330
6C57
100
AcDbEntity
  8
2寸法線
 62
     1
100
AcDbLine
 10
2.0
 20
-4.0
 30
0.0
 11
1.0
 21
-4.0
 31
0.0
  0
LINE
  5
6C61
330
6C57
100
AcDbEntity
  8
2寸法線
 62
     1
100
AcDbLine
 10
1.0
 20
0.0
 30
0.0
 11
-1.0
 21
0.0
 31
0.0
  0
ENDBLK
  5
6C62
330
6C57
100
AcDbEntity
  8
0
100
AcDbBlockEnd
  0
BLOCK
  5
6C64
330
6C63
100
AcDbEntity
  8
0
100
AcDbBlockBegin
  2
*D6
 70
     1
 10
0.0
 20
0.0
 30
0.0
  3
*D6
  1

  0
LINE
  5
6C65
330
6C63
100
AcDbEntity
  8
2寸法線
 62
     0
440
 16777216
370
    -2
100
AcDbLine
 10
2881.673894425668
 20
-9898.829441891447
 30
0.0
 11
2888.721513473287
 21
-9898.829441891445
 31
0.0
  0
LINE
  5
6C66
330
6C63
100
AcDbEntity
  8
2寸法線
 62
     0
440
 16777216
370
    -2
100
AcDbLine
 10
2888.721513473287
 20
-9898.829441891445
 30
0.0
 11
2896.199457999744
 21
-9907.689750189831
 31
0.0
  0
MTEXT
  5
6C67
330
6C63
100
AcDbEntity
  8
2寸法線
 62
     0
440
 16777216
100
AcDbMText
 10
2884.947703949477
 20
-9897.079441891447
 30
0.0
 40
2.5
 41
0.0
 46
0.0
 71
     5
 72
     1
  1
\A1;R48
  7
KANJI
 73
     1
 44
1.0
  0
INSERT
  5
6C68
330
6C63
100
AcDbEntity
  8
2寸法線
 62
     0
440
 16777216
370
    -2
100
AcDbBlockReference
  2
2
 10
2897.360412442961
 20
-9909.065317265906
 30
0.0
 41
1.8
 42
1.8
 43
1.8
 50
310.1637778898578
  0
POINT
  5
6C69
330
6C63
100
AcDbEntity
  8
DEFPOINTS
 62
     0
440
 16777216
100
AcDbPoint
 10
2897.360412442961
 20
-9909.065317265906
 30
0.0
  0
POINT
  5
6C6A
330
6C63
100
AcDbEntity
  8
DEFPOINTS
 62
     0
440
 16777216
100
AcDbPoint
 10
2928.319197595436
 20
-9945.747105961167
 30
0.0
  0
ENDBLK
  5
6C6B
330
6C63
100
AcDbEntity
  8
0
100
AcDbBlockEnd
  0
BLOCK
  5
6C6D
330
6C6C
100
AcDbEntity
  8
0
100
AcDbBlockBegin
  2
*D7
 70
     1
 10
0.0
 20
0.0
 30
0.0
  3
*D7
  1

  0
LINE
  5
6C6E
330
6C6C
100
AcDbEntity
  8
2寸法線
 62
     0
440
 16777216
370
    -2
100
AcDbLine
 10
2923.020980683173
 20
-9942.671483373151
 30
0.0
 11
2907.822420550101
 21
-9933.848697212324
 31
0.0
  0
MTEXT
  5
6C6F
330
6C6C
100
AcDbEntity
  8
2寸法線
 62
     0
440
 16777216
100
AcDbMText
 10
2919.09144040083
 20
-9938.366890691133
 30
0.0
 40
2.5
 41
0.0
 46
0.0
 71
     5
 72
     1
  1
\A1;R25.5
  7
KANJI
 11
0.8648429133047008
 21
-0.5020425632420402
 31
0.0
 73
     1
 44
1.0
  0
INSERT
  5
6C70
330
6C6C
100
AcDbEntity
  8
2寸法線
 62
     0
440
 16777216
370
    -2
100
AcDbBlockReference
  2
2
 10
2906.265703306152
 20
-9932.945020598488
 30
0.0
 41
1.8
 42
1.8
 43
1.8
 50
149.8647728453088
  0
POINT
  5
6C71
330
6C6C
100
AcDbEntity
  8
DEFPOINTS
 62
     0
440
 16777216
100
AcDbPoint
 10
2906.265703306152
 20
-9932.945020598488
 30
0.0
  0
POINT
  5
6C72
330
6C6C
100
AcDbEntity
  8
DEFPOINTS
 62
     0
440
 16777216
100
AcDbPoint
 10
2928.319197595418
 20
-9945.747105961157
 30
0.0
  0
ENDBLK
  5
6C73
330
6C6C
100
AcDbEntity
  8
0
100
AcDbBlockEnd
  0
BLOCK
  5
6C75
330
6C74
100
AcDbEntity
  8
0
100
AcDbBlockBegin
  2
*D8
 70
     1
 10
0.0
 20
0.0
 30
0.0
  3
*D8
  1

  0
LINE
  5
6C76
330
6C74
100
AcDbEntity
  8
2寸法線
 62
     0
440
 16777216
370
    -2
100
AcDbLine
 10
3017.034839426147
 20
-9898.747105961161
 30
0.0
 11
3017.034839426147
 21
-9887.641842071708
 31
0.0
  0
LINE
  5
6C77
330
6C74
100
AcDbEntity
  8
2寸法線
 62
     0
440
 16777216
370
    -2
100
AcDbLine
 10
3019.334839426147
 20
-9896.747105961161
 30
0.0
 11
3019.334839426147
 21
-9887.641842071708
 31
0.0
  0
LINE
  5
6C78
330
6C74
100
AcDbEntity
  8
2寸法線
 62
     0
440
 16777216
370
    -2
100
AcDbLine
 10
3015.234839426146
 20
-9888.641842071709
 30
0.0
 11
3013.434839426146
 21
-9888.641842071709
 31
0.0
  0
LINE
  5
6C79
330
6C74
100
AcDbEntity
  8
2寸法線
 62
     0
440
 16777216
370
    -2
100
AcDbLine
 10
3021.134839426147
 20
-9888.641842071709
 30
0.0
 11
3029.172934664242
 21
-9888.641842071709
 31
0.0
  0
LINE
  5
6C7A
330
6C74
100
AcDbEntity
  8
2寸法線
 62
     0
440
 16777216
370
    -2
100
AcDbLine
 10
3017.034839426147
 20
-9888.641842071709
 30
0.0
 11
3019.334839426147
 21
-9888.641842071709
 31
0.0
  0
INSERT
  5
6C7B
330
6C74
100
AcDbEntity
  8
2寸法線
 62
     0
440
 16777216
370
    -2
100
AcDbBlockReference
  2
2
 10
3017.034839426147
 20
-9888.641842071709
 30
0.0
 41
1.8
 42
1.8
 43
1.8
  0
INSERT
  5
6C7C
330
6C74
100
AcDbEntity
  8
2寸法線
 62
     0
440
 16777216
370
    -2
100
AcDbBlockReference
  2
2
 10
3019.334839426147
 20
-9888.641842071709
 30
0.0
 41
1.8
 42
1.8
 43
1.8
 50
180.0
  0
MTEXT
  5
6C7D
330
6C74
100
AcDbEntity
  8
2寸法線
 62
     0
440
 16777216
100
AcDbMText
 10
3026.053887045194
 20
-9886.89184207171
 30
0.0
 40
2.5
 41
0.0
 46
0.0
 71
     5
 72
     1
  1
\A1;2.3
  7
KANJI
 73
     1
 44
1.0
  0
POINT
  5
6C7E
330
6C74
100
AcDbEntity
  8
DEFPOINTS
 62
     0
440
 16777216
100
AcDbPoint
 10
3017.034839426147
 20
-9899.747105961161
 30
0.0
  0
POINT
  5
6C7F
330
6C74
100
AcDbEntity
  8
DEFPOINTS
 62
     0
440
 16777216
100
AcDbPoint
 10
3019.334839426147
 20
-9897.74710596116
 30
0.0
  0
POINT
  5
6C80
330
6C74
100
AcDbEntity
  8
DEFPOINTS
 62
     0
440
 16777216
100
AcDbPoint
 10
3019.334839426147
 20
-9888.641842071709
 30
0.0
  0
ENDBLK
  5
6C81
330
6C74
100
AcDbEntity
  8
0
100
AcDbBlockEnd
  0
BLOCK
  5
6C83
330
6C82
100
AcDbEntity
  8
0
100
AcDbBlockBegin
  2
*D9
 70
     1
 10
0.0
 20
0.0
 30
0.0
  3
*D9
  1

  0
LINE
  5
6C84
330
6C82
100
AcDbEntity
  8
2寸法線
 62
     0
440
 16777216
370
    -2
100
AcDbLine
 10
3005.335680313177
 20
-9893.029710374483
 30
0.0
 11
3010.002346979844
 21
-9893.029710374483
 31
0.0
  0
LINE
  5
6C85
330
6C82
100
AcDbEntity
  8
2寸法線
 62
     0
440
 16777216
370
    -2
100
AcDbLine
 10
3010.002346979844
 20
-9893.029710374483
 30
0.0
 11
3015.985632356913
 21
-9897.47943397233
 31
0.0
  0
MTEXT
  5
6C86
330
6C82
100
AcDbEntity
  8
2寸法線
 62
     0
440
 16777216
100
AcDbMText
 10
3007.41901364651
 20
-9891.279710374483
 30
0.0
 40
2.5
 41
0.0
 46
0.0
 71
     5
 72
     1
  1
\A1;R2
  7
KANJI
 73
     1
 44
1.0
  0
INSERT
  5
6C87
330
6C82
100
AcDbEntity
  8
2寸法線
 62
     0
440
 16777216
370
    -2
100
AcDbBlockReference
  2
2
 10
3017.429993600236
 20
-9898.553594388088
 30
0.0
 41
1.8
 42
1.8
 43
1.8
 50
323.3621003916849
  0
POINT
  5
6C88
330
6C82
100
AcDbEntity
  8
DEFPOINTS
 62
     0
440
 16777216
100
AcDbPoint
 10
3017.429993600236
 20
-9898.553594388088
 30
0.0
  0
POINT
  5
6C89
330
6C82
100
AcDbEntity
  8
DEFPOINTS
 62
     0
440
 16777216
100
AcDbPoint
 10
3019.034839426142
 20
-9899.747105961147
 30
0.0
  0
ENDBLK
  5
6C8A
330
6C82
100
AcDbEntity
  8
0
100
AcDbBlockEnd
  0
BLOCK
  5
6C8C
330
6C8B
100
AcDbEntity
  8
0
100
AcDbBlockBegin
  2
*D10
 70
     1
 10
0.0
 20
0.0
 30
0.0
  3
*D10
  1

  0
LINE
  5
6C8D
330
6C8B
100
AcDbEntity
  8
2寸法線
 62
     0
440
 16777216
370
    -2
100
AcDbLine
 10
3090.997180137507
 20
-9907.74710596116
 30
0.0
 11
3084.467609772392
 21
-9907.74710596116
 31
0.0
  0
LINE
  5
6C8E
330
6C8B
100
AcDbEntity
  8
2寸法線
 62
     0
440
 16777216
370
    -2
100
AcDbLine
 10
3098.147180137507
 20
-9897.74710596116
 30
0.0
 11
3084.467609772392
 21
-9897.74710596116
 31
0.0
  0
LINE
  5
6C8F
330
6C8B
100
AcDbEntity
  8
2寸法線
 62
     0
440
 16777216
370
    -2
100
AcDbLine
 10
3085.467609772392
 20
-9905.947105961161
 30
0.0
 11
3085.467609772392
 21
-9899.547105961159
 31
0.0
  0
LINE
  5
6C90
330
6C8B
100
AcDbEntity
  8
2寸法線
 62
     0
440
 16777216
370
    -2
100
AcDbLine
 10
3085.467609772392
 20
-9897.74710596116
 30
0.0
 11
3085.467609772392
 21
-9890.686317212409
 31
0.0
  0
INSERT
  5
6C91
330
6C8B
100
AcDbEntity
  8
2寸法線
 62
     0
440
 16777216
370
    -2
100
AcDbBlockReference
  2
2
 10
3085.467609772392
 20
-9907.74710596116
 30
0.0
 41
1.8
 42
1.8
 43
1.8
 50
270.0
  0
INSERT
  5
6C92
330
6C8B
100
AcDbEntity
  8
2寸法線
 62
     0
440
 16777216
370
    -2
100
AcDbBlockReference
  2
2
 10
3085.467609772392
 20
-9897.74710596116
 30
0.0
 41
1.8
 42
1.8
 43
1.8
 50
90.0
  0
MTEXT
  5
6C93
330
6C8B
100
AcDbEntity
  8
2寸法線
 62
     0
440
 16777216
100
AcDbMText
 10
3083.717609772393
 20
-9892.972031498125
 30
0.0
 40
2.5
 41
0.0
 46
0.0
 71
     5
 72
     1
  1
\A1;10
  7
KANJI
 11
0.0000000000000001
 21
1.0
 31
0.0
 73
     1
 44
1.0
  0
POINT
  5
6C94
330
6C8B
100
AcDbEntity
  8
DEFPOINTS
 62
     0
440
 16777216
100
AcDbPoint
 10
3091.997180137507
 20
-9907.74710596116
 30
0.0
  0
POINT
  5
6C95
330
6C8B
100
AcDbEntity
  8
DEFPOINTS
 62
     0
440
 16777216
100
AcDbPoint
 10
3099.147180137507
 20
-9897.74710596116
 30
0.0
  0
POINT
  5
6C96
330
6C8B
100
AcDbEntity
  8
DEFPOINTS
 62
     0
440
 16777216
100
AcDbPoint
 10
3085.467609772392
 20
-9897.74710596116
 30
0.0
  0
ENDBLK
  5
6C97
330
6C8B
100
AcDbEntity
  8
0
100
AcDbBlockEnd
  0
BLOCK
  5
6C99
330
6C98
100
AcDbEntity
  8
0
100
AcDbBlockBegin
  2
*D11
 70
     1
 10
0.0
 20
0.0
 30
0.0
  3
*D11
  1

  0
LINE
  5
6C9A
330
6C98
100
AcDbEntity
  8
2寸法線
 62
     0
440
 16777216
370
    -2
100
AcDbLine
 10
3050.147180137507
 20
-9969.747105961154
 30
0.0
 11
3045.685763514643
 21
-9969.747105961154
 31
0.0
  0
LINE
  5
6C9B
330
6C98
100
AcDbEntity
  8
2寸法線
 62
     0
440
 16777216
370
    -2
100
AcDbLine
 10
3052.997180137507
 20
-9959.747105961156
 30
0.0
 11
3045.685763514643
 21
-9959.747105961156
 31
0.0
  0
LINE
  5
6C9C
330
6C98
100
AcDbEntity
  8
2寸法線
 62
     0
440
 16777216
370
    -2
100
AcDbLine
 10
3046.685763514643
 20
-9967.947105961156
 30
0.0
 11
3046.685763514643
 21
-9961.547105961154
 31
0.0
  0
INSERT
  5
6C9D
330
6C98
100
AcDbEntity
  8
2寸法線
 62
     0
440
 16777216
370
    -2
100
AcDbBlockReference
  2
2
 10
3046.685763514643
 20
-9969.747105961154
 30
0.0
 41
1.8
 42
1.8
 43
1.8
 50
270.0
  0
INSERT
  5
6C9E
330
6C98
100
AcDbEntity
  8
2寸法線
 62
     0
440
 16777216
370
    -2
100
AcDbBlockReference
  2
2
 10
3046.685763514643
 20
-9959.747105961156
 30
0.0
 41
1.8
 42
1.8
 43
1.8
 50
90.0
  0
MTEXT
  5
6C9F
330
6C98
100
AcDbEntity
  8
2寸法線
 62
     0
440
 16777216
100
AcDbMText
 10
3044.935763514645
 20
-9965.163796808957
 30
0.0
 40
2.5
 41
0.0
 46
0.0
 71
     5
 72
     1
  1
\A1;10
  7
KANJI
 11
0.0000000000000001
 21
1.0
 31
0.0
 73
     1
 44
1.0
  0
POINT
  5
6CA0
330
6C98
100
AcDbEntity
  8
DEFPOINTS
 62
     0
440
 16777216
100
AcDbPoint
 10
3051.147180137507
 20
-9969.747105961154
 30
0.0
  0
POINT
  5
6CA1
330
6C98
100
AcDbEntity
  8
DEFPOINTS
 62
     0
440
 16777216
100
AcDbPoint
 10
3053.997180137506
 20
-9959.747105961156
 30
0.0
  0
POINT
  5
6CA2
330
6C98
100
AcDbEntity
  8
DEFPOINTS
 62
     0
440
 16777216
100
AcDbPoint
 10
3046.685763514643
 20
-9959.747105961156
 30
0.0
  0
ENDBLK
  5
6CA3
330
6C98
100
AcDbEntity
  8
0
100
AcDbBlockEnd
  0
BLOCK
  5
6CA5
330
6CA4
100
AcDbEntity
  8
0
100
AcDbBlockBegin
  2
*D12
 70
     1
 10
0.0
 20
0.0
 30
0.0
  3
*D12
  1

  0
LINE
  5
6CA6
330
6CA4
100
AcDbEntity
  8
2寸法線
 62
     0
440
 16777216
370
    -2
100
AcDbLine
 10
3074.197180137506
 20
-9969.747105961154
 30
0.0
 11
3082.26557515196
 21
-9969.747105961154
 31
0.0
  0
LINE
  5
6CA7
330
6CA4
100
AcDbEntity
  8
2寸法線
 62
     0
440
 16777216
370
    -2
100
AcDbLine
 10
3072.197180137508
 20
-9968.747105961154
 30
0.0
 11
3082.26557515196
 21
-9968.747105961154
 31
0.0
  0
LINE
  5
6CA8
330
6CA4
100
AcDbEntity
  8
2寸法線
 62
     0
440
 16777216
370
    -2
100
AcDbLine
 10
3081.26557515196
 20
-9971.547105961155
 30
0.0
 11
3081.26557515196
 21
-9973.347105961154
 31
0.0
  0
LINE
  5
6CA9
330
6CA4
100
AcDbEntity
  8
2寸法線
 62
     0
440
 16777216
370
    -2
100
AcDbLine
 10
3081.26557515196
 20
-9966.947105961155
 30
0.0
 11
3081.26557515196
 21
-9963.551867865916
 31
0.0
  0
LINE
  5
6CAA
330
6CA4
100
AcDbEntity
  8
2寸法線
 62
     0
440
 16777216
370
    -2
100
AcDbLine
 10
3081.26557515196
 20
-9969.747105961154
 30
0.0
 11
3081.26557515196
 21
-9968.747105961154
 31
0.0
  0
INSERT
  5
6CAB
330
6CA4
100
AcDbEntity
  8
2寸法線
 62
     0
440
 16777216
370
    -2
100
AcDbBlockReference
  2
2
 10
3081.26557515196
 20
-9969.747105961154
 30
0.0
 41
1.8
 42
1.8
 43
1.8
 50
90.0
  0
INSERT
  5
6CAC
330
6CA4
100
AcDbEntity
  8
2寸法線
 62
     0
440
 16777216
370
    -2
100
AcDbBlockReference
  2
2
 10
3081.26557515196
 20
-9968.747105961154
 30
0.0
 41
1.8
 42
1.8
 43
1.8
 50
270.0
  0
MTEXT
  5
6CAD
330
6CA4
100
AcDbEntity
  8
2寸法線
 62
     0
440
 16777216
100
AcDbMText
 10
3079.515575151962
 20
-9964.349486913535
 30
0.0
 40
2.5
 41
0.0
 46
0.0
 71
     5
 72
     1
  1
\A1;1
  7
KANJI
 11
0.0000000000000001
 21
1.0
 31
0.0
 73
     1
 44
1.0
  0
POINT
  5
6CAE
330
6CA4
100
AcDbEntity
  8
DEFPOINTS
 62
     0
440
 16777216
100
AcDbPoint
 10
3073.197180137506
 20
-9969.747105961154
 30
0.0
  0
POINT
  5
6CAF
330
6CA4
100
AcDbEntity
  8
DEFPOINTS
 62
     0
440
 16777216
100
AcDbPoint
 10
3071.197180137507
 20
-9968.747105961154
 30
0.0
  0
POINT
  5
6CB0
330
6CA4
100
AcDbEntity
  8
DEFPOINTS
 62
     0
440
 16777216
100
AcDbPoint
 10
3081.26557515196
 20
-9968.747105961154
 30
0.0
  0
ENDBLK
  5
6CB1
330
6CA4
100
AcDbEntity
  8
0
100
AcDbBlockEnd
  0
BLOCK
  5
6CB3
330
6CB2
100
AcDbEntity
  8
0
100
AcDbBlockBegin
  2
*D13
 70
     1
 10
0.0
 20
0.0
 30
0.0
  3
*D13
  1

  0
LINE
  5
6CB4
330
6CB2
100
AcDbEntity
  8
2寸法線
 62
     0
440
 16777216
370
    -2
100
AcDbLine
 10
3070.855651204856
 20
-9908.202607154375
 30
0.0
 11
3070.857464571991
 21
-9908.201179221567
 31
0.0
  0
LINE
  5
6CB5
330
6CB2
100
AcDbEntity
  8
2寸法線
 62
     0
440
 16777216
370
    -2
100
AcDbLine
 10
3070.236987694157
 20
-9907.416951084247
 30
0.0
 11
3070.238801061293
 21
-9907.415523151438
 31
0.0
  0
LINE
  5
6CB6
330
6CB2
100
AcDbEntity
  8
2寸法線
 62
     0
440
 16777216
370
    -2
100
AcDbLine
 10
3071.185402821116
 20
-9910.2340236585
 30
0.0
 11
3072.298997140373
 21
-9911.648204584732
 31
0.0
  0
LINE
  5
6CB7
330
6CB2
100
AcDbEntity
  8
2寸法線
 62
     0
440
 16777216
370
    -2
100
AcDbLine
 10
3068.339550671908
 20
-9906.620005735904
 30
0.0
 11
3064.9831984206
 21
-9902.357691126857
 31
0.0
  0
LINE
  5
6CB8
330
6CB2
100
AcDbEntity
  8
2寸法線
 62
     0
440
 16777216
370
    -2
100
AcDbLine
 10
3070.071808501861
 20
-9908.819842732267
 30
0.0
 11
3069.453144991163
 21
-9908.034186662137
 31
0.0
  0
INSERT
  5
6CB9
330
6CB2
100
AcDbEntity
  8
2寸法線
 62
     0
440
 16777216
370
    -2
100
AcDbBlockReference
  2
2
 10
3070.071808501861
 20
-9908.819842732267
 30
0.0
 41
1.8
 42
1.8
 43
1.8
 50
128.2186024964472
  0
INSERT
  5
6CBA
330
6CB2
100
AcDbEntity
  8
2寸法線
 62
     0
440
 16777216
370
    -2
100
AcDbBlockReference
  2
2
 10
3069.453144991163
 20
-9908.034186662137
 30
0.0
 41
1.8
 42
1.8
 43
1.8
 50
308.2186024964472
  0
MTEXT
  5
6CBB
330
6CB2
100
AcDbEntity
  8
2寸法線
 62
     0
440
 16777216
100
AcDbMText
 10
3066.851554343525
 20
-9901.901684229549
 30
0.0
 40
2.5
 41
0.0
 46
0.0
 71
     5
 72
     1
  1
\A1;1
  7
KANJI
 11
0.6186635106978278
 21
-0.7856560701293148
 31
0.0
 73
     1
 44
1.0
  0
POINT
  5
6CBC
330
6CB2
100
AcDbEntity
  8
DEFPOINTS
 62
     0
440
 16777216
100
AcDbPoint
 10
3070.069995134727
 20
-9908.821270665072
 30
0.0
  0
POINT
  5
6CBD
330
6CB2
100
AcDbEntity
  8
DEFPOINTS
 62
     0
440
 16777216
100
AcDbPoint
 10
3069.451331624029
 20
-9908.035614594945
 30
0.0
  0
POINT
  5
6CBE
330
6CB2
100
AcDbEntity
  8
DEFPOINTS
 62
     0
440
 16777216
100
AcDbPoint
 10
3069.453144991163
 20
-9908.034186662137
 30
0.0
  0
ENDBLK
  5
6CBF
330
6CB2
100
AcDbEntity
  8
0
100
AcDbBlockEnd
  0
BLOCK
  5
6CC1
330
6CC0
100
AcDbEntity
  8
0
100
AcDbBlockBegin
  2
*D14
 70
     1
 10
0.0
 20
0.0
 30
0.0
  3
*D14
  1

  0
LINE
  5
6CC2
330
6CC0
100
AcDbEntity
  8
2寸法線
 62
     0
440
 16777216
370
    -2
100
AcDbLine
 10
3004.347035693148
 20
-9909.615375704074
 30
0.0
 11
3009.013702359815
 21
-9909.615375704074
 31
0.0
  0
LINE
  5
6CC3
330
6CC0
100
AcDbEntity
  8
2寸法線
 62
     0
440
 16777216
370
    -2
100
AcDbLine
 10
3009.013702359815
 20
-9909.615375704074
 30
0.0
 11
3015.169279720816
 21
-9916.395179615697
 31
0.0
  0
MTEXT
  5
6CC4
330
6CC0
100
AcDbEntity
  8
2寸法線
 62
     0
440
 16777216
100
AcDbMText
 10
3006.430369026483
 20
-9907.865375704075
 30
0.0
 40
2.5
 41
0.0
 46
0.0
 71
     5
 72
     1
  1
\A1;R2
  7
KANJI
 73
     1
 44
1.0
  0
INSERT
  5
6CC5
330
6CC0
100
AcDbEntity
  8
2寸法線
 62
     0
440
 16777216
370
    -2
100
AcDbBlockReference
  2
2
 10
3016.379242372823
 20
-9917.727842506586
 30
0.0
 41
1.8
 42
1.8
 43
1.8
 50
312.2372037917361
  0
POINT
  5
6CC6
330
6CC0
100
AcDbEntity
  8
DEFPOINTS
 62
     0
440
 16777216
100
AcDbPoint
 10
3016.379242372823
 20
-9917.727842506586
 30
0.0
  0
POINT
  5
6CC7
330
6CC0
100
AcDbEntity
  8
DEFPOINTS
 62
     0
440
 16777216
100
AcDbPoint
 10
3015.034839426148
 20
-9916.247105961154
 30
0.0
  0
ENDBLK
  5
6CC8
330
6CC0
100
AcDbEntity
  8
0
100
AcDbBlockEnd
  0
BLOCK
  5
6CCA
330
6CC9
100
AcDbEntity
  8
0
100
AcDbBlockBegin
  2
*D15
 70
     1
 10
0.0
 20
0.0
 30
0.0
  3
*D15
  1

  0
LINE
  5
6CCB
330
6CC9
100
AcDbEntity
  8
2寸法線
 62
     0
440
 16777216
370
    -2
100
AcDbLine
 10
3148.147180137506
 20
-9969.747105961154
 30
0.0
 11
3167.644277855366
 21
-9969.747105961154
 31
0.0
  0
LINE
  5
6CCC
330
6CC9
100
AcDbEntity
  8
2寸法線
 62
     0
440
 16777216
370
    -2
100
AcDbLine
 10
3146.147180137507
 20
-9954.747105961152
 30
0.0
 11
3167.644277855366
 21
-9954.747105961152
 31
0.0
  0
LINE
  5
6CCD
330
6CC9
100
AcDbEntity
  8
2寸法線
 62
     0
440
 16777216
370
    -2
100
AcDbLine
 10
3166.644277855367
 20
-9967.947105961156
 30
0.0
 11
3166.644277855367
 21
-9956.547105961149
 31
0.0
  0
INSERT
  5
6CCE
330
6CC9
100
AcDbEntity
  8
2寸法線
 62
     0
440
 16777216
370
    -2
100
AcDbBlockReference
  2
2
 10
3166.644277855367
 20
-9969.747105961154
 30
0.0
 41
1.8
 42
1.8
 43
1.8
 50
270.0
  0
INSERT
  5
6CCF
330
6CC9
100
AcDbEntity
  8
2寸法線
 62
     0
440
 16777216
370
    -2
100
AcDbBlockReference
  2
2
 10
3166.644277855367
 20
-9954.747105961152
 30
0.0
 41
1.8
 42
1.8
 43
1.8
 50
90.0
  0
MTEXT
  5
6CD0
330
6CC9
100
AcDbEntity
  8
2寸法線
 62
     0
440
 16777216
100
AcDbMText
 10
3164.894277855368
 20
-9962.247105961154
 30
0.0
 40
2.5
 41
0.0
 46
0.0
 71
     5
 72
     1
  1
\A1;15
  7
KANJI
 11
0.0000000000000001
 21
1.0
 31
0.0
 73
     1
 44
1.0
  0
POINT
  5
6CD1
330
6CC9
100
AcDbEntity
  8
DEFPOINTS
 62
     0
440
 16777216
100
AcDbPoint
 10
3147.147180137507
 20
-9969.747105961154
 30
0.0
  0
POINT
  5
6CD2
330
6CC9
100
AcDbEntity
  8
DEFPOINTS
 62
     0
440
 16777216
100
AcDbPoint
 10
3145.147180137507
 20
-9954.747105961152
 30
0.0
  0
POINT
  5
6CD3
330
6CC9
100
AcDbEntity
  8
DEFPOINTS
 62
     0
440
 16777216
100
AcDbPoint
 10
3166.644277855367
 20
-9954.747105961152
 30
0.0
  0
ENDBLK
  5
6CD4
330
6CC9
100
AcDbEntity
  8
0
100
AcDbBlockEnd
  0
BLOCK
  5
6CD6
330
6CD5
100
AcDbEntity
  8
0
100
AcDbBlockBegin
  2
*D16
 70
     1
 10
0.0
 20
0.0
 30
0.0
  3
*D16
  1

  0
LINE
  5
6CD7
330
6CD5
100
AcDbEntity
  8
2寸法線
 62
     0
440
 16777216
370
    -2
100
AcDbLine
 10
3146.147180137507
 20
-9946.747121642616
 30
0.0
 11
3167.644277855366
 21
-9946.747121642616
 31
0.0
  0
LINE
  5
6CD8
330
6CD5
100
AcDbEntity
  8
2寸法線
 62
     0
440
 16777216
370
    -2
100
AcDbLine
 10
3146.147180137507
 20
-9954.747105961152
 30
0.0
 11
3167.644277855366
 21
-9954.747105961152
 31
0.0
  0
LINE
  5
6CD9
330
6CD5
100
AcDbEntity
  8
2寸法線
 62
     0
440
 16777216
370
    -2
100
AcDbLine
 10
3166.644277855367
 20
-9948.547121642615
 30
0.0
 11
3166.644277855367
 21
-9952.947105961152
 31
0.0
  0
INSERT
  5
6CDA
330
6CD5
100
AcDbEntity
  8
2寸法線
 62
     0
440
 16777216
370
    -2
100
AcDbBlockReference
  2
2
 10
3166.644277855367
 20
-9946.747121642616
 30
0.0
 41
1.8
 42
1.8
 43
1.8
 50
90.0
  0
INSERT
  5
6CDB
330
6CD5
100
AcDbEntity
  8
2寸法線
 62
     0
440
 16777216
370
    -2
100
AcDbBlockReference
  2
2
 10
3166.644277855367
 20
-9954.747105961152
 30
0.0
 41
1.8
 42
1.8
 43
1.8
 50
270.0
  0
MTEXT
  5
6CDC
330
6CD5
100
AcDbEntity
  8
2寸法線
 62
     0
440
 16777216
100
AcDbMText
 10
3164.894277855368
 20
-9950.747113801883
 30
0.0
 40
2.5
 41
0.0
 46
0.0
 71
     5
 72
     1
  1
\A1;8
  7
KANJI
 11
0.0000000000000001
 21
1.0
 31
0.0
 73
     1
 44
1.0
  0
POINT
  5
6CDD
330
6CD5
100
AcDbEntity
  8
DEFPOINTS
 62
     0
440
 16777216
100
AcDbPoint
 10
3145.147180137507
 20
-9946.747121642616
 30
0.0
  0
POINT
  5
6CDE
330
6CD5
100
AcDbEntity
  8
DEFPOINTS
 62
     0
440
 16777216
100
AcDbPoint
 10
3145.147180137507
 20
-9954.747105961152
 30
0.0
  0
POINT
  5
6CDF
330
6CD5
100
AcDbEntity
  8
DEFPOINTS
 62
     0
440
 16777216
100
AcDbPoint
 10
3166.644277855367
 20
-9954.747105961152
 30
0.0
  0
ENDBLK
  5
6CE0
330
6CD5
100
AcDbEntity
  8
0
100
AcDbBlockEnd
  0
BLOCK
  5
6E16
330
6E15
100
AcDbEntity
  8
0
100
AcDbBlockBegin
  2
*D18
 70
     1
 10
0.0
 20
0.0
 30
0.0
  3
*D18
  1

  0
LINE
  5
6E93
330
6E15
100
AcDbEntity
  8
2寸法線
 62
     0
440
 16777216
370
    -2
100
AcDbLine
 10
363.7604770179602
 20
99.52704880769594
 30
0.0
 11
370.8080960655792
 21
99.52704880769594
 31
0.0
  0
LINE
  5
6E94
330
6E15
100
AcDbEntity
  8
2寸法線
 62
     0
440
 16777216
370
    -2
100
AcDbLine
 10
370.8080960655792
 20
99.52704880769594
 30
0.0
 11
378.2860405920366
 21
90.6667405093105
 31
0.0
  0
MTEXT
  5
6E95
330
6E15
100
AcDbEntity
  8
2寸法線
 62
     0
440
 16777216
100
AcDbMText
 10
367.0342865417698
 20
101.2770488076958
 30
0.0
 40
2.5
 41
0.0
 46
0.0
 71
     5
 72
     1
  1
\A1;R48
  7
KANJI
 73
     1
 44
1.0
  0
INSERT
  5
6E96
330
6E15
100
AcDbEntity
  8
2寸法線
 62
     0
440
 16777216
370
    -2
100
AcDbBlockReference
  2
2
 10
379.4469950352541
 20
89.29117343323843
 30
0.0
 41
1.8
 42
1.8
 43
1.8
 50
310.163777889859
  0
POINT
  5
6E97
330
6E15
100
AcDbEntity
  8
DEFPOINTS
 62
     0
440
 16777216
100
AcDbPoint
 10
379.4469950352541
 20
89.29117343323843
 30
0.0
  0
POINT
  5
6E98
330
6E15
100
AcDbEntity
  8
DEFPOINTS
 62
     0
440
 16777216
100
AcDbPoint
 10
410.4057801877288
 20
52.60938473797541
 30
0.0
  0
ENDBLK
  5
6E17
330
6E15
100
AcDbEntity
  8
0
100
AcDbBlockEnd
  0
BLOCK
  5
6E1F
330
6E1E
100
AcDbEntity
  8
0
100
AcDbBlockBegin
  2
*D19
 70
     1
 10
0.0
 20
0.0
 30
0.0
  3
*D19
  1

  0
LINE
  5
6E99
330
6E1E
100
AcDbEntity
  8
2寸法線
 62
     0
440
 16777216
370
    -2
100
AcDbLine
 10
405.107563275465
 20
55.68500732599162
 30
0.0
 11
389.9090031423941
 21
64.50779348682002
 31
0.0
  0
MTEXT
  5
6E9A
330
6E1E
100
AcDbEntity
  8
2寸法線
 62
     0
440
 16777216
100
AcDbMText
 10
401.1780229931232
 20
59.98960000801332
 30
0.0
 40
2.5
 41
0.0
 46
0.0
 71
     5
 72
     1
  1
\A1;R25.5
  7
KANJI
 11
0.8648429133047011
 21
-0.5020425632420395
 31
0.0
 73
     1
 44
1.0
  0
INSERT
  5
6E9B
330
6E1E
100
AcDbEntity
  8
2寸法線
 62
     0
440
 16777216
370
    -2
100
AcDbBlockReference
  2
2
 10
388.3522858984457
 20
65.41147010065569
 30
0.0
 41
1.8
 42
1.8
 43
1.8
 50
149.8647728453089
  0
POINT
  5
6E9C
330
6E1E
100
AcDbEntity
  8
DEFPOINTS
 62
     0
440
 16777216
100
AcDbPoint
 10
388.3522858984457
 20
65.41147010065569
 30
0.0
  0
POINT
  5
6E9D
330
6E1E
100
AcDbEntity
  8
DEFPOINTS
 62
     0
440
 16777216
100
AcDbPoint
 10
410.4057801877111
 20
52.60938473798626
 30
0.0
  0
ENDBLK
  5
6E20
330
6E1E
100
AcDbEntity
  8
0
100
AcDbBlockEnd
  0
BLOCK
  5
6E27
330
6E26
100
AcDbEntity
  8
0
100
AcDbBlockBegin
  2
*D20
 70
     1
 10
0.0
 20
0.0
 30
0.0
  3
*D20
  1

  0
LINE
  5
6E9E
330
6E26
100
AcDbEntity
  8
2寸法線
 62
     0
440
 16777216
370
    -2
100
AcDbLine
 10
499.1214220184397
 20
99.60938473798263
 30
0.0
 11
499.1214220184397
 21
110.7146486274333
 31
0.0
  0
LINE
  5
6E9F
330
6E26
100
AcDbEntity
  8
2寸法線
 62
     0
440
 16777216
370
    -2
100
AcDbLine
 10
501.4214220184398
 20
101.6093847379826
 30
0.0
 11
501.4214220184398
 21
110.7146486274333
 31
0.0
  0
LINE
  5
6EA0
330
6E26
100
AcDbEntity
  8
2寸法線
 62
     0
440
 16777216
370
    -2
100
AcDbLine
 10
497.3214220184397
 20
109.7146486274333
 30
0.0
 11
495.5214220184396
 21
109.7146486274333
 31
0.0
  0
LINE
  5
6EA1
330
6E26
100
AcDbEntity
  8
2寸法線
 62
     0
440
 16777216
370
    -2
100
AcDbLine
 10
503.2214220184399
 20
109.7146486274333
 30
0.0
 11
511.2595172565352
 21
109.7146486274333
 31
0.0
  0
LINE
  5
6EA2
330
6E26
100
AcDbEntity
  8
2寸法線
 62
     0
440
 16777216
370
    -2
100
AcDbLine
 10
499.1214220184397
 20
109.7146486274333
 30
0.0
 11
501.4214220184398
 21
109.7146486274333
 31
0.0
  0
INSERT
  5
6EA3
330
6E26
100
AcDbEntity
  8
2寸法線
 62
     0
440
 16777216
370
    -2
100
AcDbBlockReference
  2
2
 10
499.1214220184397
 20
109.7146486274333
 30
0.0
 41
1.8
 42
1.8
 43
1.8
  0
INSERT
  5
6EA4
330
6E26
100
AcDbEntity
  8
2寸法線
 62
     0
440
 16777216
370
    -2
100
AcDbBlockReference
  2
2
 10
501.4214220184398
 20
109.7146486274333
 30
0.0
 41
1.8
 42
1.8
 43
1.8
 50
180.0
  0
MTEXT
  5
6EA5
330
6E26
100
AcDbEntity
  8
2寸法線
 62
     0
440
 16777216
100
AcDbMText
 10
508.1404696374875
 20
111.4646486274333
 30
0.0
 40
2.5
 41
0.0
 46
0.0
 71
     5
 72
     1
  1
\A1;2.3
  7
KANJI
 73
     1
 44
1.0
  0
POINT
  5
6EA6
330
6E26
100
AcDbEntity
  8
DEFPOINTS
 62
     0
440
 16777216
100
AcDbPoint
 10
499.1214220184397
 20
98.60938473798263
 30
0.0
  0
POINT
  5
6EA7
330
6E26
100
AcDbEntity
  8
DEFPOINTS
 62
     0
440
 16777216
100
AcDbPoint
 10
501.4214220184398
 20
100.6093847379826
 30
0.0
  0
POINT
  5
6EA8
330
6E26
100
AcDbEntity
  8
DEFPOINTS
 62
     0
440
 16777216
100
AcDbPoint
 10
501.4214220184398
 20
109.7146486274333
 30
0.0
  0
ENDBLK
  5
6E28
330
6E26
100
AcDbEntity
  8
0
100
AcDbBlockEnd
  0
BLOCK
  5
6E35
330
6E34
100
AcDbEntity
  8
0
100
AcDbBlockBegin
  2
*D21
 70
     1
 10
0.0
 20
0.0
 30
0.0
  3
*D21
  1

  0
LINE
  5
6EA9
330
6E34
100
AcDbEntity
  8
2寸法線
 62
     0
440
 16777216
370
    -2
100
AcDbLine
 10
487.4222629054695
 20
105.3267803246608
 30
0.0
 11
492.0889295721419
 21
105.3267803246608
 31
0.0
  0
LINE
  5
6EAA
330
6E34
100
AcDbEntity
  8
2寸法線
 62
     0
440
 16777216
370
    -2
100
AcDbLine
 10
492.0889295721419
 20
105.3267803246608
 30
0.0
 11
498.0722149492053
 21
100.877056726814
 31
0.0
  0
MTEXT
  5
6EAB
330
6E34
100
AcDbEntity
  8
2寸法線
 62
     0
440
 16777216
100
AcDbMText
 10
489.5055962388027
 20
107.0767803246609
 30
0.0
 40
2.5
 41
0.0
 46
0.0
 71
     5
 72
     1
  1
\A1;R2
  7
KANJI
 73
     1
 44
1.0
  0
INSERT
  5
6EAC
330
6E34
100
AcDbEntity
  8
2寸法線
 62
     0
440
 16777216
370
    -2
100
AcDbBlockReference
  2
2
 10
499.516576192529
 20
99.80289631105472
 30
0.0
 41
1.8
 42
1.8
 43
1.8
 50
323.3621003916687
  0
POINT
  5
6EAD
330
6E34
100
AcDbEntity
  8
DEFPOINTS
 62
     0
440
 16777216
100
AcDbPoint
 10
499.516576192529
 20
99.80289631105472
 30
0.0
  0
POINT
  5
6EAE
330
6E34
100
AcDbEntity
  8
DEFPOINTS
 62
     0
440
 16777216
100
AcDbPoint
 10
501.1214220184356
 20
98.6093847379953
 30
0.0
  0
ENDBLK
  5
6E36
330
6E34
100
AcDbEntity
  8
0
100
AcDbBlockEnd
  0
BLOCK
  5
6E3E
330
6E3D
100
AcDbEntity
  8
0
100
AcDbBlockBegin
  2
*D22
 70
     1
 10
0.0
 20
0.0
 30
0.0
  3
*D22
  1

  0
LINE
  5
6EAF
330
6E3D
100
AcDbEntity
  8
2寸法線
 62
     0
440
 16777216
370
    -2
100
AcDbLine
 10
573.0837627298003
 20
90.60938473798264
 30
0.0
 11
566.5541923646866
 21
90.60938473798264
 31
0.0
  0
LINE
  5
6EB0
330
6E3D
100
AcDbEntity
  8
2寸法線
 62
     0
440
 16777216
370
    -2
100
AcDbLine
 10
580.2337627297999
 20
100.6093847379827
 30
0.0
 11
566.5541923646866
 21
100.6093847379827
 31
0.0
  0
LINE
  5
6EB1
330
6E3D
100
AcDbEntity
  8
2寸法線
 62
     0
440
 16777216
370
    -2
100
AcDbLine
 10
567.5541923646866
 20
92.40938473798264
 30
0.0
 11
567.5541923646866
 21
98.80938473798268
 31
0.0
  0
LINE
  5
6EB2
330
6E3D
100
AcDbEntity
  8
2寸法線
 62
     0
440
 16777216
370
    -2
100
AcDbLine
 10
567.5541923646866
 20
100.6093847379827
 30
0.0
 11
567.5541923646866
 21
107.6701734867328
 31
0.0
  0
INSERT
  5
6EB3
330
6E3D
100
AcDbEntity
  8
2寸法線
 62
     0
440
 16777216
370
    -2
100
AcDbBlockReference
  2
2
 10
567.5541923646866
 20
90.60938473798264
 30
0.0
 41
1.8
 42
1.8
 43
1.8
 50
270.0
  0
INSERT
  5
6EB4
330
6E3D
100
AcDbEntity
  8
2寸法線
 62
     0
440
 16777216
370
    -2
100
AcDbBlockReference
  2
2
 10
567.5541923646866
 20
100.6093847379827
 30
0.0
 41
1.8
 42
1.8
 43
1.8
 50
90.0
  0
MTEXT
  5
6EB5
330
6E3D
100
AcDbEntity
  8
2寸法線
 62
     0
440
 16777216
100
AcDbMText
 10
565.8041923646865
 20
105.3844592010183
 30
0.0
 40
2.5
 41
0.0
 46
0.0
 71
     5
 72
     1
  1
\A1;10
  7
KANJI
 11
0.0000000000000001
 21
1.0
 31
0.0
 73
     1
 44
1.0
  0
POINT
  5
6EB6
330
6E3D
100
AcDbEntity
  8
DEFPOINTS
 62
     0
440
 16777216
100
AcDbPoint
 10
574.0837627298003
 20
90.60938473798264
 30
0.0
  0
POINT
  5
6EB7
330
6E3D
100
AcDbEntity
  8
DEFPOINTS
 62
     0
440
 16777216
100
AcDbPoint
 10
581.2337627297999
 20
100.6093847379827
 30
0.0
  0
POINT
  5
6EB8
330
6E3D
100
AcDbEntity
  8
DEFPOINTS
 62
     0
440
 16777216
100
AcDbPoint
 10
567.5541923646866
 20
100.6093847379827
 30
0.0
  0
ENDBLK
  5
6E3F
330
6E3D
100
AcDbEntity
  8
0
100
AcDbBlockEnd
  0
BLOCK
  5
6E4B
330
6E4A
100
AcDbEntity
  8
0
100
AcDbBlockBegin
  2
*D23
 70
     1
 10
0.0
 20
0.0
 30
0.0
  3
*D23
  1

  0
LINE
  5
6EB9
330
6E4A
100
AcDbEntity
  8
2寸法線
 62
     0
440
 16777216
370
    -2
100
AcDbLine
 10
532.2337627298
 20
28.60938473798809
 30
0.0
 11
527.7723461069378
 21
28.60938473798809
 31
0.0
  0
LINE
  5
6EBA
330
6E4A
100
AcDbEntity
  8
2寸法線
 62
     0
440
 16777216
370
    -2
100
AcDbLine
 10
535.0837627297998
 20
38.60938473798809
 30
0.0
 11
527.7723461069378
 21
38.60938473798808
 31
0.0
  0
LINE
  5
6EBB
330
6E4A
100
AcDbEntity
  8
2寸法線
 62
     0
440
 16777216
370
    -2
100
AcDbLine
 10
528.7723461069377
 20
30.40938473798809
 30
0.0
 11
528.7723461069377
 21
36.80938473798809
 31
0.0
  0
INSERT
  5
6EBC
330
6E4A
100
AcDbEntity
  8
2寸法線
 62
     0
440
 16777216
370
    -2
100
AcDbBlockReference
  2
2
 10
528.7723461069377
 20
28.60938473798809
 30
0.0
 41
1.8
 42
1.8
 43
1.8
 50
270.0
  0
INSERT
  5
6EBD
330
6E4A
100
AcDbEntity
  8
2寸法線
 62
     0
440
 16777216
370
    -2
100
AcDbBlockReference
  2
2
 10
528.7723461069377
 20
38.60938473798809
 30
0.0
 41
1.8
 42
1.8
 43
1.8
 50
90.0
  0
MTEXT
  5
6EBE
330
6E4A
100
AcDbEntity
  8
2寸法線
 62
     0
440
 16777216
100
AcDbMText
 10
527.0223461069377
 20
33.1926938901862
 30
0.0
 40
2.5
 41
0.0
 46
0.0
 71
     5
 72
     1
  1
\A1;10
  7
KANJI
 11
0.0000000000000001
 21
1.0
 31
0.0
 73
     1
 44
1.0
  0
POINT
  5
6EBF
330
6E4A
100
AcDbEntity
  8
DEFPOINTS
 62
     0
440
 16777216
100
AcDbPoint
 10
533.2337627298
 20
28.60938473798809
 30
0.0
  0
POINT
  5
6EC0
330
6E4A
100
AcDbEntity
  8
DEFPOINTS
 62
     0
440
 16777216
100
AcDbPoint
 10
536.0837627297999
 20
38.60938473798809
 30
0.0
  0
POINT
  5
6EC1
330
6E4A
100
AcDbEntity
  8
DEFPOINTS
 62
     0
440
 16777216
100
AcDbPoint
 10
528.7723461069377
 20
38.60938473798809
 30
0.0
  0
ENDBLK
  5
6E4C
330
6E4A
100
AcDbEntity
  8
0
100
AcDbBlockEnd
  0
BLOCK
  5
6E57
330
6E56
100
AcDbEntity
  8
0
100
AcDbBlockBegin
  2
*D24
 70
     1
 10
0.0
 20
0.0
 30
0.0
  3
*D24
  1

  0
LINE
  5
6EC2
330
6E56
100
AcDbEntity
  8
2寸法線
 62
     0
440
 16777216
370
    -2
100
AcDbLine
 10
556.2837627297993
 20
28.60938473798809
 30
0.0
 11
564.3521577442533
 21
28.60938473798809
 31
0.0
  0
LINE
  5
6EC3
330
6E56
100
AcDbEntity
  8
2寸法線
 62
     0
440
 16777216
370
    -2
100
AcDbLine
 10
554.2837627298005
 20
29.60938473798809
 30
0.0
 11
564.3521577442533
 21
29.60938473798809
 31
0.0
  0
LINE
  5
6EC4
330
6E56
100
AcDbEntity
  8
2寸法線
 62
     0
440
 16777216
370
    -2
100
AcDbLine
 10
563.3521577442532
 20
26.80938473798809
 30
0.0
 11
563.3521577442532
 21
25.00938473798809
 31
0.0
  0
LINE
  5
6EC5
330
6E56
100
AcDbEntity
  8
2寸法線
 62
     0
440
 16777216
370
    -2
100
AcDbLine
 10
563.3521577442532
 20
31.40938473798809
 30
0.0
 11
563.3521577442532
 21
34.80462283322618
 31
0.0
  0
LINE
  5
6EC6
330
6E56
100
AcDbEntity
  8
2寸法線
 62
     0
440
 16777216
370
    -2
100
AcDbLine
 10
563.3521577442532
 20
28.60938473798809
 30
0.0
 11
563.3521577442532
 21
29.60938473798809
 31
0.0
  0
INSERT
  5
6EC7
330
6E56
100
AcDbEntity
  8
2寸法線
 62
     0
440
 16777216
370
    -2
100
AcDbBlockReference
  2
2
 10
563.3521577442532
 20
28.60938473798809
 30
0.0
 41
1.8
 42
1.8
 43
1.8
 50
90.0
  0
INSERT
  5
6EC8
330
6E56
100
AcDbEntity
  8
2寸法線
 62
     0
440
 16777216
370
    -2
100
AcDbBlockReference
  2
2
 10
563.3521577442532
 20
29.60938473798809
 30
0.0
 41
1.8
 42
1.8
 43
1.8
 50
270.0
  0
MTEXT
  5
6EC9
330
6E56
100
AcDbEntity
  8
2寸法線
 62
     0
440
 16777216
100
AcDbMText
 10
561.6021577442531
 20
34.00700378560697
 30
0.0
 40
2.5
 41
0.0
 46
0.0
 71
     5
 72
     1
  1
\A1;1
  7
KANJI
 11
0.0000000000000001
 21
1.0
 31
0.0
 73
     1
 44
1.0
  0
POINT
  5
6ECA
330
6E56
100
AcDbEntity
  8
DEFPOINTS
 62
     0
440
 16777216
100
AcDbPoint
 10
555.2837627297992
 20
28.60938473798809
 30
0.0
  0
POINT
  5
6ECB
330
6E56
100
AcDbEntity
  8
DEFPOINTS
 62
     0
440
 16777216
100
AcDbPoint
 10
553.2837627298006
 20
29.60938473798809
 30
0.0
  0
POINT
  5
6ECC
330
6E56
100
AcDbEntity
  8
DEFPOINTS
 62
     0
440
 16777216
100
AcDbPoint
 10
563.3521577442532
 20
29.60938473798809
 30
0.0
  0
ENDBLK
  5
6E58
330
6E56
100
AcDbEntity
  8
0
100
AcDbBlockEnd
  0
BLOCK
  5
6E65
330
6E64
100
AcDbEntity
  8
0
100
AcDbBlockBegin
  2
*D25
 70
     1
 10
0.0
 20
0.0
 30
0.0
  3
*D25
  1

  0
LINE
  5
6ECD
330
6E64
100
AcDbEntity
  8
2寸法線
 62
     0
440
 16777216
370
    -2
100
AcDbLine
 10
552.9422337971482
 20
90.15388354476826
 30
0.0
 11
552.9440471642824
 21
90.15531147757512
 31
0.0
  0
LINE
  5
6ECE
330
6E64
100
AcDbEntity
  8
2寸法線
 62
     0
440
 16777216
370
    -2
100
AcDbLine
 10
552.3235702864504
 20
90.93953961489763
 30
0.0
 11
552.3253836535846
 21
90.94096754770447
 31
0.0
  0
LINE
  5
6ECF
330
6E64
100
AcDbEntity
  8
2寸法線
 62
     0
440
 16777216
370
    -2
100
AcDbLine
 10
553.2719854134093
 20
88.12246704064449
 30
0.0
 11
554.3855797326654
 21
86.70828611441171
 31
0.0
  0
LINE
  5
6ED0
330
6E64
100
AcDbEntity
  8
2寸法線
 62
     0
440
 16777216
370
    -2
100
AcDbLine
 10
550.4261332641992
 20
91.7364849632394
 30
0.0
 11
547.0697810128931
 21
95.998799572285
 31
0.0
  0
LINE
  5
6ED1
330
6E64
100
AcDbEntity
  8
2寸法線
 62
     0
440
 16777216
370
    -2
100
AcDbLine
 10
552.158391094153
 20
89.53664796687727
 30
0.0
 11
551.5397275834552
 21
90.32230403700664
 31
0.0
  0
INSERT
  5
6ED2
330
6E64
100
AcDbEntity
  8
2寸法線
 62
     0
440
 16777216
370
    -2
100
AcDbBlockReference
  2
2
 10
552.158391094153
 20
89.53664796687727
 30
0.0
 41
1.8
 42
1.8
 43
1.8
 50
128.2186024964472
  0
INSERT
  5
6ED3
330
6E64
100
AcDbEntity
  8
2寸法線
 62
     0
440
 16777216
370
    -2
100
AcDbBlockReference
  2
2
 10
551.5397275834552
 20
90.32230403700664
 30
0.0
 41
1.8
 42
1.8
 43
1.8
 50
308.2186024964472
  0
MTEXT
  5
6ED4
330
6E64
100
AcDbEntity
  8
2寸法線
 62
     0
440
 16777216
100
AcDbMText
 10
548.9381369358189
 20
96.45480646959359
 30
0.0
 40
2.5
 41
0.0
 46
0.0
 71
     5
 72
     1
  1
\A1;1
  7
KANJI
 11
0.6186635106978278
 21
-0.7856560701293148
 31
0.0
 73
     1
 44
1.0
  0
POINT
  5
6ED5
330
6E64
100
AcDbEntity
  8
DEFPOINTS
 62
     0
440
 16777216
100
AcDbPoint
 10
552.1565777270189
 20
89.53522003407043
 30
0.0
  0
POINT
  5
6ED6
330
6E64
100
AcDbEntity
  8
DEFPOINTS
 62
     0
440
 16777216
100
AcDbPoint
 10
551.537914216321
 20
90.32087610419978
 30
0.0
  0
POINT
  5
6ED7
330
6E64
100
AcDbEntity
  8
DEFPOINTS
 62
     0
440
 16777216
100
AcDbPoint
 10
551.5397275834552
 20
90.32230403700664
 30
0.0
  0
ENDBLK
  5
6E66
330
6E64
100
AcDbEntity
  8
0
100
AcDbBlockEnd
  0
BLOCK
  5
6E73
330
6E72
100
AcDbEntity
  8
0
100
AcDbBlockBegin
  2
*D26
 70
     1
 10
0.0
 20
0.0
 30
0.0
  3
*D26
  1

  0
LINE
  5
6ED8
330
6E72
100
AcDbEntity
  8
2寸法線
 62
     0
440
 16777216
370
    -2
100
AcDbLine
 10
486.4336182854399
 20
88.74111499506858
 30
0.0
 11
491.1002849521066
 21
88.74111499506856
 31
0.0
  0
LINE
  5
6ED9
330
6E72
100
AcDbEntity
  8
2寸法線
 62
     0
440
 16777216
370
    -2
100
AcDbLine
 10
491.1002849521066
 20
88.74111499506856
 30
0.0
 11
497.255862313109
 21
81.96131108344472
 31
0.0
  0
MTEXT
  5
6EDA
330
6E72
100
AcDbEntity
  8
2寸法線
 62
     0
440
 16777216
100
AcDbMText
 10
488.5169516187732
 20
90.49111499506858
 30
0.0
 40
2.5
 41
0.0
 46
0.0
 71
     5
 72
     1
  1
\A1;R2
  7
KANJI
 73
     1
 44
1.0
  0
INSERT
  5
6EDB
330
6E72
100
AcDbEntity
  8
2寸法線
 62
     0
440
 16777216
370
    -2
100
AcDbBlockReference
  2
2
 10
498.4658249651159
 20
80.62864819255725
 30
0.0
 41
1.8
 42
1.8
 43
1.8
 50
312.2372037917454
  0
POINT
  5
6EDC
330
6E72
100
AcDbEntity
  8
DEFPOINTS
 62
     0
440
 16777216
100
AcDbPoint
 10
498.4658249651159
 20
80.62864819255725
 30
0.0
  0
POINT
  5
6EDD
330
6E72
100
AcDbEntity
  8
DEFPOINTS
 62
     0
440
 16777216
100
AcDbPoint
 10
497.1214220184414
 20
82.10938473798803
 30
0.0
  0
ENDBLK
  5
6E74
330
6E72
100
AcDbEntity
  8
0
100
AcDbBlockEnd
  0
BLOCK
  5
6E7C
330
6E7B
100
AcDbEntity
  8
0
100
AcDbBlockBegin
  2
*D27
 70
     1
 10
0.0
 20
0.0
 30
0.0
  3
*D27
  1

  0
LINE
  5
6EDE
330
6E7B
100
AcDbEntity
  8
2寸法線
 62
     0
440
 16777216
370
    -2
100
AcDbLine
 10
630.2337627297999
 20
28.60938473798809
 30
0.0
 11
649.7308604476617
 21
28.60938473798809
 31
0.0
  0
LINE
  5
6EDF
330
6E7B
100
AcDbEntity
  8
2寸法線
 62
     0
440
 16777216
370
    -2
100
AcDbLine
 10
628.2337627298004
 20
43.60938473799172
 30
0.0
 11
649.7308604476617
 21
43.60938473799172
 31
0.0
  0
LINE
  5
6EE0
330
6E7B
100
AcDbEntity
  8
2寸法線
 62
     0
440
 16777216
370
    -2
100
AcDbLine
 10
648.7308604476616
 20
30.4093847379881
 30
0.0
 11
648.7308604476616
 21
41.80938473799172
 31
0.0
  0
INSERT
  5
6EE1
330
6E7B
100
AcDbEntity
  8
2寸法線
 62
     0
440
 16777216
370
    -2
100
AcDbBlockReference
  2
2
 10
648.7308604476616
 20
28.60938473798809
 30
0.0
 41
1.8
 42
1.8
 43
1.8
 50
270.0
  0
INSERT
  5
6EE2
330
6E7B
100
AcDbEntity
  8
2寸法線
 62
     0
440
 16777216
370
    -2
100
AcDbBlockReference
  2
2
 10
648.7308604476616
 20
43.60938473799172
 30
0.0
 41
1.8
 42
1.8
 43
1.8
 50
90.0
  0
MTEXT
  5
6EE3
330
6E7B
100
AcDbEntity
  8
2寸法線
 62
     0
440
 16777216
100
AcDbMText
 10
646.9808604476615
 20
36.10938473798989
 30
0.0
 40
2.5
 41
0.0
 46
0.0
 71
     5
 72
     1
  1
\A1;15
  7
KANJI
 11
0.0000000000000001
 21
1.0
 31
0.0
 73
     1
 44
1.0
  0
POINT
  5
6EE4
330
6E7B
100
AcDbEntity
  8
DEFPOINTS
 62
     0
440
 16777216
100
AcDbPoint
 10
629.2337627298
 20
28.60938473798809
 30
0.0
  0
POINT
  5
6EE5
330
6E7B
100
AcDbEntity
  8
DEFPOINTS
 62
     0
440
 16777216
100
AcDbPoint
 10
627.2337627298004
 20
43.60938473799172
 30
0.0
  0
POINT
  5
6EE6
330
6E7B
100
AcDbEntity
  8
DEFPOINTS
 62
     0
440
 16777216
100
AcDbPoint
 10
648.7308604476616
 20
43.60938473799172
 30
0.0
  0
ENDBLK
  5
6E7D
330
6E7B
100
AcDbEntity
  8
0
100
AcDbBlockEnd
  0
BLOCK
  5
6E88
330
6E87
100
AcDbEntity
  8
0
100
AcDbBlockBegin
  2
*D28
 70
     1
 10
0.0
 20
0.0
 30
0.0
  3
*D28
  1

  0
LINE
  5
6EE7
330
6E87
100
AcDbEntity
  8
2寸法線
 62
     0
440
 16777216
370
    -2
100
AcDbLine
 10
628.2337627298004
 20
51.60936905652775
 30
0.0
 11
649.7308604476601
 21
51.60936905652775
 31
0.0
  0
LINE
  5
6EE8
330
6E87
100
AcDbEntity
  8
2寸法線
 62
     0
440
 16777216
370
    -2
100
AcDbLine
 10
628.2337627298004
 20
43.60938473799172
 30
0.0
 11
649.7308604476601
 21
43.60938473799172
 31
0.0
  0
LINE
  5
6EE9
330
6E87
100
AcDbEntity
  8
2寸法線
 62
     0
440
 16777216
370
    -2
100
AcDbLine
 10
648.7308604476601
 20
49.80936905652775
 30
0.0
 11
648.7308604476601
 21
45.40938473799172
 31
0.0
  0
INSERT
  5
6EEA
330
6E87
100
AcDbEntity
  8
2寸法線
 62
     0
440
 16777216
370
    -2
100
AcDbBlockReference
  2
2
 10
648.7308604476601
 20
51.60936905652775
 30
0.0
 41
1.8
 42
1.8
 43
1.8
 50
90.0
  0
INSERT
  5
6EEB
330
6E87
100
AcDbEntity
  8
2寸法線
 62
     0
440
 16777216
370
    -2
100
AcDbBlockReference
  2
2
 10
648.7308604476601
 20
43.60938473799172
 30
0.0
 41
1.8
 42
1.8
 43
1.8
 50
270.0
  0
MTEXT
  5
6EEC
330
6E87
100
AcDbEntity
  8
2寸法線
 62
     0
440
 16777216
100
AcDbMText
 10
646.9808604476599
 20
47.60937689725953
 30
0.0
 40
2.5
 41
0.0
 46
0.0
 71
     5
 72
     1
  1
\A1;8
  7
KANJI
 11
0.0000000000000001
 21
1.0
 31
0.0
 73
     1
 44
1.0
  0
POINT
  5
6EED
330
6E87
100
AcDbEntity
  8
DEFPOINTS
 62
     0
440
 16777216
100
AcDbPoint
 10
627.2337627298004
 20
51.60936905652775
 30
0.0
  0
POINT
  5
6EEE
330
6E87
100
AcDbEntity
  8
DEFPOINTS
 62
     0
440
 16777216
100
AcDbPoint
 10
627.2337627298004
 20
43.60938473799172
 30
0.0
  0
POINT
  5
6EEF
330
6E87
100
AcDbEntity
  8
DEFPOINTS
 62
     0
440
 16777216
100
AcDbPoint
 10
648.7308604476601
 20
43.60938473799172
 30
0.0
  0
ENDBLK
  5
6E89
330
6E87
100
AcDbEntity
  8
0
100
AcDbBlockEnd
  0
ENDSEC
  0
SECTION
  2
ENTITIES
  0
ARC
  5
6D85
330
6C34
100
AcDbEntity
  8
1外形線
100
AcDbCircle
 10
410.4057801877165
 20
52.60938473798625
 30
0.0
 40
25.5
100
AcDbArc
 50
1.063681561403055
 51
90.0
  0
ARC
  5
6D86
330
6C34
100
AcDbEntity
  8
1外形線
100
AcDbCircle
 10
410.4057801877165
 20
52.60938473798625
 30
0.0
 40
27.5
100
AcDbArc
 50
1.063681561403055
 51
90.0
  0
ARC
  5
6D87
330
6C34
100
AcDbEntity
  8
1外形線
100
AcDbCircle
 10
410.4057801877165
 20
52.60938473798625
 30
0.0
 40
27.5
100
AcDbArc
 50
90.0
 51
178.9363184385969
  0
ARC
  5
6D88
330
6C34
100
AcDbEntity
  8
1外形線
100
AcDbCircle
 10
410.4057801877165
 20
52.60938473798625
 30
0.0
 40
25.5
100
AcDbArc
 50
90.0
 51
178.9363184385969
  0
LINE
  5
6D89
330
6C34
100
AcDbEntity
  8
1外形線
100
AcDbLine
 10
382.4554354884435
 20
28.60938473798807
 30
0.0
 11
382.9105189859934
 21
53.11988591234796
 31
0.0
  0
LINE
  5
6D8A
330
6C34
100
AcDbEntity
  8
1外形線
100
AcDbLine
 10
384.4557801877149
 20
28.60938473798807
 30
0.0
 11
384.9101743461192
 21
53.08275855421481
 31
0.0
  0
LINE
  5
6D8B
330
6C34
100
AcDbEntity
  8
1外形線
100
AcDbLine
 10
436.3557801877163
 20
28.60938473798807
 30
0.0
 11
435.9013860293138
 21
53.08275855421481
 31
0.0
  0
LINE
  5
6D8C
330
6C34
100
AcDbEntity
  8
1外形線
100
AcDbLine
 10
438.3561248869896
 20
28.60938473798807
 30
0.0
 11
437.9010413894397
 21
53.11988591234796
 31
0.0
  0
LINE
  5
6D8D
330
6C34
100
AcDbEntity
  8
1外形線
100
AcDbLine
 10
362.4057801877166
 20
52.60938473797352
 30
0.0
 11
362.4057801877166
 21
28.60938473798807
 31
0.0
  0
LINE
  5
6D8E
330
6C34
100
AcDbEntity
  8
1外形線
100
AcDbLine
 10
384.4557801877149
 20
28.60938473798807
 30
0.0
 11
362.4057801877166
 21
28.60938473798807
 31
0.0
  0
ARC
  5
6D8F
330
6C34
100
AcDbEntity
  8
1外形線
100
AcDbCircle
 10
410.4057801877261
 20
52.60938473797352
 30
0.0
 40
48.00000000001
100
AcDbArc
 50
90.0
 51
180.0
  0
ARC
  5
6D90
330
6C34
100
AcDbEntity
  8
1外形線
100
AcDbCircle
 10
410.405780187707
 20
52.60938473797352
 30
0.0
 40
48.00000000001
100
AcDbArc
 50
0.0
 51
90.0
  0
LINE
  5
6D91
330
6C34
100
AcDbEntity
  8
1外形線
100
AcDbLine
 10
458.4057801877166
 20
52.60938473797352
 30
0.0
 11
458.4057801877166
 21
28.60938473798807
 31
0.0
  0
LINE
  5
6D92
330
6C34
100
AcDbEntity
  8
1外形線
100
AcDbLine
 10
436.3557801877172
 20
28.60938473798807
 30
0.0
 11
458.4057801877157
 21
28.60938473798807
 31
0.0
  0
LINE
  5
6D93
330
6C34
100
AcDbEntity
  8
1外形線
100
AcDbLine
 10
478.9214220184399
 20
28.60938473798989
 30
0.0
 11
501.4214220184398
 21
28.60938473798807
 31
0.0
  0
LINE
  5
6D94
330
6C34
100
AcDbEntity
  8
1外形線
100
AcDbLine
 10
478.9214220184399
 20
78.20439717587863
 30
0.0
 11
478.9214220184399
 21
28.60938473798989
 31
0.0
  0
LINE
  5
6D95
330
6C34
100
AcDbEntity
  8
1外形線
100
AcDbLine
 10
501.4214220184398
 20
100.6093847379826
 30
0.0
 11
501.4214220184398
 21
28.60938473798807
 31
0.0
  0
LINE
  5
6D96
330
6C34
100
AcDbEntity
  8
1外形線
100
AcDbLine
 10
501.1214220184397
 20
100.6093847379826
 30
0.0
 11
501.4214220184398
 21
100.6093847379826
 31
0.0
  0
LINE
  5
6D97
330
6C34
100
AcDbEntity
  8
1外形線
100
AcDbLine
 10
499.1214220184397
 20
98.60938473798263
 30
0.0
 11
499.1214220184397
 21
28.60938473798807
 31
0.0
  0
ARC
  5
6D98
330
6C34
100
AcDbEntity
  8
1外形線
100
AcDbCircle
 10
501.1214220184397
 20
98.60938473798263
 30
0.0
 40
2.0
100
AcDbArc
 50
90.0
 51
180.0
  0
LINE
  5
6D99
330
6C34
100
AcDbEntity
  8
1外形線
100
AcDbLine
 10
497.1214220184397
 20
80.10938473798445
 30
0.0
 11
490.4176906520674
 21
80.10938473798626
 31
0.0
  0
LINE
  5
6D9A
330
6C34
100
AcDbEntity
  8
1外形線
100
AcDbLine
 10
479.8219182994189
 20
79.19943436608912
 30
0.0
 11
487.4325790814373
 21
79.96050044429023
 31
0.0
  0
ARC
  5
6D9B
330
6C34
100
AcDbEntity
  8
1外形線
100
AcDbCircle
 10
479.9214220184398
 20
78.20439717587863
 30
0.0
 40
1.0
100
AcDbArc
 50
95.71059313749406
 51
180.0
  0
ARC
  5
6D9C
330
6C34
100
AcDbEntity
  8
1外形線
100
AcDbCircle
 10
490.4176906520674
 20
50.10938473798989
 30
0.0
 40
30.0
100
AcDbArc
 50
90.0
 51
95.71059313749406
  0
ARC
  5
6D9D
330
6C34
100
AcDbEntity
  8
1外形線
100
AcDbCircle
 10
497.1214220184397
 20
82.10938473798444
 30
0.0
 40
2.0
100
AcDbArc
 50
270.0
 51
0.0
  0
ARC
  5
6D9E
330
6C34
100
AcDbEntity
  8
1外形線
100
AcDbCircle
 10
581.2337627298092
 20
52.60938473797352
 30
0.0
 40
48.00000000001
100
AcDbArc
 50
90.0
 51
180.0
  0
ARC
  5
6D9F
330
6C34
100
AcDbEntity
  8
1外形線
100
AcDbCircle
 10
581.2337627297997
 20
52.60938473798625
 30
0.0
 40
25.5
100
AcDbArc
 50
90.0
 51
178.9363184385969
  0
ARC
  5
6DA0
330
6C34
100
AcDbEntity
  8
1外形線
100
AcDbCircle
 10
581.2337627297901
 20
52.60938473797352
 30
0.0
 40
48.00000000001
100
AcDbArc
 50
0.0
 51
90.0
  0
ARC
  5
6DA1
330
6C34
100
AcDbEntity
  8
1外形線
100
AcDbCircle
 10
581.2337627297997
 20
52.60938473798625
 30
0.0
 40
25.5
100
AcDbArc
 50
1.063681561403055
 51
90.0
  0
LINE
  5
6DA2
330
6C34
100
AcDbEntity
  8
1外形線
100
AcDbLine
 10
607.1837627298013
 20
28.60938473798807
 30
0.0
 11
629.2337627297997
 21
28.60938473798807
 31
0.0
  0
LINE
  5
6DA3
330
6C34
100
AcDbEntity
  8
1外形線
100
AcDbLine
 10
607.1837627298013
 20
28.60938473798807
 30
0.0
 11
606.7293685713971
 21
53.08275855421481
 31
0.0
  0
LINE
  5
6DA4
330
6C34
100
AcDbEntity
  8
1外形線
100
AcDbLine
 10
629.2337627297997
 20
52.60938473797352
 30
0.0
 11
629.2337627297997
 21
28.60938473798807
 31
0.0
  0
LINE
  5
6DA5
330
6C34
100
AcDbEntity
  8
1外形線
100
AcDbLine
 10
555.283762729799
 20
28.60938473798807
 30
0.0
 11
533.2337627298007
 21
28.60938473798807
 31
0.0
  0
LINE
  5
6DA6
330
6C34
100
AcDbEntity
  8
1外形線
100
AcDbLine
 10
533.2337627297997
 20
52.60938473797352
 30
0.0
 11
533.2337627297997
 21
28.60938473798807
 31
0.0
  0
LINE
  5
6DA7
330
6C34
100
AcDbEntity
  8
1外形線
100
AcDbLine
 10
555.2837627297999
 20
28.60938473798807
 30
0.0
 11
555.7381568882024
 21
53.08275855421481
 31
0.0
  0
CIRCLE
  5
6DA8
330
6C34
100
AcDbEntity
  8
1外形線
100
AcDbCircle
 10
581.2337627298002
 20
90.60938473798263
 30
0.0
 40
2.149999999999999
  0
CIRCLE
  5
6DAB
330
6C34
100
AcDbEntity
  8
1外形線
100
AcDbCircle
 10
543.2337627297997
 20
38.60938473798807
 30
0.0
 40
2.149999999999999
  0
CIRCLE
  5
6DAD
330
6C34
100
AcDbEntity
  8
1外形線
100
AcDbCircle
 10
619.2337627298006
 20
38.60938473798807
 30
0.0
 40
2.149999999999999
  0
LINE
  5
6DB0
330
6C34
100
AcDbEntity
  8
1外形線
100
AcDbLine
 10
553.2837627298004
 20
29.60938473798807
 30
0.0
 11
553.2837627298004
 21
90.39559253922664
 31
0.0
  0
LINE
  5
6DB1
330
6C34
100
AcDbEntity
  8
1外形線
100
AcDbLine
 10
552.6170960631329
 20
29.60938473798807
 30
0.0
 11
552.6170960631329
 21
89.89324704981402
 31
0.0
  0
LINE
  5
6DB2
330
6C34
100
AcDbEntity
  8
1外形線
100
AcDbLine
 10
551.2837627298003
 20
29.60938473798807
 30
0.0
 11
551.2837627298003
 21
88.83089078064688
 31
0.0
  0
LINE
  5
6DB3
330
6C34
100
AcDbEntity
  8
1外形線
100
AcDbLine
 10
553.2837627298004
 20
29.60938473798807
 30
0.0
 11
551.2837627298003
 21
29.60938473798807
 31
0.0
  0
ARC
  5
6DB4
330
6C34
100
AcDbEntity
  8
1外形線
100
AcDbCircle
 10
581.2337627298092
 20
52.60938473797352
 30
0.0
 40
47.00000000001
100
AcDbArc
 50
126.4898840389176
 51
129.5858768641496
  0
LINE
  5
6DB5
330
6C34
100
AcDbEntity
  8
1外形線
100
AcDbLine
 10
609.1837627298
 20
29.60938473798807
 30
0.0
 11
611.1837627298
 21
29.60938473798807
 31
0.0
  0
LINE
  5
6DB6
330
6C34
100
AcDbEntity
  8
1外形線
100
AcDbLine
 10
611.1837627298
 20
29.60938473798807
 30
0.0
 11
611.1837627298
 21
88.83089078064688
 31
0.0
  0
LINE
  5
6DB7
330
6C34
100
AcDbEntity
  8
1外形線
100
AcDbLine
 10
609.8504293964674
 20
29.60938473798807
 30
0.0
 11
609.8504293964674
 21
89.89324704981402
 31
0.0
  0
LINE
  5
6DB8
330
6C34
100
AcDbEntity
  8
1外形線
100
AcDbLine
 10
609.1837627298
 20
29.60938473798807
 30
0.0
 11
609.1837627298
 21
90.39559253922664
 31
0.0
  0
ARC
  5
6DB9
330
6C34
100
AcDbEntity
  8
1外形線
100
AcDbCircle
 10
581.2337627297911
 20
52.60938473797352
 30
0.0
 40
47.00000000001
100
AcDbArc
 50
50.41412313585032
 51
53.51011596108239
  0
ENDSEC
  0
SECTION
  2
OBJECTS
  0
DICTIONARY
  5
6BD1
330
0
100
AcDbDictionary
281
     1
  3
ACAD_CIP_PREVIOUS_PRODUCT_INFO
350
6C46
  3
ACAD_COLOR
350
6C27
  3
ACAD_DETAILVIEWSTYLE
350
6C2E
  3
ACAD_GROUP
350
6BD2
  3
ACAD_LAYOUT
350
6C26
  3
ACAD_MATERIAL
350
6BD5
  3
ACAD_MLEADERSTYLE
350
6C2A
  3
ACAD_MLINESTYLE
350
6C23
  3
ACAD_PLOTSETTINGS
350
6C25
  3
ACAD_PLOTSTYLENAME
350
6BD3
  3
ACAD_SCALELIST
350
6C07
  3
ACAD_SECTIONVIEWSTYLE
350
6C2C
  3
ACAD_TABLESTYLE
350
6C28
  3
ACAD_VISUALSTYLE
350
6BEE
  3
ACDB_RECOMPOSE_DATA
350
6F03
  3
AcDbVariableDictionary
350
6EF7
  0
DICTIONARY
  5
6CEB
330
6BC7
100
AcDbDictionary
280
     1
281
     1
  3
ACAD_LAYERSTATES
360
6CEC
  0
DICTIONARY
  5
6EF0
330
6C19
100
AcDbDictionary
280
     1
281
     1
  3
ADSK_XREC_LAYER_RECONCILED
360
6EF1
  0
DICTIONARY
  5
6EF2
330
6C39
100
AcDbDictionary
280
     1
281
     1
  3
ADSK_XREC_LAYER_RECONCILED
360
6EF3
  0
DICTIONARY
  5
6EF4
330
6C3A
100
AcDbDictionary
280
     1
281
     1
  3
ADSK_XREC_LAYER_RECONCILED
360
6EF5
  0
DICTIONARY
  5
6CE4
330
6CE3
100
AcDbDictionary
280
     1
281
     1
  3
ADSK_XREC_LAYER_RECONCILED
360
6EF6
  0
XRECORD
  5
6C46
102
{ACAD_REACTORS
330
6BD1
102
}
330
6BD1
100
AcDbXrecord
280
     1
300
ACD
300
2022
300

  0
DICTIONARY
  5
6C27
102
{ACAD_REACTORS
330
6BD1
102
}
330
6BD1
100
AcDbDictionary
281
     1
  0
DICTIONARY
  5
6C2E
102
{ACAD_REACTORS
330
6BD1
102
}
330
6BD1
100
AcDbDictionary
281
     1
  3
Imperial24
350
6C2F
  3
Metric50
350
6CEE
  0
DICTIONARY
  5
6BD2
102
{ACAD_REACTORS
330
6BD1
102
}
330
6BD1
100
AcDbDictionary
281
     1
  0
DICTIONARY
  5
6C26
102
{ACAD_REACTORS
330
6BD1
102
}
330
6BD1
100
AcDbDictionary
281
     1
  3
Model
350
6C37
  3
レイアウト1
350
6C33
  0
DICTIONARY
  5
6BD5
102
{ACAD_REACTORS
330
6BD1
102
}
330
6BD1
100
AcDbDictionary
281
     1
  3
ByBlock
350
6BDE
  3
ByLayer
350
6BD6
  3
Global
350
6BE6
  0
DICTIONARY
  5
6C2A
102
{ACAD_REACTORS
330
6BD1
102
}
330
6BD1
100
AcDbDictionary
281
     1
  3
Standard
350
6C2B
  0
DICTIONARY
  5
6C23
102
{ACAD_REACTORS
330
6BD1
102
}
330
6BD1
100
AcDbDictionary
281
     1
  3
Standard
350
6C24
  0
DICTIONARY
  5
6C25
102
{ACAD_REACTORS
330
6BD1
102
}
330
6BD1
100
AcDbDictionary
281
     1
  0
ACDBDICTIONARYWDFLT
  5
6BD3
102
{ACAD_REACTORS
330
6BD1
102
}
330
6BD1
100
AcDbDictionary
281
     1
  3
Normal
350
6BD4
100
AcDbDictionaryWithDefault
340
6BD4
  0
DICTIONARY
  5
6C07
102
{ACAD_REACTORS
330
6BD1
102
}
330
6BD1
100
AcDbDictionary
281
     1
  3
A0
350
6C08
  3
A1
350
6C09
  3
A2
350
6C0A
  3
A3
350
6C0B
  3
A4
350
6C0C
  3
A5
350
6C0D
  3
A6
350
6C0E
  3
A7
350
6C0F
  3
A8
350
6C10
  3
A9
350
6C11
  3
B0
350
6C12
  3
B1
350
6C13
  3
B2
350
6C14
  3
B3
350
6C15
  3
B4
350
6C16
  3
B5
350
6C17
  3
B6
350
6C18
  0
DICTIONARY
  5
6C2C
102
{ACAD_REACTORS
330
6BD1
102
}
330
6BD1
100
AcDbDictionary
281
     1
  3
Imperial24
350
6C2D
  3
Metric50
350
6CED
  0
DICTIONARY
  5
6C28
102
{ACAD_REACTORS
330
6BD1
102
}
330
6BD1
100
AcDbDictionary
281
     1
  3
Standard
350
6C29
  0
DICTIONARY
  5
6BEE
102
{ACAD_REACTORS
330
6BD1
102
}
330
6BD1
100
AcDbDictionary
281
     1
  3
2dWireframe
350
6BF4
  3
Basic
350
6BF3
  3
Brighten
350
6BFA
  3
ColorChange
350
6BFE
  3
Conceptual
350
6BF7
  3
Dim
350
6BF9
  3
EdgeColorOff
350
6C06
  3
Facepattern
350
6BFD
  3
Flat
350
6BEF
  3
FlatWithEdges
350
6BF0
  3
Gouraud
350
6BF1
  3
GouraudWithEdges
350
6BF2
  3
Hidden
350
6BF6
  3
JitterOff
350
6C04
  3
Linepattern
350
6BFC
  3
OverhangOff
350
6C05
  3
Realistic
350
6BF8
  3
Shaded
350
6C03
  3
Shaded with edges
350
6C02
  3
Shades of Gray
350
6BFF
  3
Sketchy
350
6C00
  3
Thicken
350
6BFB
  3
Wireframe
350
6BF5
  3
X-Ray
350
6C01
  0
XRECORD
  5
6F03
102
{ACAD_REACTORS
330
6BD1
102
}
330
6BD1
100
AcDbXrecord
280
     1
 90
        1
330
6C29
  0
DICTIONARY
  5
6EF7
102
{ACAD_REACTORS
330
6BD1
102
}
330
6BD1
100
AcDbDictionary
281
     1
  3
CANNOSCALE
350
6EFD
  3
CMLEADERSTYLE
350
6EF9
  3
CTABLESTYLE
350
6EF8
  3
CVIEWDETAILSTYLE
350
6EFA
  3
CVIEWSECTIONSTYLE
350
6EFB
  3
LAYEREVAL
350
6EFF
  3
LAYERNOTIFY
350
6F00
  3
LIGHTINGUNITS
350
6EFE
  3
MSLTSCALE
350
6EFC
  0
DICTIONARY
  5
6CEC
102
{ACAD_REACTORS
330
6CEB
102
}
330
6CEB
100
AcDbDictionary
281
     1
  0
XRECORD
  5
6EF1
102
{ACAD_REACTORS
330
6EF0
102
}
330
6EF0
100
AcDbXrecord
280
     1
290
     1
  0
XRECORD
  5
6EF3
102
{ACAD_REACTORS
330
6EF2
102
}
330
6EF2
100
AcDbXrecord
280
     1
290
     1
  0
XRECORD
  5
6EF5
102
{ACAD_REACTORS
330
6EF4
102
}
330
6EF4
100
AcDbXrecord
280
     1
290
     1
  0
XRECORD
  5
6EF6
102
{ACAD_REACTORS
330
6CE4
102
}
330
6CE4
100
AcDbXrecord
280
     1
290
     1
  0
ACDBDETAILVIEWSTYLE
  5
6C2F
102
{ACAD_XDICTIONARY
360
6F36
102
}
102
{ACAD_REACTORS
330
6C2E
102
}
330
6C2E
100
AcDbModelDocViewStyle
 70
     0
  3
Imperial24
290
     0
100
AcDbDetailViewStyle
 70
     0
 71
     0
 90
        3
 71
     1
340
6C1A
 62
   256
 40
0.24
340
0
 62
   256
 40
0.24
300

 40
0.36
280
     3
 71
     2
340
6C21
 90
       25
 62
   256
 71
     3
340
6C1A
 62
   256
 40
0.24
 90
        1
 40
0.75
 90
        1
300
%<\AcVar ViewType \f "%tc1">% %<\AcVar ViewDetailId>%\PSCALE %<\AcVar ViewScale \f "%sn">%
 71
     4
340
6C21
 90
       25
 62
   256
340
6C21
 90
       25
 62
   256
280
     0
  0
ACDBDETAILVIEWSTYLE
  5
6CEE
102
{ACAD_XDICTIONARY
360
6F3A
102
}
102
{ACAD_REACTORS
330
6C2E
102
}
330
6C2E
100
AcDbModelDocViewStyle
 70
     0
  3
Metric50
290
     0
100
AcDbDetailViewStyle
 70
     0
 71
     0
 90
        3
 71
     1
340
6C1A
 62
   256
 40
5.0
340
0
 62
   256
 40
5.0
300

 40
0.0
280
     1
 71
     2
340
6C21
 90
       25
 62
   256
 71
     3
340
6C1A
 62
   256
 40
5.0
 90
        0
 40
15.0
 90
        1
300
%<\AcVar ViewDetailId>% (%<\AcVar ViewScale \f "%sn">%)
 71
     4
340
6C21
 90
       25
 62
   256
340
6C21
 90
       25
 62
   256
280
     0
  0
LAYOUT
  5
6C37
102
{ACAD_REACTORS
330
6C26
102
}
330
6C26
100
AcDbPlotSettings
  1

  2
SHARP MX-5151 (1502249400)
  4

  6

 40
0.0
 41
0.0
 42
0.0
 43
0.0
 44
0.0
 45
0.0
 46
0.0
 47
0.0
 48
0.0
 49
0.0
140
0.0
141
0.0
142
1.0
143
1.0
 70
  1712
 72
     0
 73
     0
 74
     0
  7

 75
     0
147
1.0
 76
     0
 77
     2
 78
   300
148
0.0
149
0.0
100
AcDbLayout
  1
Model
 70
     1
 71
     0
 10
0.0
 20
0.0
 11
12.0
 21
9.0
 12
0.0
 22
0.0
 32
0.0
 14
0.0
 24
0.0
 34
0.0
 15
0.0
 25
0.0
 35
0.0
146
0.0
 13
0.0
 23
0.0
 33
0.0
 16
1.0
 26
0.0
 36
0.0
 17
0.0
 27
1.0
 37
0.0
 76
     0
330
6C34
331
6C38
  0
LAYOUT
  5
6C33
102
{ACAD_REACTORS
330
6C26
102
}
330
6C26
100
AcDbPlotSettings
  1

  2
SHARP MX-5151 (1502249400)
  4

  6

 40
0.0
 41
0.0
 42
0.0
 43
0.0
 44
0.0
 45
0.0
 46
0.0
 47
0.0
 48
0.0
 49
0.0
140
0.0
141
0.0
142
1.0
143
1.0
 70
   688
 72
     0
 73
     0
 74
     5
  7

 75
    16
147
1.0
 76
     0
 77
     2
 78
   300
148
0.0
149
0.0
100
AcDbLayout
  1
レイアウト1
 70
     1
 71
     1
 10
0.0
 20
0.0
 11
420.0
 21
297.0
 12
0.0
 22
0.0
 32
0.0
 14
1.000000000000000E+20
 24
1.000000000000000E+20
 34
1.000000000000000E+20
 15
-1.000000000000000E+20
 25
-1.000000000000000E+20
 35
-1.000000000000000E+20
146
0.0
 13
0.0
 23
0.0
 33
0.0
 16
1.0
 26
0.0
 36
0.0
 17
0.0
 27
1.0
 37
0.0
 76
     0
330
6C30
  0
MATERIAL
  5
6BDE
102
{ACAD_XDICTIONARY
360
6BDF
102
}
102
{ACAD_REACTORS
330
6BD5
102
}
330
6BD5
100
AcDbMaterial
  1
ByBlock
 72
     0
 43
0.0208333333333333
 43
0.0
 43
0.0
 43
0.0
 43
0.0
 43
0.0208333333333333
 43
0.0
 43
0.0
 43
0.0
 43
0.0
 43
1.0
 43
0.0
 43
0.0
 43
0.0
 43
0.0
 43
1.0
 77
     0
 47
0.0208333333333333
 47
0.0
 47
0.0
 47
0.0
 47
0.0
 47
0.0208333333333333
 47
0.0
 47
0.0
 47
0.0
 47
0.0
 47
1.0
 47
0.0
 47
0.0
 47
0.0
 47
0.0
 47
1.0
171
     0
 49
0.0208333333333333
 49
0.0
 49
0.0
 49
0.0
 49
0.0
 49
0.0208333333333333
 49
0.0
 49
0.0
 49
0.0
 49
0.0
 49
1.0
 49
0.0
 49
0.0
 49
0.0
 49
0.0
 49
1.0
175
     0
142
0.0208333333333333
142
0.0
142
0.0
142
0.0
142
0.0
142
0.0208333333333333
142
0.0
142
0.0
142
0.0
142
0.0
142
1.0
142
0.0
142
0.0
142
0.0
142
0.0
142
1.0
179
     0
144
0.0208333333333333
144
0.0
144
0.0
144
0.0
144
0.0
144
0.0208333333333333
144
0.0
144
0.0
144
0.0
144
0.0
144
1.0
144
0.0
144
0.0
144
0.0
144
0.0
144
1.0
147
0.0208333333333333
147
0.0
147
0.0
147
0.0
147
0.0
147
0.0208333333333333
147
0.0
147
0.0
147
0.0
147
0.0
147
1.0
147
0.0
147
0.0
147
0.0
147
0.0
147
1.0
  0
MATERIAL
  5
6BD6
102
{ACAD_XDICTIONARY
360
6BD7
102
}
102
{ACAD_REACTORS
330
6BD5
102
}
330
6BD5
100
AcDbMaterial
  1
ByLayer
 72
     0
 43
0.0208333333333333
 43
0.0
 43
0.0
 43
0.0
 43
0.0
 43
0.0208333333333333
 43
0.0
 43
0.0
 43
0.0
 43
0.0
 43
1.0
 43
0.0
 43
0.0
 43
0.0
 43
0.0
 43
1.0
 77
     0
 47
0.0208333333333333
 47
0.0
 47
0.0
 47
0.0
 47
0.0
 47
0.0208333333333333
 47
0.0
 47
0.0
 47
0.0
 47
0.0
 47
1.0
 47
0.0
 47
0.0
 47
0.0
 47
0.0
 47
1.0
171
     0
 49
0.0208333333333333
 49
0.0
 49
0.0
 49
0.0
 49
0.0
 49
0.0208333333333333
 49
0.0
 49
0.0
 49
0.0
 49
0.0
 49
1.0
 49
0.0
 49
0.0
 49
0.0
 49
0.0
 49
1.0
175
     0
142
0.0208333333333333
142
0.0
142
0.0
142
0.0
142
0.0
142
0.0208333333333333
142
0.0
142
0.0
142
0.0
142
0.0
142
1.0
142
0.0
142
0.0
142
0.0
142
0.0
142
1.0
179
     0
144
0.0208333333333333
144
0.0
144
0.0
144
0.0
144
0.0
144
0.0208333333333333
144
0.0
144
0.0
144
0.0
144
0.0
144
1.0
144
0.0
144
0.0
144
0.0
144
0.0
144
1.0
147
0.0208333333333333
147
0.0
147
0.0
147
0.0
147
0.0
147
0.0208333333333333
147
0.0
147
0.0
147
0.0
147
0.0
147
1.0
147
0.0
147
0.0
147
0.0
147
0.0
147
1.0
  0
MATERIAL
  5
6BE6
102
{ACAD_XDICTIONARY
360
6BE7
102
}
102
{ACAD_REACTORS
330
6BD5
102
}
330
6BD5
100
AcDbMaterial
  1
Global
 72
     0
 43
0.0208333333333333
 43
0.0
 43
0.0
 43
0.0
 43
0.0
 43
0.0208333333333333
 43
0.0
 43
0.0
 43
0.0
 43
0.0
 43
1.0
 43
0.0
 43
0.0
 43
0.0
 43
0.0
 43
1.0
 77
     0
 47
0.0208333333333333
 47
0.0
 47
0.0
 47
0.0
 47
0.0
 47
0.0208333333333333
 47
0.0
 47
0.0
 47
0.0
 47
0.0
 47
1.0
 47
0.0
 47
0.0
 47
0.0
 47
0.0
 47
1.0
171
     0
 49
0.0208333333333333
 49
0.0
 49
0.0
 49
0.0
 49
0.0
 49
0.0208333333333333
 49
0.0
 49
0.0
 49
0.0
 49
0.0
 49
1.0
 49
0.0
 49
0.0
 49
0.0
 49
0.0
 49
1.0
175
     0
142
0.0208333333333333
142
0.0
142
0.0
142
0.0
142
0.0
142
0.0208333333333333
142
0.0
142
0.0
142
0.0
142
0.0
142
1.0
142
0.0
142
0.0
142
0.0
142
0.0
142
1.0
179
     0
144
0.0208333333333333
144
0.0
144
0.0
144
0.0
144
0.0
144
0.0208333333333333
144
0.0
144
0.0
144
0.0
144
0.0
144
1.0
144
0.0
144
0.0
144
0.0
144
0.0
144
1.0
147
0.0208333333333333
147
0.0
147
0.0
147
0.0
147
0.0
147
0.0208333333333333
147
0.0
147
0.0
147
0.0
147
0.0
147
1.0
147
0.0
147
0.0
147
0.0
147
0.0
147
1.0
  0
MLEADERSTYLE
  5
6C2B
102
{ACAD_REACTORS
330
6C2A
102
}
330
6C2A
100
AcDbMLeaderStyle
179
     2
170
     2
171
     1
172
     0
 90
        2
 40
0.0
 41
0.0
173
     1
 91
-1056964608
340
6C1F
 92
       -2
290
     1
 42
0.09
291
     1
 43
0.36
  3
Standard
 44
0.18
300

342
6C1A
174
     1
178
     6
175
     1
176
     0
 93
-1056964608
 45
0.18
292
     0
297
     0
 46
0.18
 94
-1056964608
 47
1.0
 49
1.0
140
1.0
293
     1
141
0.0
294
     1
177
     0
142
1.0
295
     0
296
     0
143
0.125
271
     0
272
     9
273
     9
  0
MLINESTYLE
  5
6C24
102
{ACAD_REACTORS
330
6C23
102
}
330
6C23
100
AcDbMlineStyle
  2
STANDARD
 70
     0
  3

 62
   256
 51
90.0
 52
90.0
 71
     2
 49
0.5
 62
   256
  6
BYLAYER
 49
-0.5
 62
   256
  6
BYLAYER
  0
ACDBPLACEHOLDER
  5
6BD4
102
{ACAD_REACTORS
330
6BD3
102
}
330
6BD3
  0
SCALE
  5
6C08
102
{ACAD_REACTORS
330
6C07
102
}
330
6C07
100
AcDbScale
 70
     0
300
1:1
140
1.0
141
1.0
290
     1
  0
SCALE
  5
6C09
102
{ACAD_REACTORS
330
6C07
102
}
330
6C07
100
AcDbScale
 70
     0
300
1/128" = 1'-0"
140
0.0078125
141
12.0
290
     0
  0
SCALE
  5
6C0A
102
{ACAD_REACTORS
330
6C07
102
}
330
6C07
100
AcDbScale
 70
     0
300
1/64" = 1'-0"
140
0.015625
141
12.0
290
     0
  0
SCALE
  5
6C0B
102
{ACAD_REACTORS
330
6C07
102
}
330
6C07
100
AcDbScale
 70
     0
300
1/32" = 1'-0"
140
0.03125
141
12.0
290
     0
  0
SCALE
  5
6C0C
102
{ACAD_REACTORS
330
6C07
102
}
330
6C07
100
AcDbScale
 70
     0
300
1/16" = 1'-0"
140
0.0625
141
12.0
290
     0
  0
SCALE
  5
6C0D
102
{ACAD_REACTORS
330
6C07
102
}
330
6C07
100
AcDbScale
 70
     0
300
3/32" = 1'-0"
140
0.09375
141
12.0
290
     0
  0
SCALE
  5
6C0E
102
{ACAD_REACTORS
330
6C07
102
}
330
6C07
100
AcDbScale
 70
     0
300
1/8" = 1'-0"
140
0.125
141
12.0
290
     0
  0
SCALE
  5
6C0F
102
{ACAD_REACTORS
330
6C07
102
}
330
6C07
100
AcDbScale
 70
     0
300
3/16" = 1'-0"
140
0.1875
141
12.0
290
     0
  0
SCALE
  5
6C10
102
{ACAD_REACTORS
330
6C07
102
}
330
6C07
100
AcDbScale
 70
     0
300
1/4" = 1'-0"
140
0.25
141
12.0
290
     0
  0
SCALE
  5
6C11
102
{ACAD_REACTORS
330
6C07
102
}
330
6C07
100
AcDbScale
 70
     0
300
3/8" = 1'-0"
140
0.375
141
12.0
290
     0
  0
SCALE
  5
6C12
102
{ACAD_REACTORS
330
6C07
102
}
330
6C07
100
AcDbScale
 70
     0
300
1/2" = 1'-0"
140
0.5
141
12.0
290
     0
  0
SCALE
  5
6C13
102
{ACAD_REACTORS
330
6C07
102
}
330
6C07
100
AcDbScale
 70
     0
300
3/4" = 1'-0"
140
0.75
141
12.0
290
     0
  0
SCALE
  5
6C14
102
{ACAD_REACTORS
330
6C07
102
}
330
6C07
100
AcDbScale
 70
     0
300
1" = 1'-0"
140
1.0
141
12.0
290
     0
  0
SCALE
  5
6C15
102
{ACAD_REACTORS
330
6C07
102
}
330
6C07
100
AcDbScale
 70
     0
300
1-1/2" = 1'-0"
140
1.5
141
12.0
290
     0
  0
SCALE
  5
6C16
102
{ACAD_REACTORS
330
6C07
102
}
330
6C07
100
AcDbScale
 70
     0
300
3" = 1'-0"
140
3.0
141
12.0
290
     0
  0
SCALE
  5
6C17
102
{ACAD_REACTORS
330
6C07
102
}
330
6C07
100
AcDbScale
 70
     0
300
6" = 1'-0"
140
6.0
141
12.0
290
     0
  0
SCALE
  5
6C18
102
{ACAD_REACTORS
330
6C07
102
}
330
6C07
100
AcDbScale
 70
     0
300
1'-0" = 1'-0"
140
12.0
141
12.0
290
     0
  0
ACDBSECTIONVIEWSTYLE
  5
6C2D
102
{ACAD_XDICTIONARY
360
6F34
102
}
102
{ACAD_REACTORS
330
6C2C
102
}
330
6C2C
100
AcDbModelDocViewStyle
 70
     0
  3
Imperial24
290
     0
100
AcDbSectionViewStyle
 70
     0
 71
     0
 90
       78
 71
     1
340
6C1A
 62
   256
 40
0.24
340
0
340
0
 62
   256
 40
0.24
300
I, O, Q, S, X, Z
 40
0.48
 90
        3
 40
0.18
 90
        1
 71
     2
340
6C21
 90
       25
 62
   256
340
6C21
 90
       50
 62
   256
 40
0.24
 40
0.0
 40
0.24
 71
     3
340
6C1A
 62
   256
 40
0.24
 90
        1
 40
0.75
 90
        1
300
%<\AcVar ViewType \f "%tc1">% %<\AcVar ViewSectionStartId>%-%<\AcVar ViewSectionEndId>%\PSCALE %<\AcVar ViewScale \f "%sn">%
 71
     4
 62
   256
 62
   257
300
ANSI31
 40
1.0
 90
        0
290
     0
290
     0
 90
        6
 40
0.0
 40
1.570796326794896
 40
0.2617993877991494
 40
1.308996938995747
 40
-0.2617993877991494
 40
1.832595714594046
  0
ACDBSECTIONVIEWSTYLE
  5
6CED
102
{ACAD_XDICTIONARY
360
6F38
102
}
102
{ACAD_REACTORS
330
6C2C
102
}
330
6C2C
100
AcDbModelDocViewStyle
 70
     0
  3
Metric50
290
     0
100
AcDbSectionViewStyle
 70
     0
 71
     0
 90
      102
 71
     1
340
6C1A
 62
   256
 40
5.0
340
0
340
0
 62
   256
 40
5.0
300
I, O, Q, S, X, Z
 40
10.0
 90
        0
 40
2.5
 90
        0
 71
     2
340
6C21
 90
       25
 62
   256
340
6C21
 90
       50
 62
   256
 40
5.0
 40
2.5
 40
5.0
 71
     3
340
6C1A
 62
   256
 40
5.0
 90
        0
 40
15.0
 90
        1
300
%<\AcVar ViewSectionStartId>%-%<\AcVar ViewSectionEndId>% (%<\AcVar ViewScale \f "%sn">%)
 71
     4
 62
   256
 62
   257
300
ANSI31
 40
1.0
 90
        0
290
     0
290
     0
 90
        6
 40
0.0
 40
1.570796326794896
 40
0.2617993877991494
 40
1.308996938995747
 40
-0.2617993877991494
 40
1.832595714594046
  0
TABLESTYLE
  5
6C29
102
{ACAD_XDICTIONARY
360
6F01
102
}
102
{ACAD_REACTORS
330
6C28
102
}
330
6C28
100
AcDbTableStyle
280
     0
  3
Standard
 70
     0
 71
     0
 40
0.06
 41
0.06
280
     0
281
     0
  7
STANDARD
140
0.18
170
     2
 62
     0
 63
     7
283
     0
 90
      512
 91
        0
  1

274
    -2
284
     1
 64
     0
275
    -2
285
     1
 65
     0
276
    -2
286
     1
 66
     0
277
    -2
287
     1
 67
     0
278
    -2
288
     1
 68
     0
279
    -2
289
     1
 69
     0
  7
STANDARD
140
0.25
170
     5
 62
     0
 63
     7
283
     0
 90
      512
 91
        0
  1

274
    -2
284
     1
 64
     0
275
    -2
285
     1
 65
     0
276
    -2
286
     1
 66
     0
277
    -2
287
     1
 67
     0
278
    -2
288
     1
 68
     0
279
    -2
289
     1
 69
     0
  7
STANDARD
140
0.18
170
     5
 62
     0
 63
     7
283
     0
 90
      512
 91
        0
  1

274
    -2
284
     1
 64
     0
275
    -2
285
     1
 65
     0
276
    -2
286
     1
 66
     0
277
    -2
287
     1
 67
     0
278
    -2
288
     1
 68
     0
279
    -2
289
     1
 69
     0
  0
VISUALSTYLE
  5
6BF4
102
{ACAD_XDICTIONARY
360
6F0E
102
}
102
{ACAD_REACTORS
330
6BEE
102
}
330
6BEE
100
AcDbVisualStyle
  2
2dWireframe
 70
     4
177
     2
291
     0
 71
     0
176
     1
 72
     2
176
     1
 73
     0
176
     1
 90
        0
176
     1
 40
0.6
176
     1
 41
30.0
176
     1
 63
     7
421
 16777215
176
     1
 74
     1
176
     1
 91
        4
176
     1
 64
     7
176
     1
 65
   257
176
     1
 75
     1
176
     1
175
     1
176
     1
 42
1.0
176
     1
 92
        0
176
     1
 66
   257
176
     1
 43
1.0
176
     1
 76
     1
176
     1
 77
     6
176
     1
 78
     2
176
     1
 67
     7
176
     1
 79
     5
176
     1
170
     0
176
     1
171
     0
176
     1
290
     0
176
     1
 93
        1
176
     1
 44
0.0
176
     1
173
     0
176
     1
1001
ACAD
1000
AcDbSavedByObjectVersion
1070
     0
  0
VISUALSTYLE
  5
6BF3
102
{ACAD_XDICTIONARY
360
6F0C
102
}
102
{ACAD_REACTORS
330
6BEE
102
}
330
6BEE
100
AcDbVisualStyle
  2
Basic
 70
     7
177
     2
291
     1
 71
     1
176
     1
 72
     0
176
     1
 73
     1
176
     1
 90
        0
176
     1
 40
0.6
176
     1
 41
30.0
176
     1
 63
     7
421
 16777215
176
     1
 74
     0
176
     1
 91
        4
176
     1
 64
     7
176
     1
 65
   257
176
     1
 75
     1
176
     1
175
     1
176
     1
 42
1.0
176
     1
 92
        8
176
     1
 66
     7
176
     1
 43
1.0
176
     1
 76
     1
176
     1
 77
     6
176
     1
 78
     2
176
     1
 67
     7
176
     1
 79
     5
176
     1
170
     0
176
     1
171
     0
176
     1
290
     0
176
     1
 93
        1
176
     1
 44
0.0
176
     1
173
     0
176
     1
1001
ACAD
1000
AcDbSavedByObjectVersion
1070
     0
  0
VISUALSTYLE
  5
6BFA
102
{ACAD_XDICTIONARY
360
6F1A
102
}
102
{ACAD_REACTORS
330
6BEE
102
}
330
6BEE
100
AcDbVisualStyle
  2
Brighten
 70
    12
177
     2
291
     1
 71
     2
176
     1
 72
     2
176
     1
 73
     0
176
     1
 90
        0
176
     1
 40
0.6
176
     1
 41
30.0
176
     1
 63
     7
421
 16777215
176
     1
 74
     1
176
     1
 91
        4
176
     1
 64
     7
176
     1
 65
   257
176
     1
 75
     1
176
     1
175
     1
176
     1
 42
1.0
176
     1
 92
        8
176
     1
 66
     7
176
     1
 43
1.0
176
     1
 76
     1
176
     1
 77
     6
176
     1
 78
     2
176
     1
 67
     7
176
     1
 79
     5
176
     1
170
     0
176
     1
171
     0
176
     1
290
     0
176
     1
 93
        1
176
     1
 44
50.0
176
     1
173
     0
176
     1
1001
ACAD
1000
AcDbSavedByObjectVersion
1070
     0
  0
VISUALSTYLE
  5
6BFE
102
{ACAD_XDICTIONARY
360
6F22
102
}
102
{ACAD_REACTORS
330
6BEE
102
}
330
6BEE
100
AcDbVisualStyle
  2
ColorChange
 70
    16
177
     2
291
     1
 71
     2
176
     1
 72
     2
176
     1
 73
     3
176
     1
 90
        0
176
     1
 40
0.6
176
     1
 41
30.0
176
     1
 63
     8
421
  8421504
176
     1
 74
     1
176
     1
 91
        4
176
     1
 64
     7
176
     1
 65
   257
176
     1
 75
     1
176
     1
175
     1
176
     1
 42
1.0
176
     1
 92
        8
176
     1
 66
     8
424
  8421504
176
     1
 43
1.0
176
     1
 76
     1
176
     1
 77
     6
176
     1
 78
     2
176
     1
 67
     7
176
     1
 79
     5
176
     1
170
     0
176
     1
171
     0
176
     1
290
     0
176
     1
 93
        1
176
     1
 44
0.0
176
     1
173
     0
176
     1
1001
ACAD
1000
AcDbSavedByObjectVersion
1070
     0
  0
VISUALSTYLE
  5
6BF7
102
{ACAD_XDICTIONARY
360
6F14
102
}
102
{ACAD_REACTORS
330
6BEE
102
}
330
6BEE
100
AcDbVisualStyle
  2
Conceptual
 70
     9
177
     2
291
     0
 71
     3
176
     1
 72
     2
176
     1
 73
     0
176
     1
 90
        0
176
     1
 40
0.6
176
     1
 41
30.0
176
     1
 63
     7
421
 16777215
176
     1
 74
     2
176
     1
 91
        2
176
     1
 64
     7
176
     1
 65
   257
176
     1
 75
     1
176
     1
175
     1
176
     1
 42
179.0
176
     1
 92
        8
176
     1
 66
     7
176
     1
 43
1.0
176
     1
 76
     1
176
     1
 77
     6
176
     1
 78
     2
176
     1
 67
     7
176
     1
 79
     3
176
     1
170
     0
176
     1
171
     0
176
     1
290
     0
176
     1
 93
        1
176
     1
 44
0.0
176
     1
173
     0
176
     1
1001
ACAD
1000
AcDbSavedByObjectVersion
1070
     0
  0
VISUALSTYLE
  5
6BF9
102
{ACAD_XDICTIONARY
360
6F18
102
}
102
{ACAD_REACTORS
330
6BEE
102
}
330
6BEE
100
AcDbVisualStyle
  2
Dim
 70
    11
177
     2
291
     1
 71
     2
176
     1
 72
     2
176
     1
 73
     0
176
     1
 90
        0
176
     1
 40
0.6
176
     1
 41
30.0
176
     1
 63
     7
421
 16777215
176
     1
 74
     1
176
     1
 91
        4
176
     1
 64
     7
176
     1
 65
   257
176
     1
 75
     1
176
     1
175
     1
176
     1
 42
1.0
176
     1
 92
        8
176
     1
 66
     7
176
     1
 43
1.0
176
     1
 76
     1
176
     1
 77
     6
176
     1
 78
     2
176
     1
 67
     7
176
     1
 79
     5
176
     1
170
     0
176
     1
171
     0
176
     1
290
     0
176
     1
 93
        1
176
     1
 44
-50.0
176
     1
173
     0
176
     1
1001
ACAD
1000
AcDbSavedByObjectVersion
1070
     0
  0
VISUALSTYLE
  5
6C06
102
{ACAD_XDICTIONARY
360
6F32
102
}
102
{ACAD_REACTORS
330
6BEE
102
}
330
6BEE
100
AcDbVisualStyle
  2
EdgeColorOff
 70
    22
177
     2
291
     1
 71
     2
176
     0
 72
     2
176
     0
 73
     0
176
     0
 90
        0
176
     0
 40
0.6
176
     0
 41
30.0
176
     0
 63
     7
421
 16777215
176
     0
 74
     1
176
     0
 91
        4
176
     0
 64
     7
176
     0
 65
   257
176
     0
 75
     1
176
     0
175
     1
176
     0
 42
1.0
176
     0
 92
        8
176
     2
 66
     7
176
     0
 43
1.0
176
     0
 76
     1
176
     0
 77
     6
176
     0
 78
     2
176
     0
 67
     7
176
     0
 79
     5
176
     0
170
     0
176
     0
171
     0
176
     0
290
     0
176
     0
 93
        1
176
     0
 44
0.0
176
     0
173
     0
176
     0
1001
ACAD
1000
AcDbSavedByObjectVersion
1070
     0
  0
VISUALSTYLE
  5
6BFD
102
{ACAD_XDICTIONARY
360
6F20
102
}
102
{ACAD_REACTORS
330
6BEE
102
}
330
6BEE
100
AcDbVisualStyle
  2
Facepattern
 70
    15
177
     2
291
     1
 71
     2
176
     1
 72
     2
176
     1
 73
     0
176
     1
 90
        0
176
     1
 40
0.6
176
     1
 41
30.0
176
     1
 63
     7
421
 16777215
176
     1
 74
     1
176
     1
 91
        4
176
     1
 64
     7
176
     1
 65
   257
176
     1
 75
     1
176
     1
175
     1
176
     1
 42
1.0
176
     1
 92
        8
176
     1
 66
     7
176
     1
 43
1.0
176
     1
 76
     1
176
     1
 77
     6
176
     1
 78
     2
176
     1
 67
     7
176
     1
 79
     5
176
     1
170
     0
176
     1
171
     0
176
     1
290
     0
176
     1
 93
        1
176
     1
 44
0.0
176
     1
173
     0
176
     1
1001
ACAD
1000
AcDbSavedByObjectVersion
1070
     0
  0
VISUALSTYLE
  5
6BEF
102
{ACAD_XDICTIONARY
360
6F04
102
}
102
{ACAD_REACTORS
330
6BEE
102
}
330
6BEE
100
AcDbVisualStyle
  2
Flat
 70
     0
177
     2
291
     1
 71
     2
176
     1
 72
     1
176
     1
 73
     1
176
     1
 90
        2
176
     1
 40
0.6
176
     1
 41
30.0
176
     1
 63
     7
421
 16777215
176
     1
 74
     0
176
     1
 91
        0
176
     1
 64
     7
176
     1
 65
   257
176
     1
 75
     1
176
     1
175
     1
176
     1
 42
1.0
176
     1
 92
        8
176
     1
 66
     7
176
     1
 43
1.0
176
     1
 76
     1
176
     1
 77
     6
176
     1
 78
     2
176
     1
 67
     7
176
     1
 79
     5
176
     1
170
     0
176
     1
171
     0
176
     1
290
     0
176
     1
 93
       13
176
     1
 44
0.0
176
     1
173
     0
176
     1
1001
ACAD
1000
AcDbSavedByObjectVersion
1070
     0
  0
VISUALSTYLE
  5
6BF0
102
{ACAD_XDICTIONARY
360
6F06
102
}
102
{ACAD_REACTORS
330
6BEE
102
}
330
6BEE
100
AcDbVisualStyle
  2
FlatWithEdges
 70
     1
177
     2
291
     1
 71
     2
176
     1
 72
     1
176
     1
 73
     1
176
     1
 90
        2
176
     1
 40
0.6
176
     1
 41
30.0
176
     1
 63
     7
421
 16777215
176
     1
 74
     1
176
     1
 91
        0
176
     1
 64
     7
176
     1
 65
   257
176
     1
 75
     1
176
     1
175
     1
176
     1
 42
1.0
176
     1
 92
        0
176
     1
 66
   257
176
     1
 43
1.0
176
     1
 76
     1
176
     1
 77
     6
176
     1
 78
     2
176
     1
 67
     7
176
     1
 79
     5
176
     1
170
     0
176
     1
171
     0
176
     1
290
     0
176
     1
 93
       13
176
     1
 44
0.0
176
     1
173
     0
176
     1
1001
ACAD
1000
AcDbSavedByObjectVersion
1070
     0
  0
VISUALSTYLE
  5
6BF1
102
{ACAD_XDICTIONARY
360
6F08
102
}
102
{ACAD_REACTORS
330
6BEE
102
}
330
6BEE
100
AcDbVisualStyle
  2
Gouraud
 70
     2
177
     2
291
     1
 71
     2
176
     1
 72
     2
176
     1
 73
     1
176
     1
 90
        2
176
     1
 40
0.6
176
     1
 41
30.0
176
     1
 63
     7
421
 16777215
176
     1
 74
     0
176
     1
 91
        0
176
     1
 64
     7
176
     1
 65
   257
176
     1
 75
     1
176
     1
175
     1
176
     1
 42
1.0
176
     1
 92
        0
176
     1
 66
     7
176
     1
 43
1.0
176
     1
 76
     1
176
     1
 77
     6
176
     1
 78
     2
176
     1
 67
     7
176
     1
 79
     5
176
     1
170
     0
176
     1
171
     0
176
     1
290
     0
176
     1
 93
       13
176
     1
 44
0.0
176
     1
173
     0
176
     1
1001
ACAD
1000
AcDbSavedByObjectVersion
1070
     0
  0
VISUALSTYLE
  5
6BF2
102
{ACAD_XDICTIONARY
360
6F0A
102
}
102
{ACAD_REACTORS
330
6BEE
102
}
330
6BEE
100
AcDbVisualStyle
  2
GouraudWithEdges
 70
     3
177
     2
291
     1
 71
     2
176
     1
 72
     2
176
     1
 73
     1
176
     1
 90
        2
176
     1
 40
0.6
176
     1
 41
30.0
176
     1
 63
     7
421
 16777215
176
     1
 74
     1
176
     1
 91
        0
176
     1
 64
     7
176
     1
 65
   257
176
     1
 75
     1
176
     1
175
     1
176
     1
 42
1.0
176
     1
 92
        0
176
     1
 66
   257
176
     1
 43
1.0
176
     1
 76
     1
176
     1
 77
     6
176
     1
 78
     2
176
     1
 67
     7
176
     1
 79
     5
176
     1
170
     0
176
     1
171
     0
176
     1
290
     0
176
     1
 93
       13
176
     1
 44
0.0
176
     1
173
     0
176
     1
1001
ACAD
1000
AcDbSavedByObjectVersion
1070
     0
  0
VISUALSTYLE
  5
6BF6
102
{ACAD_XDICTIONARY
360
6F12
102
}
102
{ACAD_REACTORS
330
6BEE
102
}
330
6BEE
100
AcDbVisualStyle
  2
Hidden
 70
     6
177
     2
291
     0
 71
     1
176
     1
 72
     2
176
     1
 73
     2
176
     1
 90
        0
176
     1
 40
0.6
176
     1
 41
30.0
176
     1
 63
     7
421
 16777215
176
     1
 74
     2
176
     1
 91
        2
176
     1
 64
     7
176
     1
 65
   257
176
     1
 75
     2
176
     1
175
     1
176
     1
 42
40.0
176
     1
 92
        0
176
     1
 66
   257
176
     1
 43
1.0
176
     1
 76
     1
176
     1
 77
     6
176
     1
 78
     2
176
     1
 67
     7
176
     1
 79
     3
176
     1
170
     0
176
     1
171
     0
176
     1
290
     0
176
     1
 93
        1
176
     1
 44
0.0
176
     1
173
     0
176
     1
1001
ACAD
1000
AcDbSavedByObjectVersion
1070
     0
  0
VISUALSTYLE
  5
6C04
102
{ACAD_XDICTIONARY
360
6F2E
102
}
102
{ACAD_REACTORS
330
6BEE
102
}
330
6BEE
100
AcDbVisualStyle
  2
JitterOff
 70
    20
177
     2
291
     1
 71
     2
176
     0
 72
     2
176
     0
 73
     0
176
     0
 90
        0
176
     0
 40
0.6
176
     0
 41
30.0
176
     0
 63
     7
421
 16777215
176
     0
 74
     1
176
     0
 91
        4
176
     0
 64
     7
176
     0
 65
   257
176
     0
 75
     1
176
     0
175
     1
176
     0
 42
1.0
176
     0
 92
       10
176
     2
 66
     7
176
     0
 43
1.0
176
     0
 76
     1
176
     0
 77
     6
176
     0
 78
     2
176
     0
 67
     7
176
     0
 79
     5
176
     0
170
     0
176
     0
171
     0
176
     0
290
     0
176
     0
 93
        1
176
     0
 44
0.0
176
     0
173
     0
176
     0
1001
ACAD
1000
AcDbSavedByObjectVersion
1070
     0
  0
VISUALSTYLE
  5
6BFC
102
{ACAD_XDICTIONARY
360
6F1E
102
}
102
{ACAD_REACTORS
330
6BEE
102
}
330
6BEE
100
AcDbVisualStyle
  2
Linepattern
 70
    14
177
     2
291
     1
 71
     2
176
     1
 72
     2
176
     1
 73
     0
176
     1
 90
        0
176
     1
 40
0.6
176
     1
 41
30.0
176
     1
 63
     7
421
 16777215
176
     1
 74
     1
176
     1
 91
        4
176
     1
 64
     7
176
     1
 65
   257
176
     1
 75
     7
176
     1
175
     7
176
     1
 42
1.0
176
     1
 92
        8
176
     1
 66
     7
176
     1
 43
1.0
176
     1
 76
     1
176
     1
 77
     6
176
     1
 78
     2
176
     1
 67
     7
176
     1
 79
     5
176
     1
170
     0
176
     1
171
     0
176
     1
290
     0
176
     1
 93
        1
176
     1
 44
0.0
176
     1
173
     0
176
     1
1001
ACAD
1000
AcDbSavedByObjectVersion
1070
     0
  0
VISUALSTYLE
  5
6C05
102
{ACAD_XDICTIONARY
360
6F30
102
}
102
{ACAD_REACTORS
330
6BEE
102
}
330
6BEE
100
AcDbVisualStyle
  2
OverhangOff
 70
    21
177
     2
291
     1
 71
     2
176
     0
 72
     2
176
     0
 73
     0
176
     0
 90
        0
176
     0
 40
0.6
176
     0
 41
30.0
176
     0
 63
     7
421
 16777215
176
     0
 74
     1
176
     0
 91
        4
176
     0
 64
     7
176
     0
 65
   257
176
     0
 75
     1
176
     0
175
     1
176
     0
 42
1.0
176
     0
 92
        9
176
     2
 66
     7
176
     0
 43
1.0
176
     0
 76
     1
176
     0
 77
     6
176
     0
 78
     2
176
     0
 67
     7
176
     0
 79
     5
176
     0
170
     0
176
     0
171
     0
176
     0
290
     0
176
     0
 93
        1
176
     0
 44
0.0
176
     0
173
     0
176
     0
1001
ACAD
1000
AcDbSavedByObjectVersion
1070
     0
  0
VISUALSTYLE
  5
6BF8
102
{ACAD_XDICTIONARY
360
6F16
102
}
102
{ACAD_REACTORS
330
6BEE
102
}
330
6BEE
100
AcDbVisualStyle
  2
Realistic
 70
     8
177
     2
291
     0
 71
     2
176
     1
 72
     3
176
     1
 73
     0
176
     1
 90
        2
176
     1
 40
0.6
176
     1
 41
30.0
176
     1
 63
     7
421
 16777215
176
     1
 74
     0
176
     1
 91
        0
176
     1
 64
     7
176
     1
 65
   257
176
     1
 75
     1
176
     1
175
     1
176
     1
 42
1.0
176
     1
 92
        8
176
     1
 66
   257
176
     1
 43
1.0
176
     1
 76
     1
176
     1
 77
     6
176
     1
 78
     2
176
     1
 67
     7
176
     1
 79
     3
176
     1
170
     0
176
     1
171
     0
176
     1
290
     0
176
     1
 93
       13
176
     1
 44
0.0
176
     1
173
     0
176
     1
1001
ACAD
1000
AcDbSavedByObjectVersion
1070
     0
  0
VISUALSTYLE
  5
6C03
102
{ACAD_XDICTIONARY
360
6F2C
102
}
102
{ACAD_REACTORS
330
6BEE
102
}
330
6BEE
100
AcDbVisualStyle
  2
Shaded
 70
    27
177
     2
291
     0
 71
     2
176
     1
 72
     2
176
     1
 73
     1
176
     1
 90
        2
176
     1
 40
0.6
176
     1
 41
30.0
176
     1
 63
     7
421
 16777215
176
     1
 74
     0
176
     1
 91
        4
176
     1
 64
     7
176
     1
 65
   257
176
     1
 75
     1
176
     1
175
     1
176
     1
 42
1.0
176
     1
 92
        8
176
     1
 66
   257
176
     1
 43
1.0
176
     1
 76
     1
176
     1
 77
     6
176
     1
 78
     2
176
     1
 67
     8
425
  7895160
176
     1
 79
     3
176
     1
170
     0
176
     1
171
     0
176
     1
290
     0
176
     1
 93
        5
176
     1
 44
0.0
176
     1
173
     0
176
     1
1001
ACAD
1000
AcDbSavedByObjectVersion
1070
     0
  0
VISUALSTYLE
  5
6C02
102
{ACAD_XDICTIONARY
360
6F2A
102
}
102
{ACAD_REACTORS
330
6BEE
102
}
330
6BEE
100
AcDbVisualStyle
  2
Shaded with edges
 70
    26
177
     2
291
     0
 71
     2
176
     1
 72
     2
176
     1
 73
     1
176
     1
 90
        2
176
     1
 40
0.6
176
     1
 41
30.0
176
     1
 63
     7
421
 16777215
176
     1
 74
     1
176
     1
 91
        2
176
     1
 64
     7
176
     1
 65
   257
176
     1
 75
     2
176
     1
175
     1
176
     1
 42
1.0
176
     1
 92
        8
176
     1
 66
   257
176
     1
 43
1.0
176
     1
 76
     1
176
     1
 77
     6
176
     1
 78
     2
176
     1
 67
     7
176
     1
 79
     3
176
     1
170
     0
176
     1
171
     0
176
     1
290
     0
176
     1
 93
        5
176
     1
 44
0.0
176
     1
173
     0
176
     1
1001
ACAD
1000
AcDbSavedByObjectVersion
1070
     0
  0
VISUALSTYLE
  5
6BFF
102
{ACAD_XDICTIONARY
360
6F24
102
}
102
{ACAD_REACTORS
330
6BEE
102
}
330
6BEE
100
AcDbVisualStyle
  2
Shades of Gray
 70
    23
177
     2
291
     0
 71
     2
176
     1
 72
     2
176
     1
 73
     3
176
     1
 90
        0
176
     1
 40
0.6
176
     1
 41
30.0
176
     1
 63
     7
421
 16777215
176
     1
 74
     2
176
     1
 91
        2
176
     1
 64
     7
176
     1
 65
     7
176
     1
 75
     1
176
     1
175
     1
176
     1
 42
40.0
176
     1
 92
        8
176
     1
 66
     7
176
     1
 43
1.0
176
     1
 76
     1
176
     1
 77
     6
176
     1
 78
     2
176
     1
 67
     7
176
     1
 79
     3
176
     1
170
     0
176
     1
171
     0
176
     1
290
     0
176
     1
 93
        1
176
     1
 44
0.0
176
     1
173
     0
176
     1
1001
ACAD
1000
AcDbSavedByObjectVersion
1070
     0
  0
VISUALSTYLE
  5
6C00
102
{ACAD_XDICTIONARY
360
6F26
102
}
102
{ACAD_REACTORS
330
6BEE
102
}
330
6BEE
100
AcDbVisualStyle
  2
Sketchy
 70
    24
177
     2
291
     0
 71
     1
176
     1
 72
     2
176
     1
 73
     2
176
     1
 90
        0
176
     1
 40
0.6
176
     1
 41
30.0
176
     1
 63
     7
421
 16777215
176
     1
 74
     2
176
     1
 91
        2
176
     1
 64
     7
176
     1
 65
     7
176
     1
 75
     1
176
     1
175
     1
176
     1
 42
40.0
176
     1
 92
       11
176
     1
 66
     7
176
     1
 43
1.0
176
     1
 76
     1
176
     1
 77
     6
176
     1
 78
     2
176
     1
 67
     7
176
     1
 79
     6
176
     1
170
     0
176
     1
171
     0
176
     1
290
     0
176
     1
 93
        1
176
     1
 44
0.0
176
     1
173
     0
176
     1
1001
ACAD
1000
AcDbSavedByObjectVersion
1070
     0
  0
VISUALSTYLE
  5
6BFB
102
{ACAD_XDICTIONARY
360
6F1C
102
}
102
{ACAD_REACTORS
330
6BEE
102
}
330
6BEE
100
AcDbVisualStyle
  2
Thicken
 70
    13
177
     2
291
     1
 71
     2
176
     1
 72
     2
176
     1
 73
     0
176
     1
 90
        0
176
     1
 40
0.6
176
     1
 41
30.0
176
     1
 63
     7
421
 16777215
176
     1
 74
     1
176
     1
 91
        4
176
     1
 64
     7
176
     1
 65
   257
176
     1
 75
     1
176
     1
175
     1
176
     1
 42
1.0
176
     1
 92
       12
176
     1
 66
     7
176
     1
 43
1.0
176
     1
 76
     1
176
     1
 77
     6
176
     1
 78
     2
176
     1
 67
     7
176
     1
 79
     5
176
     1
170
     0
176
     1
171
     0
176
     1
290
     0
176
     1
 93
        1
176
     1
 44
0.0
176
     1
173
     0
176
     1
1001
ACAD
1000
AcDbSavedByObjectVersion
1070
     0
  0
VISUALSTYLE
  5
6BF5
102
{ACAD_XDICTIONARY
360
6F10
102
}
102
{ACAD_REACTORS
330
6BEE
102
}
330
6BEE
100
AcDbVisualStyle
  2
Wireframe
 70
     5
177
     2
291
     0
 71
     0
176
     1
 72
     2
176
     1
 73
     0
176
     1
 90
        0
176
     1
 40
0.6
176
     1
 41
30.0
176
     1
 63
     7
421
 16777215
176
     1
 74
     1
176
     1
 91
        4
176
     1
 64
     7
176
     1
 65
   257
176
     1
 75
     1
176
     1
175
     1
176
     1
 42
1.0
176
     1
 92
        0
176
     1
 66
   257
176
     1
 43
1.0
176
     1
 76
     1
176
     1
 77
     6
176
     1
 78
     2
176
     1
 67
     7
176
     1
 79
     3
176
     1
170
     0
176
     1
171
     0
176
     1
290
     0
176
     1
 93
        1
176
     1
 44
0.0
176
     1
173
     0
176
     1
1001
ACAD
1000
AcDbSavedByObjectVersion
1070
     0
  0
VISUALSTYLE
  5
6C01
102
{ACAD_XDICTIONARY
360
6F28
102
}
102
{ACAD_REACTORS
330
6BEE
102
}
330
6BEE
100
AcDbVisualStyle
  2
X-Ray
 70
    25
177
     2
291
     0
 71
     2
176
     1
 72
     2
176
     1
 73
     1
176
     1
 90
        1
176
     1
 40
0.5
176
     1
 41
30.0
176
     1
 63
     7
421
 16777215
176
     1
 74
     1
176
     1
 91
        0
176
     1
 64
     7
176
     1
 65
   257
176
     1
 75
     1
176
     1
175
     1
176
     1
 42
1.0
176
     1
 92
        8
176
     1
 66
     7
176
     1
 43
1.0
176
     1
 76
     1
176
     1
 77
     6
176
     1
 78
     2
176
     1
 67
     7
176
     1
 79
     3
176
     1
170
     0
176
     1
171
     0
176
     1
290
     0
176
     1
 93
       13
176
     1
 44
0.0
176
     1
173
     0
176
     1
1001
ACAD
1000
AcDbSavedByObjectVersion
1070
     0
  0
DICTIONARYVAR
  5
6EFD
102
{ACAD_REACTORS
330
6EF7
102
}
330
6EF7
100
DictionaryVariables
280
     0
  1
1:1
  0
DICTIONARYVAR
  5
6EF9
102
{ACAD_REACTORS
330
6EF7
102
}
330
6EF7
100
DictionaryVariables
280
     0
  1
STANDARD
  0
DICTIONARYVAR
  5
6EF8
102
{ACAD_REACTORS
330
6EF7
102
}
330
6EF7
100
DictionaryVariables
280
     0
  1
STANDARD
  0
DICTIONARYVAR
  5
6EFA
102
{ACAD_REACTORS
330
6EF7
102
}
330
6EF7
100
DictionaryVariables
280
     0
  1
Imperial24
  0
DICTIONARYVAR
  5
6EFB
102
{ACAD_REACTORS
330
6EF7
102
}
330
6EF7
100
DictionaryVariables
280
     0
  1
Imperial24
  0
DICTIONARYVAR
  5
6EFF
102
{ACAD_REACTORS
330
6EF7
102
}
330
6EF7
100
DictionaryVariables
280
     0
  1
1
  0
DICTIONARYVAR
  5
6F00
102
{ACAD_REACTORS
330
6EF7
102
}
330
6EF7
100
DictionaryVariables
280
     0
  1
15
  0
DICTIONARYVAR
  5
6EFE
102
{ACAD_REACTORS
330
6EF7
102
}
330
6EF7
100
DictionaryVariables
280
     0
  1
0
  0
DICTIONARYVAR
  5
6EFC
102
{ACAD_REACTORS
330
6EF7
102
}
330
6EF7
100
DictionaryVariables
280
     0
  1
0
  0
DICTIONARY
  5
6F36
330
6C2F
100
AcDbDictionary
280
     1
281
     1
  3
ACAD_XREC_ROUNDTRIP
360
6F37
  0
DICTIONARY
  5
6F3A
330
6CEE
100
AcDbDictionary
280
     1
281
     1
  3
ACAD_XREC_ROUNDTRIP
360
6F3B
  0
DICTIONARY
  5
6BDF
330
6BDE
100
AcDbDictionary
280
     1
281
     1
  3
BUMPTILE
360
6BE1
  3
DIFFUSETILE
360
6BE0
  3
OPACITYTILE
360
6BE4
  3
REFLECTIONTILE
360
6BE3
  3
REFRACTIONTILE
360
6BE5
  3
SPECULARTILE
360
6BE2
  0
DICTIONARY
  5
6BD7
330
6BD6
100
AcDbDictionary
280
     1
281
     1
  3
BUMPTILE
360
6BD9
  3
DIFFUSETILE
360
6BD8
  3
OPACITYTILE
360
6BDC
  3
REFLECTIONTILE
360
6BDB
  3
REFRACTIONTILE
360
6BDD
  3
SPECULARTILE
360
6BDA
  0
DICTIONARY
  5
6BE7
330
6BE6
100
AcDbDictionary
280
     1
281
     1
  3
BUMPTILE
360
6BE9
  3
DIFFUSETILE
360
6BE8
  3
OPACITYTILE
360
6BEC
  3
REFLECTIONTILE
360
6BEB
  3
REFRACTIONTILE
360
6BED
  3
SPECULARTILE
360
6BEA
  0
DICTIONARY
  5
6F34
330
6C2D
100
AcDbDictionary
280
     1
281
     1
  3
ACAD_XREC_ROUNDTRIP
360
6F35
  0
DICTIONARY
  5
6F38
330
6CED
100
AcDbDictionary
280
     1
281
     1
  3
ACAD_XREC_ROUNDTRIP
360
6F39
  0
DICTIONARY
  5
6F01
330
6C29
100
AcDbDictionary
280
     1
281
     1
  3
ACAD_ROUNDTRIP_2008_TABLESTYLE_CELLSTYLEMAP
360
6F02
  0
DICTIONARY
  5
6F0E
330
6BF4
100
AcDbDictionary
280
     1
281
     1
  3
ACAD_XREC_ROUNDTRIP
360
6F0F
  0
DICTIONARY
  5
6F0C
330
6BF3
100
AcDbDictionary
280
     1
281
     1
  3
ACAD_XREC_ROUNDTRIP
360
6F0D
  0
DICTIONARY
  5
6F1A
330
6BFA
100
AcDbDictionary
280
     1
281
     1
  3
ACAD_XREC_ROUNDTRIP
360
6F1B
  0
DICTIONARY
  5
6F22
330
6BFE
100
AcDbDictionary
280
     1
281
     1
  3
ACAD_XREC_ROUNDTRIP
360
6F23
  0
DICTIONARY
  5
6F14
330
6BF7
100
AcDbDictionary
280
     1
281
     1
  3
ACAD_XREC_ROUNDTRIP
360
6F15
  0
DICTIONARY
  5
6F18
330
6BF9
100
AcDbDictionary
280
     1
281
     1
  3
ACAD_XREC_ROUNDTRIP
360
6F19
  0
DICTIONARY
  5
6F32
330
6C06
100
AcDbDictionary
280
     1
281
     1
  3
ACAD_XREC_ROUNDTRIP
360
6F33
  0
DICTIONARY
  5
6F20
330
6BFD
100
AcDbDictionary
280
     1
281
     1
  3
ACAD_XREC_ROUNDTRIP
360
6F21
  0
DICTIONARY
  5
6F04
330
6BEF
100
AcDbDictionary
280
     1
281
     1
  3
ACAD_XREC_ROUNDTRIP
360
6F05
  0
DICTIONARY
  5
6F06
330
6BF0
100
AcDbDictionary
280
     1
281
     1
  3
ACAD_XREC_ROUNDTRIP
360
6F07
  0
DICTIONARY
  5
6F08
330
6BF1
100
AcDbDictionary
280
     1
281
     1
  3
ACAD_XREC_ROUNDTRIP
360
6F09
  0
DICTIONARY
  5
6F0A
330
6BF2
100
AcDbDictionary
280
     1
281
     1
  3
ACAD_XREC_ROUNDTRIP
360
6F0B
  0
DICTIONARY
  5
6F12
330
6BF6
100
AcDbDictionary
280
     1
281
     1
  3
ACAD_XREC_ROUNDTRIP
360
6F13
  0
DICTIONARY
  5
6F2E
330
6C04
100
AcDbDictionary
280
     1
281
     1
  3
ACAD_XREC_ROUNDTRIP
360
6F2F
  0
DICTIONARY
  5
6F1E
330
6BFC
100
AcDbDictionary
280
     1
281
     1
  3
ACAD_XREC_ROUNDTRIP
360
6F1F
  0
DICTIONARY
  5
6F30
330
6C05
100
AcDbDictionary
280
     1
281
     1
  3
ACAD_XREC_ROUNDTRIP
360
6F31
  0
DICTIONARY
  5
6F16
330
6BF8
100
AcDbDictionary
280
     1
281
     1
  3
ACAD_XREC_ROUNDTRIP
360
6F17
  0
DICTIONARY
  5
6F2C
330
6C03
100
AcDbDictionary
280
     1
281
     1
  3
ACAD_XREC_ROUNDTRIP
360
6F2D
  0
DICTIONARY
  5
6F2A
330
6C02
100
AcDbDictionary
280
     1
281
     1
  3
ACAD_XREC_ROUNDTRIP
360
6F2B
  0
DICTIONARY
  5
6F24
330
6BFF
100
AcDbDictionary
280
     1
281
     1
  3
ACAD_XREC_ROUNDTRIP
360
6F25
  0
DICTIONARY
  5
6F26
330
6C00
100
AcDbDictionary
280
     1
281
     1
  3
ACAD_XREC_ROUNDTRIP
360
6F27
  0
DICTIONARY
  5
6F1C
330
6BFB
100
AcDbDictionary
280
     1
281
     1
  3
ACAD_XREC_ROUNDTRIP
360
6F1D
  0
DICTIONARY
  5
6F10
330
6BF5
100
AcDbDictionary
280
     1
281
     1
  3
ACAD_XREC_ROUNDTRIP
360
6F11
  0
DICTIONARY
  5
6F28
330
6C01
100
AcDbDictionary
280
     1
281
     1
  3
ACAD_XREC_ROUNDTRIP
360
6F29
  0
XRECORD
  5
6F37
102
{ACAD_REACTORS
330
6F36
102
}
330
6F36
100
AcDbXrecord
280
     1
102
DISPLAYNAME
  1
Imperial24
102
FLAGS
 90
        0
  0
XRECORD
  5
6F3B
102
{ACAD_REACTORS
330
6F3A
102
}
330
6F3A
100
AcDbXrecord
280
     1
102
DISPLAYNAME
  1
Metric50
102
FLAGS
 90
        0
  0
XRECORD
  5
6BE1
102
{ACAD_REACTORS
330
6BDF
102
}
330
6BDF
100
AcDbXrecord
280
     1
270
     1
271
     1
  0
XRECORD
  5
6BE0
102
{ACAD_REACTORS
330
6BDF
102
}
330
6BDF
100
AcDbXrecord
280
     1
270
     1
271
     1
  0
XRECORD
  5
6BE4
102
{ACAD_REACTORS
330
6BDF
102
}
330
6BDF
100
AcDbXrecord
280
     1
270
     1
271
     1
  0
XRECORD
  5
6BE3
102
{ACAD_REACTORS
330
6BDF
102
}
330
6BDF
100
AcDbXrecord
280
     1
270
     1
271
     1
  0
XRECORD
  5
6BE5
102
{ACAD_REACTORS
330
6BDF
102
}
330
6BDF
100
AcDbXrecord
280
     1
270
     1
271
     1
  0
XRECORD
  5
6BE2
102
{ACAD_REACTORS
330
6BDF
102
}
330
6BDF
100
AcDbXrecord
280
     1
270
     1
271
     1
  0
XRECORD
  5
6BD9
102
{ACAD_REACTORS
330
6BD7
102
}
330
6BD7
100
AcDbXrecord
280
     1
270
     1
271
     1
  0
XRECORD
  5
6BD8
102
{ACAD_REACTORS
330
6BD7
102
}
330
6BD7
100
AcDbXrecord
280
     1
270
     1
271
     1
  0
XRECORD
  5
6BDC
102
{ACAD_REACTORS
330
6BD7
102
}
330
6BD7
100
AcDbXrecord
280
     1
270
     1
271
     1
  0
XRECORD
  5
6BDB
102
{ACAD_REACTORS
330
6BD7
102
}
330
6BD7
100
AcDbXrecord
280
     1
270
     1
271
     1
  0
XRECORD
  5
6BDD
102
{ACAD_REACTORS
330
6BD7
102
}
330
6BD7
100
AcDbXrecord
280
     1
270
     1
271
     1
  0
XRECORD
  5
6BDA
102
{ACAD_REACTORS
330
6BD7
102
}
330
6BD7
100
AcDbXrecord
280
     1
270
     1
271
     1
  0
XRECORD
  5
6BE9
102
{ACAD_REACTORS
330
6BE7
102
}
330
6BE7
100
AcDbXrecord
280
     1
270
     1
271
     1
  0
XRECORD
  5
6BE8
102
{ACAD_REACTORS
330
6BE7
102
}
330
6BE7
100
AcDbXrecord
280
     1
270
     1
271
     1
  0
XRECORD
  5
6BEC
102
{ACAD_REACTORS
330
6BE7
102
}
330
6BE7
100
AcDbXrecord
280
     1
270
     1
271
     1
  0
XRECORD
  5
6BEB
102
{ACAD_REACTORS
330
6BE7
102
}
330
6BE7
100
AcDbXrecord
280
     1
270
     1
271
     1
  0
XRECORD
  5
6BED
102
{ACAD_REACTORS
330
6BE7
102
}
330
6BE7
100
AcDbXrecord
280
     1
270
     1
271
     1
  0
XRECORD
  5
6BEA
102
{ACAD_REACTORS
330
6BE7
102
}
330
6BE7
100
AcDbXrecord
280
     1
270
     1
271
     1
  0
XRECORD
  5
6F35
102
{ACAD_REACTORS
330
6F34
102
}
330
6F34
100
AcDbXrecord
280
     1
102
DISPLAYNAME
  1
Imperial24
102
FLAGS
 90
        0
  0
XRECORD
  5
6F39
102
{ACAD_REACTORS
330
6F38
102
}
330
6F38
100
AcDbXrecord
280
     1
102
DISPLAYNAME
  1
Metric50
102
FLAGS
 90
        0
  0
CELLSTYLEMAP
  5
6F02
102
{ACAD_REACTORS
330
6F01
102
}
330
6F01
100
AcDbCellStyleMap
 90
        3
300
CELLSTYLE
  1
TABLEFORMAT_BEGIN
 90
        5
170
     1
 91
        0
 92
    32768
 62
   257
 93
        1
300
CONTENTFORMAT
  1
CONTENTFORMAT_BEGIN
 90
        0
 91
        0
 92
      512
 93
        0
300

 40
0.0
140
1.0
 94
        5
 62
     0
340
6C1A
144
0.25
309
CONTENTFORMAT_END
171
     0
 94
        0
309
TABLEFORMAT_END
  1
CELLSTYLE_BEGIN
 90
        1
 91
        1
300
_TITLE
309
CELLSTYLE_END
300
CELLSTYLE
  1
TABLEFORMAT_BEGIN
 90
        5
170
     1
 91
        0
 92
        0
 62
   257
 93
        1
300
CONTENTFORMAT
  1
CONTENTFORMAT_BEGIN
 90
        0
 91
        0
 92
      512
 93
        0
300

 40
0.0
140
1.0
 94
        5
 62
     0
340
6C1A
144
0.18
309
CONTENTFORMAT_END
171
     0
 94
        0
309
TABLEFORMAT_END
  1
CELLSTYLE_BEGIN
 90
        2
 91
        1
300
_HEADER
309
CELLSTYLE_END
300
CELLSTYLE
  1
TABLEFORMAT_BEGIN
 90
        5
170
     1
 91
        0
 92
        0
 62
   257
 93
        1
300
CONTENTFORMAT
  1
CONTENTFORMAT_BEGIN
 90
        0
 91
        0
 92
      512
 93
        0
300

 40
0.0
140
1.0
 94
        2
 62
     0
340
6C1A
144
0.18
309
CONTENTFORMAT_END
171
     0
 94
        0
309
TABLEFORMAT_END
  1
CELLSTYLE_BEGIN
 90
        3
 91
        2
300
_DATA
309
CELLSTYLE_END
  0
XRECORD
  5
6F0F
102
{ACAD_REACTORS
330
6F0E
102
}
330
6F0E
100
AcDbXrecord
280
     1
102
RTVSPost2010Prop28
280
     1
102
RTVSPost2010PropOp28
 70
     1
102
RTVSPost2010Prop29
280
     1
102
RTVSPost2010PropOp29
 70
     1
102
RTVSPost2010Prop30
280
     0
102
RTVSPost2010PropOp30
 70
     1
102
RTVSPost2010Prop31
280
     0
102
RTVSPost2010PropOp31
 70
     1
102
RTVSPost2010Prop32
280
     0
102
RTVSPost2010PropOp32
 70
     1
102
RTVSPost2010Prop33
280
     0
102
RTVSPost2010PropOp33
 70
     1
102
RTVSPost2010Prop34
280
     0
102
RTVSPost2010PropOp34
 70
     1
102
RTVSPost2010Prop35
280
     0
102
RTVSPost2010PropOp35
 70
     1
102
RTVSPost2010Prop36
280
     0
102
RTVSPost2010PropOp36
 70
     1
102
RTVSPost2010Prop37
 90
       50
102
RTVSPost2010PropOp37
 70
     1
102
RTVSPost2010Prop38
140
0.0
102
RTVSPost2010PropOp38
 70
     1
102
RTVSPost2010Prop39
140
1.0
102
RTVSPost2010PropOp39
 70
     1
102
RTVSPost2010Prop40
 90
        0
102
RTVSPost2010PropOp40
 70
     1
102
RTVSPost2010Prop41ColorIndex
 90
       18
102
RTVSPost2010Prop41ColorRGB
 90
        0
102
RTVSPost2010PropOp41
 70
     1
102
RTVSPost2010Prop42
 90
       50
102
RTVSPost2010PropOp42
 70
     1
102
RTVSPost2010Prop43
 90
        3
102
RTVSPost2010PropOp43
 70
     1
102
RTVSPost2010Prop44ColorIndex
 90
        5
102
RTVSPost2010Prop44ColorRGB
 90
      255
102
RTVSPost2010PropOp44
 70
     1
102
RTVSPost2010Prop45
280
     0
102
RTVSPost2010PropOp45
 70
     1
102
RTVSPost2010Prop46
 90
       50
102
RTVSPost2010PropOp46
 70
     1
102
RTVSPost2010Prop47
 90
       50
102
RTVSPost2010PropOp47
 70
     1
102
RTVSPost2010Prop48
 90
       50
102
RTVSPost2010PropOp48
 70
     1
102
RTVSPost2010Prop49
280
     0
102
RTVSPost2010PropOp49
 70
     1
102
RTVSPost2010Prop50
 90
       50
102
RTVSPost2010PropOp50
 70
     1
102
RTVSPost2010Prop51ColorIndex
 90
      256
102
RTVSPost2010Prop51ColorRGB
 90
-16777216
102
RTVSPost2010PropOp51
 70
     0
102
RTVSPost2010Prop52
140
1.0
102
RTVSPost2010PropOp52
 70
     0
102
RTVSPost2010Prop53
 90
        2
102
RTVSPost2010PropOp53
 70
     1
102
RTVSPost2010Prop54
  1
strokes_ogs.tif
102
RTVSPost2010PropOp54
 70
     1
102
RTVSPost2010Prop55
280
     0
102
RTVSPost2010PropOp55
 70
     1
102
RTVSPost2010Prop56
140
1.0
102
RTVSPost2010PropOp56
 70
     1
102
RTVSPost2010Prop57
140
1.0
102
RTVSPost2010PropOp57
 70
     1
  0
XRECORD
  5
6F0D
102
{ACAD_REACTORS
330
6F0C
102
}
330
6F0C
100
AcDbXrecord
280
     1
102
RTVSPost2010Prop28
280
     0
102
RTVSPost2010PropOp28
 70
     1
102
RTVSPost2010Prop29
280
     1
102
RTVSPost2010PropOp29
 70
     1
102
RTVSPost2010Prop30
280
     1
102
RTVSPost2010PropOp30
 70
     1
102
RTVSPost2010Prop31
280
     0
102
RTVSPost2010PropOp31
 70
     1
102
RTVSPost2010Prop32
280
     0
102
RTVSPost2010PropOp32
 70
     1
102
RTVSPost2010Prop33
280
     0
102
RTVSPost2010PropOp33
 70
     1
102
RTVSPost2010Prop34
280
     0
102
RTVSPost2010PropOp34
 70
     1
102
RTVSPost2010Prop35
280
     0
102
RTVSPost2010PropOp35
 70
     1
102
RTVSPost2010Prop36
280
     0
102
RTVSPost2010PropOp36
 70
     1
102
RTVSPost2010Prop37
 90
       50
102
RTVSPost2010PropOp37
 70
     1
102
RTVSPost2010Prop38
140
0.0
102
RTVSPost2010PropOp38
 70
     1
102
RTVSPost2010Prop39
140
1.0
102
RTVSPost2010PropOp39
 70
     1
102
RTVSPost2010Prop40
 90
        0
102
RTVSPost2010PropOp40
 70
     1
102
RTVSPost2010Prop41ColorIndex
 90
       18
102
RTVSPost2010Prop41ColorRGB
 90
        0
102
RTVSPost2010PropOp41
 70
     1
102
RTVSPost2010Prop42
 90
       50
102
RTVSPost2010PropOp42
 70
     1
102
RTVSPost2010Prop43
 90
        3
102
RTVSPost2010PropOp43
 70
     1
102
RTVSPost2010Prop44ColorIndex
 90
        5
102
RTVSPost2010Prop44ColorRGB
 90
      255
102
RTVSPost2010PropOp44
 70
     1
102
RTVSPost2010Prop45
280
     0
102
RTVSPost2010PropOp45
 70
     1
102
RTVSPost2010Prop46
 90
       50
102
RTVSPost2010PropOp46
 70
     1
102
RTVSPost2010Prop47
 90
       50
102
RTVSPost2010PropOp47
 70
     1
102
RTVSPost2010Prop48
 90
       50
102
RTVSPost2010PropOp48
 70
     1
102
RTVSPost2010Prop49
280
     0
102
RTVSPost2010PropOp49
 70
     1
102
RTVSPost2010Prop50
 90
       50
102
RTVSPost2010PropOp50
 70
     1
102
RTVSPost2010Prop51ColorIndex
 90
      256
102
RTVSPost2010Prop51ColorRGB
 90
-16777216
102
RTVSPost2010PropOp51
 70
     0
102
RTVSPost2010Prop52
140
1.0
102
RTVSPost2010PropOp52
 70
     0
102
RTVSPost2010Prop53
 90
        2
102
RTVSPost2010PropOp53
 70
     1
102
RTVSPost2010Prop54
  1
strokes_ogs.tif
102
RTVSPost2010PropOp54
 70
     1
102
RTVSPost2010Prop55
280
     0
102
RTVSPost2010PropOp55
 70
     1
102
RTVSPost2010Prop56
140
1.0
102
RTVSPost2010PropOp56
 70
     1
102
RTVSPost2010Prop57
140
1.0
102
RTVSPost2010PropOp57
 70
     1
  0
XRECORD
  5
6F1B
102
{ACAD_REACTORS
330
6F1A
102
}
330
6F1A
100
AcDbXrecord
280
     1
102
RTVSPost2010Prop28
280
     0
102
RTVSPost2010PropOp28
 70
     1
102
RTVSPost2010Prop29
280
     1
102
RTVSPost2010PropOp29
 70
     1
102
RTVSPost2010Prop30
280
     1
102
RTVSPost2010PropOp30
 70
     1
102
RTVSPost2010Prop31
280
     0
102
RTVSPost2010PropOp31
 70
     1
102
RTVSPost2010Prop32
280
     0
102
RTVSPost2010PropOp32
 70
     1
102
RTVSPost2010Prop33
280
     0
102
RTVSPost2010PropOp33
 70
     1
102
RTVSPost2010Prop34
280
     0
102
RTVSPost2010PropOp34
 70
     1
102
RTVSPost2010Prop35
280
     0
102
RTVSPost2010PropOp35
 70
     1
102
RTVSPost2010Prop36
280
     0
102
RTVSPost2010PropOp36
 70
     1
102
RTVSPost2010Prop37
 90
       50
102
RTVSPost2010PropOp37
 70
     1
102
RTVSPost2010Prop38
140
0.0
102
RTVSPost2010PropOp38
 70
     1
102
RTVSPost2010Prop39
140
1.0
102
RTVSPost2010PropOp39
 70
     1
102
RTVSPost2010Prop40
 90
        0
102
RTVSPost2010PropOp40
 70
     1
102
RTVSPost2010Prop41ColorIndex
 90
       18
102
RTVSPost2010Prop41ColorRGB
 90
        0
102
RTVSPost2010PropOp41
 70
     1
102
RTVSPost2010Prop42
 90
       50
102
RTVSPost2010PropOp42
 70
     1
102
RTVSPost2010Prop43
 90
        3
102
RTVSPost2010PropOp43
 70
     1
102
RTVSPost2010Prop44ColorIndex
 90
        5
102
RTVSPost2010Prop44ColorRGB
 90
      255
102
RTVSPost2010PropOp44
 70
     1
102
RTVSPost2010Prop45
280
     0
102
RTVSPost2010PropOp45
 70
     1
102
RTVSPost2010Prop46
 90
       50
102
RTVSPost2010PropOp46
 70
     1
102
RTVSPost2010Prop47
 90
       50
102
RTVSPost2010PropOp47
 70
     1
102
RTVSPost2010Prop48
 90
       50
102
RTVSPost2010PropOp48
 70
     1
102
RTVSPost2010Prop49
280
     0
102
RTVSPost2010PropOp49
 70
     1
102
RTVSPost2010Prop50
 90
       50
102
RTVSPost2010PropOp50
 70
     1
102
RTVSPost2010Prop51ColorIndex
 90
      256
102
RTVSPost2010Prop51ColorRGB
 90
-16777216
102
RTVSPost2010PropOp51
 70
     0
102
RTVSPost2010Prop52
140
1.0
102
RTVSPost2010PropOp52
 70
     0
102
RTVSPost2010Prop53
 90
        2
102
RTVSPost2010PropOp53
 70
     1
102
RTVSPost2010Prop54
  1
strokes_ogs.tif
102
RTVSPost2010PropOp54
 70
     1
102
RTVSPost2010Prop55
280
     0
102
RTVSPost2010PropOp55
 70
     1
102
RTVSPost2010Prop56
140
1.0
102
RTVSPost2010PropOp56
 70
     1
102
RTVSPost2010Prop57
140
1.0
102
RTVSPost2010PropOp57
 70
     1
  0
XRECORD
  5
6F23
102
{ACAD_REACTORS
330
6F22
102
}
330
6F22
100
AcDbXrecord
280
     1
102
RTVSPost2010Prop28
280
     0
102
RTVSPost2010PropOp28
 70
     1
102
RTVSPost2010Prop29
280
     1
102
RTVSPost2010PropOp29
 70
     1
102
RTVSPost2010Prop30
280
     1
102
RTVSPost2010PropOp30
 70
     1
102
RTVSPost2010Prop31
280
     0
102
RTVSPost2010PropOp31
 70
     1
102
RTVSPost2010Prop32
280
     0
102
RTVSPost2010PropOp32
 70
     1
102
RTVSPost2010Prop33
280
     0
102
RTVSPost2010PropOp33
 70
     1
102
RTVSPost2010Prop34
280
     0
102
RTVSPost2010PropOp34
 70
     1
102
RTVSPost2010Prop35
280
     0
102
RTVSPost2010PropOp35
 70
     1
102
RTVSPost2010Prop36
280
     0
102
RTVSPost2010PropOp36
 70
     1
102
RTVSPost2010Prop37
 90
       50
102
RTVSPost2010PropOp37
 70
     1
102
RTVSPost2010Prop38
140
0.0
102
RTVSPost2010PropOp38
 70
     1
102
RTVSPost2010Prop39
140
1.0
102
RTVSPost2010PropOp39
 70
     1
102
RTVSPost2010Prop40
 90
        0
102
RTVSPost2010PropOp40
 70
     1
102
RTVSPost2010Prop41ColorIndex
 90
       18
102
RTVSPost2010Prop41ColorRGB
 90
        0
102
RTVSPost2010PropOp41
 70
     1
102
RTVSPost2010Prop42
 90
       50
102
RTVSPost2010PropOp42
 70
     1
102
RTVSPost2010Prop43
 90
        3
102
RTVSPost2010PropOp43
 70
     1
102
RTVSPost2010Prop44ColorIndex
 90
        5
102
RTVSPost2010Prop44ColorRGB
 90
      255
102
RTVSPost2010PropOp44
 70
     1
102
RTVSPost2010Prop45
280
     0
102
RTVSPost2010PropOp45
 70
     1
102
RTVSPost2010Prop46
 90
       50
102
RTVSPost2010PropOp46
 70
     1
102
RTVSPost2010Prop47
 90
       50
102
RTVSPost2010PropOp47
 70
     1
102
RTVSPost2010Prop48
 90
       50
102
RTVSPost2010PropOp48
 70
     1
102
RTVSPost2010Prop49
280
     0
102
RTVSPost2010PropOp49
 70
     1
102
RTVSPost2010Prop50
 90
       50
102
RTVSPost2010PropOp50
 70
     1
102
RTVSPost2010Prop51ColorIndex
 90
      256
102
RTVSPost2010Prop51ColorRGB
 90
-16777216
102
RTVSPost2010PropOp51
 70
     0
102
RTVSPost2010Prop52
140
1.0
102
RTVSPost2010PropOp52
 70
     0
102
RTVSPost2010Prop53
 90
        2
102
RTVSPost2010PropOp53
 70
     1
102
RTVSPost2010Prop54
  1
strokes_ogs.tif
102
RTVSPost2010PropOp54
 70
     1
102
RTVSPost2010Prop55
280
     0
102
RTVSPost2010PropOp55
 70
     1
102
RTVSPost2010Prop56
140
1.0
102
RTVSPost2010PropOp56
 70
     1
102
RTVSPost2010Prop57
140
1.0
102
RTVSPost2010PropOp57
 70
     1
  0
XRECORD
  5
6F15
102
{ACAD_REACTORS
330
6F14
102
}
330
6F14
100
AcDbXrecord
280
     1
102
RTVSPost2010Prop28
280
     0
102
RTVSPost2010PropOp28
 70
     1
102
RTVSPost2010Prop29
280
     1
102
RTVSPost2010PropOp29
 70
     1
102
RTVSPost2010Prop30
280
     1
102
RTVSPost2010PropOp30
 70
     1
102
RTVSPost2010Prop31
280
     0
102
RTVSPost2010PropOp31
 70
     1
102
RTVSPost2010Prop32
280
     0
102
RTVSPost2010PropOp32
 70
     1
102
RTVSPost2010Prop33
280
     0
102
RTVSPost2010PropOp33
 70
     1
102
RTVSPost2010Prop34
280
     0
102
RTVSPost2010PropOp34
 70
     1
102
RTVSPost2010Prop35
280
     0
102
RTVSPost2010PropOp35
 70
     1
102
RTVSPost2010Prop36
280
     0
102
RTVSPost2010PropOp36
 70
     1
102
RTVSPost2010Prop37
 90
       50
102
RTVSPost2010PropOp37
 70
     1
102
RTVSPost2010Prop38
140
0.0
102
RTVSPost2010PropOp38
 70
     1
102
RTVSPost2010Prop39
140
1.0
102
RTVSPost2010PropOp39
 70
     1
102
RTVSPost2010Prop40
 90
        0
102
RTVSPost2010PropOp40
 70
     1
102
RTVSPost2010Prop41ColorIndex
 90
       18
102
RTVSPost2010Prop41ColorRGB
 90
        0
102
RTVSPost2010PropOp41
 70
     1
102
RTVSPost2010Prop42
 90
       50
102
RTVSPost2010PropOp42
 70
     1
102
RTVSPost2010Prop43
 90
        3
102
RTVSPost2010PropOp43
 70
     1
102
RTVSPost2010Prop44ColorIndex
 90
        5
102
RTVSPost2010Prop44ColorRGB
 90
      255
102
RTVSPost2010PropOp44
 70
     1
102
RTVSPost2010Prop45
280
     0
102
RTVSPost2010PropOp45
 70
     1
102
RTVSPost2010Prop46
 90
       50
102
RTVSPost2010PropOp46
 70
     1
102
RTVSPost2010Prop47
 90
       50
102
RTVSPost2010PropOp47
 70
     1
102
RTVSPost2010Prop48
 90
       50
102
RTVSPost2010PropOp48
 70
     1
102
RTVSPost2010Prop49
280
     0
102
RTVSPost2010PropOp49
 70
     1
102
RTVSPost2010Prop50
 90
       50
102
RTVSPost2010PropOp50
 70
     1
102
RTVSPost2010Prop51ColorIndex
 90
      256
102
RTVSPost2010Prop51ColorRGB
 90
-16777216
102
RTVSPost2010PropOp51
 70
     0
102
RTVSPost2010Prop52
140
1.0
102
RTVSPost2010PropOp52
 70
     0
102
RTVSPost2010Prop53
 90
        2
102
RTVSPost2010PropOp53
 70
     1
102
RTVSPost2010Prop54
  1
strokes_ogs.tif
102
RTVSPost2010PropOp54
 70
     1
102
RTVSPost2010Prop55
280
     0
102
RTVSPost2010PropOp55
 70
     1
102
RTVSPost2010Prop56
140
1.0
102
RTVSPost2010PropOp56
 70
     1
102
RTVSPost2010Prop57
140
1.0
102
RTVSPost2010PropOp57
 70
     1
  0
XRECORD
  5
6F19
102
{ACAD_REACTORS
330
6F18
102
}
330
6F18
100
AcDbXrecord
280
     1
102
RTVSPost2010Prop28
280
     0
102
RTVSPost2010PropOp28
 70
     1
102
RTVSPost2010Prop29
280
     1
102
RTVSPost2010PropOp29
 70
     1
102
RTVSPost2010Prop30
280
     1
102
RTVSPost2010PropOp30
 70
     1
102
RTVSPost2010Prop31
280
     0
102
RTVSPost2010PropOp31
 70
     1
102
RTVSPost2010Prop32
280
     0
102
RTVSPost2010PropOp32
 70
     1
102
RTVSPost2010Prop33
280
     0
102
RTVSPost2010PropOp33
 70
     1
102
RTVSPost2010Prop34
280
     0
102
RTVSPost2010PropOp34
 70
     1
102
RTVSPost2010Prop35
280
     0
102
RTVSPost2010PropOp35
 70
     1
102
RTVSPost2010Prop36
280
     0
102
RTVSPost2010PropOp36
 70
     1
102
RTVSPost2010Prop37
 90
       50
102
RTVSPost2010PropOp37
 70
     1
102
RTVSPost2010Prop38
140
0.0
102
RTVSPost2010PropOp38
 70
     1
102
RTVSPost2010Prop39
140
1.0
102
RTVSPost2010PropOp39
 70
     1
102
RTVSPost2010Prop40
 90
        0
102
RTVSPost2010PropOp40
 70
     1
102
RTVSPost2010Prop41ColorIndex
 90
       18
102
RTVSPost2010Prop41ColorRGB
 90
        0
102
RTVSPost2010PropOp41
 70
     1
102
RTVSPost2010Prop42
 90
       50
102
RTVSPost2010PropOp42
 70
     1
102
RTVSPost2010Prop43
 90
        3
102
RTVSPost2010PropOp43
 70
     1
102
RTVSPost2010Prop44ColorIndex
 90
        5
102
RTVSPost2010Prop44ColorRGB
 90
      255
102
RTVSPost2010PropOp44
 70
     1
102
RTVSPost2010Prop45
280
     0
102
RTVSPost2010PropOp45
 70
     1
102
RTVSPost2010Prop46
 90
       50
102
RTVSPost2010PropOp46
 70
     1
102
RTVSPost2010Prop47
 90
       50
102
RTVSPost2010PropOp47
 70
     1
102
RTVSPost2010Prop48
 90
       50
102
RTVSPost2010PropOp48
 70
     1
102
RTVSPost2010Prop49
280
     0
102
RTVSPost2010PropOp49
 70
     1
102
RTVSPost2010Prop50
 90
       50
102
RTVSPost2010PropOp50
 70
     1
102
RTVSPost2010Prop51ColorIndex
 90
      256
102
RTVSPost2010Prop51ColorRGB
 90
-16777216
102
RTVSPost2010PropOp51
 70
     0
102
RTVSPost2010Prop52
140
1.0
102
RTVSPost2010PropOp52
 70
     0
102
RTVSPost2010Prop53
 90
        2
102
RTVSPost2010PropOp53
 70
     1
102
RTVSPost2010Prop54
  1
strokes_ogs.tif
102
RTVSPost2010PropOp54
 70
     1
102
RTVSPost2010Prop55
280
     0
102
RTVSPost2010PropOp55
 70
     1
102
RTVSPost2010Prop56
140
1.0
102
RTVSPost2010PropOp56
 70
     1
102
RTVSPost2010Prop57
140
1.0
102
RTVSPost2010PropOp57
 70
     1
  0
XRECORD
  5
6F33
102
{ACAD_REACTORS
330
6F32
102
}
330
6F32
100
AcDbXrecord
280
     1
102
RTVSPost2010Prop28
280
     0
102
RTVSPost2010PropOp28
 70
     1
102
RTVSPost2010Prop29
280
     1
102
RTVSPost2010PropOp29
 70
     1
102
RTVSPost2010Prop30
280
     1
102
RTVSPost2010PropOp30
 70
     1
102
RTVSPost2010Prop31
280
     0
102
RTVSPost2010PropOp31
 70
     1
102
RTVSPost2010Prop32
280
     0
102
RTVSPost2010PropOp32
 70
     1
102
RTVSPost2010Prop33
280
     0
102
RTVSPost2010PropOp33
 70
     1
102
RTVSPost2010Prop34
280
     0
102
RTVSPost2010PropOp34
 70
     1
102
RTVSPost2010Prop35
280
     0
102
RTVSPost2010PropOp35
 70
     1
102
RTVSPost2010Prop36
280
     0
102
RTVSPost2010PropOp36
 70
     1
102
RTVSPost2010Prop37
 90
       50
102
RTVSPost2010PropOp37
 70
     0
102
RTVSPost2010Prop38
140
0.0
102
RTVSPost2010PropOp38
 70
     0
102
RTVSPost2010Prop39
140
1.0
102
RTVSPost2010PropOp39
 70
     0
102
RTVSPost2010Prop40
 90
        0
102
RTVSPost2010PropOp40
 70
     0
102
RTVSPost2010Prop41ColorIndex
 90
       18
102
RTVSPost2010Prop41ColorRGB
 90
        0
102
RTVSPost2010PropOp41
 70
     0
102
RTVSPost2010Prop42
 90
       50
102
RTVSPost2010PropOp42
 70
     0
102
RTVSPost2010Prop43
 90
        3
102
RTVSPost2010PropOp43
 70
     0
102
RTVSPost2010Prop44ColorIndex
 90
        5
102
RTVSPost2010Prop44ColorRGB
 90
      255
102
RTVSPost2010PropOp44
 70
     0
102
RTVSPost2010Prop45
280
     0
102
RTVSPost2010PropOp45
 70
     1
102
RTVSPost2010Prop46
 90
       50
102
RTVSPost2010PropOp46
 70
     0
102
RTVSPost2010Prop47
 90
       50
102
RTVSPost2010PropOp47
 70
     0
102
RTVSPost2010Prop48
 90
       50
102
RTVSPost2010PropOp48
 70
     0
102
RTVSPost2010Prop49
280
     0
102
RTVSPost2010PropOp49
 70
     1
102
RTVSPost2010Prop50
 90
       50
102
RTVSPost2010PropOp50
 70
     0
102
RTVSPost2010Prop51ColorIndex
 90
      256
102
RTVSPost2010Prop51ColorRGB
 90
-16777216
102
RTVSPost2010PropOp51
 70
     0
102
RTVSPost2010Prop52
140
1.0
102
RTVSPost2010PropOp52
 70
     0
102
RTVSPost2010Prop53
 90
        2
102
RTVSPost2010PropOp53
 70
     0
102
RTVSPost2010Prop54
  1
strokes_ogs.tif
102
RTVSPost2010PropOp54
 70
     0
102
RTVSPost2010Prop55
280
     0
102
RTVSPost2010PropOp55
 70
     1
102
RTVSPost2010Prop56
140
1.0
102
RTVSPost2010PropOp56
 70
     0
102
RTVSPost2010Prop57
140
1.0
102
RTVSPost2010PropOp57
 70
     0
  0
XRECORD
  5
6F21
102
{ACAD_REACTORS
330
6F20
102
}
330
6F20
100
AcDbXrecord
280
     1
102
RTVSPost2010Prop28
280
     0
102
RTVSPost2010PropOp28
 70
     1
102
RTVSPost2010Prop29
280
     1
102
RTVSPost2010PropOp29
 70
     1
102
RTVSPost2010Prop30
280
     1
102
RTVSPost2010PropOp30
 70
     1
102
RTVSPost2010Prop31
280
     0
102
RTVSPost2010PropOp31
 70
     1
102
RTVSPost2010Prop32
280
     0
102
RTVSPost2010PropOp32
 70
     1
102
RTVSPost2010Prop33
280
     0
102
RTVSPost2010PropOp33
 70
     1
102
RTVSPost2010Prop34
280
     0
102
RTVSPost2010PropOp34
 70
     1
102
RTVSPost2010Prop35
280
     0
102
RTVSPost2010PropOp35
 70
     1
102
RTVSPost2010Prop36
280
     0
102
RTVSPost2010PropOp36
 70
     1
102
RTVSPost2010Prop37
 90
       50
102
RTVSPost2010PropOp37
 70
     1
102
RTVSPost2010Prop38
140
0.0
102
RTVSPost2010PropOp38
 70
     1
102
RTVSPost2010Prop39
140
1.0
102
RTVSPost2010PropOp39
 70
     1
102
RTVSPost2010Prop40
 90
        0
102
RTVSPost2010PropOp40
 70
     1
102
RTVSPost2010Prop41ColorIndex
 90
       18
102
RTVSPost2010Prop41ColorRGB
 90
        0
102
RTVSPost2010PropOp41
 70
     1
102
RTVSPost2010Prop42
 90
       50
102
RTVSPost2010PropOp42
 70
     1
102
RTVSPost2010Prop43
 90
        3
102
RTVSPost2010PropOp43
 70
     1
102
RTVSPost2010Prop44ColorIndex
 90
        5
102
RTVSPost2010Prop44ColorRGB
 90
      255
102
RTVSPost2010PropOp44
 70
     1
102
RTVSPost2010Prop45
280
     0
102
RTVSPost2010PropOp45
 70
     1
102
RTVSPost2010Prop46
 90
       50
102
RTVSPost2010PropOp46
 70
     1
102
RTVSPost2010Prop47
 90
       50
102
RTVSPost2010PropOp47
 70
     1
102
RTVSPost2010Prop48
 90
       50
102
RTVSPost2010PropOp48
 70
     1
102
RTVSPost2010Prop49
280
     0
102
RTVSPost2010PropOp49
 70
     1
102
RTVSPost2010Prop50
 90
       50
102
RTVSPost2010PropOp50
 70
     1
102
RTVSPost2010Prop51ColorIndex
 90
      256
102
RTVSPost2010Prop51ColorRGB
 90
-16777216
102
RTVSPost2010PropOp51
 70
     0
102
RTVSPost2010Prop52
140
1.0
102
RTVSPost2010PropOp52
 70
     0
102
RTVSPost2010Prop53
 90
        2
102
RTVSPost2010PropOp53
 70
     1
102
RTVSPost2010Prop54
  1
strokes_ogs.tif
102
RTVSPost2010PropOp54
 70
     1
102
RTVSPost2010Prop55
280
     0
102
RTVSPost2010PropOp55
 70
     1
102
RTVSPost2010Prop56
140
1.0
102
RTVSPost2010PropOp56
 70
     1
102
RTVSPost2010Prop57
140
1.0
102
RTVSPost2010PropOp57
 70
     1
  0
XRECORD
  5
6F05
102
{ACAD_REACTORS
330
6F04
102
}
330
6F04
100
AcDbXrecord
280
     1
102
RTVSPost2010Prop28
280
     0
102
RTVSPost2010PropOp28
 70
     1
102
RTVSPost2010Prop29
280
     1
102
RTVSPost2010PropOp29
 70
     1
102
RTVSPost2010Prop30
280
     1
102
RTVSPost2010PropOp30
 70
     1
102
RTVSPost2010Prop31
280
     0
102
RTVSPost2010PropOp31
 70
     1
102
RTVSPost2010Prop32
280
     0
102
RTVSPost2010PropOp32
 70
     1
102
RTVSPost2010Prop33
280
     0
102
RTVSPost2010PropOp33
 70
     1
102
RTVSPost2010Prop34
280
     0
102
RTVSPost2010PropOp34
 70
     1
102
RTVSPost2010Prop35
280
     0
102
RTVSPost2010PropOp35
 70
     1
102
RTVSPost2010Prop36
280
     0
102
RTVSPost2010PropOp36
 70
     1
102
RTVSPost2010Prop37
 90
       50
102
RTVSPost2010PropOp37
 70
     1
102
RTVSPost2010Prop38
140
0.0
102
RTVSPost2010PropOp38
 70
     1
102
RTVSPost2010Prop39
140
1.0
102
RTVSPost2010PropOp39
 70
     1
102
RTVSPost2010Prop40
 90
        0
102
RTVSPost2010PropOp40
 70
     1
102
RTVSPost2010Prop41ColorIndex
 90
       18
102
RTVSPost2010Prop41ColorRGB
 90
        0
102
RTVSPost2010PropOp41
 70
     1
102
RTVSPost2010Prop42
 90
       50
102
RTVSPost2010PropOp42
 70
     1
102
RTVSPost2010Prop43
 90
        3
102
RTVSPost2010PropOp43
 70
     1
102
RTVSPost2010Prop44ColorIndex
 90
        5
102
RTVSPost2010Prop44ColorRGB
 90
      255
102
RTVSPost2010PropOp44
 70
     1
102
RTVSPost2010Prop45
280
     0
102
RTVSPost2010PropOp45
 70
     1
102
RTVSPost2010Prop46
 90
       50
102
RTVSPost2010PropOp46
 70
     1
102
RTVSPost2010Prop47
 90
       50
102
RTVSPost2010PropOp47
 70
     1
102
RTVSPost2010Prop48
 90
       50
102
RTVSPost2010PropOp48
 70
     1
102
RTVSPost2010Prop49
280
     0
102
RTVSPost2010PropOp49
 70
     1
102
RTVSPost2010Prop50
 90
       50
102
RTVSPost2010PropOp50
 70
     1
102
RTVSPost2010Prop51ColorIndex
 90
      256
102
RTVSPost2010Prop51ColorRGB
 90
-16777216
102
RTVSPost2010PropOp51
 70
     0
102
RTVSPost2010Prop52
140
1.0
102
RTVSPost2010PropOp52
 70
     0
102
RTVSPost2010Prop53
 90
        2
102
RTVSPost2010PropOp53
 70
     1
102
RTVSPost2010Prop54
  1
strokes_ogs.tif
102
RTVSPost2010PropOp54
 70
     1
102
RTVSPost2010Prop55
280
     0
102
RTVSPost2010PropOp55
 70
     1
102
RTVSPost2010Prop56
140
1.0
102
RTVSPost2010PropOp56
 70
     1
102
RTVSPost2010Prop57
140
1.0
102
RTVSPost2010PropOp57
 70
     1
  0
XRECORD
  5
6F07
102
{ACAD_REACTORS
330
6F06
102
}
330
6F06
100
AcDbXrecord
280
     1
102
RTVSPost2010Prop28
280
     0
102
RTVSPost2010PropOp28
 70
     1
102
RTVSPost2010Prop29
280
     1
102
RTVSPost2010PropOp29
 70
     1
102
RTVSPost2010Prop30
280
     1
102
RTVSPost2010PropOp30
 70
     1
102
RTVSPost2010Prop31
280
     0
102
RTVSPost2010PropOp31
 70
     1
102
RTVSPost2010Prop32
280
     0
102
RTVSPost2010PropOp32
 70
     1
102
RTVSPost2010Prop33
280
     0
102
RTVSPost2010PropOp33
 70
     1
102
RTVSPost2010Prop34
280
     0
102
RTVSPost2010PropOp34
 70
     1
102
RTVSPost2010Prop35
280
     0
102
RTVSPost2010PropOp35
 70
     1
102
RTVSPost2010Prop36
280
     0
102
RTVSPost2010PropOp36
 70
     1
102
RTVSPost2010Prop37
 90
       50
102
RTVSPost2010PropOp37
 70
     1
102
RTVSPost2010Prop38
140
0.0
102
RTVSPost2010PropOp38
 70
     1
102
RTVSPost2010Prop39
140
1.0
102
RTVSPost2010PropOp39
 70
     1
102
RTVSPost2010Prop40
 90
        0
102
RTVSPost2010PropOp40
 70
     1
102
RTVSPost2010Prop41ColorIndex
 90
       18
102
RTVSPost2010Prop41ColorRGB
 90
        0
102
RTVSPost2010PropOp41
 70
     1
102
RTVSPost2010Prop42
 90
       50
102
RTVSPost2010PropOp42
 70
     1
102
RTVSPost2010Prop43
 90
        3
102
RTVSPost2010PropOp43
 70
     1
102
RTVSPost2010Prop44ColorIndex
 90
        5
102
RTVSPost2010Prop44ColorRGB
 90
      255
102
RTVSPost2010PropOp44
 70
     1
102
RTVSPost2010Prop45
280
     0
102
RTVSPost2010PropOp45
 70
     1
102
RTVSPost2010Prop46
 90
       50
102
RTVSPost2010PropOp46
 70
     1
102
RTVSPost2010Prop47
 90
       50
102
RTVSPost2010PropOp47
 70
     1
102
RTVSPost2010Prop48
 90
       50
102
RTVSPost2010PropOp48
 70
     1
102
RTVSPost2010Prop49
280
     0
102
RTVSPost2010PropOp49
 70
     1
102
RTVSPost2010Prop50
 90
       50
102
RTVSPost2010PropOp50
 70
     1
102
RTVSPost2010Prop51ColorIndex
 90
      256
102
RTVSPost2010Prop51ColorRGB
 90
-16777216
102
RTVSPost2010PropOp51
 70
     0
102
RTVSPost2010Prop52
140
1.0
102
RTVSPost2010PropOp52
 70
     0
102
RTVSPost2010Prop53
 90
        2
102
RTVSPost2010PropOp53
 70
     1
102
RTVSPost2010Prop54
  1
strokes_ogs.tif
102
RTVSPost2010PropOp54
 70
     1
102
RTVSPost2010Prop55
280
     0
102
RTVSPost2010PropOp55
 70
     1
102
RTVSPost2010Prop56
140
1.0
102
RTVSPost2010PropOp56
 70
     1
102
RTVSPost2010Prop57
140
1.0
102
RTVSPost2010PropOp57
 70
     1
  0
XRECORD
  5
6F09
102
{ACAD_REACTORS
330
6F08
102
}
330
6F08
100
AcDbXrecord
280
     1
102
RTVSPost2010Prop28
280
     0
102
RTVSPost2010PropOp28
 70
     1
102
RTVSPost2010Prop29
280
     1
102
RTVSPost2010PropOp29
 70
     1
102
RTVSPost2010Prop30
280
     1
102
RTVSPost2010PropOp30
 70
     1
102
RTVSPost2010Prop31
280
     0
102
RTVSPost2010PropOp31
 70
     1
102
RTVSPost2010Prop32
280
     0
102
RTVSPost2010PropOp32
 70
     1
102
RTVSPost2010Prop33
280
     0
102
RTVSPost2010PropOp33
 70
     1
102
RTVSPost2010Prop34
280
     0
102
RTVSPost2010PropOp34
 70
     1
102
RTVSPost2010Prop35
280
     0
102
RTVSPost2010PropOp35
 70
     1
102
RTVSPost2010Prop36
280
     0
102
RTVSPost2010PropOp36
 70
     1
102
RTVSPost2010Prop37
 90
       50
102
RTVSPost2010PropOp37
 70
     1
102
RTVSPost2010Prop38
140
0.0
102
RTVSPost2010PropOp38
 70
     1
102
RTVSPost2010Prop39
140
1.0
102
RTVSPost2010PropOp39
 70
     1
102
RTVSPost2010Prop40
 90
        0
102
RTVSPost2010PropOp40
 70
     1
102
RTVSPost2010Prop41ColorIndex
 90
       18
102
RTVSPost2010Prop41ColorRGB
 90
        0
102
RTVSPost2010PropOp41
 70
     1
102
RTVSPost2010Prop42
 90
       50
102
RTVSPost2010PropOp42
 70
     1
102
RTVSPost2010Prop43
 90
        3
102
RTVSPost2010PropOp43
 70
     1
102
RTVSPost2010Prop44ColorIndex
 90
        5
102
RTVSPost2010Prop44ColorRGB
 90
      255
102
RTVSPost2010PropOp44
 70
     1
102
RTVSPost2010Prop45
280
     0
102
RTVSPost2010PropOp45
 70
     1
102
RTVSPost2010Prop46
 90
       50
102
RTVSPost2010PropOp46
 70
     1
102
RTVSPost2010Prop47
 90
       50
102
RTVSPost2010PropOp47
 70
     1
102
RTVSPost2010Prop48
 90
       50
102
RTVSPost2010PropOp48
 70
     1
102
RTVSPost2010Prop49
280
     0
102
RTVSPost2010PropOp49
 70
     1
102
RTVSPost2010Prop50
 90
       50
102
RTVSPost2010PropOp50
 70
     1
102
RTVSPost2010Prop51ColorIndex
 90
      256
102
RTVSPost2010Prop51ColorRGB
 90
-16777216
102
RTVSPost2010PropOp51
 70
     0
102
RTVSPost2010Prop52
140
1.0
102
RTVSPost2010PropOp52
 70
     0
102
RTVSPost2010Prop53
 90
        2
102
RTVSPost2010PropOp53
 70
     1
102
RTVSPost2010Prop54
  1
strokes_ogs.tif
102
RTVSPost2010PropOp54
 70
     1
102
RTVSPost2010Prop55
280
     0
102
RTVSPost2010PropOp55
 70
     1
102
RTVSPost2010Prop56
140
1.0
102
RTVSPost2010PropOp56
 70
     1
102
RTVSPost2010Prop57
140
1.0
102
RTVSPost2010PropOp57
 70
     1
  0
XRECORD
  5
6F0B
102
{ACAD_REACTORS
330
6F0A
102
}
330
6F0A
100
AcDbXrecord
280
     1
102
RTVSPost2010Prop28
280
     0
102
RTVSPost2010PropOp28
 70
     1
102
RTVSPost2010Prop29
280
     1
102
RTVSPost2010PropOp29
 70
     1
102
RTVSPost2010Prop30
280
     1
102
RTVSPost2010PropOp30
 70
     1
102
RTVSPost2010Prop31
280
     0
102
RTVSPost2010PropOp31
 70
     1
102
RTVSPost2010Prop32
280
     0
102
RTVSPost2010PropOp32
 70
     1
102
RTVSPost2010Prop33
280
     0
102
RTVSPost2010PropOp33
 70
     1
102
RTVSPost2010Prop34
280
     0
102
RTVSPost2010PropOp34
 70
     1
102
RTVSPost2010Prop35
280
     0
102
RTVSPost2010PropOp35
 70
     1
102
RTVSPost2010Prop36
280
     0
102
RTVSPost2010PropOp36
 70
     1
102
RTVSPost2010Prop37
 90
       50
102
RTVSPost2010PropOp37
 70
     1
102
RTVSPost2010Prop38
140
0.0
102
RTVSPost2010PropOp38
 70
     1
102
RTVSPost2010Prop39
140
1.0
102
RTVSPost2010PropOp39
 70
     1
102
RTVSPost2010Prop40
 90
        0
102
RTVSPost2010PropOp40
 70
     1
102
RTVSPost2010Prop41ColorIndex
 90
       18
102
RTVSPost2010Prop41ColorRGB
 90
        0
102
RTVSPost2010PropOp41
 70
     1
102
RTVSPost2010Prop42
 90
       50
102
RTVSPost2010PropOp42
 70
     1
102
RTVSPost2010Prop43
 90
        3
102
RTVSPost2010PropOp43
 70
     1
102
RTVSPost2010Prop44ColorIndex
 90
        5
102
RTVSPost2010Prop44ColorRGB
 90
      255
102
RTVSPost2010PropOp44
 70
     1
102
RTVSPost2010Prop45
280
     0
102
RTVSPost2010PropOp45
 70
     1
102
RTVSPost2010Prop46
 90
       50
102
RTVSPost2010PropOp46
 70
     1
102
RTVSPost2010Prop47
 90
       50
102
RTVSPost2010PropOp47
 70
     1
102
RTVSPost2010Prop48
 90
       50
102
RTVSPost2010PropOp48
 70
     1
102
RTVSPost2010Prop49
280
     0
102
RTVSPost2010PropOp49
 70
     1
102
RTVSPost2010Prop50
 90
       50
102
RTVSPost2010PropOp50
 70
     1
102
RTVSPost2010Prop51ColorIndex
 90
      256
102
RTVSPost2010Prop51ColorRGB
 90
-16777216
102
RTVSPost2010PropOp51
 70
     0
102
RTVSPost2010Prop52
140
1.0
102
RTVSPost2010PropOp52
 70
     0
102
RTVSPost2010Prop53
 90
        2
102
RTVSPost2010PropOp53
 70
     1
102
RTVSPost2010Prop54
  1
strokes_ogs.tif
102
RTVSPost2010PropOp54
 70
     1
102
RTVSPost2010Prop55
280
     0
102
RTVSPost2010PropOp55
 70
     1
102
RTVSPost2010Prop56
140
1.0
102
RTVSPost2010PropOp56
 70
     1
102
RTVSPost2010Prop57
140
1.0
102
RTVSPost2010PropOp57
 70
     1
  0
XRECORD
  5
6F13
102
{ACAD_REACTORS
330
6F12
102
}
330
6F12
100
AcDbXrecord
280
     1
102
RTVSPost2010Prop28
280
     0
102
RTVSPost2010PropOp28
 70
     1
102
RTVSPost2010Prop29
280
     1
102
RTVSPost2010PropOp29
 70
     1
102
RTVSPost2010Prop30
280
     1
102
RTVSPost2010PropOp30
 70
     1
102
RTVSPost2010Prop31
280
     0
102
RTVSPost2010PropOp31
 70
     1
102
RTVSPost2010Prop32
280
     0
102
RTVSPost2010PropOp32
 70
     1
102
RTVSPost2010Prop33
280
     0
102
RTVSPost2010PropOp33
 70
     1
102
RTVSPost2010Prop34
280
     0
102
RTVSPost2010PropOp34
 70
     1
102
RTVSPost2010Prop35
280
     0
102
RTVSPost2010PropOp35
 70
     1
102
RTVSPost2010Prop36
280
     0
102
RTVSPost2010PropOp36
 70
     1
102
RTVSPost2010Prop37
 90
       50
102
RTVSPost2010PropOp37
 70
     1
102
RTVSPost2010Prop38
140
0.0
102
RTVSPost2010PropOp38
 70
     1
102
RTVSPost2010Prop39
140
1.0
102
RTVSPost2010PropOp39
 70
     1
102
RTVSPost2010Prop40
 90
        0
102
RTVSPost2010PropOp40
 70
     1
102
RTVSPost2010Prop41ColorIndex
 90
       18
102
RTVSPost2010Prop41ColorRGB
 90
        0
102
RTVSPost2010PropOp41
 70
     1
102
RTVSPost2010Prop42
 90
       50
102
RTVSPost2010PropOp42
 70
     1
102
RTVSPost2010Prop43
 90
        3
102
RTVSPost2010PropOp43
 70
     1
102
RTVSPost2010Prop44ColorIndex
 90
        5
102
RTVSPost2010Prop44ColorRGB
 90
      255
102
RTVSPost2010PropOp44
 70
     1
102
RTVSPost2010Prop45
280
     0
102
RTVSPost2010PropOp45
 70
     1
102
RTVSPost2010Prop46
 90
       50
102
RTVSPost2010PropOp46
 70
     1
102
RTVSPost2010Prop47
 90
       50
102
RTVSPost2010PropOp47
 70
     1
102
RTVSPost2010Prop48
 90
       50
102
RTVSPost2010PropOp48
 70
     1
102
RTVSPost2010Prop49
280
     0
102
RTVSPost2010PropOp49
 70
     1
102
RTVSPost2010Prop50
 90
       50
102
RTVSPost2010PropOp50
 70
     1
102
RTVSPost2010Prop51ColorIndex
 90
      256
102
RTVSPost2010Prop51ColorRGB
 90
-16777216
102
RTVSPost2010PropOp51
 70
     0
102
RTVSPost2010Prop52
140
1.0
102
RTVSPost2010PropOp52
 70
     0
102
RTVSPost2010Prop53
 90
        2
102
RTVSPost2010PropOp53
 70
     1
102
RTVSPost2010Prop54
  1
strokes_ogs.tif
102
RTVSPost2010PropOp54
 70
     1
102
RTVSPost2010Prop55
280
     0
102
RTVSPost2010PropOp55
 70
     1
102
RTVSPost2010Prop56
140
1.0
102
RTVSPost2010PropOp56
 70
     1
102
RTVSPost2010Prop57
140
1.0
102
RTVSPost2010PropOp57
 70
     1
  0
XRECORD
  5
6F2F
102
{ACAD_REACTORS
330
6F2E
102
}
330
6F2E
100
AcDbXrecord
280
     1
102
RTVSPost2010Prop28
280
     0
102
RTVSPost2010PropOp28
 70
     1
102
RTVSPost2010Prop29
280
     1
102
RTVSPost2010PropOp29
 70
     1
102
RTVSPost2010Prop30
280
     1
102
RTVSPost2010PropOp30
 70
     1
102
RTVSPost2010Prop31
280
     0
102
RTVSPost2010PropOp31
 70
     1
102
RTVSPost2010Prop32
280
     0
102
RTVSPost2010PropOp32
 70
     1
102
RTVSPost2010Prop33
280
     0
102
RTVSPost2010PropOp33
 70
     1
102
RTVSPost2010Prop34
280
     0
102
RTVSPost2010PropOp34
 70
     1
102
RTVSPost2010Prop35
280
     0
102
RTVSPost2010PropOp35
 70
     1
102
RTVSPost2010Prop36
280
     0
102
RTVSPost2010PropOp36
 70
     1
102
RTVSPost2010Prop37
 90
       50
102
RTVSPost2010PropOp37
 70
     0
102
RTVSPost2010Prop38
140
0.0
102
RTVSPost2010PropOp38
 70
     0
102
RTVSPost2010Prop39
140
1.0
102
RTVSPost2010PropOp39
 70
     0
102
RTVSPost2010Prop40
 90
        0
102
RTVSPost2010PropOp40
 70
     0
102
RTVSPost2010Prop41ColorIndex
 90
       18
102
RTVSPost2010Prop41ColorRGB
 90
        0
102
RTVSPost2010PropOp41
 70
     0
102
RTVSPost2010Prop42
 90
       50
102
RTVSPost2010PropOp42
 70
     0
102
RTVSPost2010Prop43
 90
        3
102
RTVSPost2010PropOp43
 70
     0
102
RTVSPost2010Prop44ColorIndex
 90
        5
102
RTVSPost2010Prop44ColorRGB
 90
      255
102
RTVSPost2010PropOp44
 70
     0
102
RTVSPost2010Prop45
280
     0
102
RTVSPost2010PropOp45
 70
     1
102
RTVSPost2010Prop46
 90
       50
102
RTVSPost2010PropOp46
 70
     0
102
RTVSPost2010Prop47
 90
       50
102
RTVSPost2010PropOp47
 70
     0
102
RTVSPost2010Prop48
 90
       50
102
RTVSPost2010PropOp48
 70
     0
102
RTVSPost2010Prop49
280
     0
102
RTVSPost2010PropOp49
 70
     1
102
RTVSPost2010Prop50
 90
       50
102
RTVSPost2010PropOp50
 70
     0
102
RTVSPost2010Prop51ColorIndex
 90
      256
102
RTVSPost2010Prop51ColorRGB
 90
-16777216
102
RTVSPost2010PropOp51
 70
     0
102
RTVSPost2010Prop52
140
1.0
102
RTVSPost2010PropOp52
 70
     0
102
RTVSPost2010Prop53
 90
        2
102
RTVSPost2010PropOp53
 70
     0
102
RTVSPost2010Prop54
  1
strokes_ogs.tif
102
RTVSPost2010PropOp54
 70
     0
102
RTVSPost2010Prop55
280
     0
102
RTVSPost2010PropOp55
 70
     1
102
RTVSPost2010Prop56
140
1.0
102
RTVSPost2010PropOp56
 70
     0
102
RTVSPost2010Prop57
140
1.0
102
RTVSPost2010PropOp57
 70
     0
  0
XRECORD
  5
6F1F
102
{ACAD_REACTORS
330
6F1E
102
}
330
6F1E
100
AcDbXrecord
280
     1
102
RTVSPost2010Prop28
280
     0
102
RTVSPost2010PropOp28
 70
     1
102
RTVSPost2010Prop29
280
     1
102
RTVSPost2010PropOp29
 70
     1
102
RTVSPost2010Prop30
280
     1
102
RTVSPost2010PropOp30
 70
     1
102
RTVSPost2010Prop31
280
     0
102
RTVSPost2010PropOp31
 70
     1
102
RTVSPost2010Prop32
280
     0
102
RTVSPost2010PropOp32
 70
     1
102
RTVSPost2010Prop33
280
     0
102
RTVSPost2010PropOp33
 70
     1
102
RTVSPost2010Prop34
280
     0
102
RTVSPost2010PropOp34
 70
     1
102
RTVSPost2010Prop35
280
     0
102
RTVSPost2010PropOp35
 70
     1
102
RTVSPost2010Prop36
280
     0
102
RTVSPost2010PropOp36
 70
     1
102
RTVSPost2010Prop37
 90
       50
102
RTVSPost2010PropOp37
 70
     1
102
RTVSPost2010Prop38
140
0.0
102
RTVSPost2010PropOp38
 70
     1
102
RTVSPost2010Prop39
140
1.0
102
RTVSPost2010PropOp39
 70
     1
102
RTVSPost2010Prop40
 90
        0
102
RTVSPost2010PropOp40
 70
     1
102
RTVSPost2010Prop41ColorIndex
 90
       18
102
RTVSPost2010Prop41ColorRGB
 90
        0
102
RTVSPost2010PropOp41
 70
     1
102
RTVSPost2010Prop42
 90
       50
102
RTVSPost2010PropOp42
 70
     1
102
RTVSPost2010Prop43
 90
        3
102
RTVSPost2010PropOp43
 70
     1
102
RTVSPost2010Prop44ColorIndex
 90
        5
102
RTVSPost2010Prop44ColorRGB
 90
      255
102
RTVSPost2010PropOp44
 70
     1
102
RTVSPost2010Prop45
280
     0
102
RTVSPost2010PropOp45
 70
     1
102
RTVSPost2010Prop46
 90
       50
102
RTVSPost2010PropOp46
 70
     1
102
RTVSPost2010Prop47
 90
       50
102
RTVSPost2010PropOp47
 70
     1
102
RTVSPost2010Prop48
 90
       50
102
RTVSPost2010PropOp48
 70
     1
102
RTVSPost2010Prop49
280
     0
102
RTVSPost2010PropOp49
 70
     1
102
RTVSPost2010Prop50
 90
       50
102
RTVSPost2010PropOp50
 70
     1
102
RTVSPost2010Prop51ColorIndex
 90
      256
102
RTVSPost2010Prop51ColorRGB
 90
-16777216
102
RTVSPost2010PropOp51
 70
     0
102
RTVSPost2010Prop52
140
1.0
102
RTVSPost2010PropOp52
 70
     0
102
RTVSPost2010Prop53
 90
        2
102
RTVSPost2010PropOp53
 70
     1
102
RTVSPost2010Prop54
  1
strokes_ogs.tif
102
RTVSPost2010PropOp54
 70
     1
102
RTVSPost2010Prop55
280
     0
102
RTVSPost2010PropOp55
 70
     1
102
RTVSPost2010Prop56
140
1.0
102
RTVSPost2010PropOp56
 70
     1
102
RTVSPost2010Prop57
140
1.0
102
RTVSPost2010PropOp57
 70
     1
  0
XRECORD
  5
6F31
102
{ACAD_REACTORS
330
6F30
102
}
330
6F30
100
AcDbXrecord
280
     1
102
RTVSPost2010Prop28
280
     0
102
RTVSPost2010PropOp28
 70
     1
102
RTVSPost2010Prop29
280
     1
102
RTVSPost2010PropOp29
 70
     1
102
RTVSPost2010Prop30
280
     1
102
RTVSPost2010PropOp30
 70
     1
102
RTVSPost2010Prop31
280
     0
102
RTVSPost2010PropOp31
 70
     1
102
RTVSPost2010Prop32
280
     0
102
RTVSPost2010PropOp32
 70
     1
102
RTVSPost2010Prop33
280
     0
102
RTVSPost2010PropOp33
 70
     1
102
RTVSPost2010Prop34
280
     0
102
RTVSPost2010PropOp34
 70
     1
102
RTVSPost2010Prop35
280
     0
102
RTVSPost2010PropOp35
 70
     1
102
RTVSPost2010Prop36
280
     0
102
RTVSPost2010PropOp36
 70
     1
102
RTVSPost2010Prop37
 90
       50
102
RTVSPost2010PropOp37
 70
     0
102
RTVSPost2010Prop38
140
0.0
102
RTVSPost2010PropOp38
 70
     0
102
RTVSPost2010Prop39
140
1.0
102
RTVSPost2010PropOp39
 70
     0
102
RTVSPost2010Prop40
 90
        0
102
RTVSPost2010PropOp40
 70
     0
102
RTVSPost2010Prop41ColorIndex
 90
       18
102
RTVSPost2010Prop41ColorRGB
 90
        0
102
RTVSPost2010PropOp41
 70
     0
102
RTVSPost2010Prop42
 90
       50
102
RTVSPost2010PropOp42
 70
     0
102
RTVSPost2010Prop43
 90
        3
102
RTVSPost2010PropOp43
 70
     0
102
RTVSPost2010Prop44ColorIndex
 90
        5
102
RTVSPost2010Prop44ColorRGB
 90
      255
102
RTVSPost2010PropOp44
 70
     0
102
RTVSPost2010Prop45
280
     0
102
RTVSPost2010PropOp45
 70
     1
102
RTVSPost2010Prop46
 90
       50
102
RTVSPost2010PropOp46
 70
     0
102
RTVSPost2010Prop47
 90
       50
102
RTVSPost2010PropOp47
 70
     0
102
RTVSPost2010Prop48
 90
       50
102
RTVSPost2010PropOp48
 70
     0
102
RTVSPost2010Prop49
280
     0
102
RTVSPost2010PropOp49
 70
     1
102
RTVSPost2010Prop50
 90
       50
102
RTVSPost2010PropOp50
 70
     0
102
RTVSPost2010Prop51ColorIndex
 90
      256
102
RTVSPost2010Prop51ColorRGB
 90
-16777216
102
RTVSPost2010PropOp51
 70
     0
102
RTVSPost2010Prop52
140
1.0
102
RTVSPost2010PropOp52
 70
     0
102
RTVSPost2010Prop53
 90
        2
102
RTVSPost2010PropOp53
 70
     0
102
RTVSPost2010Prop54
  1
strokes_ogs.tif
102
RTVSPost2010PropOp54
 70
     0
102
RTVSPost2010Prop55
280
     0
102
RTVSPost2010PropOp55
 70
     1
102
RTVSPost2010Prop56
140
1.0
102
RTVSPost2010PropOp56
 70
     0
102
RTVSPost2010Prop57
140
1.0
102
RTVSPost2010PropOp57
 70
     0
  0
XRECORD
  5
6F17
102
{ACAD_REACTORS
330
6F16
102
}
330
6F16
100
AcDbXrecord
280
     1
102
RTVSPost2010Prop28
280
     0
102
RTVSPost2010PropOp28
 70
     1
102
RTVSPost2010Prop29
280
     1
102
RTVSPost2010PropOp29
 70
     1
102
RTVSPost2010Prop30
280
     1
102
RTVSPost2010PropOp30
 70
     1
102
RTVSPost2010Prop31
280
     0
102
RTVSPost2010PropOp31
 70
     1
102
RTVSPost2010Prop32
280
     0
102
RTVSPost2010PropOp32
 70
     1
102
RTVSPost2010Prop33
280
     0
102
RTVSPost2010PropOp33
 70
     1
102
RTVSPost2010Prop34
280
     0
102
RTVSPost2010PropOp34
 70
     1
102
RTVSPost2010Prop35
280
     0
102
RTVSPost2010PropOp35
 70
     1
102
RTVSPost2010Prop36
280
     0
102
RTVSPost2010PropOp36
 70
     1
102
RTVSPost2010Prop37
 90
       50
102
RTVSPost2010PropOp37
 70
     1
102
RTVSPost2010Prop38
140
0.0
102
RTVSPost2010PropOp38
 70
     1
102
RTVSPost2010Prop39
140
1.0
102
RTVSPost2010PropOp39
 70
     1
102
RTVSPost2010Prop40
 90
        0
102
RTVSPost2010PropOp40
 70
     1
102
RTVSPost2010Prop41ColorIndex
 90
       18
102
RTVSPost2010Prop41ColorRGB
 90
        0
102
RTVSPost2010PropOp41
 70
     1
102
RTVSPost2010Prop42
 90
       50
102
RTVSPost2010PropOp42
 70
     1
102
RTVSPost2010Prop43
 90
        3
102
RTVSPost2010PropOp43
 70
     1
102
RTVSPost2010Prop44ColorIndex
 90
        5
102
RTVSPost2010Prop44ColorRGB
 90
      255
102
RTVSPost2010PropOp44
 70
     1
102
RTVSPost2010Prop45
280
     0
102
RTVSPost2010PropOp45
 70
     1
102
RTVSPost2010Prop46
 90
       50
102
RTVSPost2010PropOp46
 70
     1
102
RTVSPost2010Prop47
 90
       50
102
RTVSPost2010PropOp47
 70
     1
102
RTVSPost2010Prop48
 90
       50
102
RTVSPost2010PropOp48
 70
     1
102
RTVSPost2010Prop49
280
     0
102
RTVSPost2010PropOp49
 70
     1
102
RTVSPost2010Prop50
 90
       50
102
RTVSPost2010PropOp50
 70
     1
102
RTVSPost2010Prop51ColorIndex
 90
      256
102
RTVSPost2010Prop51ColorRGB
 90
-16777216
102
RTVSPost2010PropOp51
 70
     0
102
RTVSPost2010Prop52
140
1.0
102
RTVSPost2010PropOp52
 70
     0
102
RTVSPost2010Prop53
 90
        2
102
RTVSPost2010PropOp53
 70
     1
102
RTVSPost2010Prop54
  1
strokes_ogs.tif
102
RTVSPost2010PropOp54
 70
     1
102
RTVSPost2010Prop55
280
     0
102
RTVSPost2010PropOp55
 70
     1
102
RTVSPost2010Prop56
140
1.0
102
RTVSPost2010PropOp56
 70
     1
102
RTVSPost2010Prop57
140
1.0
102
RTVSPost2010PropOp57
 70
     1
  0
XRECORD
  5
6F2D
102
{ACAD_REACTORS
330
6F2C
102
}
330
6F2C
100
AcDbXrecord
280
     1
102
RTVSPost2010Prop28
280
     0
102
RTVSPost2010PropOp28
 70
     1
102
RTVSPost2010Prop29
280
     1
102
RTVSPost2010PropOp29
 70
     1
102
RTVSPost2010Prop30
280
     1
102
RTVSPost2010PropOp30
 70
     1
102
RTVSPost2010Prop31
280
     0
102
RTVSPost2010PropOp31
 70
     1
102
RTVSPost2010Prop32
280
     0
102
RTVSPost2010PropOp32
 70
     1
102
RTVSPost2010Prop33
280
     0
102
RTVSPost2010PropOp33
 70
     1
102
RTVSPost2010Prop34
280
     0
102
RTVSPost2010PropOp34
 70
     1
102
RTVSPost2010Prop35
280
     0
102
RTVSPost2010PropOp35
 70
     1
102
RTVSPost2010Prop36
280
     0
102
RTVSPost2010PropOp36
 70
     1
102
RTVSPost2010Prop37
 90
       50
102
RTVSPost2010PropOp37
 70
     1
102
RTVSPost2010Prop38
140
0.0
102
RTVSPost2010PropOp38
 70
     1
102
RTVSPost2010Prop39
140
1.0
102
RTVSPost2010PropOp39
 70
     1
102
RTVSPost2010Prop40
 90
        0
102
RTVSPost2010PropOp40
 70
     1
102
RTVSPost2010Prop41ColorIndex
 90
       18
102
RTVSPost2010Prop41ColorRGB
 90
        0
102
RTVSPost2010PropOp41
 70
     1
102
RTVSPost2010Prop42
 90
       50
102
RTVSPost2010PropOp42
 70
     1
102
RTVSPost2010Prop43
 90
        3
102
RTVSPost2010PropOp43
 70
     1
102
RTVSPost2010Prop44ColorIndex
 90
        5
102
RTVSPost2010Prop44ColorRGB
 90
      255
102
RTVSPost2010PropOp44
 70
     1
102
RTVSPost2010Prop45
280
     0
102
RTVSPost2010PropOp45
 70
     1
102
RTVSPost2010Prop46
 90
       50
102
RTVSPost2010PropOp46
 70
     1
102
RTVSPost2010Prop47
 90
       50
102
RTVSPost2010PropOp47
 70
     1
102
RTVSPost2010Prop48
 90
       50
102
RTVSPost2010PropOp48
 70
     1
102
RTVSPost2010Prop49
280
     0
102
RTVSPost2010PropOp49
 70
     1
102
RTVSPost2010Prop50
 90
       50
102
RTVSPost2010PropOp50
 70
     1
102
RTVSPost2010Prop51ColorIndex
 90
      256
102
RTVSPost2010Prop51ColorRGB
 90
-16777216
102
RTVSPost2010PropOp51
 70
     0
102
RTVSPost2010Prop52
140
1.0
102
RTVSPost2010PropOp52
 70
     0
102
RTVSPost2010Prop53
 90
        2
102
RTVSPost2010PropOp53
 70
     1
102
RTVSPost2010Prop54
  1
strokes_ogs.tif
102
RTVSPost2010PropOp54
 70
     1
102
RTVSPost2010Prop55
280
     0
102
RTVSPost2010PropOp55
 70
     1
102
RTVSPost2010Prop56
140
1.0
102
RTVSPost2010PropOp56
 70
     1
102
RTVSPost2010Prop57
140
1.0
102
RTVSPost2010PropOp57
 70
     1
  0
XRECORD
  5
6F2B
102
{ACAD_REACTORS
330
6F2A
102
}
330
6F2A
100
AcDbXrecord
280
     1
102
RTVSPost2010Prop28
280
     0
102
RTVSPost2010PropOp28
 70
     1
102
RTVSPost2010Prop29
280
     1
102
RTVSPost2010PropOp29
 70
     1
102
RTVSPost2010Prop30
280
     1
102
RTVSPost2010PropOp30
 70
     1
102
RTVSPost2010Prop31
280
     0
102
RTVSPost2010PropOp31
 70
     1
102
RTVSPost2010Prop32
280
     0
102
RTVSPost2010PropOp32
 70
     1
102
RTVSPost2010Prop33
280
     0
102
RTVSPost2010PropOp33
 70
     1
102
RTVSPost2010Prop34
280
     0
102
RTVSPost2010PropOp34
 70
     1
102
RTVSPost2010Prop35
280
     0
102
RTVSPost2010PropOp35
 70
     1
102
RTVSPost2010Prop36
280
     0
102
RTVSPost2010PropOp36
 70
     1
102
RTVSPost2010Prop37
 90
       50
102
RTVSPost2010PropOp37
 70
     1
102
RTVSPost2010Prop38
140
0.0
102
RTVSPost2010PropOp38
 70
     1
102
RTVSPost2010Prop39
140
1.0
102
RTVSPost2010PropOp39
 70
     1
102
RTVSPost2010Prop40
 90
        0
102
RTVSPost2010PropOp40
 70
     1
102
RTVSPost2010Prop41ColorIndex
 90
       18
102
RTVSPost2010Prop41ColorRGB
 90
        0
102
RTVSPost2010PropOp41
 70
     1
102
RTVSPost2010Prop42
 90
       50
102
RTVSPost2010PropOp42
 70
     1
102
RTVSPost2010Prop43
 90
        3
102
RTVSPost2010PropOp43
 70
     1
102
RTVSPost2010Prop44ColorIndex
 90
        5
102
RTVSPost2010Prop44ColorRGB
 90
      255
102
RTVSPost2010PropOp44
 70
     1
102
RTVSPost2010Prop45
280
     0
102
RTVSPost2010PropOp45
 70
     1
102
RTVSPost2010Prop46
 90
       50
102
RTVSPost2010PropOp46
 70
     1
102
RTVSPost2010Prop47
 90
       50
102
RTVSPost2010PropOp47
 70
     1
102
RTVSPost2010Prop48
 90
       50
102
RTVSPost2010PropOp48
 70
     1
102
RTVSPost2010Prop49
280
     0
102
RTVSPost2010PropOp49
 70
     1
102
RTVSPost2010Prop50
 90
       50
102
RTVSPost2010PropOp50
 70
     1
102
RTVSPost2010Prop51ColorIndex
 90
      256
102
RTVSPost2010Prop51ColorRGB
 90
-16777216
102
RTVSPost2010PropOp51
 70
     0
102
RTVSPost2010Prop52
140
1.0
102
RTVSPost2010PropOp52
 70
     0
102
RTVSPost2010Prop53
 90
        2
102
RTVSPost2010PropOp53
 70
     1
102
RTVSPost2010Prop54
  1
strokes_ogs.tif
102
RTVSPost2010PropOp54
 70
     1
102
RTVSPost2010Prop55
280
     0
102
RTVSPost2010PropOp55
 70
     1
102
RTVSPost2010Prop56
140
1.0
102
RTVSPost2010PropOp56
 70
     1
102
RTVSPost2010Prop57
140
1.0
102
RTVSPost2010PropOp57
 70
     1
  0
XRECORD
  5
6F25
102
{ACAD_REACTORS
330
6F24
102
}
330
6F24
100
AcDbXrecord
280
     1
102
RTVSPost2010Prop28
280
     0
102
RTVSPost2010PropOp28
 70
     1
102
RTVSPost2010Prop29
280
     1
102
RTVSPost2010PropOp29
 70
     1
102
RTVSPost2010Prop30
280
     1
102
RTVSPost2010PropOp30
 70
     1
102
RTVSPost2010Prop31
280
     0
102
RTVSPost2010PropOp31
 70
     1
102
RTVSPost2010Prop32
280
     0
102
RTVSPost2010PropOp32
 70
     1
102
RTVSPost2010Prop33
280
     0
102
RTVSPost2010PropOp33
 70
     1
102
RTVSPost2010Prop34
280
     0
102
RTVSPost2010PropOp34
 70
     1
102
RTVSPost2010Prop35
280
     0
102
RTVSPost2010PropOp35
 70
     1
102
RTVSPost2010Prop36
280
     0
102
RTVSPost2010PropOp36
 70
     1
102
RTVSPost2010Prop37
 90
       50
102
RTVSPost2010PropOp37
 70
     1
102
RTVSPost2010Prop38
140
0.0
102
RTVSPost2010PropOp38
 70
     1
102
RTVSPost2010Prop39
140
1.0
102
RTVSPost2010PropOp39
 70
     1
102
RTVSPost2010Prop40
 90
        0
102
RTVSPost2010PropOp40
 70
     1
102
RTVSPost2010Prop41ColorIndex
 90
       18
102
RTVSPost2010Prop41ColorRGB
 90
        0
102
RTVSPost2010PropOp41
 70
     1
102
RTVSPost2010Prop42
 90
       50
102
RTVSPost2010PropOp42
 70
     1
102
RTVSPost2010Prop43
 90
        3
102
RTVSPost2010PropOp43
 70
     1
102
RTVSPost2010Prop44ColorIndex
 90
        5
102
RTVSPost2010Prop44ColorRGB
 90
      255
102
RTVSPost2010PropOp44
 70
     1
102
RTVSPost2010Prop45
280
     0
102
RTVSPost2010PropOp45
 70
     1
102
RTVSPost2010Prop46
 90
       50
102
RTVSPost2010PropOp46
 70
     1
102
RTVSPost2010Prop47
 90
       50
102
RTVSPost2010PropOp47
 70
     1
102
RTVSPost2010Prop48
 90
       50
102
RTVSPost2010PropOp48
 70
     1
102
RTVSPost2010Prop49
280
     0
102
RTVSPost2010PropOp49
 70
     1
102
RTVSPost2010Prop50
 90
       50
102
RTVSPost2010PropOp50
 70
     1
102
RTVSPost2010Prop51ColorIndex
 90
      256
102
RTVSPost2010Prop51ColorRGB
 90
-16777216
102
RTVSPost2010PropOp51
 70
     0
102
RTVSPost2010Prop52
140
1.0
102
RTVSPost2010PropOp52
 70
     0
102
RTVSPost2010Prop53
 90
        2
102
RTVSPost2010PropOp53
 70
     1
102
RTVSPost2010Prop54
  1
strokes_ogs.tif
102
RTVSPost2010PropOp54
 70
     1
102
RTVSPost2010Prop55
280
     0
102
RTVSPost2010PropOp55
 70
     1
102
RTVSPost2010Prop56
140
1.0
102
RTVSPost2010PropOp56
 70
     1
102
RTVSPost2010Prop57
140
1.0
102
RTVSPost2010PropOp57
 70
     1
  0
XRECORD
  5
6F27
102
{ACAD_REACTORS
330
6F26
102
}
330
6F26
100
AcDbXrecord
280
     1
102
RTVSPost2010Prop28
280
     0
102
RTVSPost2010PropOp28
 70
     1
102
RTVSPost2010Prop29
280
     1
102
RTVSPost2010PropOp29
 70
     1
102
RTVSPost2010Prop30
280
     1
102
RTVSPost2010PropOp30
 70
     1
102
RTVSPost2010Prop31
280
     0
102
RTVSPost2010PropOp31
 70
     1
102
RTVSPost2010Prop32
280
     0
102
RTVSPost2010PropOp32
 70
     1
102
RTVSPost2010Prop33
280
     0
102
RTVSPost2010PropOp33
 70
     1
102
RTVSPost2010Prop34
280
     0
102
RTVSPost2010PropOp34
 70
     1
102
RTVSPost2010Prop35
280
     0
102
RTVSPost2010PropOp35
 70
     1
102
RTVSPost2010Prop36
280
     0
102
RTVSPost2010PropOp36
 70
     1
102
RTVSPost2010Prop37
 90
       50
102
RTVSPost2010PropOp37
 70
     1
102
RTVSPost2010Prop38
140
0.0
102
RTVSPost2010PropOp38
 70
     1
102
RTVSPost2010Prop39
140
1.0
102
RTVSPost2010PropOp39
 70
     1
102
RTVSPost2010Prop40
 90
        0
102
RTVSPost2010PropOp40
 70
     1
102
RTVSPost2010Prop41ColorIndex
 90
       18
102
RTVSPost2010Prop41ColorRGB
 90
        0
102
RTVSPost2010PropOp41
 70
     1
102
RTVSPost2010Prop42
 90
       50
102
RTVSPost2010PropOp42
 70
     1
102
RTVSPost2010Prop43
 90
        3
102
RTVSPost2010PropOp43
 70
     1
102
RTVSPost2010Prop44ColorIndex
 90
        5
102
RTVSPost2010Prop44ColorRGB
 90
      255
102
RTVSPost2010PropOp44
 70
     1
102
RTVSPost2010Prop45
280
     0
102
RTVSPost2010PropOp45
 70
     1
102
RTVSPost2010Prop46
 90
       50
102
RTVSPost2010PropOp46
 70
     1
102
RTVSPost2010Prop47
 90
       50
102
RTVSPost2010PropOp47
 70
     1
102
RTVSPost2010Prop48
 90
       50
102
RTVSPost2010PropOp48
 70
     1
102
RTVSPost2010Prop49
280
     0
102
RTVSPost2010PropOp49
 70
     1
102
RTVSPost2010Prop50
 90
       50
102
RTVSPost2010PropOp50
 70
     1
102
RTVSPost2010Prop51ColorIndex
 90
      256
102
RTVSPost2010Prop51ColorRGB
 90
-16777216
102
RTVSPost2010PropOp51
 70
     0
102
RTVSPost2010Prop52
140
1.0
102
RTVSPost2010PropOp52
 70
     0
102
RTVSPost2010Prop53
 90
        2
102
RTVSPost2010PropOp53
 70
     1
102
RTVSPost2010Prop54
  1
strokes_ogs.tif
102
RTVSPost2010PropOp54
 70
     1
102
RTVSPost2010Prop55
280
     0
102
RTVSPost2010PropOp55
 70
     1
102
RTVSPost2010Prop56
140
1.0
102
RTVSPost2010PropOp56
 70
     1
102
RTVSPost2010Prop57
140
1.0
102
RTVSPost2010PropOp57
 70
     1
  0
XRECORD
  5
6F1D
102
{ACAD_REACTORS
330
6F1C
102
}
330
6F1C
100
AcDbXrecord
280
     1
102
RTVSPost2010Prop28
280
     0
102
RTVSPost2010PropOp28
 70
     1
102
RTVSPost2010Prop29
280
     1
102
RTVSPost2010PropOp29
 70
     1
102
RTVSPost2010Prop30
280
     1
102
RTVSPost2010PropOp30
 70
     1
102
RTVSPost2010Prop31
280
     0
102
RTVSPost2010PropOp31
 70
     1
102
RTVSPost2010Prop32
280
     0
102
RTVSPost2010PropOp32
 70
     1
102
RTVSPost2010Prop33
280
     0
102
RTVSPost2010PropOp33
 70
     1
102
RTVSPost2010Prop34
280
     0
102
RTVSPost2010PropOp34
 70
     1
102
RTVSPost2010Prop35
280
     0
102
RTVSPost2010PropOp35
 70
     1
102
RTVSPost2010Prop36
280
     0
102
RTVSPost2010PropOp36
 70
     1
102
RTVSPost2010Prop37
 90
       50
102
RTVSPost2010PropOp37
 70
     1
102
RTVSPost2010Prop38
140
0.0
102
RTVSPost2010PropOp38
 70
     1
102
RTVSPost2010Prop39
140
1.0
102
RTVSPost2010PropOp39
 70
     1
102
RTVSPost2010Prop40
 90
        0
102
RTVSPost2010PropOp40
 70
     1
102
RTVSPost2010Prop41ColorIndex
 90
       18
102
RTVSPost2010Prop41ColorRGB
 90
        0
102
RTVSPost2010PropOp41
 70
     1
102
RTVSPost2010Prop42
 90
       50
102
RTVSPost2010PropOp42
 70
     1
102
RTVSPost2010Prop43
 90
        3
102
RTVSPost2010PropOp43
 70
     1
102
RTVSPost2010Prop44ColorIndex
 90
        5
102
RTVSPost2010Prop44ColorRGB
 90
      255
102
RTVSPost2010PropOp44
 70
     1
102
RTVSPost2010Prop45
280
     0
102
RTVSPost2010PropOp45
 70
     1
102
RTVSPost2010Prop46
 90
       50
102
RTVSPost2010PropOp46
 70
     1
102
RTVSPost2010Prop47
 90
       50
102
RTVSPost2010PropOp47
 70
     1
102
RTVSPost2010Prop48
 90
       50
102
RTVSPost2010PropOp48
 70
     1
102
RTVSPost2010Prop49
280
     0
102
RTVSPost2010PropOp49
 70
     1
102
RTVSPost2010Prop50
 90
       50
102
RTVSPost2010PropOp50
 70
     1
102
RTVSPost2010Prop51ColorIndex
 90
      256
102
RTVSPost2010Prop51ColorRGB
 90
-16777216
102
RTVSPost2010PropOp51
 70
     0
102
RTVSPost2010Prop52
140
1.0
102
RTVSPost2010PropOp52
 70
     0
102
RTVSPost2010Prop53
 90
        2
102
RTVSPost2010PropOp53
 70
     1
102
RTVSPost2010Prop54
  1
strokes_ogs.tif
102
RTVSPost2010PropOp54
 70
     1
102
RTVSPost2010Prop55
280
     0
102
RTVSPost2010PropOp55
 70
     1
102
RTVSPost2010Prop56
140
1.0
102
RTVSPost2010PropOp56
 70
     1
102
RTVSPost2010Prop57
140
1.0
102
RTVSPost2010PropOp57
 70
     1
  0
XRECORD
  5
6F11
102
{ACAD_REACTORS
330
6F10
102
}
330
6F10
100
AcDbXrecord
280
     1
102
RTVSPost2010Prop28
280
     0
102
RTVSPost2010PropOp28
 70
     1
102
RTVSPost2010Prop29
280
     1
102
RTVSPost2010PropOp29
 70
     1
102
RTVSPost2010Prop30
280
     1
102
RTVSPost2010PropOp30
 70
     1
102
RTVSPost2010Prop31
280
     0
102
RTVSPost2010PropOp31
 70
     1
102
RTVSPost2010Prop32
280
     0
102
RTVSPost2010PropOp32
 70
     1
102
RTVSPost2010Prop33
280
     0
102
RTVSPost2010PropOp33
 70
     1
102
RTVSPost2010Prop34
280
     0
102
RTVSPost2010PropOp34
 70
     1
102
RTVSPost2010Prop35
280
     0
102
RTVSPost2010PropOp35
 70
     1
102
RTVSPost2010Prop36
280
     0
102
RTVSPost2010PropOp36
 70
     1
102
RTVSPost2010Prop37
 90
       50
102
RTVSPost2010PropOp37
 70
     1
102
RTVSPost2010Prop38
140
0.0
102
RTVSPost2010PropOp38
 70
     1
102
RTVSPost2010Prop39
140
1.0
102
RTVSPost2010PropOp39
 70
     1
102
RTVSPost2010Prop40
 90
        0
102
RTVSPost2010PropOp40
 70
     1
102
RTVSPost2010Prop41ColorIndex
 90
       18
102
RTVSPost2010Prop41ColorRGB
 90
        0
102
RTVSPost2010PropOp41
 70
     1
102
RTVSPost2010Prop42
 90
       50
102
RTVSPost2010PropOp42
 70
     1
102
RTVSPost2010Prop43
 90
        3
102
RTVSPost2010PropOp43
 70
     1
102
RTVSPost2010Prop44ColorIndex
 90
        5
102
RTVSPost2010Prop44ColorRGB
 90
      255
102
RTVSPost2010PropOp44
 70
     1
102
RTVSPost2010Prop45
280
     0
102
RTVSPost2010PropOp45
 70
     1
102
RTVSPost2010Prop46
 90
       50
102
RTVSPost2010PropOp46
 70
     1
102
RTVSPost2010Prop47
 90
       50
102
RTVSPost2010PropOp47
 70
     1
102
RTVSPost2010Prop48
 90
       50
102
RTVSPost2010PropOp48
 70
     1
102
RTVSPost2010Prop49
280
     0
102
RTVSPost2010PropOp49
 70
     1
102
RTVSPost2010Prop50
 90
       50
102
RTVSPost2010PropOp50
 70
     1
102
RTVSPost2010Prop51ColorIndex
 90
      256
102
RTVSPost2010Prop51ColorRGB
 90
-16777216
102
RTVSPost2010PropOp51
 70
     0
102
RTVSPost2010Prop52
140
1.0
102
RTVSPost2010PropOp52
 70
     0
102
RTVSPost2010Prop53
 90
        2
102
RTVSPost2010PropOp53
 70
     1
102
RTVSPost2010Prop54
  1
strokes_ogs.tif
102
RTVSPost2010PropOp54
 70
     1
102
RTVSPost2010Prop55
280
     0
102
RTVSPost2010PropOp55
 70
     1
102
RTVSPost2010Prop56
140
1.0
102
RTVSPost2010PropOp56
 70
     1
102
RTVSPost2010Prop57
140
1.0
102
RTVSPost2010PropOp57
 70
     1
  0
XRECORD
  5
6F29
102
{ACAD_REACTORS
330
6F28
102
}
330
6F28
100
AcDbXrecord
280
     1
102
RTVSPost2010Prop28
280
     0
102
RTVSPost2010PropOp28
 70
     1
102
RTVSPost2010Prop29
280
     1
102
RTVSPost2010PropOp29
 70
     1
102
RTVSPost2010Prop30
280
     1
102
RTVSPost2010PropOp30
 70
     1
102
RTVSPost2010Prop31
280
     0
102
RTVSPost2010PropOp31
 70
     1
102
RTVSPost2010Prop32
280
     0
102
RTVSPost2010PropOp32
 70
     1
102
RTVSPost2010Prop33
280
     0
102
RTVSPost2010PropOp33
 70
     1
102
RTVSPost2010Prop34
280
     0
102
RTVSPost2010PropOp34
 70
     1
102
RTVSPost2010Prop35
280
     0
102
RTVSPost2010PropOp35
 70
     1
102
RTVSPost2010Prop36
280
     0
102
RTVSPost2010PropOp36
 70
     1
102
RTVSPost2010Prop37
 90
       50
102
RTVSPost2010PropOp37
 70
     1
102
RTVSPost2010Prop38
140
0.0
102
RTVSPost2010PropOp38
 70
     1
102
RTVSPost2010Prop39
140
1.0
102
RTVSPost2010PropOp39
 70
     1
102
RTVSPost2010Prop40
 90
        0
102
RTVSPost2010PropOp40
 70
     1
102
RTVSPost2010Prop41ColorIndex
 90
       18
102
RTVSPost2010Prop41ColorRGB
 90
        0
102
RTVSPost2010PropOp41
 70
     1
102
RTVSPost2010Prop42
 90
       50
102
RTVSPost2010PropOp42
 70
     1
102
RTVSPost2010Prop43
 90
        3
102
RTVSPost2010PropOp43
 70
     1
102
RTVSPost2010Prop44ColorIndex
 90
        5
102
RTVSPost2010Prop44ColorRGB
 90
      255
102
RTVSPost2010PropOp44
 70
     1
102
RTVSPost2010Prop45
280
     0
102
RTVSPost2010PropOp45
 70
     1
102
RTVSPost2010Prop46
 90
       50
102
RTVSPost2010PropOp46
 70
     1
102
RTVSPost2010Prop47
 90
       50
102
RTVSPost2010PropOp47
 70
     1
102
RTVSPost2010Prop48
 90
       50
102
RTVSPost2010PropOp48
 70
     1
102
RTVSPost2010Prop49
280
     0
102
RTVSPost2010PropOp49
 70
     1
102
RTVSPost2010Prop50
 90
       50
102
RTVSPost2010PropOp50
 70
     1
102
RTVSPost2010Prop51ColorIndex
 90
      256
102
RTVSPost2010Prop51ColorRGB
 90
-16777216
102
RTVSPost2010PropOp51
 70
     0
102
RTVSPost2010Prop52
140
1.0
102
RTVSPost2010PropOp52
 70
     0
102
RTVSPost2010Prop53
 90
        2
102
RTVSPost2010PropOp53
 70
     1
102
RTVSPost2010Prop54
  1
strokes_ogs.tif
102
RTVSPost2010PropOp54
 70
     1
102
RTVSPost2010Prop55
280
     0
102
RTVSPost2010PropOp55
 70
     1
102
RTVSPost2010Prop56
140
1.0
102
RTVSPost2010PropOp56
 70
     1
102
RTVSPost2010Prop57
140
1.0
102
RTVSPost2010PropOp57
 70
     1
  0
ENDSEC
  0
EOF
