  0
SECTION
  2
HEADER
  9
$ACADVER
  1
AC1024
  9
$ACADMAINTVER
 70
   226
  9
$DWGCODEPAGE
  3
ANSI_932
  9
$LASTSAVEDBY
  1
hirotaka.yamamoto
  9
$INSBASE
 10
0.0
 20
0.0
 30
0.0
  9
$EXTMIN
 10
35.69239900276693
 20
-70.66288943343574
 30
0.0
  9
$EXTMAX
 10
875.0305107314007
 20
234.5801134227381
 30
0.0
  9
$LIMMIN
 10
0.0
 20
0.0
  9
$LIMMAX
 10
420.0
 20
297.0
  9
$ORTHOMODE
 70
     0
  9
$REGENMODE
 70
     1
  9
$FILLMODE
 70
     1
  9
$QTEXTMODE
 70
     0
  9
$MIRRTEXT
 70
     1
  9
$LTSCALE
 40
1.0
  9
$ATTMODE
 70
     1
  9
$TEXTSIZE
 40
2.5
  9
$TRACEWID
 40
1.0
  9
$TEXTSTYLE
  7
STANDARD
  9
$CLAYER
  8
0
  9
$CELTYPE
  6
ByLayer
  9
$CECOLOR
 62
   256
  9
$CELTSCALE
 40
1.0
  9
$DISPSILH
 70
     0
  9
$DIMSCALE
 40
1.0
  9
$DIMASZ
 40
2.5
  9
$DIMEXO
 40
0.625
  9
$DIMDLI
 40
3.75
  9
$DIMRND
 40
0.0
  9
$DIMDLE
 40
0.0
  9
$DIMEXE
 40
1.25
  9
$DIMTP
 40
0.0
  9
$DIMTM
 40
0.0
  9
$DIMTXT
 40
2.5
  9
$DIMCEN
 40
2.5
  9
$DIMTSZ
 40
0.0
  9
$DIMTOL
 70
     0
  9
$DIMLIM
 70
     0
  9
$DIMTIH
 70
     0
  9
$DIMTOH
 70
     0
  9
$DIMSE1
 70
     0
  9
$DIMSE2
 70
     0
  9
$DIMTAD
 70
     1
  9
$DIMZIN
 70
     8
  9
$DIMBLK
  1

  9
$DIMASO
 70
     1
  9
$DIMSHO
 70
     1
  9
$DIMPOST
  1

  9
$DIMAPOST
  1

  9
$DIMALT
 70
     0
  9
$DIMALTD
 70
     3
  9
$DIMALTF
 40
0.03937007874016
  9
$DIMLFAC
 40
1.0
  9
$DIMTOFL
 70
     1
  9
$DIMTVP
 40
0.0
  9
$DIMTIX
 70
     0
  9
$DIMSOXD
 70
     0
  9
$DIMSAH
 70
     0
  9
$DIMBLK1
  1

  9
$DIMBLK2
  1

  9
$DIMSTYLE
  2
ISO-25
  9
$DIMCLRD
 70
     0
  9
$DIMCLRE
 70
     0
  9
$DIMCLRT
 70
     0
  9
$DIMTFAC
 40
1.0
  9
$DIMGAP
 40
0.625
  9
$DIMJUST
 70
     0
  9
$DIMSD1
 70
     0
  9
$DIMSD2
 70
     0
  9
$DIMTOLJ
 70
     1
  9
$DIMTZIN
 70
     0
  9
$DIMALTZ
 70
     0
  9
$DIMALTTZ
 70
     0
  9
$DIMUPT
 70
     0
  9
$DIMDEC
 70
     4
  9
$DIMTDEC
 70
     4
  9
$DIMALTU
 70
     2
  9
$DIMALTTD
 70
     2
  9
$DIMTXSTY
  7
STANDARD
  9
$DIMAUNIT
 70
     0
  9
$DIMADEC
 70
     0
  9
$DIMALTRND
 40
0.0
  9
$DIMAZIN
 70
     0
  9
$DIMDSEP
 70
    46
  9
$DIMATFIT
 70
     3
  9
$DIMFRAC
 70
     0
  9
$DIMLDRBLK
  1

  9
$DIMLUNIT
 70
     2
  9
$DIMLWD
 70
    -2
  9
$DIMLWE
 70
    -2
  9
$DIMTMOVE
 70
     0
  9
$DIMFXL
 40
1.0
  9
$DIMFXLON
 70
     0
  9
$DIMJOGANG
 40
0.7853981633974483
  9
$DIMTFILL
 70
     0
  9
$DIMTFILLCLR
 70
     0
  9
$DIMARCSYM
 70
     0
  9
$DIMLTYPE
  6

  9
$DIMLTEX1
  6

  9
$DIMLTEX2
  6

  9
$DIMTXTDIRECTION
 70
     0
  9
$LUNITS
 70
     2
  9
$LUPREC
 70
     4
  9
$SKETCHINC
 40
1.0
  9
$FILLETRAD
 40
10.0
  9
$AUNITS
 70
     0
  9
$AUPREC
 70
     0
  9
$MENU
  1
.
  9
$ELEVATION
 40
0.0
  9
$PELEVATION
 40
0.0
  9
$THICKNESS
 40
0.0
  9
$LIMCHECK
 70
     0
  9
$CHAMFERA
 40
10.0
  9
$CHAMFERB
 40
10.0
  9
$CHAMFERC
 40
0.0
  9
$CHAMFERD
 40
0.0
  9
$SKPOLY
 70
     0
  9
$TDCREATE
 40
2452048.587870371
  9
$TDUCREATE
 40
2452048.212870371
  9
$TDUPDATE
 40
2459732.620127315
  9
$TDUUPDATE
 40
2459732.245127315
  9
$TDINDWG
 40
0.0211731829
  9
$TDUSRTIMER
 40
0.0211731829
  9
$USRTIMER
 70
     1
  9
$ANGBASE
 50
0.0
  9
$ANGDIR
 70
     0
  9
$PDMODE
 70
     0
  9
$PDSIZE
 40
0.0
  9
$PLINEWID
 40
0.0
  9
$SPLFRAME
 70
     0
  9
$SPLINETYPE
 70
     6
  9
$SPLINESEGS
 70
     8
  9
$HANDSEED
  5
5D83
  9
$SURFTAB1
 70
     6
  9
$SURFTAB2
 70
     6
  9
$SURFTYPE
 70
     6
  9
$SURFU
 70
     6
  9
$SURFV
 70
     6
  9
$UCSBASE
  2

  9
$UCSNAME
  2

  9
$UCSORG
 10
0.0
 20
0.0
 30
0.0
  9
$UCSXDIR
 10
1.0
 20
0.0
 30
0.0
  9
$UCSYDIR
 10
0.0
 20
1.0
 30
0.0
  9
$UCSORTHOREF
  2

  9
$UCSORTHOVIEW
 70
     0
  9
$UCSORGTOP
 10
0.0
 20
0.0
 30
0.0
  9
$UCSORGBOTTOM
 10
0.0
 20
0.0
 30
0.0
  9
$UCSORGLEFT
 10
0.0
 20
0.0
 30
0.0
  9
$UCSORGRIGHT
 10
0.0
 20
0.0
 30
0.0
  9
$UCSORGFRONT
 10
0.0
 20
0.0
 30
0.0
  9
$UCSORGBACK
 10
0.0
 20
0.0
 30
0.0
  9
$PUCSBASE
  2

  9
$PUCSNAME
  2

  9
$PUCSORG
 10
0.0
 20
0.0
 30
0.0
  9
$PUCSXDIR
 10
1.0
 20
0.0
 30
0.0
  9
$PUCSYDIR
 10
0.0
 20
1.0
 30
0.0
  9
$PUCSORTHOREF
  2

  9
$PUCSORTHOVIEW
 70
     0
  9
$PUCSORGTOP
 10
0.0
 20
0.0
 30
0.0
  9
$PUCSORGBOTTOM
 10
0.0
 20
0.0
 30
0.0
  9
$PUCSORGLEFT
 10
0.0
 20
0.0
 30
0.0
  9
$PUCSORGRIGHT
 10
0.0
 20
0.0
 30
0.0
  9
$PUCSORGFRONT
 10
0.0
 20
0.0
 30
0.0
  9
$PUCSORGBACK
 10
0.0
 20
0.0
 30
0.0
  9
$USERI1
 70
     0
  9
$USERI2
 70
     0
  9
$USERI3
 70
     0
  9
$USERI4
 70
     0
  9
$USERI5
 70
     0
  9
$USERR1
 40
0.0
  9
$USERR2
 40
0.0
  9
$USERR3
 40
0.0
  9
$USERR4
 40
0.0
  9
$USERR5
 40
0.0
  9
$WORLDVIEW
 70
     1
  9
$SHADEDGE
 70
     3
  9
$SHADEDIF
 70
    70
  9
$TILEMODE
 70
     1
  9
$MAXACTVP
 70
    64
  9
$PINSBASE
 10
0.0
 20
0.0
 30
0.0
  9
$PLIMCHECK
 70
     0
  9
$PEXTMIN
 10
1.000000000000000E+20
 20
1.000000000000000E+20
 30
1.000000000000000E+20
  9
$PEXTMAX
 10
-1.000000000000000E+20
 20
-1.000000000000000E+20
 30
-1.000000000000000E+20
  9
$PLIMMIN
 10
0.0
 20
0.0
  9
$PLIMMAX
 10
420.0
 20
297.0
  9
$UNITMODE
 70
     0
  9
$VISRETAIN
 70
     1
  9
$PLINEGEN
 70
     0
  9
$PSLTSCALE
 70
     1
  9
$TREEDEPTH
 70
  3020
  9
$CMLSTYLE
  2
Standard
  9
$CMLJUST
 70
     0
  9
$CMLSCALE
 40
1.0
  9
$PROXYGRAPHICS
 70
     1
  9
$MEASUREMENT
 70
     0
  9
$CELWEIGHT
370
    -1
  9
$ENDCAPS
280
     0
  9
$JOINSTYLE
280
     0
  9
$LWDISPLAY
290
     0
  9
$INSUNITS
 70
     0
  9
$HYPERLINKBASE
  1

  9
$STYLESHEET
  1

  9
$XEDIT
290
     1
  9
$CEPSNTYPE
380
     0
  9
$PSTYLEMODE
290
     1
  9
$FINGERPRINTGUID
  2
{67F50E8B-2F5E-5F4E-9C23-FE8315BFFC3B}
  9
$VERSIONGUID
  2
{54DF2B31-DE01-CD41-B53B-3D64548069A1}
  9
$EXTNAMES
290
     1
  9
$PSVPSCALE
 40
0.0
  9
$OLESTARTUP
290
     0
  9
$SORTENTS
280
   127
  9
$INDEXCTL
280
     0
  9
$HIDETEXT
280
     0
  9
$XCLIPFRAME
280
     2
  9
$HALOGAP
280
     0
  9
$OBSCOLOR
 70
   257
  9
$OBSLTYPE
280
     0
  9
$INTERSECTIONDISPLAY
280
     0
  9
$INTERSECTIONCOLOR
 70
   257
  9
$DIMASSOC
280
     1
  9
$PROJECTNAME
  1

  9
$CAMERADISPLAY
290
     0
  9
$LENSLENGTH
 40
50.0
  9
$CAMERAHEIGHT
 40
0.0
  9
$STEPSPERSEC
 40
2.0
  9
$STEPSIZE
 40
6.0
  9
$3DDWFPREC
 40
2.0
  9
$PSOLWIDTH
 40
0.25
  9
$PSOLHEIGHT
 40
4.0
  9
$LOFTANG1
 40
1.570796326794896
  9
$LOFTANG2
 40
1.570796326794896
  9
$LOFTMAG1
 40
0.0
  9
$LOFTMAG2
 40
0.0
  9
$LOFTPARAM
 70
     7
  9
$LOFTNORMALS
280
     1
  9
$LATITUDE
 40
37.795
  9
$LONGITUDE
 40
-122.394
  9
$NORTHDIRECTION
 40
0.0
  9
$TIMEZONE
 70
 -8000
  9
$LIGHTGLYPHDISPLAY
280
     1
  9
$TILEMODELIGHTSYNCH
280
     1
  9
$CMATERIAL
347
524E
  9
$SOLIDHIST
280
     0
  9
$SHOWHIST
280
     1
  9
$DWFFRAME
280
     2
  9
$DGNFRAME
280
     0
  9
$REALWORLDSCALE
290
     1
  9
$INTERFERECOLOR
 62
     1
  9
$INTERFEREOBJVS
345
5270
  9
$INTERFEREVPVS
346
526D
  9
$CSHADOW
280
     0
  9
$SHADOWPLANELOCATION
 40
0.0
  0
ENDSEC
  0
SECTION
  2
CLASSES
  0
CLASS
  1
ACDBDICTIONARYWDFLT
  2
AcDbDictionaryWithDefault
  3
ObjectDBX Classes
 90
        0
 91
        1
280
     0
281
     0
  0
CLASS
  1
MATERIAL
  2
AcDbMaterial
  3
ObjectDBX Classes
 90
     1153
 91
        3
280
     0
281
     0
  0
CLASS
  1
VISUALSTYLE
  2
AcDbVisualStyle
  3
ObjectDBX Classes
 90
     4095
 91
       24
280
     0
281
     0
  0
CLASS
  1
SCALE
  2
AcDbScale
  3
ObjectDBX Classes
 90
     1153
 91
       17
280
     0
281
     0
  0
CLASS
  1
TABLESTYLE
  2
AcDbTableStyle
  3
ObjectDBX Classes
 90
     4095
 91
        1
280
     0
281
     0
  0
CLASS
  1
MLEADERSTYLE
  2
AcDbMLeaderStyle
  3
ACDB_MLEADERSTYLE_CLASS
 90
     4095
 91
        1
280
     0
281
     0
  0
CLASS
  1
ACDBSECTIONVIEWSTYLE
  2
AcDbSectionViewStyle
  3
ObjectDBX Classes
 90
     1025
 91
        2
280
     0
281
     0
  0
CLASS
  1
ACDBDETAILVIEWSTYLE
  2
AcDbDetailViewStyle
  3
ObjectDBX Classes
 90
     1025
 91
        2
280
     0
281
     0
  0
CLASS
  1
DICTIONARYVAR
  2
AcDbDictionaryVar
  3
ObjectDBX Classes
 90
        0
 91
        9
280
     0
281
     0
  0
CLASS
  1
CELLSTYLEMAP
  2
AcDbCellStyleMap
  3
ObjectDBX Classes
 90
     1152
 91
        1
280
     0
281
     0
  0
ENDSEC
  0
SECTION
  2
TABLES
  0
TABLE
  2
VPORT
  5
5245
330
0
100
AcDbSymbolTable
 70
     1
  0
VPORT
  5
52B0
330
5245
100
AcDbSymbolTableRecord
100
AcDbViewportTableRecord
  2
*ACTIVE
 70
     0
 10
0.0
 20
0.0
 11
1.0
 21
1.0
 12
187.7047671280361
 22
-28.14964664623147
 13
0.0
 23
0.0
 14
10.0
 24
10.0
 15
10.0
 25
10.0
 16
0.0
 26
0.0
 36
1.0
 17
0.0
 27
0.0
 37
0.0
 40
979.6265768510634
 41
1.896758703481392
 42
50.0
 43
0.0
 44
0.0
 50
0.0
 51
0.0
 71
     0
 72
   100
 73
     1
 74
     3
 75
     0
 76
     0
 77
     0
 78
     0
281
     0
 65
     1
110
0.0
120
0.0
130
0.0
111
1.0
121
0.0
131
0.0
112
0.0
122
1.0
132
0.0
 79
     0
146
0.0
348
526C
 60
     3
 61
     5
292
     1
282
     0
141
0.0
142
0.0
 63
   250
421
  3355443
1001
ACAD_NAV_VCDISPLAY
1070
     3
  0
ENDTAB
  0
TABLE
  2
LTYPE
  5
5242
330
0
100
AcDbSymbolTable
 70
     3
  0
LTYPE
  5
5297
330
5242
100
AcDbSymbolTableRecord
100
AcDbLinetypeTableRecord
  2
ByBlock
 70
     0
  3

 72
    65
 73
     0
 40
0.0
  0
LTYPE
  5
5298
330
5242
100
AcDbSymbolTableRecord
100
AcDbLinetypeTableRecord
  2
ByLayer
 70
     0
  3

 72
    65
 73
     0
 40
0.0
  0
LTYPE
  5
5299
330
5242
100
AcDbSymbolTableRecord
100
AcDbLinetypeTableRecord
  2
CONTINUOUS
 70
     0
  3
Solid line
 72
    65
 73
     0
 40
0.0
  0
LTYPE
  5
53BC
330
5242
100
AcDbSymbolTableRecord
100
AcDbLinetypeTableRecord
  2
CENTER
 70
     0
  3
Center ____ _ ____ _ ____ _ ____ _ ____ _ ____
 72
    65
 73
     4
 40
50.8
 49
31.75
 74
     0
 49
-6.349999999999999
 74
     0
 49
6.349999999999999
 74
     0
 49
-6.349999999999999
 74
     0
  0
LTYPE
  5
53BD
330
5242
100
AcDbSymbolTableRecord
100
AcDbLinetypeTableRecord
  2
PHANTOM
 70
     0
  3
Phantom ______  __  __  ______  __  __  ______
 72
    65
 73
     6
 40
63.5
 49
31.75
 74
     0
 49
-6.349999999999999
 74
     0
 49
6.349999999999999
 74
     0
 49
-6.349999999999999
 74
     0
 49
6.349999999999999
 74
     0
 49
-6.349999999999999
 74
     0
  0
ENDTAB
  0
TABLE
  2
LAYER
  5
523F
102
{ACAD_XDICTIONARY
360
53C7
102
}
330
0
100
AcDbSymbolTable
 70
     5
  0
LAYER
  5
5291
102
{ACAD_XDICTIONARY
360
5D38
102
}
330
523F
100
AcDbSymbolTableRecord
100
AcDbLayerTableRecord
  2
0
 70
     0
 62
     7
  6
CONTINUOUS
370
    -3
390
524C
347
525E
  0
LAYER
  5
52B1
102
{ACAD_XDICTIONARY
360
5D3A
102
}
330
523F
100
AcDbSymbolTableRecord
100
AcDbLayerTableRecord
  2
1外形線
 70
     0
 62
     3
  6
CONTINUOUS
370
    -3
390
524C
347
525E
  0
LAYER
  5
53BE
102
{ACAD_XDICTIONARY
360
53BF
102
}
330
523F
100
AcDbSymbolTableRecord
100
AcDbLayerTableRecord
  2
2寸法線
 70
     0
 62
     2
  6
CONTINUOUS
370
    -3
390
524C
347
525E
  0
LAYER
  5
53C0
102
{ACAD_XDICTIONARY
360
53C1
102
}
330
523F
100
AcDbSymbolTableRecord
100
AcDbLayerTableRecord
  2
3補助線
 70
     0
 62
     4
  6
CONTINUOUS
370
    -3
390
524C
347
525E
  0
LAYER
  5
53C2
330
523F
100
AcDbSymbolTableRecord
100
AcDbLayerTableRecord
  2
DEFPOINTS
 70
     0
 62
     7
  6
CONTINUOUS
290
     0
370
    -3
390
524C
347
525E
  0
ENDTAB
  0
TABLE
  2
STYLE
  5
5240
330
0
100
AcDbSymbolTable
 70
     3
  0
STYLE
  5
5292
330
5240
100
AcDbSymbolTableRecord
100
AcDbTextStyleTableRecord
  2
STANDARD
 70
     0
 40
0.0
 41
1.0
 50
0.0
 71
     0
 42
2.5
  3
txt
  4

  0
STYLE
  5
5296
330
5240
100
AcDbSymbolTableRecord
100
AcDbTextStyleTableRecord
  2
Annotative
 70
     0
 40
0.0
 41
1.0
 50
0.0
 71
     0
 42
0.2
  3
txt
  4

1001
AcadAnnotative
1000
AnnotativeData
1002
{
1070
     1
1070
     1
1002
}
  0
STYLE
  5
52B2
330
5240
100
AcDbSymbolTableRecord
100
AcDbTextStyleTableRecord
  2
KANJI
 70
     0
 40
0.0
 41
1.0
 50
0.0
 71
     0
 42
10.0
  3
simplex
  4
bigfont
  0
ENDTAB
  0
TABLE
  2
VIEW
  5
5243
330
0
100
AcDbSymbolTable
 70
     0
  0
ENDTAB
  0
TABLE
  2
UCS
  5
5244
330
0
100
AcDbSymbolTable
 70
     0
  0
ENDTAB
  0
TABLE
  2
APPID
  5
5246
330
0
100
AcDbSymbolTable
 70
     5
  0
APPID
  5
5293
330
5246
100
AcDbSymbolTableRecord
100
AcDbRegAppTableRecord
  2
ACAD
 70
     0
  0
APPID
  5
529A
330
5246
100
AcDbSymbolTableRecord
100
AcDbRegAppTableRecord
  2
AcadAnnotative
 70
     0
  0
APPID
  5
52BE
330
5246
100
AcDbSymbolTableRecord
100
AcDbRegAppTableRecord
  2
Acad_TC
 70
     0
  0
APPID
  5
53C5
330
5246
100
AcDbSymbolTableRecord
100
AcDbRegAppTableRecord
  2
ACAD_PSEXT
 70
     0
  0
APPID
  5
53C6
330
5246
100
AcDbSymbolTableRecord
100
AcDbRegAppTableRecord
  2
ACAD_NAV_VCDISPLAY
 70
     0
  0
ENDTAB
  0
TABLE
  2
DIMSTYLE
  5
5247
330
0
100
AcDbSymbolTable
 70
     5
100
AcDbDimStyleTable
 71
     1
340
52B3
  0
DIMSTYLE
105
5294
330
5247
100
AcDbSymbolTableRecord
100
AcDbDimStyleTableRecord
  2
STANDARD
 70
     0
 41
1.0
 42
1.0
 43
6.0
 44
1.0
 73
     0
 74
     0
 77
     1
 78
     8
140
2.5
141
0.0
147
0.5
172
     1
173
     1
274
     3
279
     2
284
     8
285
     8
286
     8
340
5292
  0
DIMSTYLE
105
5295
330
5247
100
AcDbSymbolTableRecord
100
AcDbDimStyleTableRecord
  2
Annotative
 70
     0
340
5292
1001
AcadAnnotative
1000
AnnotativeData
1002
{
1070
     1
1070
     1
1002
}
  0
DIMSTYLE
105
52B3
330
5247
100
AcDbSymbolTableRecord
100
AcDbDimStyleTableRecord
  2
ISO-25
 70
     0
 41
2.5
 42
0.625
 43
3.75
 44
1.25
 73
     0
 74
     0
 77
     1
 78
     8
140
2.5
141
2.5
143
0.03937007874016
147
0.625
171
     3
172
     1
274
     3
279
     2
284
     8
285
     8
286
     8
340
5292
  0
DIMSTYLE
105
53C3
102
{ACAD_REACTORS
330
5444
330
5443
330
5442
330
5441
330
5440
330
543F
330
543E
330
5438
330
5436
330
5435
330
5466
330
5465
330
5464
330
546E
330
5473
102
}
330
5247
100
AcDbSymbolTableRecord
100
AcDbDimStyleTableRecord
  2
M
 70
     0
 40
0.0
 41
2.0
 42
1.0
 43
0.0
 44
1.0
 73
     0
 74
     0
 77
     1
 78
     8
140
2.5
141
0.0
147
0.5
172
     1
173
     1
284
     8
340
52B2
341
52BF
343
52BF
344
52BF
  0
DIMSTYLE
105
53C4
102
{ACAD_REACTORS
330
5437
330
543D
330
5471
102
}
330
5247
100
AcDbSymbolTableRecord
100
AcDbDimStyleTableRecord
  2
M$4
 70
     0
 40
0.0
 41
2.0
 42
1.0
 43
0.0
 44
1.0
 73
     0
 77
     1
 78
     8
140
2.5
141
0.0
147
0.5
173
     1
284
     8
340
52B2
341
52BF
343
52BF
344
52BF
  0
ENDTAB
  0
TABLE
  2
BLOCK_RECORD
  5
523E
330
0
100
AcDbSymbolTable
 70
   101
  0
BLOCK_RECORD
  5
52AC
330
523E
100
AcDbSymbolTableRecord
100
AcDbBlockTableRecord
  2
*Model_Space
340
52AF
 70
     0
280
     1
281
     0
  0
BLOCK_RECORD
  5
52A8
330
523E
100
AcDbSymbolTableRecord
100
AcDbBlockTableRecord
  2
*Paper_Space
340
52AB
 70
     0
280
     1
281
     0
  0
BLOCK_RECORD
  5
52B7
330
523E
100
AcDbSymbolTableRecord
100
AcDbBlockTableRecord
  2
$MODEL_SPACE
340
0
 70
     0
280
     1
281
     0
  0
BLOCK_RECORD
  5
52B9
330
523E
100
AcDbSymbolTableRecord
100
AcDbBlockTableRecord
  2
$PAPER_SPACE
340
0
 70
     0
280
     1
281
     0
  0
BLOCK_RECORD
  5
52BB
330
523E
100
AcDbSymbolTableRecord
100
AcDbBlockTableRecord
  2
1
340
0
 70
     0
280
     1
281
     0
  0
BLOCK_RECORD
  5
52BF
330
523E
100
AcDbSymbolTableRecord
100
AcDbBlockTableRecord
  2
2
340
0
102
{BLKREFS
331
5D15
331
5D1F
331
5D20
331
5D28
331
5D29
331
5D32
331
5D33
331
5C9E
331
5C9F
331
5CA6
331
5CAC
331
5CAD
331
5CB5
331
5CB6
331
5CBD
331
5CCF
331
5CD0
331
5CD8
331
5CD9
331
5CE3
331
5CE4
331
5CEC
331
5CED
331
5CF5
331
5CF6
331
5CFE
331
5CFF
331
5D0A
331
5BBE
331
5BC9
331
5BD4
331
5BDF
331
5BEA
331
5BF5
331
5C00
331
5C0B
331
5C15
331
5C16
331
5C1E
331
5C24
331
5C2A
331
5C30
331
5C36
331
5C3F
331
5C4A
331
5C52
331
5C53
331
5C5E
331
5C69
331
5C71
331
5C72
331
5C7A
331
5C80
331
5C86
331
5C87
331
5C8F
331
5C95
331
5C96
331
5642
331
5643
331
564D
331
564E
331
5656
331
52E5
331
52E6
331
52F1
331
52F2
331
52FD
331
52FE
331
530B
331
530C
331
5317
331
5318
331
5325
331
5326
331
5332
331
5333
331
533E
331
533F
331
534A
331
5355
331
5356
331
5363
331
5364
331
536E
331
5379
331
537A
331
5388
331
5396
331
53A1
331
53A2
331
53AD
331
53AE
331
53B8
331
571B
331
5729
331
5737
331
5745
331
5753
331
5761
331
576F
331
577D
331
578A
331
578B
331
5796
331
579F
331
57A8
331
57B1
331
57BA
331
57C3
331
57C4
331
57CF
331
57D8
331
57E4
331
57F2
331
57FD
331
57FE
331
580C
331
581A
331
5825
331
5826
331
5831
331
583A
331
583B
331
5846
331
5847
102
}
 70
     0
280
     1
281
     0
  0
BLOCK_RECORD
  5
52C3
330
523E
100
AcDbSymbolTableRecord
100
AcDbBlockTableRecord
  2
3
340
0
102
{BLKREFS
331
5D14
331
5D09
331
5BBD
331
5BC8
331
5BD3
331
5BDE
331
5BE9
331
5BF4
331
5BFF
331
5C0A
331
5C3E
331
5C49
331
5C5D
331
5C68
331
5387
331
5395
331
571A
331
5728
331
5736
331
5744
331
5752
331
5760
331
576E
331
577C
331
57E3
331
57F1
331
580B
331
5819
102
}
 70
     0
280
     1
281
     0
  0
BLOCK_RECORD
  5
52C8
330
523E
100
AcDbSymbolTableRecord
100
AcDbBlockTableRecord
  2
A上
340
0
102
{BLKREFS
102
}
 70
     0
280
     1
281
     0
  0
BLOCK_RECORD
  5
52D4
330
523E
100
AcDbSymbolTableRecord
100
AcDbBlockTableRecord
  2
Aダッシュ上
340
0
102
{BLKREFS
102
}
 70
     0
280
     1
281
     0
  0
BLOCK_RECORD
  5
52E0
330
523E
100
AcDbSymbolTableRecord
100
AcDbBlockTableRecord
  2
*D7
340
0
 70
     0
280
     1
281
     0
  0
BLOCK_RECORD
  5
52EC
330
523E
100
AcDbSymbolTableRecord
100
AcDbBlockTableRecord
  2
*D8
340
0
 70
     0
280
     1
281
     0
  0
BLOCK_RECORD
  5
52F8
330
523E
100
AcDbSymbolTableRecord
100
AcDbBlockTableRecord
  2
*D9
340
0
 70
     0
280
     1
281
     0
  0
BLOCK_RECORD
  5
5304
330
523E
100
AcDbSymbolTableRecord
100
AcDbBlockTableRecord
  2
*D10
340
0
 70
     0
280
     1
281
     0
  0
BLOCK_RECORD
  5
5312
330
523E
100
AcDbSymbolTableRecord
100
AcDbBlockTableRecord
  2
*D11
340
0
 70
     0
280
     1
281
     0
  0
BLOCK_RECORD
  5
531E
330
523E
100
AcDbSymbolTableRecord
100
AcDbBlockTableRecord
  2
*D12
340
0
 70
     0
280
     1
281
     0
  0
BLOCK_RECORD
  5
532C
330
523E
100
AcDbSymbolTableRecord
100
AcDbBlockTableRecord
  2
*D13
340
0
 70
     0
280
     1
281
     0
  0
BLOCK_RECORD
  5
5339
330
523E
100
AcDbSymbolTableRecord
100
AcDbBlockTableRecord
  2
*D14
340
0
 70
     0
280
     1
281
     0
  0
BLOCK_RECORD
  5
5345
330
523E
100
AcDbSymbolTableRecord
100
AcDbBlockTableRecord
  2
*D15
340
0
 70
     0
280
     1
281
     0
  0
BLOCK_RECORD
  5
534E
330
523E
100
AcDbSymbolTableRecord
100
AcDbBlockTableRecord
  2
*D16
340
0
 70
     0
280
     1
281
     0
  0
BLOCK_RECORD
  5
535C
330
523E
100
AcDbSymbolTableRecord
100
AcDbBlockTableRecord
  2
*D17
340
0
 70
     0
280
     1
281
     0
  0
BLOCK_RECORD
  5
536A
330
523E
100
AcDbSymbolTableRecord
100
AcDbBlockTableRecord
  2
*D18
340
0
 70
     0
280
     1
281
     0
  0
BLOCK_RECORD
  5
5372
330
523E
100
AcDbSymbolTableRecord
100
AcDbBlockTableRecord
  2
*D19
340
0
 70
     0
280
     1
281
     0
  0
BLOCK_RECORD
  5
5380
330
523E
100
AcDbSymbolTableRecord
100
AcDbBlockTableRecord
  2
*D20
340
0
 70
     0
280
     1
281
     0
  0
BLOCK_RECORD
  5
538E
330
523E
100
AcDbSymbolTableRecord
100
AcDbBlockTableRecord
  2
*D21
340
0
 70
     0
280
     1
281
     0
  0
BLOCK_RECORD
  5
539C
330
523E
100
AcDbSymbolTableRecord
100
AcDbBlockTableRecord
  2
*D22
340
0
 70
     0
280
     1
281
     0
  0
BLOCK_RECORD
  5
53A8
330
523E
100
AcDbSymbolTableRecord
100
AcDbBlockTableRecord
  2
*D23
340
0
 70
     0
280
     1
281
     0
  0
BLOCK_RECORD
  5
53B4
330
523E
100
AcDbSymbolTableRecord
100
AcDbBlockTableRecord
  2
*D24
340
0
 70
     0
280
     1
281
     0
  0
BLOCK_RECORD
  5
5561
330
523E
100
AcDbSymbolTableRecord
100
AcDbBlockTableRecord
  2
*D26
340
0
 70
     0
280
     1
281
     0
  0
BLOCK_RECORD
  5
556F
330
523E
100
AcDbSymbolTableRecord
100
AcDbBlockTableRecord
  2
*D27
340
0
 70
     0
280
     1
281
     0
  0
BLOCK_RECORD
  5
557D
330
523E
100
AcDbSymbolTableRecord
100
AcDbBlockTableRecord
  2
*D28
340
0
 70
     0
280
     1
281
     0
  0
BLOCK_RECORD
  5
5586
330
523E
100
AcDbSymbolTableRecord
100
AcDbBlockTableRecord
  2
*D29
340
0
 70
     0
280
     1
281
     0
  0
BLOCK_RECORD
  5
5592
330
523E
100
AcDbSymbolTableRecord
100
AcDbBlockTableRecord
  2
*D30
340
0
 70
     0
280
     1
281
     0
  0
BLOCK_RECORD
  5
559A
330
523E
100
AcDbSymbolTableRecord
100
AcDbBlockTableRecord
  2
*D31
340
0
 70
     0
280
     1
281
     0
  0
BLOCK_RECORD
  5
55A7
330
523E
100
AcDbSymbolTableRecord
100
AcDbBlockTableRecord
  2
*D32
340
0
 70
     0
280
     1
281
     0
  0
BLOCK_RECORD
  5
55B5
330
523E
100
AcDbSymbolTableRecord
100
AcDbBlockTableRecord
  2
*D33
340
0
 70
     0
280
     1
281
     0
  0
BLOCK_RECORD
  5
55C1
330
523E
100
AcDbSymbolTableRecord
100
AcDbBlockTableRecord
  2
*D34
340
0
 70
     0
280
     1
281
     0
  0
BLOCK_RECORD
  5
55CF
330
523E
100
AcDbSymbolTableRecord
100
AcDbBlockTableRecord
  2
*D35
340
0
 70
     0
280
     1
281
     0
  0
BLOCK_RECORD
  5
55DB
330
523E
100
AcDbSymbolTableRecord
100
AcDbBlockTableRecord
  2
*D36
340
0
 70
     0
280
     1
281
     0
  0
BLOCK_RECORD
  5
55E7
330
523E
100
AcDbSymbolTableRecord
100
AcDbBlockTableRecord
  2
*D37
340
0
 70
     0
280
     1
281
     0
  0
BLOCK_RECORD
  5
55F3
330
523E
100
AcDbSymbolTableRecord
100
AcDbBlockTableRecord
  2
*D38
340
0
 70
     0
280
     1
281
     0
  0
BLOCK_RECORD
  5
5601
330
523E
100
AcDbSymbolTableRecord
100
AcDbBlockTableRecord
  2
*D39
340
0
 70
     0
280
     1
281
     0
  0
BLOCK_RECORD
  5
560F
330
523E
100
AcDbSymbolTableRecord
100
AcDbBlockTableRecord
  2
*D40
340
0
 70
     0
280
     1
281
     0
  0
BLOCK_RECORD
  5
561D
330
523E
100
AcDbSymbolTableRecord
100
AcDbBlockTableRecord
  2
*D41
340
0
 70
     0
280
     1
281
     0
  0
BLOCK_RECORD
  5
5629
330
523E
100
AcDbSymbolTableRecord
100
AcDbBlockTableRecord
  2
*D42
340
0
 70
     0
280
     1
281
     0
  0
BLOCK_RECORD
  5
5631
330
523E
100
AcDbSymbolTableRecord
100
AcDbBlockTableRecord
  2
*D43
340
0
 70
     0
280
     1
281
     0
  0
BLOCK_RECORD
  5
56E3
330
523E
100
AcDbSymbolTableRecord
100
AcDbBlockTableRecord
  2
B右
340
0
102
{BLKREFS
102
}
 70
     0
280
     1
281
     0
  0
BLOCK_RECORD
  5
56EF
330
523E
100
AcDbSymbolTableRecord
100
AcDbBlockTableRecord
  2
Bダッシュ右
340
0
102
{BLKREFS
102
}
 70
     0
280
     1
281
     0
  0
BLOCK_RECORD
  5
56FB
330
523E
100
AcDbSymbolTableRecord
100
AcDbBlockTableRecord
  2
C右
340
0
102
{BLKREFS
102
}
 70
     0
280
     1
281
     0
  0
BLOCK_RECORD
  5
5707
330
523E
100
AcDbSymbolTableRecord
100
AcDbBlockTableRecord
  2
Cダッシュ右
340
0
102
{BLKREFS
102
}
 70
     0
280
     1
281
     0
  0
BLOCK_RECORD
  5
5713
330
523E
100
AcDbSymbolTableRecord
100
AcDbBlockTableRecord
  2
*D48
340
0
 70
     0
280
     1
281
     0
  0
BLOCK_RECORD
  5
5721
330
523E
100
AcDbSymbolTableRecord
100
AcDbBlockTableRecord
  2
*D49
340
0
 70
     0
280
     1
281
     0
  0
BLOCK_RECORD
  5
572F
330
523E
100
AcDbSymbolTableRecord
100
AcDbBlockTableRecord
  2
*D50
340
0
 70
     0
280
     1
281
     0
  0
BLOCK_RECORD
  5
573D
330
523E
100
AcDbSymbolTableRecord
100
AcDbBlockTableRecord
  2
*D51
340
0
 70
     0
280
     1
281
     0
  0
BLOCK_RECORD
  5
574B
330
523E
100
AcDbSymbolTableRecord
100
AcDbBlockTableRecord
  2
*D52
340
0
 70
     0
280
     1
281
     0
  0
BLOCK_RECORD
  5
5759
330
523E
100
AcDbSymbolTableRecord
100
AcDbBlockTableRecord
  2
*D53
340
0
 70
     0
280
     1
281
     0
  0
BLOCK_RECORD
  5
5767
330
523E
100
AcDbSymbolTableRecord
100
AcDbBlockTableRecord
  2
*D54
340
0
 70
     0
280
     1
281
     0
  0
BLOCK_RECORD
  5
5775
330
523E
100
AcDbSymbolTableRecord
100
AcDbBlockTableRecord
  2
*D55
340
0
 70
     0
280
     1
281
     0
  0
BLOCK_RECORD
  5
5783
330
523E
100
AcDbSymbolTableRecord
100
AcDbBlockTableRecord
  2
*D56
340
0
 70
     0
280
     1
281
     0
  0
BLOCK_RECORD
  5
5791
330
523E
100
AcDbSymbolTableRecord
100
AcDbBlockTableRecord
  2
*D57
340
0
 70
     0
280
     1
281
     0
  0
BLOCK_RECORD
  5
579A
330
523E
100
AcDbSymbolTableRecord
100
AcDbBlockTableRecord
  2
*D58
340
0
 70
     0
280
     1
281
     0
  0
BLOCK_RECORD
  5
57A3
330
523E
100
AcDbSymbolTableRecord
100
AcDbBlockTableRecord
  2
*D59
340
0
 70
     0
280
     1
281
     0
  0
BLOCK_RECORD
  5
57AC
330
523E
100
AcDbSymbolTableRecord
100
AcDbBlockTableRecord
  2
*D60
340
0
 70
     0
280
     1
281
     0
  0
BLOCK_RECORD
  5
57B5
330
523E
100
AcDbSymbolTableRecord
100
AcDbBlockTableRecord
  2
*D61
340
0
 70
     0
280
     1
281
     0
  0
BLOCK_RECORD
  5
57BE
330
523E
100
AcDbSymbolTableRecord
100
AcDbBlockTableRecord
  2
*D62
340
0
 70
     0
280
     1
281
     0
  0
BLOCK_RECORD
  5
57CA
330
523E
100
AcDbSymbolTableRecord
100
AcDbBlockTableRecord
  2
*D63
340
0
 70
     0
280
     1
281
     0
  0
BLOCK_RECORD
  5
57D3
330
523E
100
AcDbSymbolTableRecord
100
AcDbBlockTableRecord
  2
*D64
340
0
 70
     0
280
     1
281
     0
  0
BLOCK_RECORD
  5
57DC
330
523E
100
AcDbSymbolTableRecord
100
AcDbBlockTableRecord
  2
*D65
340
0
 70
     0
280
     1
281
     0
  0
BLOCK_RECORD
  5
57EA
330
523E
100
AcDbSymbolTableRecord
100
AcDbBlockTableRecord
  2
*D66
340
0
 70
     0
280
     1
281
     0
  0
BLOCK_RECORD
  5
57F8
330
523E
100
AcDbSymbolTableRecord
100
AcDbBlockTableRecord
  2
*D67
340
0
 70
     0
280
     1
281
     0
  0
BLOCK_RECORD
  5
5804
330
523E
100
AcDbSymbolTableRecord
100
AcDbBlockTableRecord
  2
*D68
340
0
 70
     0
280
     1
281
     0
  0
BLOCK_RECORD
  5
5812
330
523E
100
AcDbSymbolTableRecord
100
AcDbBlockTableRecord
  2
*D69
340
0
 70
     0
280
     1
281
     0
  0
BLOCK_RECORD
  5
5820
330
523E
100
AcDbSymbolTableRecord
100
AcDbBlockTableRecord
  2
*D70
340
0
 70
     0
280
     1
281
     0
  0
BLOCK_RECORD
  5
582C
330
523E
100
AcDbSymbolTableRecord
100
AcDbBlockTableRecord
  2
*D71
340
0
 70
     0
280
     1
281
     0
  0
BLOCK_RECORD
  5
5835
330
523E
100
AcDbSymbolTableRecord
100
AcDbBlockTableRecord
  2
*D72
340
0
 70
     0
280
     1
281
     0
  0
BLOCK_RECORD
  5
5841
330
523E
100
AcDbSymbolTableRecord
100
AcDbBlockTableRecord
  2
*D73
340
0
 70
     0
280
     1
281
     0
  0
BLOCK_RECORD
  5
5A7E
330
523E
100
AcDbSymbolTableRecord
100
AcDbBlockTableRecord
  2
*D75
340
0
 70
     0
280
     1
281
     0
  0
BLOCK_RECORD
  5
5A8C
330
523E
100
AcDbSymbolTableRecord
100
AcDbBlockTableRecord
  2
*D76
340
0
 70
     0
280
     1
281
     0
  0
BLOCK_RECORD
  5
5A9A
330
523E
100
AcDbSymbolTableRecord
100
AcDbBlockTableRecord
  2
*D77
340
0
 70
     0
280
     1
281
     0
  0
BLOCK_RECORD
  5
5AA8
330
523E
100
AcDbSymbolTableRecord
100
AcDbBlockTableRecord
  2
*D78
340
0
 70
     0
280
     1
281
     0
  0
BLOCK_RECORD
  5
5AB6
330
523E
100
AcDbSymbolTableRecord
100
AcDbBlockTableRecord
  2
*D79
340
0
 70
     0
280
     1
281
     0
  0
BLOCK_RECORD
  5
5AC4
330
523E
100
AcDbSymbolTableRecord
100
AcDbBlockTableRecord
  2
*D80
340
0
 70
     0
280
     1
281
     0
  0
BLOCK_RECORD
  5
5AD2
330
523E
100
AcDbSymbolTableRecord
100
AcDbBlockTableRecord
  2
*D81
340
0
 70
     0
280
     1
281
     0
  0
BLOCK_RECORD
  5
5AE0
330
523E
100
AcDbSymbolTableRecord
100
AcDbBlockTableRecord
  2
*D82
340
0
 70
     0
280
     1
281
     0
  0
BLOCK_RECORD
  5
5AEE
330
523E
100
AcDbSymbolTableRecord
100
AcDbBlockTableRecord
  2
*D83
340
0
 70
     0
280
     1
281
     0
  0
BLOCK_RECORD
  5
5AFC
330
523E
100
AcDbSymbolTableRecord
100
AcDbBlockTableRecord
  2
*D84
340
0
 70
     0
280
     1
281
     0
  0
BLOCK_RECORD
  5
5B05
330
523E
100
AcDbSymbolTableRecord
100
AcDbBlockTableRecord
  2
*D85
340
0
 70
     0
280
     1
281
     0
  0
BLOCK_RECORD
  5
5B0E
330
523E
100
AcDbSymbolTableRecord
100
AcDbBlockTableRecord
  2
*D86
340
0
 70
     0
280
     1
281
     0
  0
BLOCK_RECORD
  5
5B17
330
523E
100
AcDbSymbolTableRecord
100
AcDbBlockTableRecord
  2
*D87
340
0
 70
     0
280
     1
281
     0
  0
BLOCK_RECORD
  5
5B20
330
523E
100
AcDbSymbolTableRecord
100
AcDbBlockTableRecord
  2
*D88
340
0
 70
     0
280
     1
281
     0
  0
BLOCK_RECORD
  5
5B29
330
523E
100
AcDbSymbolTableRecord
100
AcDbBlockTableRecord
  2
*D89
340
0
 70
     0
280
     1
281
     0
  0
BLOCK_RECORD
  5
5B37
330
523E
100
AcDbSymbolTableRecord
100
AcDbBlockTableRecord
  2
*D90
340
0
 70
     0
280
     1
281
     0
  0
BLOCK_RECORD
  5
5B45
330
523E
100
AcDbSymbolTableRecord
100
AcDbBlockTableRecord
  2
*D91
340
0
 70
     0
280
     1
281
     0
  0
BLOCK_RECORD
  5
5B51
330
523E
100
AcDbSymbolTableRecord
100
AcDbBlockTableRecord
  2
*D92
340
0
 70
     0
280
     1
281
     0
  0
BLOCK_RECORD
  5
5B5F
330
523E
100
AcDbSymbolTableRecord
100
AcDbBlockTableRecord
  2
*D93
340
0
 70
     0
280
     1
281
     0
  0
BLOCK_RECORD
  5
5B6D
330
523E
100
AcDbSymbolTableRecord
100
AcDbBlockTableRecord
  2
*D94
340
0
 70
     0
280
     1
281
     0
  0
BLOCK_RECORD
  5
5B79
330
523E
100
AcDbSymbolTableRecord
100
AcDbBlockTableRecord
  2
*D95
340
0
 70
     0
280
     1
281
     0
  0
BLOCK_RECORD
  5
5B82
330
523E
100
AcDbSymbolTableRecord
100
AcDbBlockTableRecord
  2
*D96
340
0
 70
     0
280
     1
281
     0
  0
BLOCK_RECORD
  5
5B8B
330
523E
100
AcDbSymbolTableRecord
100
AcDbBlockTableRecord
  2
*D97
340
0
 70
     0
280
     1
281
     0
  0
BLOCK_RECORD
  5
5B97
330
523E
100
AcDbSymbolTableRecord
100
AcDbBlockTableRecord
  2
*D98
340
0
 70
     0
280
     1
281
     0
  0
BLOCK_RECORD
  5
5BA0
330
523E
100
AcDbSymbolTableRecord
100
AcDbBlockTableRecord
  2
*D99
340
0
 70
     0
280
     1
281
     0
  0
BLOCK_RECORD
  5
5BAC
330
523E
100
AcDbSymbolTableRecord
100
AcDbBlockTableRecord
  2
*D100
340
0
 70
     0
280
     1
281
     0
  0
ENDTAB
  0
ENDSEC
  0
SECTION
  2
BLOCKS
  0
BLOCK
  5
52AD
330
52AC
100
AcDbEntity
  8
0
100
AcDbBlockBegin
  2
*Model_Space
 70
     0
 10
0.0
 20
0.0
 30
0.0
  3
*Model_Space
  1

  0
ENDBLK
  5
52AE
330
52AC
100
AcDbEntity
  8
0
100
AcDbBlockEnd
  0
BLOCK
  5
52A9
330
52A8
100
AcDbEntity
 67
     1
  8
0
100
AcDbBlockBegin
  2
*Paper_Space
 70
     0
 10
0.0
 20
0.0
 30
0.0
  3
*Paper_Space
  1

  0
ENDBLK
  5
52AA
330
52A8
100
AcDbEntity
 67
     1
  8
0
100
AcDbBlockEnd
  0
BLOCK
  5
52B8
330
52B7
100
AcDbEntity
  8
0
100
AcDbBlockBegin
  2
$MODEL_SPACE
 70
     0
 10
0.0
 20
0.0
 30
0.0
  3
$MODEL_SPACE
  1

  0
ENDBLK
  5
21
330
52B7
100
AcDbEntity
  8
0
100
AcDbBlockEnd
  0
BLOCK
  5
52BA
330
52B9
100
AcDbEntity
  8
0
100
AcDbBlockBegin
  2
$PAPER_SPACE
 70
     0
 10
0.0
 20
0.0
 30
0.0
  3
$PAPER_SPACE
  1

  0
ENDBLK
  5
1D
330
52B9
100
AcDbEntity
  8
0
100
AcDbBlockEnd
  0
BLOCK
  5
52BC
330
52BB
100
AcDbEntity
  8
0
100
AcDbBlockBegin
  2
1
 70
     0
 10
0.0
 20
0.0
 30
0.0
  3
1
  1

  0
SOLID
  5
2C
330
52BB
100
AcDbEntity
  8
0
  6
ByBlock
 62
     0
100
AcDbTrace
 10
-1.811110924292051
 20
0.4852857095671653
 30
0.0
 11
-1.811110924292051
 21
-0.4852857095673643
 31
0.0
 12
0.0
 22
0.0
 32
0.0
 13
0.0
 23
0.0
 33
0.0
  0
ENDBLK
  5
2E
330
52BB
100
AcDbEntity
  8
0
100
AcDbBlockEnd
  0
BLOCK
  5
52C0
330
52BF
100
AcDbEntity
  8
0
 48
3.0
100
AcDbBlockBegin
  2
2
 70
     0
 10
0.0
 20
0.0
 30
0.0
  3
2
  1

  0
HATCH
  5
52C1
330
52BF
100
AcDbEntity
  8
0
  6
ByBlock
 62
     0
 48
3.0
100
AcDbHatch
 10
0.0
 20
0.0
 30
0.0
210
0.0
220
0.0
230
1.0
  2
SOLID
 70
     1
 71
     0
 91
        1
 92
        1
 93
        3
 72
     1
 10
-0.9999999999983515
 20
0.2679491924306774
 11
0.0
 21
0.0
 72
     1
 10
0.0
 20
0.0
 11
-0.9999999999983515
 21
-0.2679491924306765
 72
     1
 10
-0.9999999999983524
 20
-0.267949192430676
 11
-0.9999999999983524
 21
0.2679491924306774
 97
        0
 75
     0
 76
     1
 98
        1
 10
2.995745117231336
 20
-4.124946096263201
450
        0
451
        0
460
0.0
461
0.0
452
        0
462
0.0
453
        0
470

  0
ENDBLK
  5
52C2
330
52BF
100
AcDbEntity
  8
0
 48
3.0
100
AcDbBlockEnd
  0
BLOCK
  5
52C4
330
52C3
100
AcDbEntity
  8
0
 48
3.0
100
AcDbBlockBegin
  2
3
 70
     0
 10
0.0
 20
0.0
 30
0.0
  3
3
  1

  0
HATCH
  5
52C5
330
52C3
100
AcDbEntity
  8
0
  6
ByBlock
 62
     0
 48
3.0
100
AcDbHatch
 10
0.0
 20
0.0
 30
0.0
210
0.0
220
0.0
230
1.0
  2
SOLID
 70
     1
 71
     0
 91
        1
 92
        1
 93
        1
 72
     2
 10
0.0
 20
0.0
 40
0.25
 50
0.0
 51
360.0
 73
     1
 97
        0
 75
     0
 76
     1
 98
        1
 10
2.789654453480295
 20
-4.828347107262324
450
        0
451
        0
460
0.0
461
0.0
452
        0
462
0.0
453
        0
470

  0
LINE
  5
52C6
330
52C3
100
AcDbEntity
  8
0
  6
ByBlock
 62
     0
 48
3.0
100
AcDbLine
 10
-1.0
 20
0.0
 30
0.0
 11
0.0
 21
0.0
 31
0.0
  0
ENDBLK
  5
52C7
330
52C3
100
AcDbEntity
  8
0
 48
3.0
100
AcDbBlockEnd
  0
BLOCK
  5
52C9
330
52C8
100
AcDbEntity
  8
0
100
AcDbBlockBegin
  2
A上
 70
     0
 10
0.0
 20
0.0
 30
0.0
  3
A上
  1

  0
LINE
  5
52CA
330
52C8
100
AcDbEntity
  8
2寸法線
 62
     1
100
AcDbLine
 10
0.0
 20
0.0
 30
0.0
 11
2.0
 21
-4.0
 31
0.0
  0
LINE
  5
52CB
330
52C8
100
AcDbEntity
  8
2寸法線
 62
     1
100
AcDbLine
 10
-2.0
 20
-4.0
 30
0.0
 11
0.0
 21
0.0
 31
0.0
  0
LINE
  5
52CC
330
52C8
100
AcDbEntity
  8
2寸法線
 62
     1
100
AcDbLine
 10
-2.0
 20
-4.0
 30
0.0
 11
-1.0
 21
-4.0
 31
0.0
  0
MTEXT
  5
52CD
330
52C8
100
AcDbEntity
  8
2寸法線
 48
3.0
100
AcDbMText
 10
-6.437715484720229
 20
-3.982863795634784
 30
0.0
 40
4.0
 41
5.411710672623538
 46
0.0
 71
     1
 72
     5
  1
\fSwis721 BlkOul BT|b0|i0|c0|p82;A
  7
KANJI
 73
     1
 44
1.0
  0
LINE
  5
52CE
330
52C8
100
AcDbEntity
  8
2寸法線
 62
     1
100
AcDbLine
 10
-1.0
 20
-4.0
 30
0.0
 11
-1.0
 21
-8.0
 31
0.0
  0
LINE
  5
52CF
330
52C8
100
AcDbEntity
  8
2寸法線
 62
     1
100
AcDbLine
 10
1.0
 20
-4.0
 30
0.0
 11
1.0
 21
-8.0
 31
0.0
  0
LINE
  5
52D0
330
52C8
100
AcDbEntity
  8
2寸法線
 62
     1
100
AcDbLine
 10
-1.0
 20
-8.0
 30
0.0
 11
1.0
 21
-8.0
 31
0.0
  0
LINE
  5
52D1
330
52C8
100
AcDbEntity
  8
2寸法線
 62
     1
100
AcDbLine
 10
1.0
 20
-4.0
 30
0.0
 11
2.0
 21
-4.0
 31
0.0
  0
LINE
  5
52D2
330
52C8
100
AcDbEntity
  8
2寸法線
 62
     1
100
AcDbLine
 10
-1.0
 20
0.0
 30
0.0
 11
1.0
 21
0.0
 31
0.0
  0
ENDBLK
  5
52D3
330
52C8
100
AcDbEntity
  8
0
100
AcDbBlockEnd
  0
BLOCK
  5
52D5
330
52D4
100
AcDbEntity
  8
0
100
AcDbBlockBegin
  2
Aダッシュ上
 70
     0
 10
0.0
 20
0.0
 30
0.0
  3
Aダッシュ上
  1

  0
LINE
  5
52D6
330
52D4
100
AcDbEntity
  8
2寸法線
 62
     1
100
AcDbLine
 10
0.0
 20
0.0
 30
0.0
 11
-2.0
 21
-4.0
 31
0.0
  0
LINE
  5
52D7
330
52D4
100
AcDbEntity
  8
2寸法線
 62
     1
100
AcDbLine
 10
-1.0
 20
-4.0
 30
0.0
 11
-2.0
 21
-4.0
 31
0.0
  0
LINE
  5
52D8
330
52D4
100
AcDbEntity
  8
2寸法線
 62
     1
100
AcDbLine
 10
2.0
 20
-4.0
 30
0.0
 11
0.0
 21
0.0
 31
0.0
  0
MTEXT
  5
52D9
330
52D4
100
AcDbEntity
  8
2寸法線
 48
3.0
100
AcDbMText
 10
2.335628838446609
 20
-3.933040337838406
 30
0.0
 40
4.0
 41
9.252299999999999
 46
0.0
 71
     1
 72
     5
  1
\fSwis721 BlkOul BT|b0|i0|c0|p82;A'
  7
KANJI
 73
     1
 44
1.0
  0
LINE
  5
52DA
330
52D4
100
AcDbEntity
  8
2寸法線
 62
     1
100
AcDbLine
 10
1.0
 20
-4.0
 30
0.0
 11
1.0
 21
-8.0
 31
0.0
  0
LINE
  5
52DB
330
52D4
100
AcDbEntity
  8
2寸法線
 62
     1
100
AcDbLine
 10
-1.0
 20
-4.0
 30
0.0
 11
-1.0
 21
-8.0
 31
0.0
  0
LINE
  5
52DC
330
52D4
100
AcDbEntity
  8
2寸法線
 62
     1
100
AcDbLine
 10
1.0
 20
-8.0
 30
0.0
 11
-1.0
 21
-8.0
 31
0.0
  0
LINE
  5
52DD
330
52D4
100
AcDbEntity
  8
2寸法線
 62
     1
100
AcDbLine
 10
2.0
 20
-4.0
 30
0.0
 11
1.0
 21
-4.0
 31
0.0
  0
LINE
  5
52DE
330
52D4
100
AcDbEntity
  8
2寸法線
 62
     1
100
AcDbLine
 10
1.0
 20
0.0
 30
0.0
 11
-1.0
 21
0.0
 31
0.0
  0
ENDBLK
  5
52DF
330
52D4
100
AcDbEntity
  8
0
100
AcDbBlockEnd
  0
BLOCK
  5
52E1
330
52E0
100
AcDbEntity
  8
0
100
AcDbBlockBegin
  2
*D7
 70
     1
 10
0.0
 20
0.0
 30
0.0
  3
*D7
  1

  0
LINE
  5
52E2
330
52E0
100
AcDbEntity
  8
2寸法線
 62
     0
440
 16777216
370
    -2
100
AcDbLine
 10
1699.836083979704
 20
-10364.4875982683
 30
0.0
 11
1710.761592357683
 21
-10364.4875982683
 31
0.0
  0
LINE
  5
52E3
330
52E0
100
AcDbEntity
  8
2寸法線
 62
     0
440
 16777216
370
    -2
100
AcDbLine
 10
1697.336083979704
 20
-10346.9875982683
 30
0.0
 11
1710.761592357683
 21
-10346.9875982683
 31
0.0
  0
LINE
  5
52E4
330
52E0
100
AcDbEntity
  8
2寸法線
 62
     0
440
 16777216
370
    -2
100
AcDbLine
 10
1709.761592357683
 20
-10362.6875982683
 30
0.0
 11
1709.761592357683
 21
-10348.7875982683
 31
0.0
  0
INSERT
  5
52E5
330
52E0
100
AcDbEntity
  8
2寸法線
 62
     0
440
 16777216
370
    -2
100
AcDbBlockReference
  2
2
 10
1709.761592357683
 20
-10364.4875982683
 30
0.0
 41
1.8
 42
1.8
 43
1.8
 50
270.0
  0
INSERT
  5
52E6
330
52E0
100
AcDbEntity
  8
2寸法線
 62
     0
440
 16777216
370
    -2
100
AcDbBlockReference
  2
2
 10
1709.761592357683
 20
-10346.9875982683
 30
0.0
 41
1.8
 42
1.8
 43
1.8
 50
90.0
  0
MTEXT
  5
52E7
330
52E0
100
AcDbEntity
  8
2寸法線
 62
     0
440
 16777216
100
AcDbMText
 10
1708.011592357685
 20
-10355.7375982683
 30
0.0
 40
2.5
 41
0.0
 46
0.0
 71
     5
 72
     1
  1
\A1;17.5
  7
KANJI
 11
0.0000000000000001
 21
1.0
 31
0.0
 73
     1
 44
1.0
  0
POINT
  5
52E8
330
52E0
100
AcDbEntity
  8
DEFPOINTS
 62
     0
440
 16777216
100
AcDbPoint
 10
1698.836083979704
 20
-10364.4875982683
 30
0.0
  0
POINT
  5
52E9
330
52E0
100
AcDbEntity
  8
DEFPOINTS
 62
     0
440
 16777216
100
AcDbPoint
 10
1696.336083979704
 20
-10346.9875982683
 30
0.0
  0
POINT
  5
52EA
330
52E0
100
AcDbEntity
  8
DEFPOINTS
 62
     0
440
 16777216
100
AcDbPoint
 10
1709.761592357683
 20
-10346.9875982683
 30
0.0
  0
ENDBLK
  5
52EB
330
52E0
100
AcDbEntity
  8
0
100
AcDbBlockEnd
  0
BLOCK
  5
52ED
330
52EC
100
AcDbEntity
  8
0
100
AcDbBlockBegin
  2
*D8
 70
     1
 10
0.0
 20
0.0
 30
0.0
  3
*D8
  1

  0
LINE
  5
52EE
330
52EC
100
AcDbEntity
  8
2寸法線
 62
     0
440
 16777216
370
    -2
100
AcDbLine
 10
1697.336083979704
 20
-10346.9875982683
 30
0.0
 11
1710.761592357683
 21
-10346.9875982683
 31
0.0
  0
LINE
  5
52EF
330
52EC
100
AcDbEntity
  8
2寸法線
 62
     0
440
 16777216
370
    -2
100
AcDbLine
 10
1697.336083979704
 20
-10336.5875982683
 30
0.0
 11
1710.761592357683
 21
-10336.5875982683
 31
0.0
  0
LINE
  5
52F0
330
52EC
100
AcDbEntity
  8
2寸法線
 62
     0
440
 16777216
370
    -2
100
AcDbLine
 10
1709.761592357683
 20
-10345.1875982683
 30
0.0
 11
1709.761592357683
 21
-10338.3875982683
 31
0.0
  0
INSERT
  5
52F1
330
52EC
100
AcDbEntity
  8
2寸法線
 62
     0
440
 16777216
370
    -2
100
AcDbBlockReference
  2
2
 10
1709.761592357683
 20
-10346.9875982683
 30
0.0
 41
1.8
 42
1.8
 43
1.8
 50
270.0
  0
INSERT
  5
52F2
330
52EC
100
AcDbEntity
  8
2寸法線
 62
     0
440
 16777216
370
    -2
100
AcDbBlockReference
  2
2
 10
1709.761592357683
 20
-10336.5875982683
 30
0.0
 41
1.8
 42
1.8
 43
1.8
 50
90.0
  0
MTEXT
  5
52F3
330
52EC
100
AcDbEntity
  8
2寸法線
 62
     0
440
 16777216
100
AcDbMText
 10
1708.011592357685
 20
-10341.7875982683
 30
0.0
 40
2.5
 41
0.0
 46
0.0
 71
     5
 72
     1
  1
\A1;10.4
  7
KANJI
 11
0.0000000000000001
 21
1.0
 31
0.0
 73
     1
 44
1.0
  0
POINT
  5
52F4
330
52EC
100
AcDbEntity
  8
DEFPOINTS
 62
     0
440
 16777216
100
AcDbPoint
 10
1696.336083979704
 20
-10346.9875982683
 30
0.0
  0
POINT
  5
52F5
330
52EC
100
AcDbEntity
  8
DEFPOINTS
 62
     0
440
 16777216
100
AcDbPoint
 10
1696.336083979704
 20
-10336.5875982683
 30
0.0
  0
POINT
  5
52F6
330
52EC
100
AcDbEntity
  8
DEFPOINTS
 62
     0
440
 16777216
100
AcDbPoint
 10
1709.761592357683
 20
-10336.5875982683
 30
0.0
  0
ENDBLK
  5
52F7
330
52EC
100
AcDbEntity
  8
0
100
AcDbBlockEnd
  0
BLOCK
  5
52F9
330
52F8
100
AcDbEntity
  8
0
100
AcDbBlockBegin
  2
*D9
 70
     1
 10
0.0
 20
0.0
 30
0.0
  3
*D9
  1

  0
LINE
  5
52FA
330
52F8
100
AcDbEntity
  8
2寸法線
 62
     0
440
 16777216
370
    -2
100
AcDbLine
 10
1697.336083979704
 20
-10336.5875982683
 30
0.0
 11
1710.761592357683
 21
-10336.5875982683
 31
0.0
  0
LINE
  5
52FB
330
52F8
100
AcDbEntity
  8
2寸法線
 62
     0
440
 16777216
370
    -2
100
AcDbLine
 10
1697.336083979704
 20
-10326.1875982683
 30
0.0
 11
1710.761592357683
 21
-10326.1875982683
 31
0.0
  0
LINE
  5
52FC
330
52F8
100
AcDbEntity
  8
2寸法線
 62
     0
440
 16777216
370
    -2
100
AcDbLine
 10
1709.761592357683
 20
-10334.7875982683
 30
0.0
 11
1709.761592357683
 21
-10327.9875982683
 31
0.0
  0
INSERT
  5
52FD
330
52F8
100
AcDbEntity
  8
2寸法線
 62
     0
440
 16777216
370
    -2
100
AcDbBlockReference
  2
2
 10
1709.761592357683
 20
-10336.5875982683
 30
0.0
 41
1.8
 42
1.8
 43
1.8
 50
270.0
  0
INSERT
  5
52FE
330
52F8
100
AcDbEntity
  8
2寸法線
 62
     0
440
 16777216
370
    -2
100
AcDbBlockReference
  2
2
 10
1709.761592357683
 20
-10326.1875982683
 30
0.0
 41
1.8
 42
1.8
 43
1.8
 50
90.0
  0
MTEXT
  5
52FF
330
52F8
100
AcDbEntity
  8
2寸法線
 62
     0
440
 16777216
100
AcDbMText
 10
1708.011592357685
 20
-10331.3875982683
 30
0.0
 40
2.5
 41
0.0
 46
0.0
 71
     5
 72
     1
  1
\A1;10.4
  7
KANJI
 11
0.0000000000000001
 21
1.0
 31
0.0
 73
     1
 44
1.0
  0
POINT
  5
5300
330
52F8
100
AcDbEntity
  8
DEFPOINTS
 62
     0
440
 16777216
100
AcDbPoint
 10
1696.336083979704
 20
-10336.5875982683
 30
0.0
  0
POINT
  5
5301
330
52F8
100
AcDbEntity
  8
DEFPOINTS
 62
     0
440
 16777216
100
AcDbPoint
 10
1696.336083979704
 20
-10326.1875982683
 30
0.0
  0
POINT
  5
5302
330
52F8
100
AcDbEntity
  8
DEFPOINTS
 62
     0
440
 16777216
100
AcDbPoint
 10
1709.761592357683
 20
-10326.1875982683
 30
0.0
  0
ENDBLK
  5
5303
330
52F8
100
AcDbEntity
  8
0
100
AcDbBlockEnd
  0
BLOCK
  5
5305
330
5304
100
AcDbEntity
  8
0
100
AcDbBlockBegin
  2
*D10
 70
     1
 10
0.0
 20
0.0
 30
0.0
  3
*D10
  1

  0
LINE
  5
5306
330
5304
100
AcDbEntity
  8
2寸法線
 62
     0
440
 16777216
370
    -2
100
AcDbLine
 10
1690.836083979704
 20
-10346.9875982683
 30
0.0
 11
1683.133022485557
 21
-10346.9875982683
 31
0.0
  0
LINE
  5
5307
330
5304
100
AcDbEntity
  8
2寸法線
 62
     0
440
 16777216
370
    -2
100
AcDbLine
 10
1690.836083979704
 20
-10345.7875982683
 30
0.0
 11
1683.133022485557
 21
-10345.7875982683
 31
0.0
  0
LINE
  5
5308
330
5304
100
AcDbEntity
  8
2寸法線
 62
     0
440
 16777216
370
    -2
100
AcDbLine
 10
1684.133022485557
 20
-10348.7875982683
 30
0.0
 11
1684.133022485557
 21
-10350.5875982683
 31
0.0
  0
LINE
  5
5309
330
5304
100
AcDbEntity
  8
2寸法線
 62
     0
440
 16777216
370
    -2
100
AcDbLine
 10
1684.133022485557
 20
-10343.9875982683
 30
0.0
 11
1684.133022485557
 21
-10336.42569350639
 31
0.0
  0
LINE
  5
530A
330
5304
100
AcDbEntity
  8
2寸法線
 62
     0
440
 16777216
370
    -2
100
AcDbLine
 10
1684.133022485557
 20
-10346.9875982683
 30
0.0
 11
1684.133022485557
 21
-10345.7875982683
 31
0.0
  0
INSERT
  5
530B
330
5304
100
AcDbEntity
  8
2寸法線
 62
     0
440
 16777216
370
    -2
100
AcDbBlockReference
  2
2
 10
1684.133022485557
 20
-10346.9875982683
 30
0.0
 41
1.8
 42
1.8
 43
1.8
 50
90.0
  0
INSERT
  5
530C
330
5304
100
AcDbEntity
  8
2寸法線
 62
     0
440
 16777216
370
    -2
100
AcDbBlockReference
  2
2
 10
1684.133022485557
 20
-10345.7875982683
 30
0.0
 41
1.8
 42
1.8
 43
1.8
 50
270.0
  0
MTEXT
  5
530D
330
5304
100
AcDbEntity
  8
2寸法線
 62
     0
440
 16777216
100
AcDbMText
 10
1682.383022485559
 20
-10339.30664588734
 30
0.0
 40
2.5
 41
0.0
 46
0.0
 71
     5
 72
     1
  1
\A1;1.2
  7
KANJI
 11
0.0000000000000001
 21
1.0
 31
0.0
 73
     1
 44
1.0
  0
POINT
  5
530E
330
5304
100
AcDbEntity
  8
DEFPOINTS
 62
     0
440
 16777216
100
AcDbPoint
 10
1691.836083979704
 20
-10346.9875982683
 30
0.0
  0
POINT
  5
530F
330
5304
100
AcDbEntity
  8
DEFPOINTS
 62
     0
440
 16777216
100
AcDbPoint
 10
1691.836083979704
 20
-10345.7875982683
 30
0.0
  0
POINT
  5
5310
330
5304
100
AcDbEntity
  8
DEFPOINTS
 62
     0
440
 16777216
100
AcDbPoint
 10
1684.133022485557
 20
-10345.7875982683
 30
0.0
  0
ENDBLK
  5
5311
330
5304
100
AcDbEntity
  8
0
100
AcDbBlockEnd
  0
BLOCK
  5
5313
330
5312
100
AcDbEntity
  8
0
100
AcDbBlockBegin
  2
*D11
 70
     1
 10
0.0
 20
0.0
 30
0.0
  3
*D11
  1

  0
LINE
  5
5314
330
5312
100
AcDbEntity
  8
2寸法線
 62
     0
440
 16777216
370
    -2
100
AcDbLine
 10
1699.836083979704
 20
-10364.4875982683
 30
0.0
 11
1718.351076034267
 21
-10364.4875982683
 31
0.0
  0
LINE
  5
5315
330
5312
100
AcDbEntity
  8
2寸法線
 62
     0
440
 16777216
370
    -2
100
AcDbLine
 10
1693.336083979704
 20
-10321.9875982683
 30
0.0
 11
1718.351076034267
 21
-10321.9875982683
 31
0.0
  0
LINE
  5
5316
330
5312
100
AcDbEntity
  8
2寸法線
 62
     0
440
 16777216
370
    -2
100
AcDbLine
 10
1717.351076034267
 20
-10362.6875982683
 30
0.0
 11
1717.351076034267
 21
-10323.7875982683
 31
0.0
  0
INSERT
  5
5317
330
5312
100
AcDbEntity
  8
2寸法線
 62
     0
440
 16777216
370
    -2
100
AcDbBlockReference
  2
2
 10
1717.351076034267
 20
-10364.4875982683
 30
0.0
 41
1.8
 42
1.8
 43
1.8
 50
270.0
  0
INSERT
  5
5318
330
5312
100
AcDbEntity
  8
2寸法線
 62
     0
440
 16777216
370
    -2
100
AcDbBlockReference
  2
2
 10
1717.351076034267
 20
-10321.9875982683
 30
0.0
 41
1.8
 42
1.8
 43
1.8
 50
90.0
  0
MTEXT
  5
5319
330
5312
100
AcDbEntity
  8
2寸法線
 62
     0
440
 16777216
100
AcDbMText
 10
1715.601076034268
 20
-10343.2375982683
 30
0.0
 40
2.5
 41
0.0
 46
0.0
 71
     5
 72
     1
  1
\A1;42.5
  7
KANJI
 11
0.0000000000000001
 21
1.0
 31
0.0
 73
     1
 44
1.0
  0
POINT
  5
531A
330
5312
100
AcDbEntity
  8
DEFPOINTS
 62
     0
440
 16777216
100
AcDbPoint
 10
1698.836083979704
 20
-10364.4875982683
 30
0.0
  0
POINT
  5
531B
330
5312
100
AcDbEntity
  8
DEFPOINTS
 62
     0
440
 16777216
100
AcDbPoint
 10
1692.336083979704
 20
-10321.9875982683
 30
0.0
  0
POINT
  5
531C
330
5312
100
AcDbEntity
  8
DEFPOINTS
 62
     0
440
 16777216
100
AcDbPoint
 10
1717.351076034267
 20
-10321.9875982683
 30
0.0
  0
ENDBLK
  5
531D
330
5312
100
AcDbEntity
  8
0
100
AcDbBlockEnd
  0
BLOCK
  5
531F
330
531E
100
AcDbEntity
  8
0
100
AcDbBlockBegin
  2
*D12
 70
     1
 10
0.0
 20
0.0
 30
0.0
  3
*D12
  1

  0
LINE
  5
5320
330
531E
100
AcDbEntity
  8
2寸法線
 62
     0
440
 16777216
370
    -2
100
AcDbLine
 10
1693.336083979704
 20
-10320.9875982683
 30
0.0
 11
1718.351076034267
 21
-10320.9875982683
 31
0.0
  0
LINE
  5
5321
330
531E
100
AcDbEntity
  8
2寸法線
 62
     0
440
 16777216
370
    -2
100
AcDbLine
 10
1693.336083979704
 20
-10321.9875982683
 30
0.0
 11
1718.351076034267
 21
-10321.9875982683
 31
0.0
  0
LINE
  5
5322
330
531E
100
AcDbEntity
  8
2寸法線
 62
     0
440
 16777216
370
    -2
100
AcDbLine
 10
1717.351076034267
 20
-10323.7875982683
 30
0.0
 11
1717.351076034267
 21
-10325.5875982683
 31
0.0
  0
LINE
  5
5323
330
531E
100
AcDbEntity
  8
2寸法線
 62
     0
440
 16777216
370
    -2
100
AcDbLine
 10
1717.351076034267
 20
-10319.1875982683
 30
0.0
 11
1717.351076034267
 21
-10315.79236017306
 31
0.0
  0
LINE
  5
5324
330
531E
100
AcDbEntity
  8
2寸法線
 62
     0
440
 16777216
370
    -2
100
AcDbLine
 10
1717.351076034267
 20
-10321.9875982683
 30
0.0
 11
1717.351076034267
 21
-10320.9875982683
 31
0.0
  0
INSERT
  5
5325
330
531E
100
AcDbEntity
  8
2寸法線
 62
     0
440
 16777216
370
    -2
100
AcDbBlockReference
  2
2
 10
1717.351076034267
 20
-10321.9875982683
 30
0.0
 41
1.8
 42
1.8
 43
1.8
 50
90.0
  0
INSERT
  5
5326
330
531E
100
AcDbEntity
  8
2寸法線
 62
     0
440
 16777216
370
    -2
100
AcDbBlockReference
  2
2
 10
1717.351076034267
 20
-10320.9875982683
 30
0.0
 41
1.8
 42
1.8
 43
1.8
 50
270.0
  0
MTEXT
  5
5327
330
531E
100
AcDbEntity
  8
2寸法線
 62
     0
440
 16777216
100
AcDbMText
 10
1715.601076034269
 20
-10316.58997922068
 30
0.0
 40
2.5
 41
0.0
 46
0.0
 71
     5
 72
     1
  1
\A1;1
  7
KANJI
 11
0.0000000000000001
 21
1.0
 31
0.0
 73
     1
 44
1.0
  0
POINT
  5
5328
330
531E
100
AcDbEntity
  8
DEFPOINTS
 62
     0
440
 16777216
100
AcDbPoint
 10
1692.336083979704
 20
-10320.9875982683
 30
0.0
  0
POINT
  5
5329
330
531E
100
AcDbEntity
  8
DEFPOINTS
 62
     0
440
 16777216
100
AcDbPoint
 10
1692.336083979704
 20
-10321.9875982683
 30
0.0
  0
POINT
  5
532A
330
531E
100
AcDbEntity
  8
DEFPOINTS
 62
     0
440
 16777216
100
AcDbPoint
 10
1717.351076034267
 20
-10321.9875982683
 30
0.0
  0
ENDBLK
  5
532B
330
531E
100
AcDbEntity
  8
0
100
AcDbBlockEnd
  0
BLOCK
  5
532D
330
532C
100
AcDbEntity
  8
0
100
AcDbBlockBegin
  2
*D13
 70
     1
 10
0.0
 20
0.0
 30
0.0
  3
*D13
  1

  0
LINE
  5
532E
330
532C
100
AcDbEntity
  8
2寸法線
 62
     0
440
 16777216
370
    -2
100
AcDbLine
 10
1692.336083979704
 20
-10319.9875982683
 30
0.0
 11
1692.336083979704
 21
-10312.28295800678
 31
0.0
  0
LINE
  5
532F
330
532C
100
AcDbEntity
  8
2寸法線
 62
     0
440
 16777216
370
    -2
100
AcDbLine
 10
1698.836083979704
 20
-10319.9875982683
 30
0.0
 11
1698.836083979704
 21
-10312.28295800678
 31
0.0
  0
LINE
  5
5330
330
532C
100
AcDbEntity
  8
2寸法線
 62
     0
440
 16777216
370
    -2
100
AcDbLine
 10
1694.136083979704
 20
-10313.28295800678
 30
0.0
 11
1697.036083979704
 21
-10313.28295800678
 31
0.0
  0
LINE
  5
5331
330
532C
100
AcDbEntity
  8
2寸法線
 62
     0
440
 16777216
370
    -2
100
AcDbLine
 10
1698.836083979704
 20
-10313.28295800678
 30
0.0
 11
1708.950820276815
 21
-10313.28295800678
 31
0.0
  0
INSERT
  5
5332
330
532C
100
AcDbEntity
  8
2寸法線
 62
     0
440
 16777216
370
    -2
100
AcDbBlockReference
  2
2
 10
1692.336083979704
 20
-10313.28295800678
 30
0.0
 41
1.8
 42
1.8
 43
1.8
 50
180.0
  0
INSERT
  5
5333
330
532C
100
AcDbEntity
  8
2寸法線
 62
     0
440
 16777216
370
    -2
100
AcDbBlockReference
  2
2
 10
1698.836083979704
 20
-10313.28295800678
 30
0.0
 41
1.8
 42
1.8
 43
1.8
  0
MTEXT
  5
5334
330
532C
100
AcDbEntity
  8
2寸法線
 62
     0
440
 16777216
100
AcDbMText
 10
1705.831772657768
 20
-10311.53295800678
 30
0.0
 40
2.5
 41
0.0
 46
0.0
 71
     5
 72
     1
  1
\A1;6.5
  7
KANJI
 73
     1
 44
1.0
  0
POINT
  5
5335
330
532C
100
AcDbEntity
  8
DEFPOINTS
 62
     0
440
 16777216
100
AcDbPoint
 10
1692.336083979704
 20
-10320.9875982683
 30
0.0
  0
POINT
  5
5336
330
532C
100
AcDbEntity
  8
DEFPOINTS
 62
     0
440
 16777216
100
AcDbPoint
 10
1698.836083979704
 20
-10320.9875982683
 30
0.0
  0
POINT
  5
5337
330
532C
100
AcDbEntity
  8
DEFPOINTS
 62
     0
440
 16777216
100
AcDbPoint
 10
1698.836083979704
 20
-10313.28295800678
 30
0.0
  0
ENDBLK
  5
5338
330
532C
100
AcDbEntity
  8
0
100
AcDbBlockEnd
  0
BLOCK
  5
533A
330
5339
100
AcDbEntity
  8
0
100
AcDbBlockBegin
  2
*D14
 70
     1
 10
0.0
 20
0.0
 30
0.0
  3
*D14
  1

  0
LINE
  5
533B
330
5339
100
AcDbEntity
  8
2寸法線
 62
     0
440
 16777216
370
    -2
100
AcDbLine
 10
1647.336083979705
 20
-10364.4875982683
 30
0.0
 11
1635.231197888819
 21
-10364.4875982683
 31
0.0
  0
LINE
  5
533C
330
5339
100
AcDbEntity
  8
2寸法線
 62
     0
440
 16777216
370
    -2
100
AcDbLine
 10
1646.336083979705
 20
-10354.4875982683
 30
0.0
 11
1635.231197888819
 21
-10354.4875982683
 31
0.0
  0
LINE
  5
533D
330
5339
100
AcDbEntity
  8
2寸法線
 62
     0
440
 16777216
370
    -2
100
AcDbLine
 10
1636.231197888819
 20
-10362.6875982683
 30
0.0
 11
1636.231197888819
 21
-10356.2875982683
 31
0.0
  0
INSERT
  5
533E
330
5339
100
AcDbEntity
  8
2寸法線
 62
     0
440
 16777216
370
    -2
100
AcDbBlockReference
  2
2
 10
1636.231197888819
 20
-10364.4875982683
 30
0.0
 41
1.8
 42
1.8
 43
1.8
 50
270.0
  0
INSERT
  5
533F
330
5339
100
AcDbEntity
  8
2寸法線
 62
     0
440
 16777216
370
    -2
100
AcDbBlockReference
  2
2
 10
1636.231197888819
 20
-10354.4875982683
 30
0.0
 41
1.8
 42
1.8
 43
1.8
 50
90.0
  0
MTEXT
  5
5340
330
5339
100
AcDbEntity
  8
2寸法線
 62
     0
440
 16777216
100
AcDbMText
 10
1634.481197888821
 20
-10359.4875982683
 30
0.0
 40
2.5
 41
0.0
 46
0.0
 71
     5
 72
     1
  1
\A1;（10）
  7
KANJI
 11
0.0000000000000001
 21
1.0
 31
0.0
 73
     1
 44
1.0
  0
POINT
  5
5341
330
5339
100
AcDbEntity
  8
DEFPOINTS
 62
     0
440
 16777216
100
AcDbPoint
 10
1648.336083979705
 20
-10364.4875982683
 30
0.0
  0
POINT
  5
5342
330
5339
100
AcDbEntity
  8
DEFPOINTS
 62
     0
440
 16777216
100
AcDbPoint
 10
1647.336083979705
 20
-10354.4875982683
 30
0.0
  0
POINT
  5
5343
330
5339
100
AcDbEntity
  8
DEFPOINTS
 62
     0
440
 16777216
100
AcDbPoint
 10
1636.231197888819
 20
-10354.4875982683
 30
0.0
  0
ENDBLK
  5
5344
330
5339
100
AcDbEntity
  8
0
100
AcDbBlockEnd
  0
BLOCK
  5
5346
330
5345
100
AcDbEntity
  8
0
100
AcDbBlockBegin
  2
*D15
 70
     1
 10
0.0
 20
0.0
 30
0.0
  3
*D15
  1

  0
LINE
  5
5347
330
5345
100
AcDbEntity
  8
2寸法線
 62
     0
440
 16777216
370
    -2
100
AcDbLine
 10
1634.796408459649
 20
-10373.71550195824
 30
0.0
 11
1638.391646554897
 21
-10373.71550195824
 31
0.0
  0
LINE
  5
5348
330
5345
100
AcDbEntity
  8
2寸法線
 62
     0
440
 16777216
370
    -2
100
AcDbLine
 10
1638.391646554897
 20
-10373.71550195824
 30
0.0
 11
1647.203675536484
 21
-10365.4082797925
 31
0.0
  0
MTEXT
  5
5349
330
5345
100
AcDbEntity
  8
2寸法線
 62
     0
440
 16777216
100
AcDbMText
 10
1636.344027507269
 20
-10371.96550195824
 30
0.0
 40
2.5
 41
0.0
 46
0.0
 71
     5
 72
     1
  1
\A1;R1
  7
KANJI
 73
     1
 44
1.0
  0
INSERT
  5
534A
330
5345
100
AcDbEntity
  8
2寸法線
 62
     0
440
 16777216
370
    -2
100
AcDbBlockReference
  2
2
 10
1648.513430111337
 20
-10364.1735559555
 30
0.0
 41
1.8
 42
1.8
 43
1.8
 50
43.31097043994788
  0
POINT
  5
534B
330
5345
100
AcDbEntity
  8
DEFPOINTS
 62
     0
440
 16777216
100
AcDbPoint
 10
1648.513430111337
 20
-10364.1735559555
 30
0.0
  0
POINT
  5
534C
330
5345
100
AcDbEntity
  8
DEFPOINTS
 62
     0
440
 16777216
100
AcDbPoint
 10
1649.241071541814
 20
-10363.48759826828
 30
0.0
  0
ENDBLK
  5
534D
330
5345
100
AcDbEntity
  8
0
100
AcDbBlockEnd
  0
BLOCK
  5
534F
330
534E
100
AcDbEntity
  8
0
100
AcDbBlockBegin
  2
*D16
 70
     1
 10
0.0
 20
0.0
 30
0.0
  3
*D16
  1

  0
LINE
  5
5350
330
534E
100
AcDbEntity
  8
2寸法線
 62
     0
440
 16777216
370
    -2
100
AcDbLine
 10
1649.336083979706
 20
-10365.4875982683
 30
0.0
 11
1649.336083979706
 21
-10374.30286711702
 31
0.0
  0
LINE
  5
5351
330
534E
100
AcDbEntity
  8
2寸法線
 62
     0
440
 16777216
370
    -2
100
AcDbLine
 10
1648.336083979705
 20
-10365.4875982683
 30
0.0
 11
1648.336083979705
 21
-10374.30286711702
 31
0.0
  0
LINE
  5
5352
330
534E
100
AcDbEntity
  8
2寸法線
 62
     0
440
 16777216
370
    -2
100
AcDbLine
 10
1646.536083979705
 20
-10373.30286711702
 30
0.0
 11
1644.736083979705
 21
-10373.30286711702
 31
0.0
  0
LINE
  5
5353
330
534E
100
AcDbEntity
  8
2寸法線
 62
     0
440
 16777216
370
    -2
100
AcDbLine
 10
1651.136083979706
 20
-10373.30286711702
 30
0.0
 11
1654.531322074944
 21
-10373.30286711702
 31
0.0
  0
LINE
  5
5354
330
534E
100
AcDbEntity
  8
2寸法線
 62
     0
440
 16777216
370
    -2
100
AcDbLine
 10
1648.336083979705
 20
-10373.30286711702
 30
0.0
 11
1649.336083979706
 21
-10373.30286711702
 31
0.0
  0
INSERT
  5
5355
330
534E
100
AcDbEntity
  8
2寸法線
 62
     0
440
 16777216
370
    -2
100
AcDbBlockReference
  2
2
 10
1648.336083979705
 20
-10373.30286711702
 30
0.0
 41
1.8
 42
1.8
 43
1.8
  0
INSERT
  5
5356
330
534E
100
AcDbEntity
  8
2寸法線
 62
     0
440
 16777216
370
    -2
100
AcDbBlockReference
  2
2
 10
1649.336083979706
 20
-10373.30286711702
 30
0.0
 41
1.8
 42
1.8
 43
1.8
 50
180.0
  0
MTEXT
  5
5357
330
534E
100
AcDbEntity
  8
2寸法線
 62
     0
440
 16777216
100
AcDbMText
 10
1653.733703027325
 20
-10371.55286711702
 30
0.0
 40
2.5
 41
0.0
 46
0.0
 71
     5
 72
     1
  1
\A1;1
  7
KANJI
 73
     1
 44
1.0
  0
POINT
  5
5358
330
534E
100
AcDbEntity
  8
DEFPOINTS
 62
     0
440
 16777216
100
AcDbPoint
 10
1649.336083979706
 20
-10364.4875982683
 30
0.0
  0
POINT
  5
5359
330
534E
100
AcDbEntity
  8
DEFPOINTS
 62
     0
440
 16777216
100
AcDbPoint
 10
1648.336083979705
 20
-10364.4875982683
 30
0.0
  0
POINT
  5
535A
330
534E
100
AcDbEntity
  8
DEFPOINTS
 62
     0
440
 16777216
100
AcDbPoint
 10
1648.336083979705
 20
-10373.30286711702
 30
0.0
  0
ENDBLK
  5
535B
330
534E
100
AcDbEntity
  8
0
100
AcDbBlockEnd
  0
BLOCK
  5
535D
330
535C
100
AcDbEntity
  8
0
100
AcDbBlockBegin
  2
*D17
 70
     1
 10
0.0
 20
0.0
 30
0.0
  3
*D17
  1

  0
LINE
  5
535E
330
535C
100
AcDbEntity
  8
2寸法線
 62
     0
440
 16777216
370
    -2
100
AcDbLine
 10
1649.336083979706
 20
-10365.4875982683
 30
0.0
 11
1649.336083979706
 21
-10379.89454922576
 31
0.0
  0
LINE
  5
535F
330
535C
100
AcDbEntity
  8
2寸法線
 62
     0
440
 16777216
370
    -2
100
AcDbLine
 10
1647.336083979705
 20
-10355.4875982683
 30
0.0
 11
1647.336083979705
 21
-10379.89454922576
 31
0.0
  0
LINE
  5
5360
330
535C
100
AcDbEntity
  8
2寸法線
 62
     0
440
 16777216
370
    -2
100
AcDbLine
 10
1645.536083979705
 20
-10378.89454922576
 30
0.0
 11
1643.736083979705
 21
-10378.89454922576
 31
0.0
  0
LINE
  5
5361
330
535C
100
AcDbEntity
  8
2寸法線
 62
     0
440
 16777216
370
    -2
100
AcDbLine
 10
1651.136083979706
 20
-10378.89454922576
 30
0.0
 11
1655.602750646373
 21
-10378.89454922576
 31
0.0
  0
LINE
  5
5362
330
535C
100
AcDbEntity
  8
2寸法線
 62
     0
440
 16777216
370
    -2
100
AcDbLine
 10
1647.336083979705
 20
-10378.89454922576
 30
0.0
 11
1649.336083979706
 21
-10378.89454922576
 31
0.0
  0
INSERT
  5
5363
330
535C
100
AcDbEntity
  8
2寸法線
 62
     0
440
 16777216
370
    -2
100
AcDbBlockReference
  2
2
 10
1647.336083979705
 20
-10378.89454922576
 30
0.0
 41
1.8
 42
1.8
 43
1.8
  0
INSERT
  5
5364
330
535C
100
AcDbEntity
  8
2寸法線
 62
     0
440
 16777216
370
    -2
100
AcDbBlockReference
  2
2
 10
1649.336083979706
 20
-10378.89454922576
 30
0.0
 41
1.8
 42
1.8
 43
1.8
 50
180.0
  0
MTEXT
  5
5365
330
535C
100
AcDbEntity
  8
2寸法線
 62
     0
440
 16777216
100
AcDbMText
 10
1654.269417313039
 20
-10377.14454922576
 30
0.0
 40
2.5
 41
0.0
 46
0.0
 71
     5
 72
     1
  1
\A1;2
  7
KANJI
 73
     1
 44
1.0
  0
POINT
  5
5366
330
535C
100
AcDbEntity
  8
DEFPOINTS
 62
     0
440
 16777216
100
AcDbPoint
 10
1649.336083979706
 20
-10364.4875982683
 30
0.0
  0
POINT
  5
5367
330
535C
100
AcDbEntity
  8
DEFPOINTS
 62
     0
440
 16777216
100
AcDbPoint
 10
1647.336083979705
 20
-10354.4875982683
 30
0.0
  0
POINT
  5
5368
330
535C
100
AcDbEntity
  8
DEFPOINTS
 62
     0
440
 16777216
100
AcDbPoint
 10
1647.336083979705
 20
-10378.89454922576
 30
0.0
  0
ENDBLK
  5
5369
330
535C
100
AcDbEntity
  8
0
100
AcDbBlockEnd
  0
BLOCK
  5
536B
330
536A
100
AcDbEntity
  8
0
100
AcDbBlockBegin
  2
*D18
 70
     1
 10
0.0
 20
0.0
 30
0.0
  3
*D18
  1

  0
LINE
  5
536C
330
536A
100
AcDbEntity
  8
2寸法線
 62
     0
440
 16777216
370
    -2
100
AcDbLine
 10
1664.741246920993
 20
-10353.69153213827
 30
0.0
 11
1649.179562627605
 21
-10354.55667475597
 31
0.0
  0
MTEXT
  5
536D
330
536A
100
AcDbEntity
  8
2寸法線
 62
     0
440
 16777216
100
AcDbMText
 10
1657.761876946451
 20
-10352.32684376714
 30
0.0
 40
2.5
 41
0.0
 46
0.0
 71
     5
 72
     1
  1
\A1;（R30）
  7
KANJI
 11
0.9984582039751648
 21
0.0555086922444417
 31
0.0
 73
     1
 44
1.0
  0
INSERT
  5
536E
330
536A
100
AcDbEntity
  8
2寸法線
 62
     0
440
 16777216
370
    -2
100
AcDbBlockReference
  2
2
 10
1647.38233786045
 20
-10354.65659040201
 30
0.0
 41
1.8
 42
1.8
 43
1.8
 50
183.1820493170472
  0
POINT
  5
536F
330
536A
100
AcDbEntity
  8
DEFPOINTS
 62
     0
440
 16777216
100
AcDbPoint
 10
1647.38233786045
 20
-10354.65659040201
 30
0.0
  0
POINT
  5
5370
330
536A
100
AcDbEntity
  8
DEFPOINTS
 62
     0
440
 16777216
100
AcDbPoint
 10
1677.336083979704
 20
-10352.99132963467
 30
0.0
  0
ENDBLK
  5
5371
330
536A
100
AcDbEntity
  8
0
100
AcDbBlockEnd
  0
BLOCK
  5
5373
330
5372
100
AcDbEntity
  8
0
100
AcDbBlockBegin
  2
*D19
 70
     1
 10
0.0
 20
0.0
 30
0.0
  3
*D19
  1

  0
LINE
  5
5374
330
5372
100
AcDbEntity
  8
2寸法線
 62
     0
440
 16777216
370
    -2
100
AcDbLine
 10
1775.62909306128
 20
-10295.9875982683
 30
0.0
 11
1770.509784178967
 21
-10295.9875982683
 31
0.0
  0
LINE
  5
5375
330
5372
100
AcDbEntity
  8
2寸法線
 62
     0
440
 16777216
370
    -2
100
AcDbLine
 10
1775.629093061282
 20
-10298.9875982683
 30
0.0
 11
1770.509784178967
 21
-10298.9875982683
 31
0.0
  0
LINE
  5
5376
330
5372
100
AcDbEntity
  8
2寸法線
 62
     0
440
 16777216
370
    -2
100
AcDbLine
 10
1771.509784178968
 20
-10300.7875982683
 30
0.0
 11
1771.509784178968
 21
-10302.5875982683
 31
0.0
  0
LINE
  5
5377
330
5372
100
AcDbEntity
  8
2寸法線
 62
     0
440
 16777216
370
    -2
100
AcDbLine
 10
1771.509784178968
 20
-10294.1875982683
 30
0.0
 11
1771.509784178968
 21
-10285.99712207782
 31
0.0
  0
LINE
  5
5378
330
5372
100
AcDbEntity
  8
2寸法線
 62
     0
440
 16777216
370
    -2
100
AcDbLine
 10
1771.509784178968
 20
-10298.9875982683
 30
0.0
 11
1771.509784178968
 21
-10295.9875982683
 31
0.0
  0
INSERT
  5
5379
330
5372
100
AcDbEntity
  8
2寸法線
 62
     0
440
 16777216
370
    -2
100
AcDbBlockReference
  2
2
 10
1771.509784178968
 20
-10298.9875982683
 30
0.0
 41
1.8
 42
1.8
 43
1.8
 50
90.0
  0
INSERT
  5
537A
330
5372
100
AcDbEntity
  8
2寸法線
 62
     0
440
 16777216
370
    -2
100
AcDbBlockReference
  2
2
 10
1771.509784178968
 20
-10295.9875982683
 30
0.0
 41
1.8
 42
1.8
 43
1.8
 50
270.0
  0
MTEXT
  5
537B
330
5372
100
AcDbEntity
  8
2寸法線
 62
     0
440
 16777216
100
AcDbMText
 10
1770.009784178969
 20
-10289.19236017306
 30
0.0
 40
2.0
 41
0.0
 46
0.0
 71
     5
 72
     1
  1
\A1;（3）
  7
KANJI
 11
0.0000000000000001
 21
1.0
 31
0.0
 73
     1
 44
1.0
  0
POINT
  5
537C
330
5372
100
AcDbEntity
  8
DEFPOINTS
 62
     0
440
 16777216
100
AcDbPoint
 10
1776.62909306128
 20
-10295.9875982683
 30
0.0
  0
POINT
  5
537D
330
5372
100
AcDbEntity
  8
DEFPOINTS
 62
     0
440
 16777216
100
AcDbPoint
 10
1776.629093061282
 20
-10298.9875982683
 30
0.0
  0
POINT
  5
537E
330
5372
100
AcDbEntity
  8
DEFPOINTS
 62
     0
440
 16777216
100
AcDbPoint
 10
1771.509784178968
 20
-10298.9875982683
 30
0.0
  0
ENDBLK
  5
537F
330
5372
100
AcDbEntity
  8
0
100
AcDbBlockEnd
  0
BLOCK
  5
5381
330
5380
100
AcDbEntity
  8
0
100
AcDbBlockBegin
  2
*D20
 70
     1
 10
0.0
 20
0.0
 30
0.0
  3
*D20
  1

  0
LINE
  5
5382
330
5380
100
AcDbEntity
  8
2寸法線
 62
     0
440
 16777216
370
    -2
100
AcDbLine
 10
1775.629093061282
 20
-10298.9875982683
 30
0.0
 11
1765.33759987269
 21
-10298.9875982683
 31
0.0
  0
LINE
  5
5383
330
5380
100
AcDbEntity
  8
2寸法線
 62
     0
440
 16777216
370
    -2
100
AcDbLine
 10
1776.012399827389
 20
-10300.9875982683
 30
0.0
 11
1765.33759987269
 21
-10300.9875982683
 31
0.0
  0
LINE
  5
5384
330
5380
100
AcDbEntity
  8
2寸法線
 62
     0
440
 16777216
370
    -2
100
AcDbLine
 10
1766.337599872691
 20
-10302.7875982683
 30
0.0
 11
1766.337599872691
 21
-10304.5875982683
 31
0.0
  0
LINE
  5
5385
330
5380
100
AcDbEntity
  8
2寸法線
 62
     0
440
 16777216
370
    -2
100
AcDbLine
 10
1766.337599872691
 20
-10297.1875982683
 30
0.0
 11
1766.337599872691
 21
-10288.99712207782
 31
0.0
  0
LINE
  5
5386
330
5380
100
AcDbEntity
  8
2寸法線
 62
     0
440
 16777216
370
    -2
100
AcDbLine
 10
1766.337599872691
 20
-10300.9875982683
 30
0.0
 11
1766.337599872691
 21
-10298.9875982683
 31
0.0
  0
INSERT
  5
5387
330
5380
100
AcDbEntity
  8
2寸法線
 62
     0
440
 16777216
370
    -2
100
AcDbBlockReference
  2
3
 10
1766.337599872691
 20
-10300.9875982683
 30
0.0
 41
1.8
 42
1.8
 43
1.8
 50
90.0
  0
INSERT
  5
5388
330
5380
100
AcDbEntity
  8
2寸法線
 62
     0
440
 16777216
370
    -2
100
AcDbBlockReference
  2
2
 10
1766.337599872691
 20
-10298.9875982683
 30
0.0
 41
1.8
 42
1.8
 43
1.8
 50
270.0
  0
MTEXT
  5
5389
330
5380
100
AcDbEntity
  8
2寸法線
 62
     0
440
 16777216
100
AcDbMText
 10
1764.837599872692
 20
-10292.19236017306
 30
0.0
 40
2.0
 41
0.0
 46
0.0
 71
     5
 72
     1
  1
\A1;（2）
  7
KANJI
 11
0.0000000000000001
 21
1.0
 31
0.0
 73
     1
 44
1.0
  0
POINT
  5
538A
330
5380
100
AcDbEntity
  8
DEFPOINTS
 62
     0
440
 16777216
100
AcDbPoint
 10
1776.629093061282
 20
-10298.9875982683
 30
0.0
  0
POINT
  5
538B
330
5380
100
AcDbEntity
  8
DEFPOINTS
 62
     0
440
 16777216
100
AcDbPoint
 10
1777.012399827389
 20
-10300.9875982683
 30
0.0
  0
POINT
  5
538C
330
5380
100
AcDbEntity
  8
DEFPOINTS
 62
     0
440
 16777216
100
AcDbPoint
 10
1766.337599872691
 20
-10300.9875982683
 30
0.0
  0
ENDBLK
  5
538D
330
5380
100
AcDbEntity
  8
0
100
AcDbBlockEnd
  0
BLOCK
  5
538F
330
538E
100
AcDbEntity
  8
0
100
AcDbBlockBegin
  2
*D21
 70
     1
 10
0.0
 20
0.0
 30
0.0
  3
*D21
  1

  0
LINE
  5
5390
330
538E
100
AcDbEntity
  8
2寸法線
 62
     0
440
 16777216
370
    -2
100
AcDbLine
 10
1776.012399827387
 20
-10302.9875982683
 30
0.0
 11
1765.33759987269
 21
-10302.9875982683
 31
0.0
  0
LINE
  5
5391
330
538E
100
AcDbEntity
  8
2寸法線
 62
     0
440
 16777216
370
    -2
100
AcDbLine
 10
1776.012399827389
 20
-10300.9875982683
 30
0.0
 11
1765.33759987269
 21
-10300.9875982683
 31
0.0
  0
LINE
  5
5392
330
538E
100
AcDbEntity
  8
2寸法線
 62
     0
440
 16777216
370
    -2
100
AcDbLine
 10
1766.337599872691
 20
-10299.1875982683
 30
0.0
 11
1766.337599872691
 21
-10297.3875982683
 31
0.0
  0
LINE
  5
5393
330
538E
100
AcDbEntity
  8
2寸法線
 62
     0
440
 16777216
370
    -2
100
AcDbLine
 10
1766.337599872691
 20
-10304.7875982683
 30
0.0
 11
1766.337599872691
 21
-10312.97807445877
 31
0.0
  0
LINE
  5
5394
330
538E
100
AcDbEntity
  8
2寸法線
 62
     0
440
 16777216
370
    -2
100
AcDbLine
 10
1766.337599872691
 20
-10300.9875982683
 30
0.0
 11
1766.337599872691
 21
-10302.9875982683
 31
0.0
  0
INSERT
  5
5395
330
538E
100
AcDbEntity
  8
2寸法線
 62
     0
440
 16777216
370
    -2
100
AcDbBlockReference
  2
3
 10
1766.337599872691
 20
-10300.9875982683
 30
0.0
 41
1.8
 42
1.8
 43
1.8
 50
270.0
  0
INSERT
  5
5396
330
538E
100
AcDbEntity
  8
2寸法線
 62
     0
440
 16777216
370
    -2
100
AcDbBlockReference
  2
2
 10
1766.337599872691
 20
-10302.9875982683
 30
0.0
 41
1.8
 42
1.8
 43
1.8
 50
90.0
  0
MTEXT
  5
5397
330
538E
100
AcDbEntity
  8
2寸法線
 62
     0
440
 16777216
100
AcDbMText
 10
1764.837599872692
 20
-10309.78283636354
 30
0.0
 40
2.0
 41
0.0
 46
0.0
 71
     5
 72
     1
  1
\A1;（2）
  7
KANJI
 11
0.0000000000000001
 21
1.0
 31
0.0
 73
     1
 44
1.0
  0
POINT
  5
5398
330
538E
100
AcDbEntity
  8
DEFPOINTS
 62
     0
440
 16777216
100
AcDbPoint
 10
1777.012399827387
 20
-10302.9875982683
 30
0.0
  0
POINT
  5
5399
330
538E
100
AcDbEntity
  8
DEFPOINTS
 62
     0
440
 16777216
100
AcDbPoint
 10
1777.012399827389
 20
-10300.9875982683
 30
0.0
  0
POINT
  5
539A
330
538E
100
AcDbEntity
  8
DEFPOINTS
 62
     0
440
 16777216
100
AcDbPoint
 10
1766.337599872691
 20
-10300.9875982683
 30
0.0
  0
ENDBLK
  5
539B
330
538E
100
AcDbEntity
  8
0
100
AcDbBlockEnd
  0
BLOCK
  5
539D
330
539C
100
AcDbEntity
  8
0
100
AcDbBlockBegin
  2
*D22
 70
     1
 10
0.0
 20
0.0
 30
0.0
  3
*D22
  1

  0
LINE
  5
539E
330
539C
100
AcDbEntity
  8
2寸法線
 62
     0
440
 16777216
370
    -2
100
AcDbLine
 10
1699.836083979704
 20
-10364.4875982683
 30
0.0
 11
1726.200995797635
 21
-10364.4875982683
 31
0.0
  0
LINE
  5
539F
330
539C
100
AcDbEntity
  8
2寸法線
 62
     0
440
 16777216
370
    -2
100
AcDbLine
 10
1699.836083979704
 20
-10237.4875982683
 30
0.0
 11
1726.200995797635
 21
-10237.4875982683
 31
0.0
  0
LINE
  5
53A0
330
539C
100
AcDbEntity
  8
2寸法線
 62
     0
440
 16777216
370
    -2
100
AcDbLine
 10
1725.200995797635
 20
-10362.6875982683
 30
0.0
 11
1725.200995797635
 21
-10239.2875982683
 31
0.0
  0
INSERT
  5
53A1
330
539C
100
AcDbEntity
  8
2寸法線
 62
     0
440
 16777216
370
    -2
100
AcDbBlockReference
  2
2
 10
1725.200995797635
 20
-10364.4875982683
 30
0.0
 41
1.8
 42
1.8
 43
1.8
 50
270.0
  0
INSERT
  5
53A2
330
539C
100
AcDbEntity
  8
2寸法線
 62
     0
440
 16777216
370
    -2
100
AcDbBlockReference
  2
2
 10
1725.200995797635
 20
-10237.4875982683
 30
0.0
 41
1.8
 42
1.8
 43
1.8
 50
90.0
  0
MTEXT
  5
53A3
330
539C
100
AcDbEntity
  8
2寸法線
 62
     0
440
 16777216
100
AcDbMText
 10
1723.450995797637
 20
-10300.9875982683
 30
0.0
 40
2.5
 41
0.0
 46
0.0
 71
     5
 72
     1
  1
\A1;（カン合時）127
  7
KANJI
 11
0.0000000000000001
 21
1.0
 31
0.0
 73
     1
 44
1.0
  0
POINT
  5
53A4
330
539C
100
AcDbEntity
  8
DEFPOINTS
 62
     0
440
 16777216
100
AcDbPoint
 10
1698.836083979704
 20
-10364.4875982683
 30
0.0
  0
POINT
  5
53A5
330
539C
100
AcDbEntity
  8
DEFPOINTS
 62
     0
440
 16777216
100
AcDbPoint
 10
1698.836083979704
 20
-10237.4875982683
 30
0.0
  0
POINT
  5
53A6
330
539C
100
AcDbEntity
  8
DEFPOINTS
 62
     0
440
 16777216
100
AcDbPoint
 10
1725.200995797635
 20
-10237.4875982683
 30
0.0
  0
ENDBLK
  5
53A7
330
539C
100
AcDbEntity
  8
0
100
AcDbBlockEnd
  0
BLOCK
  5
53A9
330
53A8
100
AcDbEntity
  8
0
100
AcDbBlockBegin
  2
*D23
 70
     1
 10
0.0
 20
0.0
 30
0.0
  3
*D23
  1

  0
LINE
  5
53AA
330
53A8
100
AcDbEntity
  8
2寸法線
 62
     0
440
 16777216
370
    -2
100
AcDbLine
 10
1555.269396971209
 20
-10431.43720570531
 30
0.0
 11
1555.269396971209
 21
-10438.92486205373
 31
0.0
  0
LINE
  5
53AB
330
53A8
100
AcDbEntity
  8
2寸法線
 62
     0
440
 16777216
370
    -2
100
AcDbLine
 10
1607.16939697121
 20
-10431.43720570531
 30
0.0
 11
1607.16939697121
 21
-10438.92486205373
 31
0.0
  0
LINE
  5
53AC
330
53A8
100
AcDbEntity
  8
2寸法線
 62
     0
440
 16777216
370
    -2
100
AcDbLine
 10
1557.069396971209
 20
-10437.92486205373
 30
0.0
 11
1605.369396971211
 21
-10437.92486205373
 31
0.0
  0
INSERT
  5
53AD
330
53A8
100
AcDbEntity
  8
2寸法線
 62
     0
440
 16777216
370
    -2
100
AcDbBlockReference
  2
2
 10
1555.269396971209
 20
-10437.92486205373
 30
0.0
 41
1.8
 42
1.8
 43
1.8
 50
180.0
  0
INSERT
  5
53AE
330
53A8
100
AcDbEntity
  8
2寸法線
 62
     0
440
 16777216
370
    -2
100
AcDbBlockReference
  2
2
 10
1607.16939697121
 20
-10437.92486205373
 30
0.0
 41
1.8
 42
1.8
 43
1.8
  0
MTEXT
  5
53AF
330
53A8
100
AcDbEntity
  8
2寸法線
 62
     0
440
 16777216
100
AcDbMText
 10
1581.21939697121
 20
-10436.17486205373
 30
0.0
 40
2.5
 41
0.0
 46
0.0
 71
     5
 72
     1
  1
\A1;（カン合時）51.9
  7
KANJI
 73
     1
 44
1.0
  0
POINT
  5
53B0
330
53A8
100
AcDbEntity
  8
DEFPOINTS
 62
     0
440
 16777216
100
AcDbPoint
 10
1555.269396971209
 20
-10430.43720570531
 30
0.0
  0
POINT
  5
53B1
330
53A8
100
AcDbEntity
  8
DEFPOINTS
 62
     0
440
 16777216
100
AcDbPoint
 10
1607.16939697121
 20
-10430.43720570531
 30
0.0
  0
POINT
  5
53B2
330
53A8
100
AcDbEntity
  8
DEFPOINTS
 62
     0
440
 16777216
100
AcDbPoint
 10
1607.16939697121
 20
-10437.92486205373
 30
0.0
  0
ENDBLK
  5
53B3
330
53A8
100
AcDbEntity
  8
0
100
AcDbBlockEnd
  0
BLOCK
  5
53B5
330
53B4
100
AcDbEntity
  8
0
100
AcDbBlockBegin
  2
*D24
 70
     1
 10
0.0
 20
0.0
 30
0.0
  3
*D24
  1

  0
LINE
  5
53B6
330
53B4
100
AcDbEntity
  8
2寸法線
 62
     0
440
 16777216
370
    -2
100
AcDbLine
 10
1575.221527906908
 20
-10402.36957481508
 30
0.0
 11
1561.604627733753
 21
-10393.13593574717
 31
0.0
  0
MTEXT
  5
53B7
330
53B4
100
AcDbEntity
  8
2寸法線
 62
     0
440
 16777216
100
AcDbMText
 10
1571.602313269997
 20
-10397.80097651794
 30
0.0
 40
2.5
 41
0.0
 46
0.0
 71
     5
 72
     1
  1
\A1;R25.5
  7
KANJI
 11
0.8276564825314073
 21
-0.5612350193312408
 31
0.0
 73
     1
 44
1.0
  0
INSERT
  5
53B8
330
53B4
100
AcDbEntity
  8
2寸法線
 62
     0
440
 16777216
370
    -2
100
AcDbBlockReference
  2
2
 10
1560.114846065196
 20
-10392.12571271237
 30
0.0
 41
1.8
 42
1.8
 43
1.8
 50
145.8587493442565
  0
POINT
  5
53B9
330
53B4
100
AcDbEntity
  8
DEFPOINTS
 62
     0
440
 16777216
100
AcDbPoint
 10
1560.114846065196
 20
-10392.12571271237
 30
0.0
  0
POINT
  5
53BA
330
53B4
100
AcDbEntity
  8
DEFPOINTS
 62
     0
440
 16777216
100
AcDbPoint
 10
1581.220086369747
 20
-10406.43720570532
 30
0.0
  0
ENDBLK
  5
53BB
330
53B4
100
AcDbEntity
  8
0
100
AcDbBlockEnd
  0
BLOCK
  5
5562
330
5561
100
AcDbEntity
  8
0
100
AcDbBlockBegin
  2
*D26
 70
     1
 10
0.0
 20
0.0
 30
0.0
  3
*D26
  1

  0
LINE
  5
563D
330
5561
100
AcDbEntity
  8
2寸法線
 62
     0
440
 16777216
370
    -2
100
AcDbLine
 10
392.9677498266183
 20
101.5801134227363
 30
0.0
 11
392.9677498266183
 21
87.17316246527616
 31
0.0
  0
LINE
  5
563E
330
5561
100
AcDbEntity
  8
2寸法線
 62
     0
440
 16777216
370
    -2
100
AcDbLine
 10
390.9677498266174
 20
111.5801134227381
 30
0.0
 11
390.9677498266174
 21
87.17316246527616
 31
0.0
  0
LINE
  5
563F
330
5561
100
AcDbEntity
  8
2寸法線
 62
     0
440
 16777216
370
    -2
100
AcDbLine
 10
389.1677498266174
 20
88.17316246527616
 30
0.0
 11
387.3677498266173
 21
88.17316246527616
 31
0.0
  0
LINE
  5
5640
330
5561
100
AcDbEntity
  8
2寸法線
 62
     0
440
 16777216
370
    -2
100
AcDbLine
 10
394.7677498266183
 20
88.17316246527616
 30
0.0
 11
399.234416493285
 21
88.17316246527616
 31
0.0
  0
LINE
  5
5641
330
5561
100
AcDbEntity
  8
2寸法線
 62
     0
440
 16777216
370
    -2
100
AcDbLine
 10
390.9677498266174
 20
88.17316246527616
 30
0.0
 11
392.9677498266183
 21
88.17316246527616
 31
0.0
  0
INSERT
  5
5642
330
5561
100
AcDbEntity
  8
2寸法線
 62
     0
440
 16777216
370
    -2
100
AcDbBlockReference
  2
2
 10
390.9677498266174
 20
88.17316246527616
 30
0.0
 41
1.8
 42
1.8
 43
1.8
  0
INSERT
  5
5643
330
5561
100
AcDbEntity
  8
2寸法線
 62
     0
440
 16777216
370
    -2
100
AcDbBlockReference
  2
2
 10
392.9677498266183
 20
88.17316246527616
 30
0.0
 41
1.8
 42
1.8
 43
1.8
 50
180.0
  0
MTEXT
  5
5644
330
5561
100
AcDbEntity
  8
2寸法線
 62
     0
440
 16777216
100
AcDbMText
 10
397.9010831599517
 20
89.92316246527616
 30
0.0
 40
2.5
 41
0.0
 46
0.0
 71
     5
 72
     1
  1
\A1;2
  7
KANJI
 73
     1
 44
1.0
  0
POINT
  5
5645
330
5561
100
AcDbEntity
  8
DEFPOINTS
 62
     0
440
 16777216
100
AcDbPoint
 10
392.9677498266183
 20
102.5801134227363
 30
0.0
  0
POINT
  5
5646
330
5561
100
AcDbEntity
  8
DEFPOINTS
 62
     0
440
 16777216
100
AcDbPoint
 10
390.9677498266174
 20
112.5801134227381
 30
0.0
  0
POINT
  5
5647
330
5561
100
AcDbEntity
  8
DEFPOINTS
 62
     0
440
 16777216
100
AcDbPoint
 10
390.9677498266174
 20
88.17316246527616
 30
0.0
  0
ENDBLK
  5
5563
330
5561
100
AcDbEntity
  8
0
100
AcDbBlockEnd
  0
BLOCK
  5
5570
330
556F
100
AcDbEntity
  8
0
100
AcDbBlockBegin
  2
*D27
 70
     1
 10
0.0
 20
0.0
 30
0.0
  3
*D27
  1

  0
LINE
  5
5648
330
556F
100
AcDbEntity
  8
2寸法線
 62
     0
440
 16777216
370
    -2
100
AcDbLine
 10
392.9677498266183
 20
101.5801134227381
 30
0.0
 11
392.9677498266183
 21
92.76484457401739
 31
0.0
  0
LINE
  5
5649
330
556F
100
AcDbEntity
  8
2寸法線
 62
     0
440
 16777216
370
    -2
100
AcDbLine
 10
391.9677498266174
 20
101.5801134227363
 30
0.0
 11
391.9677498266174
 21
92.76484457401739
 31
0.0
  0
LINE
  5
564A
330
556F
100
AcDbEntity
  8
2寸法線
 62
     0
440
 16777216
370
    -2
100
AcDbLine
 10
390.1677498266174
 20
93.76484457401739
 30
0.0
 11
388.3677498266174
 21
93.76484457401739
 31
0.0
  0
LINE
  5
564B
330
556F
100
AcDbEntity
  8
2寸法線
 62
     0
440
 16777216
370
    -2
100
AcDbLine
 10
394.7677498266183
 20
93.76484457401739
 30
0.0
 11
398.1629879218565
 21
93.76484457401739
 31
0.0
  0
LINE
  5
564C
330
556F
100
AcDbEntity
  8
2寸法線
 62
     0
440
 16777216
370
    -2
100
AcDbLine
 10
391.9677498266174
 20
93.76484457401739
 30
0.0
 11
392.9677498266183
 21
93.76484457401739
 31
0.0
  0
INSERT
  5
564D
330
556F
100
AcDbEntity
  8
2寸法線
 62
     0
440
 16777216
370
    -2
100
AcDbBlockReference
  2
2
 10
391.9677498266174
 20
93.76484457401739
 30
0.0
 41
1.8
 42
1.8
 43
1.8
  0
INSERT
  5
564E
330
556F
100
AcDbEntity
  8
2寸法線
 62
     0
440
 16777216
370
    -2
100
AcDbBlockReference
  2
2
 10
392.9677498266183
 20
93.76484457401739
 30
0.0
 41
1.8
 42
1.8
 43
1.8
 50
180.0
  0
MTEXT
  5
564F
330
556F
100
AcDbEntity
  8
2寸法線
 62
     0
440
 16777216
100
AcDbMText
 10
397.3653688742374
 20
95.51484457401739
 30
0.0
 40
2.5
 41
0.0
 46
0.0
 71
     5
 72
     1
  1
\A1;1
  7
KANJI
 73
     1
 44
1.0
  0
POINT
  5
5650
330
556F
100
AcDbEntity
  8
DEFPOINTS
 62
     0
440
 16777216
100
AcDbPoint
 10
392.9677498266183
 20
102.5801134227381
 30
0.0
  0
POINT
  5
5651
330
556F
100
AcDbEntity
  8
DEFPOINTS
 62
     0
440
 16777216
100
AcDbPoint
 10
391.9677498266174
 20
102.5801134227363
 30
0.0
  0
POINT
  5
5652
330
556F
100
AcDbEntity
  8
DEFPOINTS
 62
     0
440
 16777216
100
AcDbPoint
 10
391.9677498266174
 20
93.76484457401739
 30
0.0
  0
ENDBLK
  5
5571
330
556F
100
AcDbEntity
  8
0
100
AcDbBlockEnd
  0
BLOCK
  5
557E
330
557D
100
AcDbEntity
  8
0
100
AcDbBlockBegin
  2
*D28
 70
     1
 10
0.0
 20
0.0
 30
0.0
  3
*D28
  1

  0
LINE
  5
5653
330
557D
100
AcDbEntity
  8
2寸法線
 62
     0
440
 16777216
370
    -2
100
AcDbLine
 10
378.4280743065621
 20
93.35220973279286
 30
0.0
 11
382.0233124018208
 21
93.3522097327928
 31
0.0
  0
LINE
  5
5654
330
557D
100
AcDbEntity
  8
2寸法線
 62
     0
440
 16777216
370
    -2
100
AcDbLine
 10
382.0233124018208
 20
93.3522097327928
 30
0.0
 11
390.8353413833982
 21
101.6594318985318
 31
0.0
  0
MTEXT
  5
5655
330
557D
100
AcDbEntity
  8
2寸法線
 62
     0
440
 16777216
100
AcDbMText
 10
379.9756933541812
 20
95.10220973279277
 30
0.0
 40
2.5
 41
0.0
 46
0.0
 71
     5
 72
     1
  1
\A1;R1
  7
KANJI
 73
     1
 44
1.0
  0
INSERT
  5
5656
330
557D
100
AcDbEntity
  8
2寸法線
 62
     0
440
 16777216
370
    -2
100
AcDbBlockReference
  2
2
 10
392.1450959582498
 20
102.8941557355315
 30
0.0
 41
1.8
 42
1.8
 43
1.8
 50
43.31097043998425
  0
POINT
  5
5657
330
557D
100
AcDbEntity
  8
DEFPOINTS
 62
     0
440
 16777216
100
AcDbPoint
 10
392.1450959582498
 20
102.8941557355315
 30
0.0
  0
POINT
  5
5658
330
557D
100
AcDbEntity
  8
DEFPOINTS
 62
     0
440
 16777216
100
AcDbPoint
 10
392.8727373887259
 20
103.5801134227563
 30
0.0
  0
ENDBLK
  5
557F
330
557D
100
AcDbEntity
  8
0
100
AcDbBlockEnd
  0
BLOCK
  5
5587
330
5586
100
AcDbEntity
  8
0
100
AcDbBlockBegin
  2
*D29
 70
     1
 10
0.0
 20
0.0
 30
0.0
  3
*D29
  1

  0
LINE
  5
5CB2
330
5586
100
AcDbEntity
  8
2寸法線
 62
     0
440
 16777216
370
    -2
100
AcDbLine
 10
261.3510628181202
 20
99.96342641424286
 30
0.0
 11
261.3510628181202
 21
112.0683125051269
 31
0.0
  0
LINE
  5
5CB3
330
5586
100
AcDbEntity
  8
2寸法線
 62
     0
440
 16777216
370
    -2
100
AcDbLine
 10
271.3510628181221
 20
100.9634264142428
 30
0.0
 11
271.3510628181221
 21
112.0683125051269
 31
0.0
  0
LINE
  5
5CB4
330
5586
100
AcDbEntity
  8
2寸法線
 62
     0
440
 16777216
370
    -2
100
AcDbLine
 10
263.1510628181203
 20
111.0683125051269
 30
0.0
 11
269.551062818122
 21
111.0683125051269
 31
0.0
  0
INSERT
  5
5CB5
330
5586
100
AcDbEntity
  8
2寸法線
 62
     0
440
 16777216
370
    -2
100
AcDbBlockReference
  2
2
 10
261.3510628181202
 20
111.0683125051269
 30
0.0
 41
1.8
 42
1.8
 43
1.8
 50
180.0
  0
INSERT
  5
5CB6
330
5586
100
AcDbEntity
  8
2寸法線
 62
     0
440
 16777216
370
    -2
100
AcDbBlockReference
  2
2
 10
271.3510628181221
 20
111.0683125051269
 30
0.0
 41
1.8
 42
1.8
 43
1.8
  0
MTEXT
  5
5CB7
330
5586
100
AcDbEntity
  8
2寸法線
 62
     0
440
 16777216
100
AcDbMText
 10
266.351062818122
 20
112.8183125051269
 30
0.0
 40
2.5
 41
0.0
 46
0.0
 71
     5
 72
     1
  1
\A1;（10）
  7
KANJI
 73
     1
 44
1.0
  0
POINT
  5
5CB8
330
5586
100
AcDbEntity
  8
DEFPOINTS
 62
     0
440
 16777216
100
AcDbPoint
 10
261.3510628181202
 20
98.96342641424286
 30
0.0
  0
POINT
  5
5CB9
330
5586
100
AcDbEntity
  8
DEFPOINTS
 62
     0
440
 16777216
100
AcDbPoint
 10
271.3510628181221
 20
99.96342641424286
 30
0.0
  0
POINT
  5
5CBA
330
5586
100
AcDbEntity
  8
DEFPOINTS
 62
     0
440
 16777216
100
AcDbPoint
 10
271.3510628181221
 20
111.0683125051269
 30
0.0
  0
ENDBLK
  5
5588
330
5586
100
AcDbEntity
  8
0
100
AcDbBlockEnd
  0
BLOCK
  5
5593
330
5592
100
AcDbEntity
  8
0
100
AcDbBlockBegin
  2
*D30
 70
     1
 10
0.0
 20
0.0
 30
0.0
  3
*D30
  1

  0
LINE
  5
5CBB
330
5592
100
AcDbEntity
  8
2寸法線
 62
     0
440
 16777216
370
    -2
100
AcDbLine
 10
272.0724565407262
 20
83.90142748544544
 30
0.0
 11
271.2819863304545
 21
98.11994776634245
 31
0.0
  0
MTEXT
  5
5CBC
330
5592
100
AcDbEntity
  8
2寸法線
 62
     0
440
 16777216
100
AcDbMText
 10
273.511817319279
 20
89.53763344749729
 30
0.0
 40
2.5
 41
0.0
 46
0.0
 71
     5
 72
     1
  1
\A1;（R30）
  7
KANJI
 11
0.0555086922444414
 21
-0.9984582039751648
 31
0.0
 73
     1
 44
1.0
  0
INSERT
  5
5CBD
330
5592
100
AcDbEntity
  8
2寸法線
 62
     0
440
 16777216
370
    -2
100
AcDbBlockReference
  2
2
 10
271.1820706844146
 20
99.91717253349776
 30
0.0
 41
1.8
 42
1.8
 43
1.8
 50
93.18204931704718
  0
POINT
  5
5CBE
330
5592
100
AcDbEntity
  8
DEFPOINTS
 62
     0
440
 16777216
100
AcDbPoint
 10
271.1820706844146
 20
99.91717253349776
 30
0.0
  0
POINT
  5
5CBF
330
5592
100
AcDbEntity
  8
DEFPOINTS
 62
     0
440
 16777216
100
AcDbPoint
 10
272.8473314517477
 20
69.96342641424421
 30
0.0
  0
ENDBLK
  5
5594
330
5592
100
AcDbEntity
  8
0
100
AcDbBlockEnd
  0
BLOCK
  5
559B
330
559A
100
AcDbEntity
  8
0
100
AcDbBlockBegin
  2
*D31
 70
     1
 10
0.0
 20
0.0
 30
0.0
  3
*D31
  1

  0
LINE
  5
5D2E
330
559A
100
AcDbEntity
  8
2寸法線
 62
     0
440
 16777216
370
    -2
100
AcDbLine
 10
305.8510628181222
 20
54.9634264142438
 30
0.0
 11
332.8613155374551
 21
54.9634264142438
 31
0.0
  0
LINE
  5
5D2F
330
559A
100
AcDbEntity
  8
2寸法線
 62
     0
440
 16777216
370
    -2
100
AcDbLine
 10
305.8510628181222
 20
48.4634264142438
 30
0.0
 11
332.8613155374551
 21
48.4634264142438
 31
0.0
  0
LINE
  5
5D30
330
559A
100
AcDbEntity
  8
2寸法線
 62
     0
440
 16777216
370
    -2
100
AcDbLine
 10
331.8613155374551
 20
53.1634264142438
 30
0.0
 11
331.8613155374551
 21
50.26342641424379
 31
0.0
  0
LINE
  5
5D31
330
559A
100
AcDbEntity
  8
2寸法線
 62
     0
440
 16777216
370
    -2
100
AcDbLine
 10
331.8613155374551
 20
48.4634264142438
 30
0.0
 11
331.8613155374551
 21
25.40044297671166
 31
0.0
  0
INSERT
  5
5D32
330
559A
100
AcDbEntity
  8
2寸法線
 62
     0
440
 16777216
370
    -2
100
AcDbBlockReference
  2
2
 10
331.8613155374551
 20
54.9634264142438
 30
0.0
 41
1.8
 42
1.8
 43
1.8
 50
90.0
  0
INSERT
  5
5D33
330
559A
100
AcDbEntity
  8
2寸法線
 62
     0
440
 16777216
370
    -2
100
AcDbBlockReference
  2
2
 10
331.8613155374551
 20
48.4634264142438
 30
0.0
 41
1.8
 42
1.8
 43
1.8
 50
270.0
  0
MTEXT
  5
5D34
330
559A
100
AcDbEntity
  8
2寸法線
 62
     0
440
 16777216
100
AcDbMText
 10
330.1113155374551
 20
28.51949059575918
 30
0.0
 40
2.5
 41
0.0
 46
0.0
 71
     5
 72
     1
  1
\A1;6.5
  7
KANJI
 11
0.0000000000000001
 21
1.0
 31
0.0
 73
     1
 44
1.0
  0
POINT
  5
5D35
330
559A
100
AcDbEntity
  8
DEFPOINTS
 62
     0
440
 16777216
100
AcDbPoint
 10
304.8510628181221
 20
54.9634264142438
 30
0.0
  0
POINT
  5
5D36
330
559A
100
AcDbEntity
  8
DEFPOINTS
 62
     0
440
 16777216
100
AcDbPoint
 10
304.8510628181221
 20
48.4634264142438
 30
0.0
  0
POINT
  5
5D37
330
559A
100
AcDbEntity
  8
DEFPOINTS
 62
     0
440
 16777216
100
AcDbPoint
 10
331.8613155374551
 20
48.4634264142438
 30
0.0
  0
ENDBLK
  5
559C
330
559A
100
AcDbEntity
  8
0
100
AcDbBlockEnd
  0
BLOCK
  5
55A8
330
55A7
100
AcDbEntity
  8
0
100
AcDbBlockBegin
  2
*D32
 70
     1
 10
0.0
 20
0.0
 30
0.0
  3
*D32
  1

  0
LINE
  5
5CCA
330
55A7
100
AcDbEntity
  8
2寸法線
 62
     0
440
 16777216
370
    -2
100
AcDbLine
 10
304.8510628181221
 20
53.96342641424377
 30
0.0
 11
304.8510628181221
 21
28.9484343596792
 31
0.0
  0
LINE
  5
5CCB
330
55A7
100
AcDbEntity
  8
2寸法線
 62
     0
440
 16777216
370
    -2
100
AcDbLine
 10
303.851062818122
 20
53.96342641424377
 30
0.0
 11
303.851062818122
 21
28.9484343596792
 31
0.0
  0
LINE
  5
5CCC
330
55A7
100
AcDbEntity
  8
2寸法線
 62
     0
440
 16777216
370
    -2
100
AcDbLine
 10
302.0510628181221
 20
29.9484343596792
 30
0.0
 11
300.251062818122
 21
29.9484343596792
 31
0.0
  0
LINE
  5
5CCD
330
55A7
100
AcDbEntity
  8
2寸法線
 62
     0
440
 16777216
370
    -2
100
AcDbLine
 10
306.651062818122
 20
29.9484343596792
 30
0.0
 11
310.0463009133601
 21
29.9484343596792
 31
0.0
  0
LINE
  5
5CCE
330
55A7
100
AcDbEntity
  8
2寸法線
 62
     0
440
 16777216
370
    -2
100
AcDbLine
 10
303.851062818122
 20
29.9484343596792
 30
0.0
 11
304.8510628181221
 21
29.9484343596792
 31
0.0
  0
INSERT
  5
5CCF
330
55A7
100
AcDbEntity
  8
2寸法線
 62
     0
440
 16777216
370
    -2
100
AcDbBlockReference
  2
2
 10
303.851062818122
 20
29.9484343596792
 30
0.0
 41
1.8
 42
1.8
 43
1.8
  0
INSERT
  5
5CD0
330
55A7
100
AcDbEntity
  8
2寸法線
 62
     0
440
 16777216
370
    -2
100
AcDbBlockReference
  2
2
 10
304.8510628181221
 20
29.9484343596792
 30
0.0
 41
1.8
 42
1.8
 43
1.8
 50
180.0
  0
MTEXT
  5
5CD1
330
55A7
100
AcDbEntity
  8
2寸法線
 62
     0
440
 16777216
100
AcDbMText
 10
309.2486818657411
 20
31.6984343596792
 30
0.0
 40
2.5
 41
0.0
 46
0.0
 71
     5
 72
     1
  1
\A1;1
  7
KANJI
 73
     1
 44
1.0
  0
POINT
  5
5CD2
330
55A7
100
AcDbEntity
  8
DEFPOINTS
 62
     0
440
 16777216
100
AcDbPoint
 10
304.8510628181221
 20
54.96342641424377
 30
0.0
  0
POINT
  5
5CD3
330
55A7
100
AcDbEntity
  8
DEFPOINTS
 62
     0
440
 16777216
100
AcDbPoint
 10
303.851062818122
 20
54.96342641424377
 30
0.0
  0
POINT
  5
5CD4
330
55A7
100
AcDbEntity
  8
DEFPOINTS
 62
     0
440
 16777216
100
AcDbPoint
 10
303.851062818122
 20
29.9484343596792
 30
0.0
  0
ENDBLK
  5
55A9
330
55A7
100
AcDbEntity
  8
0
100
AcDbBlockEnd
  0
BLOCK
  5
55B6
330
55B5
100
AcDbEntity
  8
0
100
AcDbBlockBegin
  2
*D33
 70
     1
 10
0.0
 20
0.0
 30
0.0
  3
*D33
  1

  0
LINE
  5
5CD5
330
55B5
100
AcDbEntity
  8
2寸法線
 62
     0
440
 16777216
370
    -2
100
AcDbLine
 10
261.3510628181221
 20
47.46342641424377
 30
0.0
 11
261.3510628181221
 21
28.94843435968073
 31
0.0
  0
LINE
  5
5CD6
330
55B5
100
AcDbEntity
  8
2寸法線
 62
     0
440
 16777216
370
    -2
100
AcDbLine
 10
303.851062818122
 20
53.96342641424377
 30
0.0
 11
303.851062818122
 21
28.94843435968073
 31
0.0
  0
LINE
  5
5CD7
330
55B5
100
AcDbEntity
  8
2寸法線
 62
     0
440
 16777216
370
    -2
100
AcDbLine
 10
263.1510628181221
 20
29.94843435968073
 30
0.0
 11
302.0510628181221
 21
29.94843435968073
 31
0.0
  0
INSERT
  5
5CD8
330
55B5
100
AcDbEntity
  8
2寸法線
 62
     0
440
 16777216
370
    -2
100
AcDbBlockReference
  2
2
 10
261.3510628181221
 20
29.94843435968073
 30
0.0
 41
1.8
 42
1.8
 43
1.8
 50
180.0
  0
INSERT
  5
5CD9
330
55B5
100
AcDbEntity
  8
2寸法線
 62
     0
440
 16777216
370
    -2
100
AcDbBlockReference
  2
2
 10
303.851062818122
 20
29.94843435968073
 30
0.0
 41
1.8
 42
1.8
 43
1.8
  0
MTEXT
  5
5CDA
330
55B5
100
AcDbEntity
  8
2寸法線
 62
     0
440
 16777216
100
AcDbMText
 10
282.601062818122
 20
31.69843435968073
 30
0.0
 40
2.5
 41
0.0
 46
0.0
 71
     5
 72
     1
  1
\A1;42.5
  7
KANJI
 73
     1
 44
1.0
  0
POINT
  5
5CDB
330
55B5
100
AcDbEntity
  8
DEFPOINTS
 62
     0
440
 16777216
100
AcDbPoint
 10
261.3510628181221
 20
48.46342641424377
 30
0.0
  0
POINT
  5
5CDC
330
55B5
100
AcDbEntity
  8
DEFPOINTS
 62
     0
440
 16777216
100
AcDbPoint
 10
303.851062818122
 20
54.96342641424377
 30
0.0
  0
POINT
  5
5CDD
330
55B5
100
AcDbEntity
  8
DEFPOINTS
 62
     0
440
 16777216
100
AcDbPoint
 10
303.851062818122
 20
29.94843435968073
 30
0.0
  0
ENDBLK
  5
55B7
330
55B5
100
AcDbEntity
  8
0
100
AcDbBlockEnd
  0
BLOCK
  5
55C2
330
55C1
100
AcDbEntity
  8
0
100
AcDbBlockBegin
  2
*D34
 70
     1
 10
0.0
 20
0.0
 30
0.0
  3
*D34
  1

  0
LINE
  5
5CDE
330
55C1
100
AcDbEntity
  8
2寸法線
 62
     0
440
 16777216
370
    -2
100
AcDbLine
 10
278.851062818122
 20
56.46342641424377
 30
0.0
 11
278.851062818122
 21
64.16648790839031
 31
0.0
  0
LINE
  5
5CDF
330
55C1
100
AcDbEntity
  8
2寸法線
 62
     0
440
 16777216
370
    -2
100
AcDbLine
 10
280.0510628181228
 20
56.46342641424377
 30
0.0
 11
280.0510628181228
 21
64.16648790839031
 31
0.0
  0
LINE
  5
5CE0
330
55C1
100
AcDbEntity
  8
2寸法線
 62
     0
440
 16777216
370
    -2
100
AcDbLine
 10
277.051062818122
 20
63.16648790839031
 30
0.0
 11
275.251062818122
 21
63.16648790839031
 31
0.0
  0
LINE
  5
5CE1
330
55C1
100
AcDbEntity
  8
2寸法線
 62
     0
440
 16777216
370
    -2
100
AcDbLine
 10
281.8510628181228
 20
63.16648790839031
 30
0.0
 11
289.4129675800275
 21
63.16648790839031
 31
0.0
  0
LINE
  5
5CE2
330
55C1
100
AcDbEntity
  8
2寸法線
 62
     0
440
 16777216
370
    -2
100
AcDbLine
 10
278.851062818122
 20
63.16648790839031
 30
0.0
 11
280.0510628181228
 21
63.16648790839031
 31
0.0
  0
INSERT
  5
5CE3
330
55C1
100
AcDbEntity
  8
2寸法線
 62
     0
440
 16777216
370
    -2
100
AcDbBlockReference
  2
2
 10
278.851062818122
 20
63.16648790839031
 30
0.0
 41
1.8
 42
1.8
 43
1.8
  0
INSERT
  5
5CE4
330
55C1
100
AcDbEntity
  8
2寸法線
 62
     0
440
 16777216
370
    -2
100
AcDbBlockReference
  2
2
 10
280.0510628181228
 20
63.16648790839031
 30
0.0
 41
1.8
 42
1.8
 43
1.8
 50
180.0
  0
MTEXT
  5
5CE5
330
55C1
100
AcDbEntity
  8
2寸法線
 62
     0
440
 16777216
100
AcDbMText
 10
286.5320151990752
 20
64.91648790839031
 30
0.0
 40
2.5
 41
0.0
 46
0.0
 71
     5
 72
     1
  1
\A1;1.2
  7
KANJI
 73
     1
 44
1.0
  0
POINT
  5
5CE6
330
55C1
100
AcDbEntity
  8
DEFPOINTS
 62
     0
440
 16777216
100
AcDbPoint
 10
278.851062818122
 20
55.46342641424377
 30
0.0
  0
POINT
  5
5CE7
330
55C1
100
AcDbEntity
  8
DEFPOINTS
 62
     0
440
 16777216
100
AcDbPoint
 10
280.0510628181228
 20
55.46342641424377
 30
0.0
  0
POINT
  5
5CE8
330
55C1
100
AcDbEntity
  8
DEFPOINTS
 62
     0
440
 16777216
100
AcDbPoint
 10
280.0510628181228
 20
63.16648790839031
 30
0.0
  0
ENDBLK
  5
55C3
330
55C1
100
AcDbEntity
  8
0
100
AcDbBlockEnd
  0
BLOCK
  5
55D0
330
55CF
100
AcDbEntity
  8
0
100
AcDbBlockBegin
  2
*D35
 70
     1
 10
0.0
 20
0.0
 30
0.0
  3
*D35
  1

  0
LINE
  5
5CE9
330
55CF
100
AcDbEntity
  8
2寸法線
 62
     0
440
 16777216
370
    -2
100
AcDbLine
 10
289.2510628181217
 20
49.96342641424377
 30
0.0
 11
289.2510628181217
 21
36.5379180362645
 31
0.0
  0
LINE
  5
5CEA
330
55CF
100
AcDbEntity
  8
2寸法線
 62
     0
440
 16777216
370
    -2
100
AcDbLine
 10
299.6510628181213
 20
49.96342641424377
 30
0.0
 11
299.6510628181213
 21
36.5379180362645
 31
0.0
  0
LINE
  5
5CEB
330
55CF
100
AcDbEntity
  8
2寸法線
 62
     0
440
 16777216
370
    -2
100
AcDbLine
 10
291.0510628181217
 20
37.5379180362645
 30
0.0
 11
297.8510628181213
 21
37.5379180362645
 31
0.0
  0
INSERT
  5
5CEC
330
55CF
100
AcDbEntity
  8
2寸法線
 62
     0
440
 16777216
370
    -2
100
AcDbBlockReference
  2
2
 10
289.2510628181217
 20
37.5379180362645
 30
0.0
 41
1.8
 42
1.8
 43
1.8
 50
180.0
  0
INSERT
  5
5CED
330
55CF
100
AcDbEntity
  8
2寸法線
 62
     0
440
 16777216
370
    -2
100
AcDbBlockReference
  2
2
 10
299.6510628181213
 20
37.5379180362645
 30
0.0
 41
1.8
 42
1.8
 43
1.8
  0
MTEXT
  5
5CEE
330
55CF
100
AcDbEntity
  8
2寸法線
 62
     0
440
 16777216
100
AcDbMText
 10
294.4510628181215
 20
39.2879180362645
 30
0.0
 40
2.5
 41
0.0
 46
0.0
 71
     5
 72
     1
  1
\A1;10.4
  7
KANJI
 73
     1
 44
1.0
  0
POINT
  5
5CEF
330
55CF
100
AcDbEntity
  8
DEFPOINTS
 62
     0
440
 16777216
100
AcDbPoint
 10
289.2510628181217
 20
50.96342641424377
 30
0.0
  0
POINT
  5
5CF0
330
55CF
100
AcDbEntity
  8
DEFPOINTS
 62
     0
440
 16777216
100
AcDbPoint
 10
299.6510628181213
 20
50.96342641424377
 30
0.0
  0
POINT
  5
5CF1
330
55CF
100
AcDbEntity
  8
DEFPOINTS
 62
     0
440
 16777216
100
AcDbPoint
 10
299.6510628181213
 20
37.5379180362645
 30
0.0
  0
ENDBLK
  5
55D1
330
55CF
100
AcDbEntity
  8
0
100
AcDbBlockEnd
  0
BLOCK
  5
55DC
330
55DB
100
AcDbEntity
  8
0
100
AcDbBlockBegin
  2
*D36
 70
     1
 10
0.0
 20
0.0
 30
0.0
  3
*D36
  1

  0
LINE
  5
5CF2
330
55DB
100
AcDbEntity
  8
2寸法線
 62
     0
440
 16777216
370
    -2
100
AcDbLine
 10
278.851062818122
 20
49.96342641424377
 30
0.0
 11
278.851062818122
 21
36.5379180362645
 31
0.0
  0
LINE
  5
5CF3
330
55DB
100
AcDbEntity
  8
2寸法線
 62
     0
440
 16777216
370
    -2
100
AcDbLine
 10
289.2510628181217
 20
49.96342641424377
 30
0.0
 11
289.2510628181217
 21
36.5379180362645
 31
0.0
  0
LINE
  5
5CF4
330
55DB
100
AcDbEntity
  8
2寸法線
 62
     0
440
 16777216
370
    -2
100
AcDbLine
 10
280.6510628181221
 20
37.5379180362645
 30
0.0
 11
287.4510628181217
 21
37.5379180362645
 31
0.0
  0
INSERT
  5
5CF5
330
55DB
100
AcDbEntity
  8
2寸法線
 62
     0
440
 16777216
370
    -2
100
AcDbBlockReference
  2
2
 10
278.851062818122
 20
37.5379180362645
 30
0.0
 41
1.8
 42
1.8
 43
1.8
 50
180.0
  0
INSERT
  5
5CF6
330
55DB
100
AcDbEntity
  8
2寸法線
 62
     0
440
 16777216
370
    -2
100
AcDbBlockReference
  2
2
 10
289.2510628181217
 20
37.5379180362645
 30
0.0
 41
1.8
 42
1.8
 43
1.8
  0
MTEXT
  5
5CF7
330
55DB
100
AcDbEntity
  8
2寸法線
 62
     0
440
 16777216
100
AcDbMText
 10
284.0510628181219
 20
39.2879180362645
 30
0.0
 40
2.5
 41
0.0
 46
0.0
 71
     5
 72
     1
  1
\A1;10.4
  7
KANJI
 73
     1
 44
1.0
  0
POINT
  5
5CF8
330
55DB
100
AcDbEntity
  8
DEFPOINTS
 62
     0
440
 16777216
100
AcDbPoint
 10
278.851062818122
 20
50.96342641424377
 30
0.0
  0
POINT
  5
5CF9
330
55DB
100
AcDbEntity
  8
DEFPOINTS
 62
     0
440
 16777216
100
AcDbPoint
 10
289.2510628181217
 20
50.96342641424377
 30
0.0
  0
POINT
  5
5CFA
330
55DB
100
AcDbEntity
  8
DEFPOINTS
 62
     0
440
 16777216
100
AcDbPoint
 10
289.2510628181217
 20
37.5379180362645
 30
0.0
  0
ENDBLK
  5
55DD
330
55DB
100
AcDbEntity
  8
0
100
AcDbBlockEnd
  0
BLOCK
  5
55E8
330
55E7
100
AcDbEntity
  8
0
100
AcDbBlockBegin
  2
*D37
 70
     1
 10
0.0
 20
0.0
 30
0.0
  3
*D37
  1

  0
LINE
  5
5CFB
330
55E7
100
AcDbEntity
  8
2寸法線
 62
     0
440
 16777216
370
    -2
100
AcDbLine
 10
261.3510628181221
 20
47.46342641424377
 30
0.0
 11
261.3510628181221
 21
36.5379180362645
 31
0.0
  0
LINE
  5
5CFC
330
55E7
100
AcDbEntity
  8
2寸法線
 62
     0
440
 16777216
370
    -2
100
AcDbLine
 10
278.851062818122
 20
49.96342641424377
 30
0.0
 11
278.851062818122
 21
36.5379180362645
 31
0.0
  0
LINE
  5
5CFD
330
55E7
100
AcDbEntity
  8
2寸法線
 62
     0
440
 16777216
370
    -2
100
AcDbLine
 10
263.1510628181221
 20
37.5379180362645
 30
0.0
 11
277.051062818122
 21
37.5379180362645
 31
0.0
  0
INSERT
  5
5CFE
330
55E7
100
AcDbEntity
  8
2寸法線
 62
     0
440
 16777216
370
    -2
100
AcDbBlockReference
  2
2
 10
261.3510628181221
 20
37.5379180362645
 30
0.0
 41
1.8
 42
1.8
 43
1.8
 50
180.0
  0
INSERT
  5
5CFF
330
55E7
100
AcDbEntity
  8
2寸法線
 62
     0
440
 16777216
370
    -2
100
AcDbBlockReference
  2
2
 10
278.851062818122
 20
37.5379180362645
 30
0.0
 41
1.8
 42
1.8
 43
1.8
  0
MTEXT
  5
5D00
330
55E7
100
AcDbEntity
  8
2寸法線
 62
     0
440
 16777216
100
AcDbMText
 10
270.101062818122
 20
39.2879180362645
 30
0.0
 40
2.5
 41
0.0
 46
0.0
 71
     5
 72
     1
  1
\A1;17.5
  7
KANJI
 73
     1
 44
1.0
  0
POINT
  5
5D01
330
55E7
100
AcDbEntity
  8
DEFPOINTS
 62
     0
440
 16777216
100
AcDbPoint
 10
261.3510628181221
 20
48.46342641424377
 30
0.0
  0
POINT
  5
5D02
330
55E7
100
AcDbEntity
  8
DEFPOINTS
 62
     0
440
 16777216
100
AcDbPoint
 10
278.851062818122
 20
50.96342641424377
 30
0.0
  0
POINT
  5
5D03
330
55E7
100
AcDbEntity
  8
DEFPOINTS
 62
     0
440
 16777216
100
AcDbPoint
 10
278.851062818122
 20
37.5379180362645
 30
0.0
  0
ENDBLK
  5
55E9
330
55E7
100
AcDbEntity
  8
0
100
AcDbBlockEnd
  0
BLOCK
  5
55F4
330
55F3
100
AcDbEntity
  8
0
100
AcDbBlockBegin
  2
*D38
 70
     1
 10
0.0
 20
0.0
 30
0.0
  3
*D38
  1

  0
LINE
  5
5D04
330
55F3
100
AcDbEntity
  8
2寸法線
 62
     0
440
 16777216
370
    -2
100
AcDbLine
 10
322.851062818122
 20
-28.71288943343956
 30
0.0
 11
322.851062818122
 21
-18.03808947874449
 31
0.0
  0
LINE
  5
5D05
330
55F3
100
AcDbEntity
  8
2寸法線
 62
     0
440
 16777216
370
    -2
100
AcDbLine
 10
324.851062818122
 20
-28.71288943344138
 30
0.0
 11
324.851062818122
 21
-18.03808947874449
 31
0.0
  0
LINE
  5
5D06
330
55F3
100
AcDbEntity
  8
2寸法線
 62
     0
440
 16777216
370
    -2
100
AcDbLine
 10
326.6510628181221
 20
-19.03808947874449
 30
0.0
 11
328.4510628181221
 21
-19.03808947874449
 31
0.0
  0
LINE
  5
5D07
330
55F3
100
AcDbEntity
  8
2寸法線
 62
     0
440
 16777216
370
    -2
100
AcDbLine
 10
321.0510628181221
 20
-19.03808947874449
 30
0.0
 11
313.4701104371703
 21
-19.03808947874449
 31
0.0
  0
LINE
  5
5D08
330
55F3
100
AcDbEntity
  8
2寸法線
 62
     0
440
 16777216
370
    -2
100
AcDbLine
 10
324.851062818122
 20
-19.03808947874449
 30
0.0
 11
322.851062818122
 21
-19.03808947874449
 31
0.0
  0
INSERT
  5
5D09
330
55F3
100
AcDbEntity
  8
2寸法線
 62
     0
440
 16777216
370
    -2
100
AcDbBlockReference
  2
3
 10
324.851062818122
 20
-19.03808947874449
 30
0.0
 41
1.8
 42
1.8
 43
1.8
 50
180.0
  0
INSERT
  5
5D0A
330
55F3
100
AcDbEntity
  8
2寸法線
 62
     0
440
 16777216
370
    -2
100
AcDbBlockReference
  2
2
 10
322.851062818122
 20
-19.03808947874449
 30
0.0
 41
1.8
 42
1.8
 43
1.8
  0
MTEXT
  5
5D0B
330
55F3
100
AcDbEntity
  8
2寸法線
 62
     0
440
 16777216
100
AcDbMText
 10
316.0558247228846
 20
-17.53808947874449
 30
0.0
 40
2.0
 41
0.0
 46
0.0
 71
     5
 72
     1
  1
\A1;（2）
  7
KANJI
 73
     1
 44
1.0
  0
POINT
  5
5D0C
330
55F3
100
AcDbEntity
  8
DEFPOINTS
 62
     0
440
 16777216
100
AcDbPoint
 10
322.851062818122
 20
-29.71288943343956
 30
0.0
  0
POINT
  5
5D0D
330
55F3
100
AcDbEntity
  8
DEFPOINTS
 62
     0
440
 16777216
100
AcDbPoint
 10
324.851062818122
 20
-29.71288943344138
 30
0.0
  0
POINT
  5
5D0E
330
55F3
100
AcDbEntity
  8
DEFPOINTS
 62
     0
440
 16777216
100
AcDbPoint
 10
324.851062818122
 20
-19.03808947874449
 30
0.0
  0
ENDBLK
  5
55F5
330
55F3
100
AcDbEntity
  8
0
100
AcDbBlockEnd
  0
BLOCK
  5
5602
330
5601
100
AcDbEntity
  8
0
100
AcDbBlockBegin
  2
*D39
 70
     1
 10
0.0
 20
0.0
 30
0.0
  3
*D39
  1

  0
LINE
  5
5D0F
330
5601
100
AcDbEntity
  8
2寸法線
 62
     0
440
 16777216
370
    -2
100
AcDbLine
 10
326.851062818122
 20
-28.32958266733425
 30
0.0
 11
326.851062818122
 21
-18.03808947874449
 31
0.0
  0
LINE
  5
5D10
330
5601
100
AcDbEntity
  8
2寸法線
 62
     0
440
 16777216
370
    -2
100
AcDbLine
 10
324.851062818122
 20
-28.71288943344138
 30
0.0
 11
324.851062818122
 21
-18.03808947874449
 31
0.0
  0
LINE
  5
5D11
330
5601
100
AcDbEntity
  8
2寸法線
 62
     0
440
 16777216
370
    -2
100
AcDbLine
 10
323.0510628181221
 20
-19.03808947874449
 30
0.0
 11
321.251062818122
 21
-19.03808947874449
 31
0.0
  0
LINE
  5
5D12
330
5601
100
AcDbEntity
  8
2寸法線
 62
     0
440
 16777216
370
    -2
100
AcDbLine
 10
328.6510628181221
 20
-19.03808947874449
 30
0.0
 11
336.2320151990756
 21
-19.03808947874449
 31
0.0
  0
LINE
  5
5D13
330
5601
100
AcDbEntity
  8
2寸法線
 62
     0
440
 16777216
370
    -2
100
AcDbLine
 10
324.851062818122
 20
-19.03808947874449
 30
0.0
 11
326.851062818122
 21
-19.03808947874449
 31
0.0
  0
INSERT
  5
5D14
330
5601
100
AcDbEntity
  8
2寸法線
 62
     0
440
 16777216
370
    -2
100
AcDbBlockReference
  2
3
 10
324.851062818122
 20
-19.03808947874449
 30
0.0
 41
1.8
 42
1.8
 43
1.8
  0
INSERT
  5
5D15
330
5601
100
AcDbEntity
  8
2寸法線
 62
     0
440
 16777216
370
    -2
100
AcDbBlockReference
  2
2
 10
326.851062818122
 20
-19.03808947874449
 30
0.0
 41
1.8
 42
1.8
 43
1.8
 50
180.0
  0
MTEXT
  5
5D16
330
5601
100
AcDbEntity
  8
2寸法線
 62
     0
440
 16777216
100
AcDbMText
 10
333.6463009133613
 20
-17.53808947874449
 30
0.0
 40
2.0
 41
0.0
 46
0.0
 71
     5
 72
     1
  1
\A1;（2）
  7
KANJI
 73
     1
 44
1.0
  0
POINT
  5
5D17
330
5601
100
AcDbEntity
  8
DEFPOINTS
 62
     0
440
 16777216
100
AcDbPoint
 10
326.851062818122
 20
-29.32958266733425
 30
0.0
  0
POINT
  5
5D18
330
5601
100
AcDbEntity
  8
DEFPOINTS
 62
     0
440
 16777216
100
AcDbPoint
 10
324.851062818122
 20
-29.71288943344138
 30
0.0
  0
POINT
  5
5D19
330
5601
100
AcDbEntity
  8
DEFPOINTS
 62
     0
440
 16777216
100
AcDbPoint
 10
324.851062818122
 20
-19.03808947874449
 30
0.0
  0
ENDBLK
  5
5603
330
5601
100
AcDbEntity
  8
0
100
AcDbBlockEnd
  0
BLOCK
  5
5610
330
560F
100
AcDbEntity
  8
0
100
AcDbBlockBegin
  2
*D40
 70
     1
 10
0.0
 20
0.0
 30
0.0
  3
*D40
  1

  0
LINE
  5
5D1A
330
560F
100
AcDbEntity
  8
2寸法線
 62
     0
440
 16777216
370
    -2
100
AcDbLine
 10
329.8510628181221
 20
-28.32958266733243
 30
0.0
 11
329.8510628181221
 21
-23.21027378502134
 31
0.0
  0
LINE
  5
5D1B
330
560F
100
AcDbEntity
  8
2寸法線
 62
     0
440
 16777216
370
    -2
100
AcDbLine
 10
326.851062818122
 20
-28.32958266733425
 30
0.0
 11
326.851062818122
 21
-23.21027378502134
 31
0.0
  0
LINE
  5
5D1C
330
560F
100
AcDbEntity
  8
2寸法線
 62
     0
440
 16777216
370
    -2
100
AcDbLine
 10
325.0510628181221
 20
-24.21027378502135
 30
0.0
 11
323.251062818122
 21
-24.21027378502135
 31
0.0
  0
LINE
  5
5D1D
330
560F
100
AcDbEntity
  8
2寸法線
 62
     0
440
 16777216
370
    -2
100
AcDbLine
 10
331.651062818122
 20
-24.21027378502135
 30
0.0
 11
339.2320151990756
 21
-24.21027378502135
 31
0.0
  0
LINE
  5
5D1E
330
560F
100
AcDbEntity
  8
2寸法線
 62
     0
440
 16777216
370
    -2
100
AcDbLine
 10
326.851062818122
 20
-24.21027378502135
 30
0.0
 11
329.8510628181221
 21
-24.21027378502135
 31
0.0
  0
INSERT
  5
5D1F
330
560F
100
AcDbEntity
  8
2寸法線
 62
     0
440
 16777216
370
    -2
100
AcDbBlockReference
  2
2
 10
326.851062818122
 20
-24.21027378502135
 30
0.0
 41
1.8
 42
1.8
 43
1.8
  0
INSERT
  5
5D20
330
560F
100
AcDbEntity
  8
2寸法線
 62
     0
440
 16777216
370
    -2
100
AcDbBlockReference
  2
2
 10
329.8510628181221
 20
-24.21027378502135
 30
0.0
 41
1.8
 42
1.8
 43
1.8
 50
180.0
  0
MTEXT
  5
5D21
330
560F
100
AcDbEntity
  8
2寸法線
 62
     0
440
 16777216
100
AcDbMText
 10
336.6463009133613
 20
-22.71027378502134
 30
0.0
 40
2.0
 41
0.0
 46
0.0
 71
     5
 72
     1
  1
\A1;（3）
  7
KANJI
 73
     1
 44
1.0
  0
POINT
  5
5D22
330
560F
100
AcDbEntity
  8
DEFPOINTS
 62
     0
440
 16777216
100
AcDbPoint
 10
329.8510628181221
 20
-29.32958266733243
 30
0.0
  0
POINT
  5
5D23
330
560F
100
AcDbEntity
  8
DEFPOINTS
 62
     0
440
 16777216
100
AcDbPoint
 10
326.851062818122
 20
-29.32958266733425
 30
0.0
  0
POINT
  5
5D24
330
560F
100
AcDbEntity
  8
DEFPOINTS
 62
     0
440
 16777216
100
AcDbPoint
 10
326.851062818122
 20
-24.21027378502135
 30
0.0
  0
ENDBLK
  5
5611
330
560F
100
AcDbEntity
  8
0
100
AcDbBlockEnd
  0
BLOCK
  5
561E
330
561D
100
AcDbEntity
  8
0
100
AcDbBlockBegin
  2
*D41
 70
     1
 10
0.0
 20
0.0
 30
0.0
  3
*D41
  1

  0
LINE
  5
5D25
330
561D
100
AcDbEntity
  8
2寸法線
 62
     0
440
 16777216
370
    -2
100
AcDbLine
 10
261.3510628181184
 20
47.46342641424377
 30
0.0
 11
261.3510628181184
 21
21.09851459631244
 31
0.0
  0
LINE
  5
5D26
330
561D
100
AcDbEntity
  8
2寸法線
 62
     0
440
 16777216
370
    -2
100
AcDbLine
 10
388.3510628181221
 20
47.46342641424371
 30
0.0
 11
388.3510628181221
 21
21.09851459631244
 31
0.0
  0
LINE
  5
5D27
330
561D
100
AcDbEntity
  8
2寸法線
 62
     0
440
 16777216
370
    -2
100
AcDbLine
 10
263.1510628181184
 20
22.09851459631244
 30
0.0
 11
386.551062818122
 21
22.09851459631244
 31
0.0
  0
INSERT
  5
5D28
330
561D
100
AcDbEntity
  8
2寸法線
 62
     0
440
 16777216
370
    -2
100
AcDbBlockReference
  2
2
 10
261.3510628181184
 20
22.09851459631244
 30
0.0
 41
1.8
 42
1.8
 43
1.8
 50
180.0
  0
INSERT
  5
5D29
330
561D
100
AcDbEntity
  8
2寸法線
 62
     0
440
 16777216
370
    -2
100
AcDbBlockReference
  2
2
 10
388.3510628181221
 20
22.09851459631244
 30
0.0
 41
1.8
 42
1.8
 43
1.8
  0
MTEXT
  5
5D2A
330
561D
100
AcDbEntity
  8
2寸法線
 62
     0
440
 16777216
100
AcDbMText
 10
324.8510628181202
 20
23.84851459631244
 30
0.0
 40
2.5
 41
0.0
 46
0.0
 71
     5
 72
     1
  1
\A1;（カン合時）127
  7
KANJI
 73
     1
 44
1.0
  0
POINT
  5
5D2B
330
561D
100
AcDbEntity
  8
DEFPOINTS
 62
     0
440
 16777216
100
AcDbPoint
 10
261.3510628181184
 20
48.46342641424377
 30
0.0
  0
POINT
  5
5D2C
330
561D
100
AcDbEntity
  8
DEFPOINTS
 62
     0
440
 16777216
100
AcDbPoint
 10
388.3510628181221
 20
48.46342641424371
 30
0.0
  0
POINT
  5
5D2D
330
561D
100
AcDbEntity
  8
DEFPOINTS
 62
     0
440
 16777216
100
AcDbPoint
 10
388.3510628181221
 20
22.09851459631244
 30
0.0
  0
ENDBLK
  5
561F
330
561D
100
AcDbEntity
  8
0
100
AcDbBlockEnd
  0
BLOCK
  5
562A
330
5629
100
AcDbEntity
  8
0
100
AcDbBlockBegin
  2
*D42
 70
     1
 10
0.0
 20
0.0
 30
0.0
  3
*D42
  1

  0
LINE
  5
5CA4
330
5629
100
AcDbEntity
  8
2寸法線
 62
     0
440
 16777216
370
    -2
100
AcDbLine
 10
523.069748484618
 20
62.8007941549493
 30
0.0
 11
509.4528483114621
 21
72.03443322286137
 31
0.0
  0
MTEXT
  5
5CA5
330
5629
100
AcDbEntity
  8
2寸法線
 62
     0
440
 16777216
100
AcDbMText
 10
519.4505338477076
 20
67.36939245208984
 30
0.0
 40
2.5
 41
0.0
 46
0.0
 71
     5
 72
     1
  1
\A1;R25.5
  7
KANJI
 11
0.8276564825314068
 21
-0.5612350193312416
 31
0.0
 73
     1
 44
1.0
  0
INSERT
  5
5CA6
330
5629
100
AcDbEntity
  8
2寸法線
 62
     0
440
 16777216
370
    -2
100
AcDbBlockReference
  2
2
 10
507.9630666429055
 20
73.04465625765761
 30
0.0
 41
1.8
 42
1.8
 43
1.8
 50
145.8587493442565
  0
POINT
  5
5CA7
330
5629
100
AcDbEntity
  8
DEFPOINTS
 62
     0
440
 16777216
100
AcDbPoint
 10
507.9630666429055
 20
73.04465625765761
 30
0.0
  0
POINT
  5
5CA8
330
5629
100
AcDbEntity
  8
DEFPOINTS
 62
     0
440
 16777216
100
AcDbPoint
 10
529.068306947457
 20
58.73316326471055
 30
0.0
  0
ENDBLK
  5
562B
330
5629
100
AcDbEntity
  8
0
100
AcDbBlockEnd
  0
BLOCK
  5
5632
330
5631
100
AcDbEntity
  8
0
100
AcDbBlockBegin
  2
*D43
 70
     1
 10
0.0
 20
0.0
 30
0.0
  3
*D43
  1

  0
LINE
  5
5CA9
330
5631
100
AcDbEntity
  8
2寸法線
 62
     0
440
 16777216
370
    -2
100
AcDbLine
 10
503.117617548919
 20
33.73316326471968
 30
0.0
 11
503.117617548919
 21
26.24550691630202
 31
0.0
  0
LINE
  5
5CAA
330
5631
100
AcDbEntity
  8
2寸法線
 62
     0
440
 16777216
370
    -2
100
AcDbLine
 10
555.0176175489204
 20
33.73316326471968
 30
0.0
 11
555.0176175489204
 21
26.24550691630202
 31
0.0
  0
LINE
  5
5CAB
330
5631
100
AcDbEntity
  8
2寸法線
 62
     0
440
 16777216
370
    -2
100
AcDbLine
 10
504.917617548919
 20
27.24550691630202
 30
0.0
 11
553.2176175489205
 21
27.24550691630202
 31
0.0
  0
INSERT
  5
5CAC
330
5631
100
AcDbEntity
  8
2寸法線
 62
     0
440
 16777216
370
    -2
100
AcDbBlockReference
  2
2
 10
503.117617548919
 20
27.24550691630202
 30
0.0
 41
1.8
 42
1.8
 43
1.8
 50
180.0
  0
INSERT
  5
5CAD
330
5631
100
AcDbEntity
  8
2寸法線
 62
     0
440
 16777216
370
    -2
100
AcDbBlockReference
  2
2
 10
555.0176175489204
 20
27.24550691630202
 30
0.0
 41
1.8
 42
1.8
 43
1.8
  0
MTEXT
  5
5CAE
330
5631
100
AcDbEntity
  8
2寸法線
 62
     0
440
 16777216
100
AcDbMText
 10
529.0676175489197
 20
28.99550691630202
 30
0.0
 40
2.5
 41
0.0
 46
0.0
 71
     5
 72
     1
  1
\A1;（カン合時）51.9
  7
KANJI
 73
     1
 44
1.0
  0
POINT
  5
5CAF
330
5631
100
AcDbEntity
  8
DEFPOINTS
 62
     0
440
 16777216
100
AcDbPoint
 10
503.117617548919
 20
34.73316326471968
 30
0.0
  0
POINT
  5
5CB0
330
5631
100
AcDbEntity
  8
DEFPOINTS
 62
     0
440
 16777216
100
AcDbPoint
 10
555.0176175489204
 20
34.73316326471968
 30
0.0
  0
POINT
  5
5CB1
330
5631
100
AcDbEntity
  8
DEFPOINTS
 62
     0
440
 16777216
100
AcDbPoint
 10
555.0176175489204
 20
27.24550691630202
 30
0.0
  0
ENDBLK
  5
5633
330
5631
100
AcDbEntity
  8
0
100
AcDbBlockEnd
  0
BLOCK
  5
56E4
330
56E3
100
AcDbEntity
  8
0
100
AcDbBlockBegin
  2
B右
 70
     0
 10
0.0
 20
0.0
 30
0.0
  3
B右
  1

  0
MTEXT
  5
56E5
330
56E3
100
AcDbEntity
  8
2寸法線
 48
3.0
100
AcDbMText
 10
-7.737989237481997
 20
6.217508678674221
 30
0.0
 40
4.0
 41
5.411699999999999
 46
0.0
 71
     1
 72
     5
  1
\fSwis721 BlkOul BT|b0|i0|c0|p82;B
  7
KANJI
 73
     1
 44
1.0
  0
LINE
  5
56E6
330
56E3
100
AcDbEntity
  8
2寸法線
 62
     1
100
AcDbLine
 10
-4.0
 20
2.0
 30
0.0
 11
0.0
 21
0.0
 31
0.0
  0
LINE
  5
56E7
330
56E3
100
AcDbEntity
  8
2寸法線
 62
     1
100
AcDbLine
 10
0.0
 20
0.0
 30
0.0
 11
-4.0
 21
-2.0
 31
0.0
  0
LINE
  5
56E8
330
56E3
100
AcDbEntity
  8
2寸法線
 62
     1
100
AcDbLine
 10
-4.0
 20
-1.0
 30
0.0
 11
-4.0
 21
-2.0
 31
0.0
  0
LINE
  5
56E9
330
56E3
100
AcDbEntity
  8
2寸法線
 62
     1
100
AcDbLine
 10
-4.0
 20
1.0
 30
0.0
 11
-8.0
 21
1.0
 31
0.0
  0
LINE
  5
56EA
330
56E3
100
AcDbEntity
  8
2寸法線
 62
     1
100
AcDbLine
 10
-4.0
 20
-1.0
 30
0.0
 11
-8.0
 21
-1.0
 31
0.0
  0
LINE
  5
56EB
330
56E3
100
AcDbEntity
  8
2寸法線
 62
     1
100
AcDbLine
 10
-8.0
 20
1.0
 30
0.0
 11
-8.0
 21
-1.0
 31
0.0
  0
LINE
  5
56EC
330
56E3
100
AcDbEntity
  8
2寸法線
 62
     1
100
AcDbLine
 10
-4.0
 20
2.0
 30
0.0
 11
-4.0
 21
1.0
 31
0.0
  0
LINE
  5
56ED
330
56E3
100
AcDbEntity
  8
2寸法線
 62
     1
100
AcDbLine
 10
0.0
 20
1.0
 30
0.0
 11
0.0
 21
-1.0
 31
0.0
  0
ENDBLK
  5
56EE
330
56E3
100
AcDbEntity
  8
0
100
AcDbBlockEnd
  0
BLOCK
  5
56F0
330
56EF
100
AcDbEntity
  8
0
100
AcDbBlockBegin
  2
Bダッシュ右
 70
     0
 10
0.0
 20
0.0
 30
0.0
  3
Bダッシュ右
  1

  0
LINE
  5
56F1
330
56EF
100
AcDbEntity
  8
2寸法線
 62
     1
100
AcDbLine
 10
0.0
 20
0.0
 30
0.0
 11
-4.0
 21
2.0
 31
0.0
  0
LINE
  5
56F2
330
56EF
100
AcDbEntity
  8
2寸法線
 62
     1
100
AcDbLine
 10
-4.0
 20
1.0
 30
0.0
 11
-4.0
 21
2.0
 31
0.0
  0
LINE
  5
56F3
330
56EF
100
AcDbEntity
  8
2寸法線
 62
     1
100
AcDbLine
 10
-4.0
 20
-2.0
 30
0.0
 11
0.0
 21
0.0
 31
0.0
  0
MTEXT
  5
56F4
330
56EF
100
AcDbEntity
  8
2寸法線
 48
3.0
100
AcDbMText
 10
-7.832149688662411
 20
-2.168280377615474
 30
0.0
 40
4.0
 41
9.252299999999999
 46
0.0
 71
     1
 72
     5
  1
\fSwis721 BlkOul BT|b0|i0|c0|p82;B'
  7
KANJI
 73
     1
 44
1.0
  0
LINE
  5
56F5
330
56EF
100
AcDbEntity
  8
2寸法線
 62
     1
100
AcDbLine
 10
-4.0
 20
-1.0
 30
0.0
 11
-8.0
 21
-1.0
 31
0.0
  0
LINE
  5
56F6
330
56EF
100
AcDbEntity
  8
2寸法線
 62
     1
100
AcDbLine
 10
-4.0
 20
1.0
 30
0.0
 11
-8.0
 21
1.0
 31
0.0
  0
LINE
  5
56F7
330
56EF
100
AcDbEntity
  8
2寸法線
 62
     1
100
AcDbLine
 10
-8.0
 20
-1.0
 30
0.0
 11
-8.0
 21
1.0
 31
0.0
  0
LINE
  5
56F8
330
56EF
100
AcDbEntity
  8
2寸法線
 62
     1
100
AcDbLine
 10
-4.0
 20
-2.0
 30
0.0
 11
-4.0
 21
-1.0
 31
0.0
  0
LINE
  5
56F9
330
56EF
100
AcDbEntity
  8
2寸法線
 62
     1
100
AcDbLine
 10
0.0
 20
-1.0
 30
0.0
 11
0.0
 21
1.0
 31
0.0
  0
ENDBLK
  5
56FA
330
56EF
100
AcDbEntity
  8
0
100
AcDbBlockEnd
  0
BLOCK
  5
56FC
330
56FB
100
AcDbEntity
  8
0
100
AcDbBlockBegin
  2
C右
 70
     0
 10
0.0
 20
0.0
 30
0.0
  3
C右
  1

  0
MTEXT
  5
56FD
330
56FB
100
AcDbEntity
  8
2寸法線
 48
3.0
100
AcDbMText
 10
-8.089194891153056
 20
6.217508678674221
 30
0.0
 40
4.0
 41
5.411699999999999
 46
0.0
 71
     1
 72
     5
  1
\fSwis721 BlkOul BT|b0|i0|c0|p82;C
  7
KANJI
 73
     1
 44
1.0
  0
LINE
  5
56FE
330
56FB
100
AcDbEntity
  8
2寸法線
 62
     1
100
AcDbLine
 10
-4.0
 20
2.0
 30
0.0
 11
0.0
 21
0.0
 31
0.0
  0
LINE
  5
56FF
330
56FB
100
AcDbEntity
  8
2寸法線
 62
     1
100
AcDbLine
 10
0.0
 20
0.0
 30
0.0
 11
-4.0
 21
-2.0
 31
0.0
  0
LINE
  5
5700
330
56FB
100
AcDbEntity
  8
2寸法線
 62
     1
100
AcDbLine
 10
-4.0
 20
-1.0
 30
0.0
 11
-4.0
 21
-2.0
 31
0.0
  0
LINE
  5
5701
330
56FB
100
AcDbEntity
  8
2寸法線
 62
     1
100
AcDbLine
 10
-4.0
 20
1.0
 30
0.0
 11
-8.0
 21
1.0
 31
0.0
  0
LINE
  5
5702
330
56FB
100
AcDbEntity
  8
2寸法線
 62
     1
100
AcDbLine
 10
-4.0
 20
-1.0
 30
0.0
 11
-8.0
 21
-1.0
 31
0.0
  0
LINE
  5
5703
330
56FB
100
AcDbEntity
  8
2寸法線
 62
     1
100
AcDbLine
 10
-8.0
 20
1.0
 30
0.0
 11
-8.0
 21
-1.0
 31
0.0
  0
LINE
  5
5704
330
56FB
100
AcDbEntity
  8
2寸法線
 62
     1
100
AcDbLine
 10
-4.0
 20
2.0
 30
0.0
 11
-4.0
 21
1.0
 31
0.0
  0
LINE
  5
5705
330
56FB
100
AcDbEntity
  8
2寸法線
 62
     1
100
AcDbLine
 10
0.0
 20
1.0
 30
0.0
 11
0.0
 21
-1.0
 31
0.0
  0
ENDBLK
  5
5706
330
56FB
100
AcDbEntity
  8
0
100
AcDbBlockEnd
  0
BLOCK
  5
5708
330
5707
100
AcDbEntity
  8
0
100
AcDbBlockBegin
  2
Cダッシュ右
 70
     0
 10
0.0
 20
0.0
 30
0.0
  3
Cダッシュ右
  1

  0
LINE
  5
5709
330
5707
100
AcDbEntity
  8
2寸法線
 62
     1
100
AcDbLine
 10
0.0
 20
0.0
 30
0.0
 11
-4.0
 21
2.0
 31
0.0
  0
LINE
  5
570A
330
5707
100
AcDbEntity
  8
2寸法線
 62
     1
100
AcDbLine
 10
-4.0
 20
1.0
 30
0.0
 11
-4.0
 21
2.0
 31
0.0
  0
LINE
  5
570B
330
5707
100
AcDbEntity
  8
2寸法線
 62
     1
100
AcDbLine
 10
-4.0
 20
-2.0
 30
0.0
 11
0.0
 21
0.0
 31
0.0
  0
MTEXT
  5
570C
330
5707
100
AcDbEntity
  8
2寸法線
 48
3.0
100
AcDbMText
 10
-8.144332055759605
 20
-2.168280377615474
 30
0.0
 40
4.0
 41
9.252299999999999
 46
0.0
 71
     1
 72
     5
  1
\fSwis721 BlkOul BT|b0|i0|c0|p82;C'
  7
KANJI
 73
     1
 44
1.0
  0
LINE
  5
570D
330
5707
100
AcDbEntity
  8
2寸法線
 62
     1
100
AcDbLine
 10
-4.0
 20
-1.0
 30
0.0
 11
-8.0
 21
-1.0
 31
0.0
  0
LINE
  5
570E
330
5707
100
AcDbEntity
  8
2寸法線
 62
     1
100
AcDbLine
 10
-4.0
 20
1.0
 30
0.0
 11
-8.0
 21
1.0
 31
0.0
  0
LINE
  5
570F
330
5707
100
AcDbEntity
  8
2寸法線
 62
     1
100
AcDbLine
 10
-8.0
 20
-1.0
 30
0.0
 11
-8.0
 21
1.0
 31
0.0
  0
LINE
  5
5710
330
5707
100
AcDbEntity
  8
2寸法線
 62
     1
100
AcDbLine
 10
-4.0
 20
-2.0
 30
0.0
 11
-4.0
 21
-1.0
 31
0.0
  0
LINE
  5
5711
330
5707
100
AcDbEntity
  8
2寸法線
 62
     1
100
AcDbLine
 10
0.0
 20
-1.0
 30
0.0
 11
0.0
 21
1.0
 31
0.0
  0
ENDBLK
  5
5712
330
5707
100
AcDbEntity
  8
0
100
AcDbBlockEnd
  0
BLOCK
  5
5714
330
5713
100
AcDbEntity
  8
0
100
AcDbBlockBegin
  2
*D48
 70
     1
 10
0.0
 20
0.0
 30
0.0
  3
*D48
  1

  0
LINE
  5
5715
330
5713
100
AcDbEntity
  8
2寸法線
 62
     0
440
 16777216
370
    -2
100
AcDbLine
 10
1583.800166572124
 20
-9936.166019324284
 30
0.0
 11
1583.800166572124
 21
-9948.504690521087
 31
0.0
  0
LINE
  5
5716
330
5713
100
AcDbEntity
  8
2寸法線
 62
     0
440
 16777216
370
    -2
100
AcDbLine
 10
1580.800190094322
 20
-9937.063047096669
 30
0.0
 11
1580.800190094322
 21
-9948.504690521087
 31
0.0
  0
LINE
  5
5717
330
5713
100
AcDbEntity
  8
2寸法線
 62
     0
440
 16777216
370
    -2
100
AcDbLine
 10
1579.000190094322
 20
-9947.504690521085
 30
0.0
 11
1577.200190094322
 21
-9947.504690521085
 31
0.0
  0
LINE
  5
5718
330
5713
100
AcDbEntity
  8
2寸法線
 62
     0
440
 16777216
370
    -2
100
AcDbLine
 10
1585.600166572124
 20
-9947.504690521085
 30
0.0
 11
1593.7906427626
 21
-9947.504690521085
 31
0.0
  0
LINE
  5
5719
330
5713
100
AcDbEntity
  8
2寸法線
 62
     0
440
 16777216
370
    -2
100
AcDbLine
 10
1580.800190094322
 20
-9947.504690521085
 30
0.0
 11
1583.800166572124
 21
-9947.504690521085
 31
0.0
  0
INSERT
  5
571A
330
5713
100
AcDbEntity
  8
2寸法線
 62
     0
440
 16777216
370
    -2
100
AcDbBlockReference
  2
3
 10
1580.800190094322
 20
-9947.504690521085
 30
0.0
 41
1.8
 42
1.8
 43
1.8
  0
INSERT
  5
571B
330
5713
100
AcDbEntity
  8
2寸法線
 62
     0
440
 16777216
370
    -2
100
AcDbBlockReference
  2
2
 10
1583.800166572124
 20
-9947.504690521085
 30
0.0
 41
1.8
 42
1.8
 43
1.8
 50
180.0
  0
MTEXT
  5
571C
330
5713
100
AcDbEntity
  8
2寸法線
 62
     0
440
 16777216
100
AcDbMText
 10
1590.595404667362
 20
-9946.004690521085
 30
0.0
 40
2.0
 41
0.0
 46
0.0
 71
     5
 72
     1
  1
\A1;（3）
  7
KANJI
 73
     1
 44
1.0
  0
POINT
  5
571D
330
5713
100
AcDbEntity
  8
DEFPOINTS
 62
     0
440
 16777216
100
AcDbPoint
 10
1583.800166572124
 20
-9935.166019324285
 30
0.0
  0
POINT
  5
571E
330
5713
100
AcDbEntity
  8
DEFPOINTS
 62
     0
440
 16777216
100
AcDbPoint
 10
1580.800190094322
 20
-9936.063047096668
 30
0.0
  0
POINT
  5
571F
330
5713
100
AcDbEntity
  8
DEFPOINTS
 62
     0
440
 16777216
100
AcDbPoint
 10
1580.800190094322
 20
-9947.504690521085
 30
0.0
  0
ENDBLK
  5
5720
330
5713
100
AcDbEntity
  8
0
100
AcDbBlockEnd
  0
BLOCK
  5
5722
330
5721
100
AcDbEntity
  8
0
100
AcDbBlockBegin
  2
*D49
 70
     1
 10
0.0
 20
0.0
 30
0.0
  3
*D49
  1

  0
LINE
  5
5723
330
5721
100
AcDbEntity
  8
2寸法線
 62
     0
440
 16777216
370
    -2
100
AcDbLine
 10
1578.800166572124
 20
-9938.300054438355
 30
0.0
 11
1578.800166572124
 21
-9948.504690521088
 31
0.0
  0
LINE
  5
5724
330
5721
100
AcDbEntity
  8
2寸法線
 62
     0
440
 16777216
370
    -2
100
AcDbLine
 10
1580.800190094322
 20
-9937.063047096669
 30
0.0
 11
1580.800190094322
 21
-9948.504690521088
 31
0.0
  0
LINE
  5
5725
330
5721
100
AcDbEntity
  8
2寸法線
 62
     0
440
 16777216
370
    -2
100
AcDbLine
 10
1582.600190094322
 20
-9947.504690521087
 30
0.0
 11
1584.400190094322
 21
-9947.504690521087
 31
0.0
  0
LINE
  5
5726
330
5721
100
AcDbEntity
  8
2寸法線
 62
     0
440
 16777216
370
    -2
100
AcDbLine
 10
1577.000166572124
 20
-9947.504690521087
 30
0.0
 11
1562.967210846972
 21
-9947.504690521087
 31
0.0
  0
LINE
  5
5727
330
5721
100
AcDbEntity
  8
2寸法線
 62
     0
440
 16777216
370
    -2
100
AcDbLine
 10
1580.800190094322
 20
-9947.504690521087
 30
0.0
 11
1578.800166572124
 21
-9947.504690521087
 31
0.0
  0
INSERT
  5
5728
330
5721
100
AcDbEntity
  8
2寸法線
 62
     0
440
 16777216
370
    -2
100
AcDbBlockReference
  2
3
 10
1580.800190094322
 20
-9947.504690521087
 30
0.0
 41
1.8
 42
1.8
 43
1.8
 50
180.0
  0
INSERT
  5
5729
330
5721
100
AcDbEntity
  8
2寸法線
 62
     0
440
 16777216
370
    -2
100
AcDbBlockReference
  2
2
 10
1578.800166572124
 20
-9947.504690521087
 30
0.0
 41
1.8
 42
1.8
 43
1.8
  0
MTEXT
  5
572A
330
5721
100
AcDbEntity
  8
2寸法線
 62
     0
440
 16777216
100
AcDbMText
 10
1566.16244894221
 20
-9946.004690521087
 30
0.0
 40
2.0
 41
0.0
 46
0.0
 71
     5
 72
     1
  1
\A1;（2）
  7
KANJI
 73
     1
 44
1.0
  0
POINT
  5
572B
330
5721
100
AcDbEntity
  8
DEFPOINTS
 62
     0
440
 16777216
100
AcDbPoint
 10
1578.800166572124
 20
-9937.300054438354
 30
0.0
  0
POINT
  5
572C
330
5721
100
AcDbEntity
  8
DEFPOINTS
 62
     0
440
 16777216
100
AcDbPoint
 10
1580.800190094322
 20
-9936.063047096668
 30
0.0
  0
POINT
  5
572D
330
5721
100
AcDbEntity
  8
DEFPOINTS
 62
     0
440
 16777216
100
AcDbPoint
 10
1580.800190094322
 20
-9947.504690521087
 30
0.0
  0
ENDBLK
  5
572E
330
5721
100
AcDbEntity
  8
0
100
AcDbBlockEnd
  0
BLOCK
  5
5730
330
572F
100
AcDbEntity
  8
0
100
AcDbBlockBegin
  2
*D50
 70
     1
 10
0.0
 20
0.0
 30
0.0
  3
*D50
  1

  0
LINE
  5
5731
330
572F
100
AcDbEntity
  8
2寸法線
 62
     0
440
 16777216
370
    -2
100
AcDbLine
 10
1578.800166572124
 20
-9918.005186591022
 30
0.0
 11
1578.800166572124
 21
-9909.89397671151
 31
0.0
  0
LINE
  5
5732
330
572F
100
AcDbEntity
  8
2寸法線
 62
     0
440
 16777216
370
    -2
100
AcDbLine
 10
1575.800166572124
 20
-9918.005186591022
 30
0.0
 11
1575.800166572124
 21
-9909.89397671151
 31
0.0
  0
LINE
  5
5733
330
572F
100
AcDbEntity
  8
2寸法線
 62
     0
440
 16777216
370
    -2
100
AcDbLine
 10
1574.000166572124
 20
-9910.893976711511
 30
0.0
 11
1572.200166572124
 21
-9910.893976711511
 31
0.0
  0
LINE
  5
5734
330
572F
100
AcDbEntity
  8
2寸法線
 62
     0
440
 16777216
370
    -2
100
AcDbLine
 10
1580.600166572124
 20
-9910.893976711511
 30
0.0
 11
1588.7906427626
 21
-9910.893976711511
 31
0.0
  0
LINE
  5
5735
330
572F
100
AcDbEntity
  8
2寸法線
 62
     0
440
 16777216
370
    -2
100
AcDbLine
 10
1575.800166572124
 20
-9910.893976711511
 30
0.0
 11
1578.800166572124
 21
-9910.893976711511
 31
0.0
  0
INSERT
  5
5736
330
572F
100
AcDbEntity
  8
2寸法線
 62
     0
440
 16777216
370
    -2
100
AcDbBlockReference
  2
3
 10
1575.800166572124
 20
-9910.893976711511
 30
0.0
 41
1.8
 42
1.8
 43
1.8
  0
INSERT
  5
5737
330
572F
100
AcDbEntity
  8
2寸法線
 62
     0
440
 16777216
370
    -2
100
AcDbBlockReference
  2
2
 10
1578.800166572124
 20
-9910.893976711511
 30
0.0
 41
1.8
 42
1.8
 43
1.8
 50
180.0
  0
MTEXT
  5
5738
330
572F
100
AcDbEntity
  8
2寸法線
 62
     0
440
 16777216
100
AcDbMText
 10
1585.595404667362
 20
-9909.393976711511
 30
0.0
 40
2.0
 41
0.0
 46
0.0
 71
     5
 72
     1
  1
\A1;（3）
  7
KANJI
 73
     1
 44
1.0
  0
POINT
  5
5739
330
572F
100
AcDbEntity
  8
DEFPOINTS
 62
     0
440
 16777216
100
AcDbPoint
 10
1578.800166572124
 20
-9919.005186591022
 30
0.0
  0
POINT
  5
573A
330
572F
100
AcDbEntity
  8
DEFPOINTS
 62
     0
440
 16777216
100
AcDbPoint
 10
1575.800166572124
 20
-9919.005186591022
 30
0.0
  0
POINT
  5
573B
330
572F
100
AcDbEntity
  8
DEFPOINTS
 62
     0
440
 16777216
100
AcDbPoint
 10
1575.800166572124
 20
-9910.893976711511
 30
0.0
  0
ENDBLK
  5
573C
330
572F
100
AcDbEntity
  8
0
100
AcDbBlockEnd
  0
BLOCK
  5
573E
330
573D
100
AcDbEntity
  8
0
100
AcDbBlockBegin
  2
*D51
 70
     1
 10
0.0
 20
0.0
 30
0.0
  3
*D51
  1

  0
LINE
  5
573F
330
573D
100
AcDbEntity
  8
2寸法線
 62
     0
440
 16777216
370
    -2
100
AcDbLine
 10
1572.800166572122
 20
-9912.652620514688
 30
0.0
 11
1572.800166572122
 21
-9909.89397671151
 31
0.0
  0
LINE
  5
5740
330
573D
100
AcDbEntity
  8
2寸法線
 62
     0
440
 16777216
370
    -2
100
AcDbLine
 10
1575.800166572124
 20
-9918.005186591022
 30
0.0
 11
1575.800166572124
 21
-9909.89397671151
 31
0.0
  0
LINE
  5
5741
330
573D
100
AcDbEntity
  8
2寸法線
 62
     0
440
 16777216
370
    -2
100
AcDbLine
 10
1577.600166572124
 20
-9910.893976711511
 30
0.0
 11
1579.400166572124
 21
-9910.893976711511
 31
0.0
  0
LINE
  5
5742
330
573D
100
AcDbEntity
  8
2寸法線
 62
     0
440
 16777216
370
    -2
100
AcDbLine
 10
1571.000166572122
 20
-9910.893976711511
 30
0.0
 11
1562.809690381646
 21
-9910.893976711511
 31
0.0
  0
LINE
  5
5743
330
573D
100
AcDbEntity
  8
2寸法線
 62
     0
440
 16777216
370
    -2
100
AcDbLine
 10
1575.800166572124
 20
-9910.893976711511
 30
0.0
 11
1572.800166572122
 21
-9910.893976711511
 31
0.0
  0
INSERT
  5
5744
330
573D
100
AcDbEntity
  8
2寸法線
 62
     0
440
 16777216
370
    -2
100
AcDbBlockReference
  2
3
 10
1575.800166572124
 20
-9910.893976711511
 30
0.0
 41
1.8
 42
1.8
 43
1.8
 50
180.0
  0
INSERT
  5
5745
330
573D
100
AcDbEntity
  8
2寸法線
 62
     0
440
 16777216
370
    -2
100
AcDbBlockReference
  2
2
 10
1572.800166572122
 20
-9910.893976711511
 30
0.0
 41
1.8
 42
1.8
 43
1.8
  0
MTEXT
  5
5746
330
573D
100
AcDbEntity
  8
2寸法線
 62
     0
440
 16777216
100
AcDbMText
 10
1566.004928476884
 20
-9909.393976711511
 30
0.0
 40
2.0
 41
0.0
 46
0.0
 71
     5
 72
     1
  1
\A1;（3）
  7
KANJI
 73
     1
 44
1.0
  0
POINT
  5
5747
330
573D
100
AcDbEntity
  8
DEFPOINTS
 62
     0
440
 16777216
100
AcDbPoint
 10
1572.800166572122
 20
-9913.652620514689
 30
0.0
  0
POINT
  5
5748
330
573D
100
AcDbEntity
  8
DEFPOINTS
 62
     0
440
 16777216
100
AcDbPoint
 10
1575.800166572124
 20
-9919.005186591022
 30
0.0
  0
POINT
  5
5749
330
573D
100
AcDbEntity
  8
DEFPOINTS
 62
     0
440
 16777216
100
AcDbPoint
 10
1575.800166572124
 20
-9910.893976711511
 30
0.0
  0
ENDBLK
  5
574A
330
573D
100
AcDbEntity
  8
0
100
AcDbBlockEnd
  0
BLOCK
  5
574C
330
574B
100
AcDbEntity
  8
0
100
AcDbBlockBegin
  2
*D52
 70
     1
 10
0.0
 20
0.0
 30
0.0
  3
*D52
  1

  0
LINE
  5
574D
330
574B
100
AcDbEntity
  8
2寸法線
 62
     0
440
 16777216
370
    -2
100
AcDbLine
 10
1655.795491119113
 20
-9938.329650430482
 30
0.0
 11
1655.795491119113
 21
-9940.188023856434
 31
0.0
  0
LINE
  5
574E
330
574B
100
AcDbEntity
  8
2寸法線
 62
     0
440
 16777216
370
    -2
100
AcDbLine
 10
1658.795490728511
 20
-9938.331181319263
 30
0.0
 11
1658.795490728511
 21
-9940.188023856434
 31
0.0
  0
LINE
  5
574F
330
574B
100
AcDbEntity
  8
2寸法線
 62
     0
440
 16777216
370
    -2
100
AcDbLine
 10
1660.595490728511
 20
-9939.188023856434
 30
0.0
 11
1662.395490728511
 21
-9939.188023856434
 31
0.0
  0
LINE
  5
5750
330
574B
100
AcDbEntity
  8
2寸法線
 62
     0
440
 16777216
370
    -2
100
AcDbLine
 10
1653.995491119114
 20
-9939.188023856434
 30
0.0
 11
1645.805014928637
 21
-9939.188023856434
 31
0.0
  0
LINE
  5
5751
330
574B
100
AcDbEntity
  8
2寸法線
 62
     0
440
 16777216
370
    -2
100
AcDbLine
 10
1658.795490728511
 20
-9939.188023856434
 30
0.0
 11
1655.795491119113
 21
-9939.188023856434
 31
0.0
  0
INSERT
  5
5752
330
574B
100
AcDbEntity
  8
2寸法線
 62
     0
440
 16777216
370
    -2
100
AcDbBlockReference
  2
3
 10
1658.795490728511
 20
-9939.188023856434
 30
0.0
 41
1.8
 42
1.8
 43
1.8
 50
180.0
  0
INSERT
  5
5753
330
574B
100
AcDbEntity
  8
2寸法線
 62
     0
440
 16777216
370
    -2
100
AcDbBlockReference
  2
2
 10
1655.795491119113
 20
-9939.188023856434
 30
0.0
 41
1.8
 42
1.8
 43
1.8
  0
MTEXT
  5
5754
330
574B
100
AcDbEntity
  8
2寸法線
 62
     0
440
 16777216
100
AcDbMText
 10
1649.000253023875
 20
-9937.688023856434
 30
0.0
 40
2.0
 41
0.0
 46
0.0
 71
     5
 72
     1
  1
\A1;（3）
  7
KANJI
 73
     1
 44
1.0
  0
POINT
  5
5755
330
574B
100
AcDbEntity
  8
DEFPOINTS
 62
     0
440
 16777216
100
AcDbPoint
 10
1655.795491119113
 20
-9937.329650430482
 30
0.0
  0
POINT
  5
5756
330
574B
100
AcDbEntity
  8
DEFPOINTS
 62
     0
440
 16777216
100
AcDbPoint
 10
1658.795490728511
 20
-9937.331181319263
 30
0.0
  0
POINT
  5
5757
330
574B
100
AcDbEntity
  8
DEFPOINTS
 62
     0
440
 16777216
100
AcDbPoint
 10
1658.795490728511
 20
-9939.188023856434
 30
0.0
  0
ENDBLK
  5
5758
330
574B
100
AcDbEntity
  8
0
100
AcDbBlockEnd
  0
BLOCK
  5
575A
330
5759
100
AcDbEntity
  8
0
100
AcDbBlockBegin
  2
*D53
 70
     1
 10
0.0
 20
0.0
 30
0.0
  3
*D53
  1

  0
LINE
  5
575B
330
5759
100
AcDbEntity
  8
2寸法線
 62
     0
440
 16777216
370
    -2
100
AcDbLine
 10
1660.803235901739
 20
-9935.152620514685
 30
0.0
 11
1660.803235901739
 21
-9940.188023856434
 31
0.0
  0
LINE
  5
575C
330
5759
100
AcDbEntity
  8
2寸法線
 62
     0
440
 16777216
370
    -2
100
AcDbLine
 10
1658.795490728511
 20
-9938.331181319263
 30
0.0
 11
1658.795490728511
 21
-9940.188023856434
 31
0.0
  0
LINE
  5
575D
330
5759
100
AcDbEntity
  8
2寸法線
 62
     0
440
 16777216
370
    -2
100
AcDbLine
 10
1656.995490728511
 20
-9939.188023856434
 30
0.0
 11
1655.195490728511
 21
-9939.188023856434
 31
0.0
  0
LINE
  5
575E
330
5759
100
AcDbEntity
  8
2寸法線
 62
     0
440
 16777216
370
    -2
100
AcDbLine
 10
1662.603235901739
 20
-9939.188023856434
 30
0.0
 11
1672.334441364113
 21
-9939.188023856434
 31
0.0
  0
LINE
  5
575F
330
5759
100
AcDbEntity
  8
2寸法線
 62
     0
440
 16777216
370
    -2
100
AcDbLine
 10
1658.795490728511
 20
-9939.188023856434
 30
0.0
 11
1660.803235901739
 21
-9939.188023856434
 31
0.0
  0
INSERT
  5
5760
330
5759
100
AcDbEntity
  8
2寸法線
 62
     0
440
 16777216
370
    -2
100
AcDbBlockReference
  2
3
 10
1658.795490728511
 20
-9939.188023856434
 30
0.0
 41
1.8
 42
1.8
 43
1.8
  0
INSERT
  5
5761
330
5759
100
AcDbEntity
  8
2寸法線
 62
     0
440
 16777216
370
    -2
100
AcDbBlockReference
  2
2
 10
1660.803235901739
 20
-9939.188023856434
 30
0.0
 41
1.8
 42
1.8
 43
1.8
 50
180.0
  0
MTEXT
  5
5762
330
5759
100
AcDbEntity
  8
2寸法線
 62
     0
440
 16777216
100
AcDbMText
 10
1669.139203268874
 20
-9937.688023856434
 30
0.0
 40
2.0
 41
0.0
 46
0.0
 71
     5
 72
     1
  1
\A1;（2）
  7
KANJI
 73
     1
 44
1.0
  0
POINT
  5
5763
330
5759
100
AcDbEntity
  8
DEFPOINTS
 62
     0
440
 16777216
100
AcDbPoint
 10
1660.803235901739
 20
-9934.152620514684
 30
0.0
  0
POINT
  5
5764
330
5759
100
AcDbEntity
  8
DEFPOINTS
 62
     0
440
 16777216
100
AcDbPoint
 10
1658.795490728511
 20
-9937.331181319263
 30
0.0
  0
POINT
  5
5765
330
5759
100
AcDbEntity
  8
DEFPOINTS
 62
     0
440
 16777216
100
AcDbPoint
 10
1658.795490728511
 20
-9939.188023856434
 30
0.0
  0
ENDBLK
  5
5766
330
5759
100
AcDbEntity
  8
0
100
AcDbBlockEnd
  0
BLOCK
  5
5768
330
5767
100
AcDbEntity
  8
0
100
AcDbBlockBegin
  2
*D54
 70
     1
 10
0.0
 20
0.0
 30
0.0
  3
*D54
  1

  0
LINE
  5
5769
330
5767
100
AcDbEntity
  8
2寸法線
 62
     0
440
 16777216
370
    -2
100
AcDbLine
 10
1660.803235901739
 20
-9921.152620514684
 30
0.0
 11
1660.803235901739
 21
-9909.267873245511
 31
0.0
  0
LINE
  5
576A
330
5767
100
AcDbEntity
  8
2寸法線
 62
     0
440
 16777216
370
    -2
100
AcDbLine
 10
1662.803236292344
 20
-9921.152620514684
 30
0.0
 11
1662.803236292344
 21
-9909.267873245511
 31
0.0
  0
LINE
  5
576B
330
5767
100
AcDbEntity
  8
2寸法線
 62
     0
440
 16777216
370
    -2
100
AcDbLine
 10
1664.603236292344
 20
-9910.26787324551
 30
0.0
 11
1666.403236292344
 21
-9910.26787324551
 31
0.0
  0
LINE
  5
576C
330
5767
100
AcDbEntity
  8
2寸法線
 62
     0
440
 16777216
370
    -2
100
AcDbLine
 10
1659.00323590174
 20
-9910.26787324551
 30
0.0
 11
1650.812759711263
 21
-9910.26787324551
 31
0.0
  0
LINE
  5
576D
330
5767
100
AcDbEntity
  8
2寸法線
 62
     0
440
 16777216
370
    -2
100
AcDbLine
 10
1662.803236292344
 20
-9910.26787324551
 30
0.0
 11
1660.803235901739
 21
-9910.26787324551
 31
0.0
  0
INSERT
  5
576E
330
5767
100
AcDbEntity
  8
2寸法線
 62
     0
440
 16777216
370
    -2
100
AcDbBlockReference
  2
3
 10
1662.803236292344
 20
-9910.26787324551
 30
0.0
 41
1.8
 42
1.8
 43
1.8
 50
180.0
  0
INSERT
  5
576F
330
5767
100
AcDbEntity
  8
2寸法線
 62
     0
440
 16777216
370
    -2
100
AcDbBlockReference
  2
2
 10
1660.803235901739
 20
-9910.26787324551
 30
0.0
 41
1.8
 42
1.8
 43
1.8
  0
MTEXT
  5
5770
330
5767
100
AcDbEntity
  8
2寸法線
 62
     0
440
 16777216
100
AcDbMText
 10
1654.007997806501
 20
-9908.76787324551
 30
0.0
 40
2.0
 41
0.0
 46
0.0
 71
     5
 72
     1
  1
\A1;（2）
  7
KANJI
 73
     1
 44
1.0
  0
POINT
  5
5771
330
5767
100
AcDbEntity
  8
DEFPOINTS
 62
     0
440
 16777216
100
AcDbPoint
 10
1660.803235901739
 20
-9922.152620514685
 30
0.0
  0
POINT
  5
5772
330
5767
100
AcDbEntity
  8
DEFPOINTS
 62
     0
440
 16777216
100
AcDbPoint
 10
1662.803236292344
 20
-9922.152620514685
 30
0.0
  0
POINT
  5
5773
330
5767
100
AcDbEntity
  8
DEFPOINTS
 62
     0
440
 16777216
100
AcDbPoint
 10
1662.803236292344
 20
-9910.26787324551
 30
0.0
  0
ENDBLK
  5
5774
330
5767
100
AcDbEntity
  8
0
100
AcDbBlockEnd
  0
BLOCK
  5
5776
330
5775
100
AcDbEntity
  8
0
100
AcDbBlockBegin
  2
*D55
 70
     1
 10
0.0
 20
0.0
 30
0.0
  3
*D55
  1

  0
LINE
  5
5777
330
5775
100
AcDbEntity
  8
2寸法線
 62
     0
440
 16777216
370
    -2
100
AcDbLine
 10
1665.800166572118
 20
-9912.652620514684
 30
0.0
 11
1665.800166572118
 21
-9909.267873245511
 31
0.0
  0
LINE
  5
5778
330
5775
100
AcDbEntity
  8
2寸法線
 62
     0
440
 16777216
370
    -2
100
AcDbLine
 10
1662.803236292344
 20
-9921.152620514684
 30
0.0
 11
1662.803236292344
 21
-9909.267873245511
 31
0.0
  0
LINE
  5
5779
330
5775
100
AcDbEntity
  8
2寸法線
 62
     0
440
 16777216
370
    -2
100
AcDbLine
 10
1661.003236292344
 20
-9910.26787324551
 30
0.0
 11
1659.203236292344
 21
-9910.26787324551
 31
0.0
  0
LINE
  5
577A
330
5775
100
AcDbEntity
  8
2寸法線
 62
     0
440
 16777216
370
    -2
100
AcDbLine
 10
1667.600166572118
 20
-9910.26787324551
 30
0.0
 11
1676.464452286405
 21
-9910.26787324551
 31
0.0
  0
LINE
  5
577B
330
5775
100
AcDbEntity
  8
2寸法線
 62
     0
440
 16777216
370
    -2
100
AcDbLine
 10
1662.803236292344
 20
-9910.26787324551
 30
0.0
 11
1665.800166572118
 21
-9910.26787324551
 31
0.0
  0
INSERT
  5
577C
330
5775
100
AcDbEntity
  8
2寸法線
 62
     0
440
 16777216
370
    -2
100
AcDbBlockReference
  2
3
 10
1662.803236292344
 20
-9910.26787324551
 30
0.0
 41
1.8
 42
1.8
 43
1.8
  0
INSERT
  5
577D
330
5775
100
AcDbEntity
  8
2寸法線
 62
     0
440
 16777216
370
    -2
100
AcDbBlockReference
  2
2
 10
1665.800166572118
 20
-9910.26787324551
 30
0.0
 41
1.8
 42
1.8
 43
1.8
 50
180.0
  0
MTEXT
  5
577E
330
5775
100
AcDbEntity
  8
2寸法線
 62
     0
440
 16777216
100
AcDbMText
 10
1673.269214191166
 20
-9908.76787324551
 30
0.0
 40
2.0
 41
0.0
 46
0.0
 71
     5
 72
     1
  1
\A1;（3）
  7
KANJI
 73
     1
 44
1.0
  0
POINT
  5
577F
330
5775
100
AcDbEntity
  8
DEFPOINTS
 62
     0
440
 16777216
100
AcDbPoint
 10
1665.800166572118
 20
-9913.652620514683
 30
0.0
  0
POINT
  5
5780
330
5775
100
AcDbEntity
  8
DEFPOINTS
 62
     0
440
 16777216
100
AcDbPoint
 10
1662.803236292344
 20
-9922.152620514685
 30
0.0
  0
POINT
  5
5781
330
5775
100
AcDbEntity
  8
DEFPOINTS
 62
     0
440
 16777216
100
AcDbPoint
 10
1662.803236292344
 20
-9910.26787324551
 30
0.0
  0
ENDBLK
  5
5782
330
5775
100
AcDbEntity
  8
0
100
AcDbBlockEnd
  0
BLOCK
  5
5784
330
5783
100
AcDbEntity
  8
0
100
AcDbBlockBegin
  2
*D56
 70
     1
 10
0.0
 20
0.0
 30
0.0
  3
*D56
  1

  0
LINE
  5
5785
330
5783
100
AcDbEntity
  8
2寸法線
 62
     0
440
 16777216
370
    -2
100
AcDbLine
 10
1673.955686031246
 20
-9928.652620514688
 30
0.0
 11
1675.293455818426
 21
-9928.652620514688
 31
0.0
  0
LINE
  5
5786
330
5783
100
AcDbEntity
  8
2寸法線
 62
     0
440
 16777216
370
    -2
100
AcDbLine
 10
1673.955686031246
 20
-9927.652620514688
 30
0.0
 11
1675.293455818426
 21
-9927.652620514688
 31
0.0
  0
LINE
  5
5787
330
5783
100
AcDbEntity
  8
2寸法線
 62
     0
440
 16777216
370
    -2
100
AcDbLine
 10
1674.293455818426
 20
-9930.452620514687
 30
0.0
 11
1674.293455818426
 21
-9932.252620514688
 31
0.0
  0
LINE
  5
5788
330
5783
100
AcDbEntity
  8
2寸法線
 62
     0
440
 16777216
370
    -2
100
AcDbLine
 10
1674.293455818426
 20
-9925.852620514689
 30
0.0
 11
1674.293455818426
 21
-9921.098320325306
 31
0.0
  0
LINE
  5
5789
330
5783
100
AcDbEntity
  8
2寸法線
 62
     0
440
 16777216
370
    -2
100
AcDbLine
 10
1674.293455818426
 20
-9928.652620514688
 30
0.0
 11
1674.293455818426
 21
-9927.652620514688
 31
0.0
  0
INSERT
  5
578A
330
5783
100
AcDbEntity
  8
2寸法線
 62
     0
440
 16777216
370
    -2
100
AcDbBlockReference
  2
2
 10
1674.293455818426
 20
-9928.652620514688
 30
0.0
 41
1.8
 42
1.8
 43
1.8
 50
90.0
  0
INSERT
  5
578B
330
5783
100
AcDbEntity
  8
2寸法線
 62
     0
440
 16777216
370
    -2
100
AcDbBlockReference
  2
2
 10
1674.293455818426
 20
-9927.652620514688
 30
0.0
 41
1.8
 42
1.8
 43
1.8
 50
270.0
  0
MTEXT
  5
578C
330
5783
100
AcDbEntity
  8
2寸法線
 62
     0
440
 16777216
100
AcDbMText
 10
1672.543455818428
 20
-9921.895939372927
 30
0.0
 40
2.5
 41
0.0
 46
0.0
 71
     5
 72
     1
  1
\A1;1
  7
KANJI
 11
0.0000000000000001
 21
1.0
 31
0.0
 73
     1
 44
1.0
  0
POINT
  5
578D
330
5783
100
AcDbEntity
  8
DEFPOINTS
 62
     0
440
 16777216
100
AcDbPoint
 10
1672.955686031246
 20
-9928.652620514688
 30
0.0
  0
POINT
  5
578E
330
5783
100
AcDbEntity
  8
DEFPOINTS
 62
     0
440
 16777216
100
AcDbPoint
 10
1672.955686031246
 20
-9927.652620514688
 30
0.0
  0
POINT
  5
578F
330
5783
100
AcDbEntity
  8
DEFPOINTS
 62
     0
440
 16777216
100
AcDbPoint
 10
1674.293455818426
 20
-9927.652620514688
 30
0.0
  0
ENDBLK
  5
5790
330
5783
100
AcDbEntity
  8
0
100
AcDbBlockEnd
  0
BLOCK
  5
5792
330
5791
100
AcDbEntity
  8
0
100
AcDbBlockBegin
  2
*D57
 70
     1
 10
0.0
 20
0.0
 30
0.0
  3
*D57
  1

  0
LINE
  5
5793
330
5791
100
AcDbEntity
  8
2寸法線
 62
     0
440
 16777216
370
    -2
100
AcDbLine
 10
1689.495592968208
 20
-9950.677463263231
 30
0.0
 11
1685.900354872934
 21
-9950.677463263231
 31
0.0
  0
LINE
  5
5794
330
5791
100
AcDbEntity
  8
2寸法線
 62
     0
440
 16777216
370
    -2
100
AcDbLine
 10
1685.900354872934
 20
-9950.677463263231
 30
0.0
 11
1683.013801186866
 21
-9944.675930052159
 31
0.0
  0
MTEXT
  5
5795
330
5791
100
AcDbEntity
  8
2寸法線
 62
     0
440
 16777216
100
AcDbMText
 10
1687.947973920588
 20
-9948.927463263231
 30
0.0
 40
2.5
 41
0.0
 46
0.0
 71
     5
 72
     1
  1
\A1;R1
  7
KANJI
 73
     1
 44
1.0
  0
INSERT
  5
5796
330
5791
100
AcDbEntity
  8
2寸法線
 62
     0
440
 16777216
370
    -2
100
AcDbBlockReference
  2
2
 10
1682.233607505961
 20
-9943.053802492356
 30
0.0
 41
1.8
 42
1.8
 43
1.8
 50
115.686129499403
  0
POINT
  5
5797
330
5791
100
AcDbEntity
  8
DEFPOINTS
 62
     0
440
 16777216
100
AcDbPoint
 10
1682.233607505961
 20
-9943.053802492356
 30
0.0
  0
POINT
  5
5798
330
5791
100
AcDbEntity
  8
DEFPOINTS
 62
     0
440
 16777216
100
AcDbPoint
 10
1681.800166572122
 20
-9942.152620514683
 30
0.0
  0
ENDBLK
  5
5799
330
5791
100
AcDbEntity
  8
0
100
AcDbBlockEnd
  0
BLOCK
  5
579B
330
579A
100
AcDbEntity
  8
0
100
AcDbBlockBegin
  2
*D58
 70
     1
 10
0.0
 20
0.0
 30
0.0
  3
*D58
  1

  0
LINE
  5
579C
330
579A
100
AcDbEntity
  8
2寸法線
 62
     0
440
 16777216
370
    -2
100
AcDbLine
 10
1689.292394919878
 20
-9908.556909506321
 30
0.0
 11
1685.69715682464
 21
-9908.556909506321
 31
0.0
  0
LINE
  5
579D
330
579A
100
AcDbEntity
  8
2寸法線
 62
     0
440
 16777216
370
    -2
100
AcDbLine
 10
1685.69715682464
 20
-9908.556909506321
 30
0.0
 11
1683.40034278622
 21
-9911.854918165863
 31
0.0
  0
MTEXT
  5
579E
330
579A
100
AcDbEntity
  8
2寸法線
 62
     0
440
 16777216
100
AcDbMText
 10
1687.744775872259
 20
-9906.806909506322
 30
0.0
 40
2.5
 41
0.0
 46
0.0
 71
     5
 72
     1
  1
\A1;R1
  7
KANJI
 73
     1
 44
1.0
  0
INSERT
  5
579F
330
579A
100
AcDbEntity
  8
2寸法線
 62
     0
440
 16777216
370
    -2
100
AcDbBlockReference
  2
2
 10
1682.371658077155
 20
-9913.332012532967
 30
0.0
 41
1.8
 42
1.8
 43
1.8
 50
235.1457014424324
  0
POINT
  5
57A0
330
579A
100
AcDbEntity
  8
DEFPOINTS
 62
     0
440
 16777216
100
AcDbPoint
 10
1682.371658077155
 20
-9913.332012532967
 30
0.0
  0
POINT
  5
57A1
330
579A
100
AcDbEntity
  8
DEFPOINTS
 62
     0
440
 16777216
100
AcDbPoint
 10
1681.800166572124
 20
-9914.152620514684
 30
0.0
  0
ENDBLK
  5
57A2
330
579A
100
AcDbEntity
  8
0
100
AcDbBlockEnd
  0
BLOCK
  5
57A4
330
57A3
100
AcDbEntity
  8
0
100
AcDbBlockBegin
  2
*D59
 70
     1
 10
0.0
 20
0.0
 30
0.0
  3
*D59
  1

  0
LINE
  5
57A5
330
57A3
100
AcDbEntity
  8
2寸法線
 62
     0
440
 16777216
370
    -2
100
AcDbLine
 10
1677.342291693616
 20
-9895.602673230726
 30
0.0
 11
1673.747053598377
 21
-9895.602673230726
 31
0.0
  0
LINE
  5
57A6
330
57A3
100
AcDbEntity
  8
2寸法線
 62
     0
440
 16777216
370
    -2
100
AcDbLine
 10
1673.747053598377
 20
-9895.602673230726
 30
0.0
 11
1668.689277963049
 21
-9901.135918273755
 31
0.0
  0
MTEXT
  5
57A7
330
57A3
100
AcDbEntity
  8
2寸法線
 62
     0
440
 16777216
100
AcDbMText
 10
1675.794672645997
 20
-9893.852673230725
 30
0.0
 40
2.5
 41
0.0
 46
0.0
 71
     5
 72
     1
  1
\A1;R1
  7
KANJI
 73
     1
 44
1.0
  0
INSERT
  5
57A8
330
57A3
100
AcDbEntity
  8
2寸法線
 62
     0
440
 16777216
370
    -2
100
AcDbBlockReference
  2
2
 10
1667.474849211733
 20
-9902.464512571492
 30
0.0
 41
1.8
 42
1.8
 43
1.8
 50
227.5704898034914
  0
POINT
  5
57A9
330
57A3
100
AcDbEntity
  8
DEFPOINTS
 62
     0
440
 16777216
100
AcDbPoint
 10
1667.474849211733
 20
-9902.464512571492
 30
0.0
  0
POINT
  5
57AA
330
57A3
100
AcDbEntity
  8
DEFPOINTS
 62
     0
440
 16777216
100
AcDbPoint
 10
1666.800166572113
 20
-9903.202620514679
 30
0.0
  0
ENDBLK
  5
57AB
330
57A3
100
AcDbEntity
  8
0
100
AcDbBlockEnd
  0
BLOCK
  5
57AD
330
57AC
100
AcDbEntity
  8
0
100
AcDbBlockBegin
  2
*D60
 70
     1
 10
0.0
 20
0.0
 30
0.0
  3
*D60
  1

  0
LINE
  5
57AE
330
57AC
100
AcDbEntity
  8
2寸法線
 62
     0
440
 16777216
370
    -2
100
AcDbLine
 10
1631.289210133257
 20
-9912.247140591015
 30
0.0
 11
1634.884448228495
 21
-9912.247140591015
 31
0.0
  0
LINE
  5
57AF
330
57AC
100
AcDbEntity
  8
2寸法線
 62
     0
440
 16777216
370
    -2
100
AcDbLine
 10
1634.884448228495
 20
-9912.247140591015
 30
0.0
 11
1639.908151248657
 21
-9906.766664607189
 31
0.0
  0
MTEXT
  5
57B0
330
57AC
100
AcDbEntity
  8
2寸法線
 62
     0
440
 16777216
100
AcDbMText
 10
1632.836829180877
 20
-9910.497140591015
 30
0.0
 40
2.5
 41
0.0
 46
0.0
 71
     5
 72
     1
  1
\A1;R1
  7
KANJI
 73
     1
 44
1.0
  0
INSERT
  5
57B1
330
57AC
100
AcDbEntity
  8
2寸法線
 62
     0
440
 16777216
370
    -2
100
AcDbBlockReference
  2
2
 10
1641.124446813739
 20
-9905.439779119152
 30
0.0
 41
1.8
 42
1.8
 43
1.8
 50
47.48993145552127
  0
POINT
  5
57B2
330
57AC
100
AcDbEntity
  8
DEFPOINTS
 62
     0
440
 16777216
100
AcDbPoint
 10
1641.124446813739
 20
-9905.439779119152
 30
0.0
  0
POINT
  5
57B3
330
57AC
100
AcDbEntity
  8
DEFPOINTS
 62
     0
440
 16777216
100
AcDbPoint
 10
1641.800166572125
 20
-9904.702620514679
 30
0.0
  0
ENDBLK
  5
57B4
330
57AC
100
AcDbEntity
  8
0
100
AcDbBlockEnd
  0
BLOCK
  5
57B6
330
57B5
100
AcDbEntity
  8
0
100
AcDbBlockBegin
  2
*D61
 70
     1
 10
0.0
 20
0.0
 30
0.0
  3
*D61
  1

  0
LINE
  5
57B7
330
57B5
100
AcDbEntity
  8
2寸法線
 62
     0
440
 16777216
370
    -2
100
AcDbLine
 10
1656.584973510969
 20
-9896.476089269713
 30
0.0
 11
1660.180211606206
 21
-9896.476089269713
 31
0.0
  0
LINE
  5
57B8
330
57B5
100
AcDbEntity
  8
2寸法線
 62
     0
440
 16777216
370
    -2
100
AcDbLine
 10
1660.180211606206
 20
-9896.476089269713
 30
0.0
 11
1666.298623393259
 21
-9904.079359381825
 31
0.0
  0
MTEXT
  5
57B9
330
57B5
100
AcDbEntity
  8
2寸法線
 62
     0
440
 16777216
100
AcDbMText
 10
1658.132592558588
 20
-9894.726089269713
 30
0.0
 40
2.5
 41
0.0
 46
0.0
 71
     5
 72
     1
  1
\A1;R1
  7
KANJI
 73
     1
 44
1.0
  0
INSERT
  5
57BA
330
57B5
100
AcDbEntity
  8
2寸法線
 62
     0
440
 16777216
370
    -2
100
AcDbBlockReference
  2
2
 10
1667.427095545687
 20
-9905.481696930774
 30
0.0
 41
1.8
 42
1.8
 43
1.8
 50
308.8239094583385
  0
POINT
  5
57BB
330
57B5
100
AcDbEntity
  8
DEFPOINTS
 62
     0
440
 16777216
100
AcDbPoint
 10
1667.427095545687
 20
-9905.481696930774
 30
0.0
  0
POINT
  5
57BC
330
57B5
100
AcDbEntity
  8
DEFPOINTS
 62
     0
440
 16777216
100
AcDbPoint
 10
1666.800166572121
 20
-9904.702620514697
 30
0.0
  0
ENDBLK
  5
57BD
330
57B5
100
AcDbEntity
  8
0
100
AcDbBlockEnd
  0
BLOCK
  5
57BF
330
57BE
100
AcDbEntity
  8
0
100
AcDbBlockBegin
  2
*D62
 70
     1
 10
0.0
 20
0.0
 30
0.0
  3
*D62
  1

  0
LINE
  5
57C0
330
57BE
100
AcDbEntity
  8
2寸法線
 62
     0
440
 16777216
370
    -2
100
AcDbLine
 10
1667.800166572119
 20
-9994.56686998667
 30
0.0
 11
1667.800166572119
 21
-10002.17987935577
 31
0.0
  0
LINE
  5
57C1
330
57BE
100
AcDbEntity
  8
2寸法線
 62
     0
440
 16777216
370
    -2
100
AcDbLine
 10
1682.800166572119
 20
-9991.066869986674
 30
0.0
 11
1682.800166572119
 21
-10002.17987935577
 31
0.0
  0
LINE
  5
57C2
330
57BE
100
AcDbEntity
  8
2寸法線
 62
     0
440
 16777216
370
    -2
100
AcDbLine
 10
1669.600166572119
 20
-10001.17987935577
 30
0.0
 11
1681.000166572119
 21
-10001.17987935577
 31
0.0
  0
INSERT
  5
57C3
330
57BE
100
AcDbEntity
  8
2寸法線
 62
     0
440
 16777216
370
    -2
100
AcDbBlockReference
  2
2
 10
1667.800166572119
 20
-10001.17987935577
 30
0.0
 41
1.8
 42
1.8
 43
1.8
 50
180.0
  0
INSERT
  5
57C4
330
57BE
100
AcDbEntity
  8
2寸法線
 62
     0
440
 16777216
370
    -2
100
AcDbBlockReference
  2
2
 10
1682.800166572119
 20
-10001.17987935577
 30
0.0
 41
1.8
 42
1.8
 43
1.8
  0
MTEXT
  5
57C5
330
57BE
100
AcDbEntity
  8
2寸法線
 62
     0
440
 16777216
100
AcDbMText
 10
1675.300166572119
 20
-9999.429879355773
 30
0.0
 40
2.5
 41
0.0
 46
0.0
 71
     5
 72
     1
  1
\A1;15
  7
KANJI
 73
     1
 44
1.0
  0
POINT
  5
57C6
330
57BE
100
AcDbEntity
  8
DEFPOINTS
 62
     0
440
 16777216
100
AcDbPoint
 10
1667.800166572119
 20
-9993.56686998667
 30
0.0
  0
POINT
  5
57C7
330
57BE
100
AcDbEntity
  8
DEFPOINTS
 62
     0
440
 16777216
100
AcDbPoint
 10
1682.800166572119
 20
-9990.066869986673
 30
0.0
  0
POINT
  5
57C8
330
57BE
100
AcDbEntity
  8
DEFPOINTS
 62
     0
440
 16777216
100
AcDbPoint
 10
1682.800166572119
 20
-10001.17987935577
 30
0.0
  0
ENDBLK
  5
57C9
330
57BE
100
AcDbEntity
  8
0
100
AcDbBlockEnd
  0
BLOCK
  5
57CB
330
57CA
100
AcDbEntity
  8
0
100
AcDbBlockBegin
  2
*D63
 70
     1
 10
0.0
 20
0.0
 30
0.0
  3
*D63
  1

  0
LINE
  5
57CC
330
57CA
100
AcDbEntity
  8
2寸法線
 62
     0
440
 16777216
370
    -2
100
AcDbLine
 10
1673.72834080132
 20
-9976.694443704918
 30
0.0
 11
1670.133102706082
 21
-9976.694443704918
 31
0.0
  0
LINE
  5
57CD
330
57CA
100
AcDbEntity
  8
2寸法線
 62
     0
440
 16777216
370
    -2
100
AcDbLine
 10
1670.133102706082
 20
-9976.694443704918
 30
0.0
 11
1667.83576409632
 21
-9982.465420819783
 31
0.0
  0
MTEXT
  5
57CE
330
57CA
100
AcDbEntity
  8
2寸法線
 62
     0
440
 16777216
100
AcDbMText
 10
1672.180721753701
 20
-9974.94444370492
 30
0.0
 40
2.5
 41
0.0
 46
0.0
 71
     5
 72
     1
  1
\A1;R1
  7
KANJI
 73
     1
 44
1.0
  0
INSERT
  5
57CF
330
57CA
100
AcDbEntity
  8
2寸法線
 62
     0
440
 16777216
370
    -2
100
AcDbBlockReference
  2
2
 10
1667.170022830759
 20
-9984.137780998487
 30
0.0
 41
1.8
 42
1.8
 43
1.8
 50
248.2932473429963
  0
POINT
  5
57D0
330
57CA
100
AcDbEntity
  8
DEFPOINTS
 62
     0
440
 16777216
100
AcDbPoint
 10
1667.170022830759
 20
-9984.137780998487
 30
0.0
  0
POINT
  5
57D1
330
57CA
100
AcDbEntity
  8
DEFPOINTS
 62
     0
440
 16777216
100
AcDbPoint
 10
1666.800166572115
 20
-9985.06686998666
 30
0.0
  0
ENDBLK
  5
57D2
330
57CA
100
AcDbEntity
  8
0
100
AcDbBlockEnd
  0
BLOCK
  5
57D4
330
57D3
100
AcDbEntity
  8
0
100
AcDbBlockBegin
  2
*D64
 70
     1
 10
0.0
 20
0.0
 30
0.0
  3
*D64
  1

  0
LINE
  5
57D5
330
57D3
100
AcDbEntity
  8
2寸法線
 62
     0
440
 16777216
370
    -2
100
AcDbLine
 10
1633.937962592761
 20
-9976.583593402539
 30
0.0
 11
1637.533200688011
 21
-9976.583593402539
 31
0.0
  0
LINE
  5
57D6
330
57D3
100
AcDbEntity
  8
2寸法線
 62
     0
440
 16777216
370
    -2
100
AcDbLine
 10
1637.533200688011
 20
-9976.583593402539
 30
0.0
 11
1640.541997538448
 21
-9982.565468243096
 31
0.0
  0
MTEXT
  5
57D7
330
57D3
100
AcDbEntity
  8
2寸法線
 62
     0
440
 16777216
100
AcDbMText
 10
1635.48558164038
 20
-9974.833593402536
 30
0.0
 40
2.5
 41
0.0
 46
0.0
 71
     5
 72
     1
  1
\A1;R1
  7
KANJI
 73
     1
 44
1.0
  0
INSERT
  5
57D8
330
57D3
100
AcDbEntity
  8
2寸法線
 62
     0
440
 16777216
370
    -2
100
AcDbBlockReference
  2
2
 10
1641.350820488667
 20
-9984.173512221103
 30
0.0
 41
1.8
 42
1.8
 43
1.8
 50
296.7017370813945
  0
POINT
  5
57D9
330
57D3
100
AcDbEntity
  8
DEFPOINTS
 62
     0
440
 16777216
100
AcDbPoint
 10
1641.350820488667
 20
-9984.173512221103
 30
0.0
  0
POINT
  5
57DA
330
57D3
100
AcDbEntity
  8
DEFPOINTS
 62
     0
440
 16777216
100
AcDbPoint
 10
1641.800166572123
 20
-9985.066869986665
 30
0.0
  0
ENDBLK
  5
57DB
330
57D3
100
AcDbEntity
  8
0
100
AcDbBlockEnd
  0
BLOCK
  5
57DD
330
57DC
100
AcDbEntity
  8
0
100
AcDbBlockBegin
  2
*D65
 70
     1
 10
0.0
 20
0.0
 30
0.0
  3
*D65
  1

  0
LINE
  5
57DE
330
57DC
100
AcDbEntity
  8
2寸法線
 62
     0
440
 16777216
370
    -2
100
AcDbLine
 10
1667.800166572119
 20
-9994.56686998667
 30
0.0
 11
1667.800166572119
 21
-10008.7912388834
 31
0.0
  0
LINE
  5
57DF
330
57DC
100
AcDbEntity
  8
2寸法線
 62
     0
440
 16777216
370
    -2
100
AcDbLine
 10
1666.300166572119
 20
-9994.56686998667
 30
0.0
 11
1666.300166572119
 21
-10008.7912388834
 31
0.0
  0
LINE
  5
57E0
330
57DC
100
AcDbEntity
  8
2寸法線
 62
     0
440
 16777216
370
    -2
100
AcDbLine
 10
1664.500166572119
 20
-10007.7912388834
 30
0.0
 11
1662.700166572119
 21
-10007.7912388834
 31
0.0
  0
LINE
  5
57E1
330
57DC
100
AcDbEntity
  8
2寸法線
 62
     0
440
 16777216
370
    -2
100
AcDbLine
 10
1669.600166572119
 20
-10007.7912388834
 30
0.0
 11
1677.162071334024
 21
-10007.7912388834
 31
0.0
  0
LINE
  5
57E2
330
57DC
100
AcDbEntity
  8
2寸法線
 62
     0
440
 16777216
370
    -2
100
AcDbLine
 10
1666.300166572119
 20
-10007.7912388834
 30
0.0
 11
1667.800166572119
 21
-10007.7912388834
 31
0.0
  0
INSERT
  5
57E3
330
57DC
100
AcDbEntity
  8
2寸法線
 62
     0
440
 16777216
370
    -2
100
AcDbBlockReference
  2
3
 10
1666.300166572119
 20
-10007.7912388834
 30
0.0
 41
1.8
 42
1.8
 43
1.8
  0
INSERT
  5
57E4
330
57DC
100
AcDbEntity
  8
2寸法線
 62
     0
440
 16777216
370
    -2
100
AcDbBlockReference
  2
2
 10
1667.800166572119
 20
-10007.7912388834
 30
0.0
 41
1.8
 42
1.8
 43
1.8
 50
180.0
  0
MTEXT
  5
57E5
330
57DC
100
AcDbEntity
  8
2寸法線
 62
     0
440
 16777216
100
AcDbMText
 10
1674.281118953071
 20
-10006.0412388834
 30
0.0
 40
2.5
 41
0.0
 46
0.0
 71
     5
 72
     1
  1
\A1;1.5
  7
KANJI
 73
     1
 44
1.0
  0
POINT
  5
57E6
330
57DC
100
AcDbEntity
  8
DEFPOINTS
 62
     0
440
 16777216
100
AcDbPoint
 10
1667.800166572119
 20
-9993.56686998667
 30
0.0
  0
POINT
  5
57E7
330
57DC
100
AcDbEntity
  8
DEFPOINTS
 62
     0
440
 16777216
100
AcDbPoint
 10
1666.300166572119
 20
-9993.56686998667
 30
0.0
  0
POINT
  5
57E8
330
57DC
100
AcDbEntity
  8
DEFPOINTS
 62
     0
440
 16777216
100
AcDbPoint
 10
1666.300166572119
 20
-10007.7912388834
 30
0.0
  0
ENDBLK
  5
57E9
330
57DC
100
AcDbEntity
  8
0
100
AcDbBlockEnd
  0
BLOCK
  5
57EB
330
57EA
100
AcDbEntity
  8
0
100
AcDbBlockBegin
  2
*D66
 70
     1
 10
0.0
 20
0.0
 30
0.0
  3
*D66
  1

  0
LINE
  5
57EC
330
57EA
100
AcDbEntity
  8
2寸法線
 62
     0
440
 16777216
370
    -2
100
AcDbLine
 10
1666.100166572119
 20
-9987.56686998667
 30
0.0
 11
1666.100166572119
 21
-10008.77334152513
 31
0.0
  0
LINE
  5
57ED
330
57EA
100
AcDbEntity
  8
2寸法線
 62
     0
440
 16777216
370
    -2
100
AcDbLine
 10
1666.300166572119
 20
-9994.56686998667
 30
0.0
 11
1666.300166572119
 21
-10008.77334152513
 31
0.0
  0
LINE
  5
57EE
330
57EA
100
AcDbEntity
  8
2寸法線
 62
     0
440
 16777216
370
    -2
100
AcDbLine
 10
1668.100166572119
 20
-10007.77334152513
 30
0.0
 11
1669.900166572119
 21
-10007.77334152513
 31
0.0
  0
LINE
  5
57EF
330
57EA
100
AcDbEntity
  8
2寸法線
 62
     0
440
 16777216
370
    -2
100
AcDbLine
 10
1664.300166572119
 20
-10007.77334152513
 30
0.0
 11
1656.262071334024
 21
-10007.77334152513
 31
0.0
  0
LINE
  5
57F0
330
57EA
100
AcDbEntity
  8
2寸法線
 62
     0
440
 16777216
370
    -2
100
AcDbLine
 10
1666.300166572119
 20
-10007.77334152513
 30
0.0
 11
1666.100166572119
 21
-10007.77334152513
 31
0.0
  0
INSERT
  5
57F1
330
57EA
100
AcDbEntity
  8
2寸法線
 62
     0
440
 16777216
370
    -2
100
AcDbBlockReference
  2
3
 10
1666.300166572119
 20
-10007.77334152513
 30
0.0
 41
1.8
 42
1.8
 43
1.8
 50
180.0
  0
INSERT
  5
57F2
330
57EA
100
AcDbEntity
  8
2寸法線
 62
     0
440
 16777216
370
    -2
100
AcDbBlockReference
  2
2
 10
1666.100166572119
 20
-10007.77334152513
 30
0.0
 41
1.8
 42
1.8
 43
1.8
  0
MTEXT
  5
57F3
330
57EA
100
AcDbEntity
  8
2寸法線
 62
     0
440
 16777216
100
AcDbMText
 10
1659.381118953071
 20
-10006.02334152513
 30
0.0
 40
2.5
 41
0.0
 46
0.0
 71
     5
 72
     1
  1
\A1;0.2
  7
KANJI
 73
     1
 44
1.0
  0
POINT
  5
57F4
330
57EA
100
AcDbEntity
  8
DEFPOINTS
 62
     0
440
 16777216
100
AcDbPoint
 10
1666.100166572119
 20
-9986.566869986669
 30
0.0
  0
POINT
  5
57F5
330
57EA
100
AcDbEntity
  8
DEFPOINTS
 62
     0
440
 16777216
100
AcDbPoint
 10
1666.300166572119
 20
-9993.56686998667
 30
0.0
  0
POINT
  5
57F6
330
57EA
100
AcDbEntity
  8
DEFPOINTS
 62
     0
440
 16777216
100
AcDbPoint
 10
1666.300166572119
 20
-10007.77334152513
 30
0.0
  0
ENDBLK
  5
57F7
330
57EA
100
AcDbEntity
  8
0
100
AcDbBlockEnd
  0
BLOCK
  5
57F9
330
57F8
100
AcDbEntity
  8
0
100
AcDbBlockBegin
  2
*D67
 70
     1
 10
0.0
 20
0.0
 30
0.0
  3
*D67
  1

  0
LINE
  5
57FA
330
57F8
100
AcDbEntity
  8
2寸法線
 62
     0
440
 16777216
370
    -2
100
AcDbLine
 10
1666.300166572119
 20
-9994.56686998667
 30
0.0
 11
1666.300166572119
 21
-10015.00718369996
 31
0.0
  0
LINE
  5
57FB
330
57F8
100
AcDbEntity
  8
2寸法線
 62
     0
440
 16777216
370
    -2
100
AcDbLine
 10
1642.300166572119
 20
-9994.566869986666
 30
0.0
 11
1642.300166572119
 21
-10015.00718369996
 31
0.0
  0
LINE
  5
57FC
330
57F8
100
AcDbEntity
  8
2寸法線
 62
     0
440
 16777216
370
    -2
100
AcDbLine
 10
1664.500166572119
 20
-10014.00718369996
 30
0.0
 11
1644.100166572119
 21
-10014.00718369996
 31
0.0
  0
INSERT
  5
57FD
330
57F8
100
AcDbEntity
  8
2寸法線
 62
     0
440
 16777216
370
    -2
100
AcDbBlockReference
  2
2
 10
1666.300166572119
 20
-10014.00718369996
 30
0.0
 41
1.8
 42
1.8
 43
1.8
  0
INSERT
  5
57FE
330
57F8
100
AcDbEntity
  8
2寸法線
 62
     0
440
 16777216
370
    -2
100
AcDbBlockReference
  2
2
 10
1642.300166572119
 20
-10014.00718369996
 30
0.0
 41
1.8
 42
1.8
 43
1.8
 50
180.0
  0
MTEXT
  5
57FF
330
57F8
100
AcDbEntity
  8
2寸法線
 62
     0
440
 16777216
100
AcDbMText
 10
1654.300166572119
 20
-10012.25718369996
 30
0.0
 40
2.5
 41
0.0
 46
0.0
 71
     5
 72
     1
  1
\A1;24
  7
KANJI
 73
     1
 44
1.0
  0
POINT
  5
5800
330
57F8
100
AcDbEntity
  8
DEFPOINTS
 62
     0
440
 16777216
100
AcDbPoint
 10
1666.300166572119
 20
-9993.56686998667
 30
0.0
  0
POINT
  5
5801
330
57F8
100
AcDbEntity
  8
DEFPOINTS
 62
     0
440
 16777216
100
AcDbPoint
 10
1642.300166572119
 20
-9993.566869986665
 30
0.0
  0
POINT
  5
5802
330
57F8
100
AcDbEntity
  8
DEFPOINTS
 62
     0
440
 16777216
100
AcDbPoint
 10
1642.300166572119
 20
-10014.00718369996
 30
0.0
  0
ENDBLK
  5
5803
330
57F8
100
AcDbEntity
  8
0
100
AcDbBlockEnd
  0
BLOCK
  5
5805
330
5804
100
AcDbEntity
  8
0
100
AcDbBlockBegin
  2
*D68
 70
     1
 10
0.0
 20
0.0
 30
0.0
  3
*D68
  1

  0
LINE
  5
5806
330
5804
100
AcDbEntity
  8
2寸法線
 62
     0
440
 16777216
370
    -2
100
AcDbLine
 10
1642.500166572119
 20
-9987.566869986665
 30
0.0
 11
1642.500166572119
 21
-10002.20208349454
 31
0.0
  0
LINE
  5
5807
330
5804
100
AcDbEntity
  8
2寸法線
 62
     0
440
 16777216
370
    -2
100
AcDbLine
 10
1642.300166572119
 20
-9994.566869986666
 30
0.0
 11
1642.300166572119
 21
-10002.20208349454
 31
0.0
  0
LINE
  5
5808
330
5804
100
AcDbEntity
  8
2寸法線
 62
     0
440
 16777216
370
    -2
100
AcDbLine
 10
1640.500166572119
 20
-10001.20208349454
 30
0.0
 11
1638.700166572119
 21
-10001.20208349454
 31
0.0
  0
LINE
  5
5809
330
5804
100
AcDbEntity
  8
2寸法線
 62
     0
440
 16777216
370
    -2
100
AcDbLine
 10
1644.300166572119
 20
-10001.20208349454
 30
0.0
 11
1652.338261810214
 21
-10001.20208349454
 31
0.0
  0
LINE
  5
580A
330
5804
100
AcDbEntity
  8
2寸法線
 62
     0
440
 16777216
370
    -2
100
AcDbLine
 10
1642.300166572119
 20
-10001.20208349454
 30
0.0
 11
1642.500166572119
 21
-10001.20208349454
 31
0.0
  0
INSERT
  5
580B
330
5804
100
AcDbEntity
  8
2寸法線
 62
     0
440
 16777216
370
    -2
100
AcDbBlockReference
  2
3
 10
1642.300166572119
 20
-10001.20208349454
 30
0.0
 41
1.8
 42
1.8
 43
1.8
  0
INSERT
  5
580C
330
5804
100
AcDbEntity
  8
2寸法線
 62
     0
440
 16777216
370
    -2
100
AcDbBlockReference
  2
2
 10
1642.500166572119
 20
-10001.20208349454
 30
0.0
 41
1.8
 42
1.8
 43
1.8
 50
180.0
  0
MTEXT
  5
580D
330
5804
100
AcDbEntity
  8
2寸法線
 62
     0
440
 16777216
100
AcDbMText
 10
1649.219214191166
 20
-9999.452083494546
 30
0.0
 40
2.5
 41
0.0
 46
0.0
 71
     5
 72
     1
  1
\A1;0.2
  7
KANJI
 73
     1
 44
1.0
  0
POINT
  5
580E
330
5804
100
AcDbEntity
  8
DEFPOINTS
 62
     0
440
 16777216
100
AcDbPoint
 10
1642.500166572119
 20
-9986.566869986667
 30
0.0
  0
POINT
  5
580F
330
5804
100
AcDbEntity
  8
DEFPOINTS
 62
     0
440
 16777216
100
AcDbPoint
 10
1642.300166572119
 20
-9993.566869986665
 30
0.0
  0
POINT
  5
5810
330
5804
100
AcDbEntity
  8
DEFPOINTS
 62
     0
440
 16777216
100
AcDbPoint
 10
1642.300166572119
 20
-10001.20208349454
 30
0.0
  0
ENDBLK
  5
5811
330
5804
100
AcDbEntity
  8
0
100
AcDbBlockEnd
  0
BLOCK
  5
5813
330
5812
100
AcDbEntity
  8
0
100
AcDbBlockBegin
  2
*D69
 70
     1
 10
0.0
 20
0.0
 30
0.0
  3
*D69
  1

  0
LINE
  5
5814
330
5812
100
AcDbEntity
  8
2寸法線
 62
     0
440
 16777216
370
    -2
100
AcDbLine
 10
1640.80016657212
 20
-9988.566869986664
 30
0.0
 11
1640.80016657212
 21
-10002.20208349454
 31
0.0
  0
LINE
  5
5815
330
5812
100
AcDbEntity
  8
2寸法線
 62
     0
440
 16777216
370
    -2
100
AcDbLine
 10
1642.300166572119
 20
-9994.566869986666
 30
0.0
 11
1642.300166572119
 21
-10002.20208349454
 31
0.0
  0
LINE
  5
5816
330
5812
100
AcDbEntity
  8
2寸法線
 62
     0
440
 16777216
370
    -2
100
AcDbLine
 10
1644.100166572119
 20
-10001.20208349454
 30
0.0
 11
1645.900166572119
 21
-10001.20208349454
 31
0.0
  0
LINE
  5
5817
330
5812
100
AcDbEntity
  8
2寸法線
 62
     0
440
 16777216
370
    -2
100
AcDbLine
 10
1639.00016657212
 20
-10001.20208349454
 30
0.0
 11
1631.438261810215
 21
-10001.20208349454
 31
0.0
  0
LINE
  5
5818
330
5812
100
AcDbEntity
  8
2寸法線
 62
     0
440
 16777216
370
    -2
100
AcDbLine
 10
1642.300166572119
 20
-10001.20208349454
 30
0.0
 11
1640.80016657212
 21
-10001.20208349454
 31
0.0
  0
INSERT
  5
5819
330
5812
100
AcDbEntity
  8
2寸法線
 62
     0
440
 16777216
370
    -2
100
AcDbBlockReference
  2
3
 10
1642.300166572119
 20
-10001.20208349454
 30
0.0
 41
1.8
 42
1.8
 43
1.8
 50
180.0
  0
INSERT
  5
581A
330
5812
100
AcDbEntity
  8
2寸法線
 62
     0
440
 16777216
370
    -2
100
AcDbBlockReference
  2
2
 10
1640.80016657212
 20
-10001.20208349454
 30
0.0
 41
1.8
 42
1.8
 43
1.8
  0
MTEXT
  5
581B
330
5812
100
AcDbEntity
  8
2寸法線
 62
     0
440
 16777216
100
AcDbMText
 10
1634.319214191167
 20
-9999.452083494546
 30
0.0
 40
2.5
 41
0.0
 46
0.0
 71
     5
 72
     1
  1
\A1;1.5
  7
KANJI
 73
     1
 44
1.0
  0
POINT
  5
581C
330
5812
100
AcDbEntity
  8
DEFPOINTS
 62
     0
440
 16777216
100
AcDbPoint
 10
1640.80016657212
 20
-9987.566869986665
 30
0.0
  0
POINT
  5
581D
330
5812
100
AcDbEntity
  8
DEFPOINTS
 62
     0
440
 16777216
100
AcDbPoint
 10
1642.300166572119
 20
-9993.566869986665
 30
0.0
  0
POINT
  5
581E
330
5812
100
AcDbEntity
  8
DEFPOINTS
 62
     0
440
 16777216
100
AcDbPoint
 10
1642.300166572119
 20
-10001.20208349454
 30
0.0
  0
ENDBLK
  5
581F
330
5812
100
AcDbEntity
  8
0
100
AcDbBlockEnd
  0
BLOCK
  5
5821
330
5820
100
AcDbEntity
  8
0
100
AcDbBlockBegin
  2
*D70
 70
     1
 10
0.0
 20
0.0
 30
0.0
  3
*D70
  1

  0
LINE
  5
5822
330
5820
100
AcDbEntity
  8
2寸法線
 62
     0
440
 16777216
370
    -2
100
AcDbLine
 10
1555.800166572118
 20
-9991.06686998666
 30
0.0
 11
1555.800166572118
 21
-10021.1002569694
 31
0.0
  0
LINE
  5
5823
330
5820
100
AcDbEntity
  8
2寸法線
 62
     0
440
 16777216
370
    -2
100
AcDbLine
 10
1682.800166572119
 20
-9991.066869986674
 30
0.0
 11
1682.800166572119
 21
-10021.1002569694
 31
0.0
  0
LINE
  5
5824
330
5820
100
AcDbEntity
  8
2寸法線
 62
     0
440
 16777216
370
    -2
100
AcDbLine
 10
1557.600166572118
 20
-10020.1002569694
 30
0.0
 11
1681.000166572119
 21
-10020.1002569694
 31
0.0
  0
INSERT
  5
5825
330
5820
100
AcDbEntity
  8
2寸法線
 62
     0
440
 16777216
370
    -2
100
AcDbBlockReference
  2
2
 10
1555.800166572118
 20
-10020.1002569694
 30
0.0
 41
1.8
 42
1.8
 43
1.8
 50
180.0
  0
INSERT
  5
5826
330
5820
100
AcDbEntity
  8
2寸法線
 62
     0
440
 16777216
370
    -2
100
AcDbBlockReference
  2
2
 10
1682.800166572119
 20
-10020.1002569694
 30
0.0
 41
1.8
 42
1.8
 43
1.8
  0
MTEXT
  5
5827
330
5820
100
AcDbEntity
  8
2寸法線
 62
     0
440
 16777216
100
AcDbMText
 10
1619.300166572119
 20
-10018.3502569694
 30
0.0
 40
2.5
 41
0.0
 46
0.0
 71
     5
 72
     1
  1
\A1;127
  7
KANJI
 73
     1
 44
1.0
  0
POINT
  5
5828
330
5820
100
AcDbEntity
  8
DEFPOINTS
 62
     0
440
 16777216
100
AcDbPoint
 10
1555.800166572118
 20
-9990.066869986661
 30
0.0
  0
POINT
  5
5829
330
5820
100
AcDbEntity
  8
DEFPOINTS
 62
     0
440
 16777216
100
AcDbPoint
 10
1682.800166572119
 20
-9990.066869986673
 30
0.0
  0
POINT
  5
582A
330
5820
100
AcDbEntity
  8
DEFPOINTS
 62
     0
440
 16777216
100
AcDbPoint
 10
1682.800166572119
 20
-10020.1002569694
 30
0.0
  0
ENDBLK
  5
582B
330
5820
100
AcDbEntity
  8
0
100
AcDbBlockEnd
  0
BLOCK
  5
582D
330
582C
100
AcDbEntity
  8
0
100
AcDbBlockBegin
  2
*D71
 70
     1
 10
0.0
 20
0.0
 30
0.0
  3
*D71
  1

  0
LINE
  5
582E
330
582C
100
AcDbEntity
  8
2寸法線
 62
     0
440
 16777216
370
    -2
100
AcDbLine
 10
1678.008083057229
 20
-9952.944142767126
 30
0.0
 11
1674.412844961992
 21
-9952.944142767126
 31
0.0
  0
LINE
  5
582F
330
582C
100
AcDbEntity
  8
2寸法線
 62
     0
440
 16777216
370
    -2
100
AcDbLine
 10
1674.412844961992
 20
-9952.944142767126
 30
0.0
 11
1667.275917881434
 21
-9943.295785106132
 31
0.0
  0
MTEXT
  5
5830
330
582C
100
AcDbEntity
  8
2寸法線
 62
     0
440
 16777216
100
AcDbMText
 10
1676.460464009611
 20
-9951.194142767127
 30
0.0
 40
2.5
 41
0.0
 46
0.0
 71
     5
 72
     1
  1
\A1;R1
  7
KANJI
 73
     1
 44
1.0
  0
INSERT
  5
5831
330
582C
100
AcDbEntity
  8
2寸法線
 62
     0
440
 16777216
370
    -2
100
AcDbBlockReference
  2
2
 10
1666.205477435482
 20
-9941.848664775383
 30
0.0
 41
1.8
 42
1.8
 43
1.8
 50
126.4904745276124
  0
POINT
  5
5832
330
582C
100
AcDbEntity
  8
DEFPOINTS
 62
     0
440
 16777216
100
AcDbPoint
 10
1666.205477435482
 20
-9941.848664775383
 30
0.0
  0
POINT
  5
5833
330
582C
100
AcDbEntity
  8
DEFPOINTS
 62
     0
440
 16777216
100
AcDbPoint
 10
1666.800166572115
 20
-9942.652620514678
 30
0.0
  0
ENDBLK
  5
5834
330
582C
100
AcDbEntity
  8
0
100
AcDbBlockEnd
  0
BLOCK
  5
5836
330
5835
100
AcDbEntity
  8
0
100
AcDbBlockBegin
  2
*D72
 70
     1
 10
0.0
 20
0.0
 30
0.0
  3
*D72
  1

  0
LINE
  5
5837
330
5835
100
AcDbEntity
  8
2寸法線
 62
     0
440
 16777216
370
    -2
100
AcDbLine
 10
1596.800166572118
 20
-10082.09543825751
 30
0.0
 11
1596.800166572118
 21
-10106.44404533518
 31
0.0
  0
LINE
  5
5838
330
5835
100
AcDbEntity
  8
2寸法線
 62
     0
440
 16777216
370
    -2
100
AcDbLine
 10
1641.800166572118
 20
-10082.09543825751
 30
0.0
 11
1641.800166572118
 21
-10106.44404533518
 31
0.0
  0
LINE
  5
5839
330
5835
100
AcDbEntity
  8
2寸法線
 62
     0
440
 16777216
370
    -2
100
AcDbLine
 10
1598.600166572118
 20
-10105.44404533518
 30
0.0
 11
1640.000166572118
 21
-10105.44404533518
 31
0.0
  0
INSERT
  5
583A
330
5835
100
AcDbEntity
  8
2寸法線
 62
     0
440
 16777216
370
    -2
100
AcDbBlockReference
  2
2
 10
1596.800166572118
 20
-10105.44404533518
 30
0.0
 41
1.8
 42
1.8
 43
1.8
 50
180.0
  0
INSERT
  5
583B
330
5835
100
AcDbEntity
  8
2寸法線
 62
     0
440
 16777216
370
    -2
100
AcDbBlockReference
  2
2
 10
1641.800166572118
 20
-10105.44404533518
 30
0.0
 41
1.8
 42
1.8
 43
1.8
  0
MTEXT
  5
583C
330
5835
100
AcDbEntity
  8
2寸法線
 62
     0
440
 16777216
100
AcDbMText
 10
1619.300166572118
 20
-10103.69404533518
 30
0.0
 40
2.5
 41
0.0
 46
0.0
 71
     5
 72
     1
  1
\A1;（45）
  7
KANJI
 73
     1
 44
1.0
  0
POINT
  5
583D
330
5835
100
AcDbEntity
  8
DEFPOINTS
 62
     0
440
 16777216
100
AcDbPoint
 10
1596.800166572118
 20
-10081.09543825751
 30
0.0
  0
POINT
  5
583E
330
5835
100
AcDbEntity
  8
DEFPOINTS
 62
     0
440
 16777216
100
AcDbPoint
 10
1641.800166572118
 20
-10081.09543825751
 30
0.0
  0
POINT
  5
583F
330
5835
100
AcDbEntity
  8
DEFPOINTS
 62
     0
440
 16777216
100
AcDbPoint
 10
1641.800166572118
 20
-10105.44404533518
 30
0.0
  0
ENDBLK
  5
5840
330
5835
100
AcDbEntity
  8
0
100
AcDbBlockEnd
  0
BLOCK
  5
5842
330
5841
100
AcDbEntity
  8
0
100
AcDbBlockBegin
  2
*D73
 70
     1
 10
0.0
 20
0.0
 30
0.0
  3
*D73
  1

  0
LINE
  5
5843
330
5841
100
AcDbEntity
  8
2寸法線
 62
     0
440
 16777216
370
    -2
100
AcDbLine
 10
1595.800166572118
 20
-10081.09543825751
 30
0.0
 11
1585.82582528012
 21
-10081.09543825751
 31
0.0
  0
LINE
  5
5844
330
5841
100
AcDbEntity
  8
2寸法線
 62
     0
440
 16777216
370
    -2
100
AcDbLine
 10
1595.800166572119
 20
-10056.09543825751
 30
0.0
 11
1585.82582528012
 21
-10056.09543825751
 31
0.0
  0
LINE
  5
5845
330
5841
100
AcDbEntity
  8
2寸法線
 62
     0
440
 16777216
370
    -2
100
AcDbLine
 10
1586.825825280121
 20
-10079.29543825751
 30
0.0
 11
1586.825825280121
 21
-10057.89543825751
 31
0.0
  0
INSERT
  5
5846
330
5841
100
AcDbEntity
  8
2寸法線
 62
     0
440
 16777216
370
    -2
100
AcDbBlockReference
  2
2
 10
1586.825825280121
 20
-10081.09543825751
 30
0.0
 41
1.8
 42
1.8
 43
1.8
 50
270.0
  0
INSERT
  5
5847
330
5841
100
AcDbEntity
  8
2寸法線
 62
     0
440
 16777216
370
    -2
100
AcDbBlockReference
  2
2
 10
1586.825825280121
 20
-10056.09543825751
 30
0.0
 41
1.8
 42
1.8
 43
1.8
 50
90.0
  0
MTEXT
  5
5848
330
5841
100
AcDbEntity
  8
2寸法線
 62
     0
440
 16777216
100
AcDbMText
 10
1585.075825280122
 20
-10068.59543825751
 30
0.0
 40
2.5
 41
0.0
 46
0.0
 71
     5
 72
     1
  1
\A1;（25）
  7
KANJI
 11
0.0000000000000001
 21
1.0
 31
0.0
 73
     1
 44
1.0
  0
POINT
  5
5849
330
5841
100
AcDbEntity
  8
DEFPOINTS
 62
     0
440
 16777216
100
AcDbPoint
 10
1596.800166572118
 20
-10081.09543825751
 30
0.0
  0
POINT
  5
584A
330
5841
100
AcDbEntity
  8
DEFPOINTS
 62
     0
440
 16777216
100
AcDbPoint
 10
1596.800166572118
 20
-10056.09543825751
 30
0.0
  0
POINT
  5
584B
330
5841
100
AcDbEntity
  8
DEFPOINTS
 62
     0
440
 16777216
100
AcDbPoint
 10
1586.825825280121
 20
-10056.09543825751
 30
0.0
  0
ENDBLK
  5
584C
330
5841
100
AcDbEntity
  8
0
100
AcDbBlockEnd
  0
BLOCK
  5
5A7F
330
5A7E
100
AcDbEntity
  8
0
100
AcDbBlockBegin
  2
*D75
 70
     1
 10
0.0
 20
0.0
 30
0.0
  3
*D75
  1

  0
LINE
  5
5BB8
330
5A7E
100
AcDbEntity
  8
2寸法線
 62
     0
440
 16777216
370
    -2
100
AcDbLine
 10
685.7476232296648
 20
201.4745631576748
 30
0.0
 11
685.7476232296648
 21
204.2332069608524
 31
0.0
  0
LINE
  5
5BB9
330
5A7E
100
AcDbEntity
  8
2寸法線
 62
     0
440
 16777216
370
    -2
100
AcDbLine
 10
688.7476232296667
 20
196.1219970813413
 30
0.0
 11
688.7476232296667
 21
204.2332069608524
 31
0.0
  0
LINE
  5
5BBA
330
5A7E
100
AcDbEntity
  8
2寸法線
 62
     0
440
 16777216
370
    -2
100
AcDbLine
 10
690.5476232296666
 20
203.2332069608524
 30
0.0
 11
692.3476232296667
 21
203.2332069608524
 31
0.0
  0
LINE
  5
5BBB
330
5A7E
100
AcDbEntity
  8
2寸法線
 62
     0
440
 16777216
370
    -2
100
AcDbLine
 10
683.9476232296649
 20
203.2332069608524
 30
0.0
 11
676.3666708487124
 21
203.2332069608524
 31
0.0
  0
LINE
  5
5BBC
330
5A7E
100
AcDbEntity
  8
2寸法線
 62
     0
440
 16777216
370
    -2
100
AcDbLine
 10
688.7476232296667
 20
203.2332069608524
 30
0.0
 11
685.7476232296648
 21
203.2332069608524
 31
0.0
  0
INSERT
  5
5BBD
330
5A7E
100
AcDbEntity
  8
2寸法線
 62
     0
440
 16777216
370
    -2
100
AcDbBlockReference
  2
3
 10
688.7476232296667
 20
203.2332069608524
 30
0.0
 41
1.8
 42
1.8
 43
1.8
 50
180.0
  0
INSERT
  5
5BBE
330
5A7E
100
AcDbEntity
  8
2寸法線
 62
     0
440
 16777216
370
    -2
100
AcDbBlockReference
  2
2
 10
685.7476232296648
 20
203.2332069608524
 30
0.0
 41
1.8
 42
1.8
 43
1.8
  0
MTEXT
  5
5BBF
330
5A7E
100
AcDbEntity
  8
2寸法線
 62
     0
440
 16777216
100
AcDbMText
 10
678.9523851344267
 20
204.7332069608524
 30
0.0
 40
2.0
 41
0.0
 46
0.0
 71
     5
 72
     1
  1
\A1;（3）
  7
KANJI
 73
     1
 44
1.0
  0
POINT
  5
5BC0
330
5A7E
100
AcDbEntity
  8
DEFPOINTS
 62
     0
440
 16777216
100
AcDbPoint
 10
685.7476232296648
 20
200.4745631576748
 30
0.0
  0
POINT
  5
5BC1
330
5A7E
100
AcDbEntity
  8
DEFPOINTS
 62
     0
440
 16777216
100
AcDbPoint
 10
688.7476232296667
 20
195.1219970813413
 30
0.0
  0
POINT
  5
5BC2
330
5A7E
100
AcDbEntity
  8
DEFPOINTS
 62
     0
440
 16777216
100
AcDbPoint
 10
688.7476232296667
 20
203.2332069608524
 30
0.0
  0
ENDBLK
  5
5A80
330
5A7E
100
AcDbEntity
  8
0
100
AcDbBlockEnd
  0
BLOCK
  5
5A8D
330
5A8C
100
AcDbEntity
  8
0
100
AcDbBlockBegin
  2
*D76
 70
     1
 10
0.0
 20
0.0
 30
0.0
  3
*D76
  1

  0
LINE
  5
5BC3
330
5A8C
100
AcDbEntity
  8
2寸法線
 62
     0
440
 16777216
370
    -2
100
AcDbLine
 10
691.7476232296666
 20
196.1219970813413
 30
0.0
 11
691.7476232296666
 21
204.2332069608524
 31
0.0
  0
LINE
  5
5BC4
330
5A8C
100
AcDbEntity
  8
2寸法線
 62
     0
440
 16777216
370
    -2
100
AcDbLine
 10
688.7476232296667
 20
196.1219970813413
 30
0.0
 11
688.7476232296667
 21
204.2332069608524
 31
0.0
  0
LINE
  5
5BC5
330
5A8C
100
AcDbEntity
  8
2寸法線
 62
     0
440
 16777216
370
    -2
100
AcDbLine
 10
686.9476232296667
 20
203.2332069608524
 30
0.0
 11
685.1476232296667
 21
203.2332069608524
 31
0.0
  0
LINE
  5
5BC6
330
5A8C
100
AcDbEntity
  8
2寸法線
 62
     0
440
 16777216
370
    -2
100
AcDbLine
 10
693.5476232296666
 20
203.2332069608524
 30
0.0
 11
701.128575610619
 21
203.2332069608524
 31
0.0
  0
LINE
  5
5BC7
330
5A8C
100
AcDbEntity
  8
2寸法線
 62
     0
440
 16777216
370
    -2
100
AcDbLine
 10
688.7476232296667
 20
203.2332069608524
 30
0.0
 11
691.7476232296666
 21
203.2332069608524
 31
0.0
  0
INSERT
  5
5BC8
330
5A8C
100
AcDbEntity
  8
2寸法線
 62
     0
440
 16777216
370
    -2
100
AcDbBlockReference
  2
3
 10
688.7476232296667
 20
203.2332069608524
 30
0.0
 41
1.8
 42
1.8
 43
1.8
  0
INSERT
  5
5BC9
330
5A8C
100
AcDbEntity
  8
2寸法線
 62
     0
440
 16777216
370
    -2
100
AcDbBlockReference
  2
2
 10
691.7476232296666
 20
203.2332069608524
 30
0.0
 41
1.8
 42
1.8
 43
1.8
 50
180.0
  0
MTEXT
  5
5BCA
330
5A8C
100
AcDbEntity
  8
2寸法線
 62
     0
440
 16777216
100
AcDbMText
 10
698.5428613249048
 20
204.7332069608524
 30
0.0
 40
2.0
 41
0.0
 46
0.0
 71
     5
 72
     1
  1
\A1;（3）
  7
KANJI
 73
     1
 44
1.0
  0
POINT
  5
5BCB
330
5A8C
100
AcDbEntity
  8
DEFPOINTS
 62
     0
440
 16777216
100
AcDbPoint
 10
691.7476232296666
 20
195.1219970813413
 30
0.0
  0
POINT
  5
5BCC
330
5A8C
100
AcDbEntity
  8
DEFPOINTS
 62
     0
440
 16777216
100
AcDbPoint
 10
688.7476232296667
 20
195.1219970813413
 30
0.0
  0
POINT
  5
5BCD
330
5A8C
100
AcDbEntity
  8
DEFPOINTS
 62
     0
440
 16777216
100
AcDbPoint
 10
688.7476232296667
 20
203.2332069608524
 30
0.0
  0
ENDBLK
  5
5A8E
330
5A8C
100
AcDbEntity
  8
0
100
AcDbBlockEnd
  0
BLOCK
  5
5A9B
330
5A9A
100
AcDbEntity
  8
0
100
AcDbBlockBegin
  2
*D77
 70
     1
 10
0.0
 20
0.0
 30
0.0
  3
*D77
  1

  0
LINE
  5
5BCE
330
5A9A
100
AcDbEntity
  8
2寸法線
 62
     0
440
 16777216
370
    -2
100
AcDbLine
 10
691.7476232296666
 20
175.8271292340082
 30
0.0
 11
691.7476232296666
 21
165.6224931512747
 31
0.0
  0
LINE
  5
5BCF
330
5A9A
100
AcDbEntity
  8
2寸法線
 62
     0
440
 16777216
370
    -2
100
AcDbLine
 10
693.7476467518645
 20
177.0641365756942
 30
0.0
 11
693.7476467518645
 21
165.6224931512747
 31
0.0
  0
LINE
  5
5BD0
330
5A9A
100
AcDbEntity
  8
2寸法線
 62
     0
440
 16777216
370
    -2
100
AcDbLine
 10
695.5476467518645
 20
166.6224931512747
 30
0.0
 11
697.3476467518645
 21
166.6224931512747
 31
0.0
  0
LINE
  5
5BD1
330
5A9A
100
AcDbEntity
  8
2寸法線
 62
     0
440
 16777216
370
    -2
100
AcDbLine
 10
689.9476232296668
 20
166.6224931512747
 30
0.0
 11
676.5241913140386
 21
166.6224931512747
 31
0.0
  0
LINE
  5
5BD2
330
5A9A
100
AcDbEntity
  8
2寸法線
 62
     0
440
 16777216
370
    -2
100
AcDbLine
 10
693.7476467518645
 20
166.6224931512747
 30
0.0
 11
691.7476232296666
 21
166.6224931512747
 31
0.0
  0
INSERT
  5
5BD3
330
5A9A
100
AcDbEntity
  8
2寸法線
 62
     0
440
 16777216
370
    -2
100
AcDbBlockReference
  2
3
 10
693.7476467518645
 20
166.6224931512747
 30
0.0
 41
1.8
 42
1.8
 43
1.8
 50
180.0
  0
INSERT
  5
5BD4
330
5A9A
100
AcDbEntity
  8
2寸法線
 62
     0
440
 16777216
370
    -2
100
AcDbBlockReference
  2
2
 10
691.7476232296666
 20
166.6224931512747
 30
0.0
 41
1.8
 42
1.8
 43
1.8
  0
MTEXT
  5
5BD5
330
5A9A
100
AcDbEntity
  8
2寸法線
 62
     0
440
 16777216
100
AcDbMText
 10
679.1099055997529
 20
168.1224931512747
 30
0.0
 40
2.0
 41
0.0
 46
0.0
 71
     5
 72
     1
  1
\A1;（2）
  7
KANJI
 73
     1
 44
1.0
  0
POINT
  5
5BD6
330
5A9A
100
AcDbEntity
  8
DEFPOINTS
 62
     0
440
 16777216
100
AcDbPoint
 10
691.7476232296666
 20
176.8271292340082
 30
0.0
  0
POINT
  5
5BD7
330
5A9A
100
AcDbEntity
  8
DEFPOINTS
 62
     0
440
 16777216
100
AcDbPoint
 10
693.7476467518645
 20
178.0641365756942
 30
0.0
  0
POINT
  5
5BD8
330
5A9A
100
AcDbEntity
  8
DEFPOINTS
 62
     0
440
 16777216
100
AcDbPoint
 10
693.7476467518645
 20
166.6224931512747
 30
0.0
  0
ENDBLK
  5
5A9C
330
5A9A
100
AcDbEntity
  8
0
100
AcDbBlockEnd
  0
BLOCK
  5
5AA9
330
5AA8
100
AcDbEntity
  8
0
100
AcDbBlockBegin
  2
*D78
 70
     1
 10
0.0
 20
0.0
 30
0.0
  3
*D78
  1

  0
LINE
  5
5BD9
330
5AA8
100
AcDbEntity
  8
2寸法線
 62
     0
440
 16777216
370
    -2
100
AcDbLine
 10
696.7476232296667
 20
177.961164348078
 30
0.0
 11
696.7476232296667
 21
165.6224931512765
 31
0.0
  0
LINE
  5
5BDA
330
5AA8
100
AcDbEntity
  8
2寸法線
 62
     0
440
 16777216
370
    -2
100
AcDbLine
 10
693.7476467518645
 20
177.0641365756942
 30
0.0
 11
693.7476467518645
 21
165.6224931512765
 31
0.0
  0
LINE
  5
5BDB
330
5AA8
100
AcDbEntity
  8
2寸法線
 62
     0
440
 16777216
370
    -2
100
AcDbLine
 10
691.9476467518645
 20
166.6224931512765
 30
0.0
 11
690.1476467518644
 21
166.6224931512765
 31
0.0
  0
LINE
  5
5BDC
330
5AA8
100
AcDbEntity
  8
2寸法線
 62
     0
440
 16777216
370
    -2
100
AcDbLine
 10
698.5476232296666
 20
166.6224931512765
 30
0.0
 11
706.1285756106191
 21
166.6224931512765
 31
0.0
  0
LINE
  5
5BDD
330
5AA8
100
AcDbEntity
  8
2寸法線
 62
     0
440
 16777216
370
    -2
100
AcDbLine
 10
693.7476467518645
 20
166.6224931512765
 30
0.0
 11
696.7476232296667
 21
166.6224931512765
 31
0.0
  0
INSERT
  5
5BDE
330
5AA8
100
AcDbEntity
  8
2寸法線
 62
     0
440
 16777216
370
    -2
100
AcDbBlockReference
  2
3
 10
693.7476467518645
 20
166.6224931512765
 30
0.0
 41
1.8
 42
1.8
 43
1.8
  0
INSERT
  5
5BDF
330
5AA8
100
AcDbEntity
  8
2寸法線
 62
     0
440
 16777216
370
    -2
100
AcDbBlockReference
  2
2
 10
696.7476232296667
 20
166.6224931512765
 30
0.0
 41
1.8
 42
1.8
 43
1.8
 50
180.0
  0
MTEXT
  5
5BE0
330
5AA8
100
AcDbEntity
  8
2寸法線
 62
     0
440
 16777216
100
AcDbMText
 10
703.5428613249048
 20
168.1224931512765
 30
0.0
 40
2.0
 41
0.0
 46
0.0
 71
     5
 72
     1
  1
\A1;（3）
  7
KANJI
 73
     1
 44
1.0
  0
POINT
  5
5BE1
330
5AA8
100
AcDbEntity
  8
DEFPOINTS
 62
     0
440
 16777216
100
AcDbPoint
 10
696.7476232296667
 20
178.961164348078
 30
0.0
  0
POINT
  5
5BE2
330
5AA8
100
AcDbEntity
  8
DEFPOINTS
 62
     0
440
 16777216
100
AcDbPoint
 10
693.7476467518645
 20
178.0641365756942
 30
0.0
  0
POINT
  5
5BE3
330
5AA8
100
AcDbEntity
  8
DEFPOINTS
 62
     0
440
 16777216
100
AcDbPoint
 10
693.7476467518645
 20
166.6224931512765
 30
0.0
  0
ENDBLK
  5
5AAA
330
5AA8
100
AcDbEntity
  8
0
100
AcDbBlockEnd
  0
BLOCK
  5
5AB7
330
5AB6
100
AcDbEntity
  8
0
100
AcDbBlockBegin
  2
*D79
 70
     1
 10
0.0
 20
0.0
 30
0.0
  3
*D79
  1

  0
LINE
  5
5BE4
330
5AB6
100
AcDbEntity
  8
2寸法線
 62
     0
440
 16777216
370
    -2
100
AcDbLine
 10
778.7476232296612
 20
201.4745631576784
 30
0.0
 11
778.7476232296612
 21
204.8593104268525
 31
0.0
  0
LINE
  5
5BE5
330
5AB6
100
AcDbEntity
  8
2寸法線
 62
     0
440
 16777216
370
    -2
100
AcDbLine
 10
775.7506929498868
 20
192.9745631576784
 30
0.0
 11
775.7506929498868
 21
204.8593104268525
 31
0.0
  0
LINE
  5
5BE6
330
5AB6
100
AcDbEntity
  8
2寸法線
 62
     0
440
 16777216
370
    -2
100
AcDbLine
 10
773.9506929498868
 20
203.8593104268525
 30
0.0
 11
772.1506929498867
 21
203.8593104268525
 31
0.0
  0
LINE
  5
5BE7
330
5AB6
100
AcDbEntity
  8
2寸法線
 62
     0
440
 16777216
370
    -2
100
AcDbLine
 10
780.5476232296612
 20
203.8593104268525
 30
0.0
 11
788.8023851344236
 21
203.8593104268525
 31
0.0
  0
LINE
  5
5BE8
330
5AB6
100
AcDbEntity
  8
2寸法線
 62
     0
440
 16777216
370
    -2
100
AcDbLine
 10
775.7506929498868
 20
203.8593104268525
 30
0.0
 11
778.7476232296612
 21
203.8593104268525
 31
0.0
  0
INSERT
  5
5BE9
330
5AB6
100
AcDbEntity
  8
2寸法線
 62
     0
440
 16777216
370
    -2
100
AcDbBlockReference
  2
3
 10
775.7506929498868
 20
203.8593104268525
 30
0.0
 41
1.8
 42
1.8
 43
1.8
  0
INSERT
  5
5BEA
330
5AB6
100
AcDbEntity
  8
2寸法線
 62
     0
440
 16777216
370
    -2
100
AcDbBlockReference
  2
2
 10
778.7476232296612
 20
203.8593104268525
 30
0.0
 41
1.8
 42
1.8
 43
1.8
 50
180.0
  0
MTEXT
  5
5BEB
330
5AB6
100
AcDbEntity
  8
2寸法線
 62
     0
440
 16777216
100
AcDbMText
 10
786.2166708487093
 20
205.3593104268525
 30
0.0
 40
2.0
 41
0.0
 46
0.0
 71
     5
 72
     1
  1
\A1;（3）
  7
KANJI
 73
     1
 44
1.0
  0
POINT
  5
5BEC
330
5AB6
100
AcDbEntity
  8
DEFPOINTS
 62
     0
440
 16777216
100
AcDbPoint
 10
778.7476232296612
 20
200.4745631576784
 30
0.0
  0
POINT
  5
5BED
330
5AB6
100
AcDbEntity
  8
DEFPOINTS
 62
     0
440
 16777216
100
AcDbPoint
 10
775.7506929498868
 20
191.9745631576784
 30
0.0
  0
POINT
  5
5BEE
330
5AB6
100
AcDbEntity
  8
DEFPOINTS
 62
     0
440
 16777216
100
AcDbPoint
 10
775.7506929498868
 20
203.8593104268525
 30
0.0
  0
ENDBLK
  5
5AB8
330
5AB6
100
AcDbEntity
  8
0
100
AcDbBlockEnd
  0
BLOCK
  5
5AC5
330
5AC4
100
AcDbEntity
  8
0
100
AcDbBlockBegin
  2
*D80
 70
     1
 10
0.0
 20
0.0
 30
0.0
  3
*D80
  1

  0
LINE
  5
5BEF
330
5AC4
100
AcDbEntity
  8
2寸法線
 62
     0
440
 16777216
370
    -2
100
AcDbLine
 10
773.7506925592825
 20
192.9745631576784
 30
0.0
 11
773.7506925592825
 21
204.8593104268525
 31
0.0
  0
LINE
  5
5BF0
330
5AC4
100
AcDbEntity
  8
2寸法線
 62
     0
440
 16777216
370
    -2
100
AcDbLine
 10
775.7506929498868
 20
192.9745631576784
 30
0.0
 11
775.7506929498868
 21
204.8593104268525
 31
0.0
  0
LINE
  5
5BF1
330
5AC4
100
AcDbEntity
  8
2寸法線
 62
     0
440
 16777216
370
    -2
100
AcDbLine
 10
777.5506929498868
 20
203.8593104268525
 30
0.0
 11
779.3506929498868
 21
203.8593104268525
 31
0.0
  0
LINE
  5
5BF2
330
5AC4
100
AcDbEntity
  8
2寸法線
 62
     0
440
 16777216
370
    -2
100
AcDbLine
 10
771.9506925592825
 20
203.8593104268525
 30
0.0
 11
764.36974017833
 21
203.8593104268525
 31
0.0
  0
LINE
  5
5BF3
330
5AC4
100
AcDbEntity
  8
2寸法線
 62
     0
440
 16777216
370
    -2
100
AcDbLine
 10
775.7506929498868
 20
203.8593104268525
 30
0.0
 11
773.7506925592825
 21
203.8593104268525
 31
0.0
  0
INSERT
  5
5BF4
330
5AC4
100
AcDbEntity
  8
2寸法線
 62
     0
440
 16777216
370
    -2
100
AcDbBlockReference
  2
3
 10
775.7506929498868
 20
203.8593104268525
 30
0.0
 41
1.8
 42
1.8
 43
1.8
 50
180.0
  0
INSERT
  5
5BF5
330
5AC4
100
AcDbEntity
  8
2寸法線
 62
     0
440
 16777216
370
    -2
100
AcDbBlockReference
  2
2
 10
773.7506925592825
 20
203.8593104268525
 30
0.0
 41
1.8
 42
1.8
 43
1.8
  0
MTEXT
  5
5BF6
330
5AC4
100
AcDbEntity
  8
2寸法線
 62
     0
440
 16777216
100
AcDbMText
 10
766.9554544640443
 20
205.3593104268525
 30
0.0
 40
2.0
 41
0.0
 46
0.0
 71
     5
 72
     1
  1
\A1;（2）
  7
KANJI
 73
     1
 44
1.0
  0
POINT
  5
5BF7
330
5AC4
100
AcDbEntity
  8
DEFPOINTS
 62
     0
440
 16777216
100
AcDbPoint
 10
773.7506925592825
 20
191.9745631576784
 30
0.0
  0
POINT
  5
5BF8
330
5AC4
100
AcDbEntity
  8
DEFPOINTS
 62
     0
440
 16777216
100
AcDbPoint
 10
775.7506929498868
 20
191.9745631576784
 30
0.0
  0
POINT
  5
5BF9
330
5AC4
100
AcDbEntity
  8
DEFPOINTS
 62
     0
440
 16777216
100
AcDbPoint
 10
775.7506929498868
 20
203.8593104268525
 30
0.0
  0
ENDBLK
  5
5AC6
330
5AC4
100
AcDbEntity
  8
0
100
AcDbBlockEnd
  0
BLOCK
  5
5AD3
330
5AD2
100
AcDbEntity
  8
0
100
AcDbBlockBegin
  2
*D81
 70
     1
 10
0.0
 20
0.0
 30
0.0
  3
*D81
  1

  0
LINE
  5
5BFA
330
5AD2
100
AcDbEntity
  8
2寸法線
 62
     0
440
 16777216
370
    -2
100
AcDbLine
 10
773.7506925592825
 20
178.9745631576784
 30
0.0
 11
773.7506925592825
 21
173.9391598159286
 31
0.0
  0
LINE
  5
5BFB
330
5AD2
100
AcDbEntity
  8
2寸法線
 62
     0
440
 16777216
370
    -2
100
AcDbLine
 10
771.7429473860538
 20
175.7960023530991
 30
0.0
 11
771.7429473860538
 21
173.9391598159286
 31
0.0
  0
LINE
  5
5BFC
330
5AD2
100
AcDbEntity
  8
2寸法線
 62
     0
440
 16777216
370
    -2
100
AcDbLine
 10
769.9429473860539
 20
174.9391598159286
 30
0.0
 11
768.1429473860538
 21
174.9391598159286
 31
0.0
  0
LINE
  5
5BFD
330
5AD2
100
AcDbEntity
  8
2寸法線
 62
     0
440
 16777216
370
    -2
100
AcDbLine
 10
775.5506925592824
 20
174.9391598159286
 30
0.0
 11
784.6723742121315
 21
174.9391598159286
 31
0.0
  0
LINE
  5
5BFE
330
5AD2
100
AcDbEntity
  8
2寸法線
 62
     0
440
 16777216
370
    -2
100
AcDbLine
 10
771.7429473860538
 20
174.9391598159286
 30
0.0
 11
773.7506925592825
 21
174.9391598159286
 31
0.0
  0
INSERT
  5
5BFF
330
5AD2
100
AcDbEntity
  8
2寸法線
 62
     0
440
 16777216
370
    -2
100
AcDbBlockReference
  2
3
 10
771.7429473860538
 20
174.9391598159286
 30
0.0
 41
1.8
 42
1.8
 43
1.8
  0
INSERT
  5
5C00
330
5AD2
100
AcDbEntity
  8
2寸法線
 62
     0
440
 16777216
370
    -2
100
AcDbBlockReference
  2
2
 10
773.7506925592825
 20
174.9391598159286
 30
0.0
 41
1.8
 42
1.8
 43
1.8
 50
180.0
  0
MTEXT
  5
5C01
330
5AD2
100
AcDbEntity
  8
2寸法線
 62
     0
440
 16777216
100
AcDbMText
 10
782.0866599264173
 20
176.4391598159286
 30
0.0
 40
2.0
 41
0.0
 46
0.0
 71
     5
 72
     1
  1
\A1;（2）
  7
KANJI
 73
     1
 44
1.0
  0
POINT
  5
5C02
330
5AD2
100
AcDbEntity
  8
DEFPOINTS
 62
     0
440
 16777216
100
AcDbPoint
 10
773.7506925592825
 20
179.9745631576784
 30
0.0
  0
POINT
  5
5C03
330
5AD2
100
AcDbEntity
  8
DEFPOINTS
 62
     0
440
 16777216
100
AcDbPoint
 10
771.7429473860538
 20
176.7960023530991
 30
0.0
  0
POINT
  5
5C04
330
5AD2
100
AcDbEntity
  8
DEFPOINTS
 62
     0
440
 16777216
100
AcDbPoint
 10
771.7429473860538
 20
174.9391598159286
 30
0.0
  0
ENDBLK
  5
5AD4
330
5AD2
100
AcDbEntity
  8
0
100
AcDbBlockEnd
  0
BLOCK
  5
5AE1
330
5AE0
100
AcDbEntity
  8
0
100
AcDbBlockBegin
  2
*D82
 70
     1
 10
0.0
 20
0.0
 30
0.0
  3
*D82
  1

  0
LINE
  5
5C05
330
5AE0
100
AcDbEntity
  8
2寸法線
 62
     0
440
 16777216
370
    -2
100
AcDbLine
 10
768.7429477766563
 20
175.7975332418805
 30
0.0
 11
768.7429477766563
 21
173.9391598159286
 31
0.0
  0
LINE
  5
5C06
330
5AE0
100
AcDbEntity
  8
2寸法線
 62
     0
440
 16777216
370
    -2
100
AcDbLine
 10
771.7429473860538
 20
175.7960023530991
 30
0.0
 11
771.7429473860538
 21
173.9391598159286
 31
0.0
  0
LINE
  5
5C07
330
5AE0
100
AcDbEntity
  8
2寸法線
 62
     0
440
 16777216
370
    -2
100
AcDbLine
 10
773.5429473860538
 20
174.9391598159286
 30
0.0
 11
775.3429473860538
 21
174.9391598159286
 31
0.0
  0
LINE
  5
5C08
330
5AE0
100
AcDbEntity
  8
2寸法線
 62
     0
440
 16777216
370
    -2
100
AcDbLine
 10
766.9429477766564
 20
174.9391598159286
 30
0.0
 11
759.3619953957039
 21
174.9391598159286
 31
0.0
  0
LINE
  5
5C09
330
5AE0
100
AcDbEntity
  8
2寸法線
 62
     0
440
 16777216
370
    -2
100
AcDbLine
 10
771.7429473860538
 20
174.9391598159286
 30
0.0
 11
768.7429477766563
 21
174.9391598159286
 31
0.0
  0
INSERT
  5
5C0A
330
5AE0
100
AcDbEntity
  8
2寸法線
 62
     0
440
 16777216
370
    -2
100
AcDbBlockReference
  2
3
 10
771.7429473860538
 20
174.9391598159286
 30
0.0
 41
1.8
 42
1.8
 43
1.8
 50
180.0
  0
INSERT
  5
5C0B
330
5AE0
100
AcDbEntity
  8
2寸法線
 62
     0
440
 16777216
370
    -2
100
AcDbBlockReference
  2
2
 10
768.7429477766563
 20
174.9391598159286
 30
0.0
 41
1.8
 42
1.8
 43
1.8
  0
MTEXT
  5
5C0C
330
5AE0
100
AcDbEntity
  8
2寸法線
 62
     0
440
 16777216
100
AcDbMText
 10
761.9477096814182
 20
176.4391598159286
 30
0.0
 40
2.0
 41
0.0
 46
0.0
 71
     5
 72
     1
  1
\A1;（3）
  7
KANJI
 73
     1
 44
1.0
  0
POINT
  5
5C0D
330
5AE0
100
AcDbEntity
  8
DEFPOINTS
 62
     0
440
 16777216
100
AcDbPoint
 10
768.7429477766563
 20
176.7975332418805
 30
0.0
  0
POINT
  5
5C0E
330
5AE0
100
AcDbEntity
  8
DEFPOINTS
 62
     0
440
 16777216
100
AcDbPoint
 10
771.7429473860538
 20
176.7960023530991
 30
0.0
  0
POINT
  5
5C0F
330
5AE0
100
AcDbEntity
  8
DEFPOINTS
 62
     0
440
 16777216
100
AcDbPoint
 10
771.7429473860538
 20
174.9391598159286
 30
0.0
  0
ENDBLK
  5
5AE2
330
5AE0
100
AcDbEntity
  8
0
100
AcDbBlockEnd
  0
BLOCK
  5
5AEF
330
5AEE
100
AcDbEntity
  8
0
100
AcDbBlockBegin
  2
*D83
 70
     1
 10
0.0
 20
0.0
 30
0.0
  3
*D83
  1

  0
LINE
  5
5C10
330
5AEE
100
AcDbEntity
  8
2寸法線
 62
     0
440
 16777216
370
    -2
100
AcDbLine
 10
786.903142688789
 20
185.4745631576748
 30
0.0
 11
788.2409124759708
 21
185.4745631576748
 31
0.0
  0
LINE
  5
5C11
330
5AEE
100
AcDbEntity
  8
2寸法線
 62
     0
440
 16777216
370
    -2
100
AcDbLine
 10
786.903142688789
 20
186.4745631576748
 30
0.0
 11
788.2409124759708
 21
186.4745631576748
 31
0.0
  0
LINE
  5
5C12
330
5AEE
100
AcDbEntity
  8
2寸法線
 62
     0
440
 16777216
370
    -2
100
AcDbLine
 10
787.2409124759708
 20
183.6745631576748
 30
0.0
 11
787.2409124759708
 21
181.8745631576748
 31
0.0
  0
LINE
  5
5C13
330
5AEE
100
AcDbEntity
  8
2寸法線
 62
     0
440
 16777216
370
    -2
100
AcDbLine
 10
787.2409124759708
 20
188.2745631576748
 30
0.0
 11
787.2409124759708
 21
193.028863347056
 31
0.0
  0
LINE
  5
5C14
330
5AEE
100
AcDbEntity
  8
2寸法線
 62
     0
440
 16777216
370
    -2
100
AcDbLine
 10
787.2409124759708
 20
185.4745631576748
 30
0.0
 11
787.2409124759708
 21
186.4745631576748
 31
0.0
  0
INSERT
  5
5C15
330
5AEE
100
AcDbEntity
  8
2寸法線
 62
     0
440
 16777216
370
    -2
100
AcDbBlockReference
  2
2
 10
787.2409124759708
 20
185.4745631576748
 30
0.0
 41
1.8
 42
1.8
 43
1.8
 50
90.0
  0
INSERT
  5
5C16
330
5AEE
100
AcDbEntity
  8
2寸法線
 62
     0
440
 16777216
370
    -2
100
AcDbBlockReference
  2
2
 10
787.2409124759708
 20
186.4745631576748
 30
0.0
 41
1.8
 42
1.8
 43
1.8
 50
270.0
  0
MTEXT
  5
5C17
330
5AEE
100
AcDbEntity
  8
2寸法線
 62
     0
440
 16777216
100
AcDbMText
 10
785.4909124759706
 20
192.2312442994366
 30
0.0
 40
2.5
 41
0.0
 46
0.0
 71
     5
 72
     1
  1
\A1;1
  7
KANJI
 11
0.0000000000000001
 21
1.0
 31
0.0
 73
     1
 44
1.0
  0
POINT
  5
5C18
330
5AEE
100
AcDbEntity
  8
DEFPOINTS
 62
     0
440
 16777216
100
AcDbPoint
 10
785.9031426887891
 20
185.4745631576748
 30
0.0
  0
POINT
  5
5C19
330
5AEE
100
AcDbEntity
  8
DEFPOINTS
 62
     0
440
 16777216
100
AcDbPoint
 10
785.9031426887891
 20
186.4745631576748
 30
0.0
  0
POINT
  5
5C1A
330
5AEE
100
AcDbEntity
  8
DEFPOINTS
 62
     0
440
 16777216
100
AcDbPoint
 10
787.2409124759708
 20
186.4745631576748
 30
0.0
  0
ENDBLK
  5
5AF0
330
5AEE
100
AcDbEntity
  8
0
100
AcDbBlockEnd
  0
BLOCK
  5
5AFD
330
5AFC
100
AcDbEntity
  8
0
100
AcDbBlockBegin
  2
*D84
 70
     1
 10
0.0
 20
0.0
 30
0.0
  3
*D84
  1

  0
LINE
  5
5C1B
330
5AFC
100
AcDbEntity
  8
2寸法線
 62
     0
440
 16777216
370
    -2
100
AcDbLine
 10
802.4430496257503
 20
163.4497204091327
 30
0.0
 11
798.8478115304781
 21
163.4497204091327
 31
0.0
  0
LINE
  5
5C1C
330
5AFC
100
AcDbEntity
  8
2寸法線
 62
     0
440
 16777216
370
    -2
100
AcDbLine
 10
798.8478115304781
 20
163.4497204091327
 30
0.0
 11
795.9612578444092
 21
169.4512536202032
 31
0.0
  0
MTEXT
  5
5C1D
330
5AFC
100
AcDbEntity
  8
2寸法線
 62
     0
440
 16777216
100
AcDbMText
 10
800.8954305781312
 20
165.1997204091326
 30
0.0
 40
2.5
 41
0.0
 46
0.0
 71
     5
 72
     1
  1
\A1;R1
  7
KANJI
 73
     1
 44
1.0
  0
INSERT
  5
5C1E
330
5AFC
100
AcDbEntity
  8
2寸法線
 62
     0
440
 16777216
370
    -2
100
AcDbBlockReference
  2
2
 10
795.1810641635031
 20
171.0733811800068
 30
0.0
 41
1.8
 42
1.8
 43
1.8
 50
115.686129499403
  0
POINT
  5
5C1F
330
5AFC
100
AcDbEntity
  8
DEFPOINTS
 62
     0
440
 16777216
100
AcDbPoint
 10
795.1810641635031
 20
171.0733811800068
 30
0.0
  0
POINT
  5
5C20
330
5AFC
100
AcDbEntity
  8
DEFPOINTS
 62
     0
440
 16777216
100
AcDbPoint
 10
794.7476232296642
 20
171.9745631576801
 30
0.0
  0
ENDBLK
  5
5AFE
330
5AFC
100
AcDbEntity
  8
0
100
AcDbBlockEnd
  0
BLOCK
  5
5B06
330
5B05
100
AcDbEntity
  8
0
100
AcDbBlockBegin
  2
*D85
 70
     1
 10
0.0
 20
0.0
 30
0.0
  3
*D85
  1

  0
LINE
  5
5C21
330
5B05
100
AcDbEntity
  8
2寸法線
 62
     0
440
 16777216
370
    -2
100
AcDbLine
 10
802.2398515774209
 20
205.5702741660421
 30
0.0
 11
798.6446134821829
 21
205.5702741660422
 31
0.0
  0
LINE
  5
5C22
330
5B05
100
AcDbEntity
  8
2寸法線
 62
     0
440
 16777216
370
    -2
100
AcDbLine
 10
798.6446134821829
 20
205.5702741660422
 30
0.0
 11
796.3477994437637
 21
202.272265506501
 31
0.0
  0
MTEXT
  5
5C23
330
5B05
100
AcDbEntity
  8
2寸法線
 62
     0
440
 16777216
100
AcDbMText
 10
800.6922325298019
 20
207.3202741660422
 30
0.0
 40
2.5
 41
0.0
 46
0.0
 71
     5
 72
     1
  1
\A1;R1
  7
KANJI
 73
     1
 44
1.0
  0
INSERT
  5
5C24
330
5B05
100
AcDbEntity
  8
2寸法線
 62
     0
440
 16777216
370
    -2
100
AcDbBlockReference
  2
2
 10
795.3191147346979
 20
200.7951711393957
 30
0.0
 41
1.8
 42
1.8
 43
1.8
 50
235.1457014424324
  0
POINT
  5
5C25
330
5B05
100
AcDbEntity
  8
DEFPOINTS
 62
     0
440
 16777216
100
AcDbPoint
 10
795.3191147346979
 20
200.7951711393957
 30
0.0
  0
POINT
  5
5C26
330
5B05
100
AcDbEntity
  8
DEFPOINTS
 62
     0
440
 16777216
100
AcDbPoint
 10
794.7476232296667
 20
199.9745631576785
 30
0.0
  0
ENDBLK
  5
5B07
330
5B05
100
AcDbEntity
  8
0
100
AcDbBlockEnd
  0
BLOCK
  5
5B0F
330
5B0E
100
AcDbEntity
  8
0
100
AcDbBlockBegin
  2
*D86
 70
     1
 10
0.0
 20
0.0
 30
0.0
  3
*D86
  1

  0
LINE
  5
5C27
330
5B0E
100
AcDbEntity
  8
2寸法線
 62
     0
440
 16777216
370
    -2
100
AcDbLine
 10
790.2897483511629
 20
218.5245104416367
 30
0.0
 11
786.6945102559248
 21
218.5245104416365
 31
0.0
  0
LINE
  5
5C28
330
5B0E
100
AcDbEntity
  8
2寸法線
 62
     0
440
 16777216
370
    -2
100
AcDbLine
 10
786.6945102559248
 20
218.5245104416365
 30
0.0
 11
781.6367346205918
 21
212.991265398606
 31
0.0
  0
MTEXT
  5
5C29
330
5B0E
100
AcDbEntity
  8
2寸法線
 62
     0
440
 16777216
100
AcDbMText
 10
788.7421293035438
 20
220.2745104416366
 30
0.0
 40
2.5
 41
0.0
 46
0.0
 71
     5
 72
     1
  1
\A1;R1
  7
KANJI
 73
     1
 44
1.0
  0
INSERT
  5
5C2A
330
5B0E
100
AcDbEntity
  8
2寸法線
 62
     0
440
 16777216
370
    -2
100
AcDbBlockReference
  2
2
 10
780.422305869276
 20
211.6626711008697
 30
0.0
 41
1.8
 42
1.8
 43
1.8
 50
227.5704898034722
  0
POINT
  5
5C2B
330
5B0E
100
AcDbEntity
  8
DEFPOINTS
 62
     0
440
 16777216
100
AcDbPoint
 10
780.422305869276
 20
211.6626711008697
 30
0.0
  0
POINT
  5
5C2C
330
5B0E
100
AcDbEntity
  8
DEFPOINTS
 62
     0
440
 16777216
100
AcDbPoint
 10
779.7476232296558
 20
210.9245631576826
 30
0.0
  0
ENDBLK
  5
5B10
330
5B0E
100
AcDbEntity
  8
0
100
AcDbBlockEnd
  0
BLOCK
  5
5B18
330
5B17
100
AcDbEntity
  8
0
100
AcDbBlockBegin
  2
*D87
 70
     1
 10
0.0
 20
0.0
 30
0.0
  3
*D87
  1

  0
LINE
  5
5C2D
330
5B17
100
AcDbEntity
  8
2寸法線
 62
     0
440
 16777216
370
    -2
100
AcDbLine
 10
744.2366667907918
 20
201.8800430813475
 30
0.0
 11
747.8319048860298
 21
201.8800430813477
 31
0.0
  0
LINE
  5
5C2E
330
5B17
100
AcDbEntity
  8
2寸法線
 62
     0
440
 16777216
370
    -2
100
AcDbLine
 10
747.8319048860298
 20
201.8800430813477
 30
0.0
 11
752.8556079061997
 21
207.3605190651745
 31
0.0
  0
MTEXT
  5
5C2F
330
5B17
100
AcDbEntity
  8
2寸法線
 62
     0
440
 16777216
100
AcDbMText
 10
745.7842858384109
 20
203.6300430813476
 30
0.0
 40
2.5
 41
0.0
 46
0.0
 71
     5
 72
     1
  1
\A1;R1
  7
KANJI
 73
     1
 44
1.0
  0
INSERT
  5
5C30
330
5B17
100
AcDbEntity
  8
2寸法線
 62
     0
440
 16777216
370
    -2
100
AcDbBlockReference
  2
2
 10
754.071903471282
 20
208.6874045532109
 30
0.0
 41
1.8
 42
1.8
 43
1.8
 50
47.48993145548929
  0
POINT
  5
5C31
330
5B17
100
AcDbEntity
  8
DEFPOINTS
 62
     0
440
 16777216
100
AcDbPoint
 10
754.071903471282
 20
208.6874045532109
 30
0.0
  0
POINT
  5
5C32
330
5B17
100
AcDbEntity
  8
DEFPOINTS
 62
     0
440
 16777216
100
AcDbPoint
 10
754.7476232296674
 20
209.4245631576828
 30
0.0
  0
ENDBLK
  5
5B19
330
5B17
100
AcDbEntity
  8
0
100
AcDbBlockEnd
  0
BLOCK
  5
5B21
330
5B20
100
AcDbEntity
  8
0
100
AcDbBlockBegin
  2
*D88
 70
     1
 10
0.0
 20
0.0
 30
0.0
  3
*D88
  1

  0
LINE
  5
5C33
330
5B20
100
AcDbEntity
  8
2寸法線
 62
     0
440
 16777216
370
    -2
100
AcDbLine
 10
769.5324301685217
 20
217.6510944026498
 30
0.0
 11
773.1276682637598
 21
217.6510944026499
 31
0.0
  0
LINE
  5
5C34
330
5B20
100
AcDbEntity
  8
2寸法線
 62
     0
440
 16777216
370
    -2
100
AcDbLine
 10
773.1276682637598
 20
217.6510944026499
 30
0.0
 11
779.2460800508018
 21
210.047824290538
 31
0.0
  0
MTEXT
  5
5C35
330
5B20
100
AcDbEntity
  8
2寸法線
 62
     0
440
 16777216
100
AcDbMText
 10
771.0800492161407
 20
219.4010944026499
 30
0.0
 40
2.5
 41
0.0
 46
0.0
 71
     5
 72
     1
  1
\A1;R1
  7
KANJI
 73
     1
 44
1.0
  0
INSERT
  5
5C36
330
5B20
100
AcDbEntity
  8
2寸法線
 62
     0
440
 16777216
370
    -2
100
AcDbBlockReference
  2
2
 10
780.3745522032297
 20
208.6454867415882
 30
0.0
 41
1.8
 42
1.8
 43
1.8
 50
308.823909458298
  0
POINT
  5
5C37
330
5B20
100
AcDbEntity
  8
DEFPOINTS
 62
     0
440
 16777216
100
AcDbPoint
 10
780.3745522032297
 20
208.6454867415882
 30
0.0
  0
POINT
  5
5C38
330
5B20
100
AcDbEntity
  8
DEFPOINTS
 62
     0
440
 16777216
100
AcDbPoint
 10
779.7476232296643
 20
209.4245631576646
 30
0.0
  0
ENDBLK
  5
5B22
330
5B20
100
AcDbEntity
  8
0
100
AcDbBlockEnd
  0
BLOCK
  5
5B2A
330
5B29
100
AcDbEntity
  8
0
100
AcDbBlockBegin
  2
*D89
 70
     1
 10
0.0
 20
0.0
 30
0.0
  3
*D89
  1

  0
LINE
  5
5C39
330
5B29
100
AcDbEntity
  8
2寸法線
 62
     0
440
 16777216
370
    -2
100
AcDbLine
 10
753.7476232296626
 20
125.5603136856985
 30
0.0
 11
753.7476232296626
 21
111.925100177817
 31
0.0
  0
LINE
  5
5C3A
330
5B29
100
AcDbEntity
  8
2寸法線
 62
     0
440
 16777216
370
    -2
100
AcDbLine
 10
755.2476232296617
 20
119.5603136856966
 30
0.0
 11
755.2476232296617
 21
111.925100177817
 31
0.0
  0
LINE
  5
5C3B
330
5B29
100
AcDbEntity
  8
2寸法線
 62
     0
440
 16777216
370
    -2
100
AcDbLine
 10
757.0476232296616
 20
112.925100177817
 30
0.0
 11
758.8476232296617
 21
112.925100177817
 31
0.0
  0
LINE
  5
5C3C
330
5B29
100
AcDbEntity
  8
2寸法線
 62
     0
440
 16777216
370
    -2
100
AcDbLine
 10
751.9476232296626
 20
112.925100177817
 30
0.0
 11
744.3857184677577
 21
112.925100177817
 31
0.0
  0
LINE
  5
5C3D
330
5B29
100
AcDbEntity
  8
2寸法線
 62
     0
440
 16777216
370
    -2
100
AcDbLine
 10
755.2476232296617
 20
112.925100177817
 30
0.0
 11
753.7476232296626
 21
112.925100177817
 31
0.0
  0
INSERT
  5
5C3E
330
5B29
100
AcDbEntity
  8
2寸法線
 62
     0
440
 16777216
370
    -2
100
AcDbBlockReference
  2
3
 10
755.2476232296617
 20
112.925100177817
 30
0.0
 41
1.8
 42
1.8
 43
1.8
 50
180.0
  0
INSERT
  5
5C3F
330
5B29
100
AcDbEntity
  8
2寸法線
 62
     0
440
 16777216
370
    -2
100
AcDbBlockReference
  2
2
 10
753.7476232296626
 20
112.925100177817
 30
0.0
 41
1.8
 42
1.8
 43
1.8
  0
MTEXT
  5
5C40
330
5B29
100
AcDbEntity
  8
2寸法線
 62
     0
440
 16777216
100
AcDbMText
 10
747.2666708487102
 20
114.675100177817
 30
0.0
 40
2.5
 41
0.0
 46
0.0
 71
     5
 72
     1
  1
\A1;1.5
  7
KANJI
 73
     1
 44
1.0
  0
POINT
  5
5C41
330
5B29
100
AcDbEntity
  8
DEFPOINTS
 62
     0
440
 16777216
100
AcDbPoint
 10
753.7476232296626
 20
126.5603136856984
 30
0.0
  0
POINT
  5
5C42
330
5B29
100
AcDbEntity
  8
DEFPOINTS
 62
     0
440
 16777216
100
AcDbPoint
 10
755.2476232296617
 20
120.5603136856966
 30
0.0
  0
POINT
  5
5C43
330
5B29
100
AcDbEntity
  8
DEFPOINTS
 62
     0
440
 16777216
100
AcDbPoint
 10
755.2476232296617
 20
112.925100177817
 30
0.0
  0
ENDBLK
  5
5B2B
330
5B29
100
AcDbEntity
  8
0
100
AcDbBlockEnd
  0
BLOCK
  5
5B38
330
5B37
100
AcDbEntity
  8
0
100
AcDbBlockBegin
  2
*D90
 70
     1
 10
0.0
 20
0.0
 30
0.0
  3
*D90
  1

  0
LINE
  5
5C44
330
5B37
100
AcDbEntity
  8
2寸法線
 62
     0
440
 16777216
370
    -2
100
AcDbLine
 10
755.4476232296615
 20
126.5603136856966
 30
0.0
 11
755.4476232296615
 21
111.925100177817
 31
0.0
  0
LINE
  5
5C45
330
5B37
100
AcDbEntity
  8
2寸法線
 62
     0
440
 16777216
370
    -2
100
AcDbLine
 10
755.2476232296617
 20
119.5603136856966
 30
0.0
 11
755.2476232296617
 21
111.925100177817
 31
0.0
  0
LINE
  5
5C46
330
5B37
100
AcDbEntity
  8
2寸法線
 62
     0
440
 16777216
370
    -2
100
AcDbLine
 10
753.4476232296618
 20
112.925100177817
 30
0.0
 11
751.6476232296617
 21
112.925100177817
 31
0.0
  0
LINE
  5
5C47
330
5B37
100
AcDbEntity
  8
2寸法線
 62
     0
440
 16777216
370
    -2
100
AcDbLine
 10
757.2476232296614
 20
112.925100177817
 30
0.0
 11
765.2857184677567
 21
112.925100177817
 31
0.0
  0
LINE
  5
5C48
330
5B37
100
AcDbEntity
  8
2寸法線
 62
     0
440
 16777216
370
    -2
100
AcDbLine
 10
755.2476232296617
 20
112.925100177817
 30
0.0
 11
755.4476232296615
 21
112.925100177817
 31
0.0
  0
INSERT
  5
5C49
330
5B37
100
AcDbEntity
  8
2寸法線
 62
     0
440
 16777216
370
    -2
100
AcDbBlockReference
  2
3
 10
755.2476232296617
 20
112.925100177817
 30
0.0
 41
1.8
 42
1.8
 43
1.8
  0
INSERT
  5
5C4A
330
5B37
100
AcDbEntity
  8
2寸法線
 62
     0
440
 16777216
370
    -2
100
AcDbBlockReference
  2
2
 10
755.4476232296615
 20
112.925100177817
 30
0.0
 41
1.8
 42
1.8
 43
1.8
 50
180.0
  0
MTEXT
  5
5C4B
330
5B37
100
AcDbEntity
  8
2寸法線
 62
     0
440
 16777216
100
AcDbMText
 10
762.1666708487091
 20
114.675100177817
 30
0.0
 40
2.5
 41
0.0
 46
0.0
 71
     5
 72
     1
  1
\A1;0.2
  7
KANJI
 73
     1
 44
1.0
  0
POINT
  5
5C4C
330
5B37
100
AcDbEntity
  8
DEFPOINTS
 62
     0
440
 16777216
100
AcDbPoint
 10
755.4476232296615
 20
127.5603136856966
 30
0.0
  0
POINT
  5
5C4D
330
5B37
100
AcDbEntity
  8
DEFPOINTS
 62
     0
440
 16777216
100
AcDbPoint
 10
755.2476232296617
 20
120.5603136856966
 30
0.0
  0
POINT
  5
5C4E
330
5B37
100
AcDbEntity
  8
DEFPOINTS
 62
     0
440
 16777216
100
AcDbPoint
 10
755.2476232296617
 20
112.925100177817
 30
0.0
  0
ENDBLK
  5
5B39
330
5B37
100
AcDbEntity
  8
0
100
AcDbBlockEnd
  0
BLOCK
  5
5B46
330
5B45
100
AcDbEntity
  8
0
100
AcDbBlockBegin
  2
*D91
 70
     1
 10
0.0
 20
0.0
 30
0.0
  3
*D91
  1

  0
LINE
  5
5C4F
330
5B45
100
AcDbEntity
  8
2寸法線
 62
     0
440
 16777216
370
    -2
100
AcDbLine
 10
779.2476232296617
 20
119.560313685693
 30
0.0
 11
779.2476232296617
 21
99.11999997240265
 31
0.0
  0
LINE
  5
5C50
330
5B45
100
AcDbEntity
  8
2寸法線
 62
     0
440
 16777216
370
    -2
100
AcDbLine
 10
755.2476232296617
 20
119.5603136856966
 30
0.0
 11
755.2476232296617
 21
99.11999997240265
 31
0.0
  0
LINE
  5
5C51
330
5B45
100
AcDbEntity
  8
2寸法線
 62
     0
440
 16777216
370
    -2
100
AcDbLine
 10
777.4476232296617
 20
100.1199999724026
 30
0.0
 11
757.0476232296616
 21
100.1199999724026
 31
0.0
  0
INSERT
  5
5C52
330
5B45
100
AcDbEntity
  8
2寸法線
 62
     0
440
 16777216
370
    -2
100
AcDbBlockReference
  2
2
 10
779.2476232296617
 20
100.1199999724026
 30
0.0
 41
1.8
 42
1.8
 43
1.8
  0
INSERT
  5
5C53
330
5B45
100
AcDbEntity
  8
2寸法線
 62
     0
440
 16777216
370
    -2
100
AcDbBlockReference
  2
2
 10
755.2476232296617
 20
100.1199999724026
 30
0.0
 41
1.8
 42
1.8
 43
1.8
 50
180.0
  0
MTEXT
  5
5C54
330
5B45
100
AcDbEntity
  8
2寸法線
 62
     0
440
 16777216
100
AcDbMText
 10
767.2476232296617
 20
101.8699999724026
 30
0.0
 40
2.5
 41
0.0
 46
0.0
 71
     5
 72
     1
  1
\A1;24
  7
KANJI
 73
     1
 44
1.0
  0
POINT
  5
5C55
330
5B45
100
AcDbEntity
  8
DEFPOINTS
 62
     0
440
 16777216
100
AcDbPoint
 10
779.2476232296617
 20
120.560313685693
 30
0.0
  0
POINT
  5
5C56
330
5B45
100
AcDbEntity
  8
DEFPOINTS
 62
     0
440
 16777216
100
AcDbPoint
 10
755.2476232296617
 20
120.5603136856966
 30
0.0
  0
POINT
  5
5C57
330
5B45
100
AcDbEntity
  8
DEFPOINTS
 62
     0
440
 16777216
100
AcDbPoint
 10
755.2476232296617
 20
100.1199999724026
 30
0.0
  0
ENDBLK
  5
5B47
330
5B45
100
AcDbEntity
  8
0
100
AcDbBlockEnd
  0
BLOCK
  5
5B52
330
5B51
100
AcDbEntity
  8
0
100
AcDbBlockBegin
  2
*D92
 70
     1
 10
0.0
 20
0.0
 30
0.0
  3
*D92
  1

  0
LINE
  5
5C58
330
5B51
100
AcDbEntity
  8
2寸法線
 62
     0
440
 16777216
370
    -2
100
AcDbLine
 10
779.0476232296619
 20
126.560313685693
 30
0.0
 11
779.0476232296619
 21
105.3538421472308
 31
0.0
  0
LINE
  5
5C59
330
5B51
100
AcDbEntity
  8
2寸法線
 62
     0
440
 16777216
370
    -2
100
AcDbLine
 10
779.2476232296617
 20
119.560313685693
 30
0.0
 11
779.2476232296617
 21
105.3538421472308
 31
0.0
  0
LINE
  5
5C5A
330
5B51
100
AcDbEntity
  8
2寸法線
 62
     0
440
 16777216
370
    -2
100
AcDbLine
 10
781.0476232296617
 20
106.3538421472308
 30
0.0
 11
782.8476232296617
 21
106.3538421472308
 31
0.0
  0
LINE
  5
5C5B
330
5B51
100
AcDbEntity
  8
2寸法線
 62
     0
440
 16777216
370
    -2
100
AcDbLine
 10
777.2476232296619
 20
106.3538421472308
 30
0.0
 11
769.2095279915666
 21
106.3538421472308
 31
0.0
  0
LINE
  5
5C5C
330
5B51
100
AcDbEntity
  8
2寸法線
 62
     0
440
 16777216
370
    -2
100
AcDbLine
 10
779.2476232296617
 20
106.3538421472308
 30
0.0
 11
779.0476232296619
 21
106.3538421472308
 31
0.0
  0
INSERT
  5
5C5D
330
5B51
100
AcDbEntity
  8
2寸法線
 62
     0
440
 16777216
370
    -2
100
AcDbBlockReference
  2
3
 10
779.2476232296617
 20
106.3538421472308
 30
0.0
 41
1.8
 42
1.8
 43
1.8
 50
180.0
  0
INSERT
  5
5C5E
330
5B51
100
AcDbEntity
  8
2寸法線
 62
     0
440
 16777216
370
    -2
100
AcDbBlockReference
  2
2
 10
779.0476232296619
 20
106.3538421472308
 30
0.0
 41
1.8
 42
1.8
 43
1.8
  0
MTEXT
  5
5C5F
330
5B51
100
AcDbEntity
  8
2寸法線
 62
     0
440
 16777216
100
AcDbMText
 10
772.3285756106142
 20
108.1038421472308
 30
0.0
 40
2.5
 41
0.0
 46
0.0
 71
     5
 72
     1
  1
\A1;0.2
  7
KANJI
 73
     1
 44
1.0
  0
POINT
  5
5C60
330
5B51
100
AcDbEntity
  8
DEFPOINTS
 62
     0
440
 16777216
100
AcDbPoint
 10
779.0476232296619
 20
127.560313685693
 30
0.0
  0
POINT
  5
5C61
330
5B51
100
AcDbEntity
  8
DEFPOINTS
 62
     0
440
 16777216
100
AcDbPoint
 10
779.2476232296617
 20
120.560313685693
 30
0.0
  0
POINT
  5
5C62
330
5B51
100
AcDbEntity
  8
DEFPOINTS
 62
     0
440
 16777216
100
AcDbPoint
 10
779.2476232296617
 20
106.3538421472308
 30
0.0
  0
ENDBLK
  5
5B53
330
5B51
100
AcDbEntity
  8
0
100
AcDbBlockEnd
  0
BLOCK
  5
5B60
330
5B5F
100
AcDbEntity
  8
0
100
AcDbBlockBegin
  2
*D93
 70
     1
 10
0.0
 20
0.0
 30
0.0
  3
*D93
  1

  0
LINE
  5
5C63
330
5B5F
100
AcDbEntity
  8
2寸法線
 62
     0
440
 16777216
370
    -2
100
AcDbLine
 10
780.7476232296616
 20
119.560313685693
 30
0.0
 11
780.7476232296616
 21
105.3359447889647
 31
0.0
  0
LINE
  5
5C64
330
5B5F
100
AcDbEntity
  8
2寸法線
 62
     0
440
 16777216
370
    -2
100
AcDbLine
 10
779.2476232296617
 20
119.560313685693
 30
0.0
 11
779.2476232296617
 21
105.3359447889647
 31
0.0
  0
LINE
  5
5C65
330
5B5F
100
AcDbEntity
  8
2寸法線
 62
     0
440
 16777216
370
    -2
100
AcDbLine
 10
777.4476232296617
 20
106.3359447889647
 30
0.0
 11
775.6476232296616
 21
106.3359447889647
 31
0.0
  0
LINE
  5
5C66
330
5B5F
100
AcDbEntity
  8
2寸法線
 62
     0
440
 16777216
370
    -2
100
AcDbLine
 10
782.5476232296616
 20
106.3359447889647
 30
0.0
 11
790.1095279915665
 21
106.3359447889647
 31
0.0
  0
LINE
  5
5C67
330
5B5F
100
AcDbEntity
  8
2寸法線
 62
     0
440
 16777216
370
    -2
100
AcDbLine
 10
779.2476232296617
 20
106.3359447889647
 30
0.0
 11
780.7476232296616
 21
106.3359447889647
 31
0.0
  0
INSERT
  5
5C68
330
5B5F
100
AcDbEntity
  8
2寸法線
 62
     0
440
 16777216
370
    -2
100
AcDbBlockReference
  2
3
 10
779.2476232296617
 20
106.3359447889647
 30
0.0
 41
1.8
 42
1.8
 43
1.8
  0
INSERT
  5
5C69
330
5B5F
100
AcDbEntity
  8
2寸法線
 62
     0
440
 16777216
370
    -2
100
AcDbBlockReference
  2
2
 10
780.7476232296616
 20
106.3359447889647
 30
0.0
 41
1.8
 42
1.8
 43
1.8
 50
180.0
  0
MTEXT
  5
5C6A
330
5B5F
100
AcDbEntity
  8
2寸法線
 62
     0
440
 16777216
100
AcDbMText
 10
787.2285756106141
 20
108.0859447889647
 30
0.0
 40
2.5
 41
0.0
 46
0.0
 71
     5
 72
     1
  1
\A1;1.5
  7
KANJI
 73
     1
 44
1.0
  0
POINT
  5
5C6B
330
5B5F
100
AcDbEntity
  8
DEFPOINTS
 62
     0
440
 16777216
100
AcDbPoint
 10
780.7476232296616
 20
120.560313685693
 30
0.0
  0
POINT
  5
5C6C
330
5B5F
100
AcDbEntity
  8
DEFPOINTS
 62
     0
440
 16777216
100
AcDbPoint
 10
779.2476232296617
 20
120.560313685693
 30
0.0
  0
POINT
  5
5C6D
330
5B5F
100
AcDbEntity
  8
DEFPOINTS
 62
     0
440
 16777216
100
AcDbPoint
 10
779.2476232296617
 20
106.3359447889647
 30
0.0
  0
ENDBLK
  5
5B61
330
5B5F
100
AcDbEntity
  8
0
100
AcDbBlockEnd
  0
BLOCK
  5
5B6E
330
5B6D
100
AcDbEntity
  8
0
100
AcDbBlockBegin
  2
*D94
 70
     1
 10
0.0
 20
0.0
 30
0.0
  3
*D94
  1

  0
LINE
  5
5C6E
330
5B6D
100
AcDbEntity
  8
2寸法線
 62
     0
440
 16777216
370
    -2
100
AcDbLine
 10
780.7476232296616
 20
119.560313685693
 30
0.0
 11
780.7476232296616
 21
111.9473043165885
 31
0.0
  0
LINE
  5
5C6F
330
5B6D
100
AcDbEntity
  8
2寸法線
 62
     0
440
 16777216
370
    -2
100
AcDbLine
 10
795.7476232296621
 20
123.0603136856894
 30
0.0
 11
795.7476232296621
 21
111.9473043165885
 31
0.0
  0
LINE
  5
5C70
330
5B6D
100
AcDbEntity
  8
2寸法線
 62
     0
440
 16777216
370
    -2
100
AcDbLine
 10
782.5476232296616
 20
112.9473043165885
 30
0.0
 11
793.9476232296621
 21
112.9473043165885
 31
0.0
  0
INSERT
  5
5C71
330
5B6D
100
AcDbEntity
  8
2寸法線
 62
     0
440
 16777216
370
    -2
100
AcDbBlockReference
  2
2
 10
780.7476232296616
 20
112.9473043165885
 30
0.0
 41
1.8
 42
1.8
 43
1.8
 50
180.0
  0
INSERT
  5
5C72
330
5B6D
100
AcDbEntity
  8
2寸法線
 62
     0
440
 16777216
370
    -2
100
AcDbBlockReference
  2
2
 10
795.7476232296621
 20
112.9473043165885
 30
0.0
 41
1.8
 42
1.8
 43
1.8
  0
MTEXT
  5
5C73
330
5B6D
100
AcDbEntity
  8
2寸法線
 62
     0
440
 16777216
100
AcDbMText
 10
788.2476232296619
 20
114.6973043165885
 30
0.0
 40
2.5
 41
0.0
 46
0.0
 71
     5
 72
     1
  1
\A1;15
  7
KANJI
 73
     1
 44
1.0
  0
POINT
  5
5C74
330
5B6D
100
AcDbEntity
  8
DEFPOINTS
 62
     0
440
 16777216
100
AcDbPoint
 10
780.7476232296616
 20
120.560313685693
 30
0.0
  0
POINT
  5
5C75
330
5B6D
100
AcDbEntity
  8
DEFPOINTS
 62
     0
440
 16777216
100
AcDbPoint
 10
795.7476232296621
 20
124.0603136856893
 30
0.0
  0
POINT
  5
5C76
330
5B6D
100
AcDbEntity
  8
DEFPOINTS
 62
     0
440
 16777216
100
AcDbPoint
 10
795.7476232296621
 20
112.9473043165885
 30
0.0
  0
ENDBLK
  5
5B6F
330
5B6D
100
AcDbEntity
  8
0
100
AcDbBlockEnd
  0
BLOCK
  5
5B7A
330
5B79
100
AcDbEntity
  8
0
100
AcDbBlockBegin
  2
*D95
 70
     1
 10
0.0
 20
0.0
 30
0.0
  3
*D95
  1

  0
LINE
  5
5C77
330
5B79
100
AcDbEntity
  8
2寸法線
 62
     0
440
 16777216
370
    -2
100
AcDbLine
 10
746.8854192503043
 20
137.5435902698259
 30
0.0
 11
750.4806573455612
 21
137.5435902698259
 31
0.0
  0
LINE
  5
5C78
330
5B79
100
AcDbEntity
  8
2寸法線
 62
     0
440
 16777216
370
    -2
100
AcDbLine
 10
750.4806573455612
 20
137.5435902698259
 30
0.0
 11
753.4894541959917
 21
131.5617154292667
 31
0.0
  0
MTEXT
  5
5C79
330
5B79
100
AcDbEntity
  8
2寸法線
 62
     0
440
 16777216
100
AcDbMText
 10
748.4330382979233
 20
139.2935902698259
 30
0.0
 40
2.5
 41
0.0
 46
0.0
 71
     5
 72
     1
  1
\A1;R1
  7
KANJI
 73
     1
 44
1.0
  0
INSERT
  5
5C7A
330
5B79
100
AcDbEntity
  8
2寸法線
 62
     0
440
 16777216
370
    -2
100
AcDbBlockReference
  2
2
 10
754.2982771462098
 20
129.953671451261
 30
0.0
 41
1.8
 42
1.8
 43
1.8
 50
296.7017370813479
  0
POINT
  5
5C7B
330
5B79
100
AcDbEntity
  8
DEFPOINTS
 62
     0
440
 16777216
100
AcDbPoint
 10
754.2982771462098
 20
129.953671451261
 30
0.0
  0
POINT
  5
5C7C
330
5B79
100
AcDbEntity
  8
DEFPOINTS
 62
     0
440
 16777216
100
AcDbPoint
 10
754.7476232296662
 20
129.0603136856985
 30
0.0
  0
ENDBLK
  5
5B7B
330
5B79
100
AcDbEntity
  8
0
100
AcDbBlockEnd
  0
BLOCK
  5
5B83
330
5B82
100
AcDbEntity
  8
0
100
AcDbBlockBegin
  2
*D96
 70
     1
 10
0.0
 20
0.0
 30
0.0
  3
*D96
  1

  0
LINE
  5
5C7D
330
5B82
100
AcDbEntity
  8
2寸法線
 62
     0
440
 16777216
370
    -2
100
AcDbLine
 10
786.6757974588633
 20
137.4327399674434
 30
0.0
 11
783.0805593636154
 21
137.4327399674435
 31
0.0
  0
LINE
  5
5C7E
330
5B82
100
AcDbEntity
  8
2寸法線
 62
     0
440
 16777216
370
    -2
100
AcDbLine
 10
783.0805593636154
 20
137.4327399674435
 30
0.0
 11
780.7832207538617
 21
131.6617628525831
 31
0.0
  0
MTEXT
  5
5C7F
330
5B82
100
AcDbEntity
  8
2寸法線
 62
     0
440
 16777216
100
AcDbMText
 10
785.1281784112442
 20
139.1827399674435
 30
0.0
 40
2.5
 41
0.0
 46
0.0
 71
     5
 72
     1
  1
\A1;R1
  7
KANJI
 73
     1
 44
1.0
  0
INSERT
  5
5C80
330
5B82
100
AcDbEntity
  8
2寸法線
 62
     0
440
 16777216
370
    -2
100
AcDbBlockReference
  2
2
 10
780.1174794883023
 20
129.9894026738743
 30
0.0
 41
1.8
 42
1.8
 43
1.8
 50
248.2932473430492
  0
POINT
  5
5C81
330
5B82
100
AcDbEntity
  8
DEFPOINTS
 62
     0
440
 16777216
100
AcDbPoint
 10
780.1174794883023
 20
129.9894026738743
 30
0.0
  0
POINT
  5
5C82
330
5B82
100
AcDbEntity
  8
DEFPOINTS
 62
     0
440
 16777216
100
AcDbPoint
 10
779.7476232296584
 20
129.0603136857038
 30
0.0
  0
ENDBLK
  5
5B84
330
5B82
100
AcDbEntity
  8
0
100
AcDbBlockEnd
  0
BLOCK
  5
5B8C
330
5B8B
100
AcDbEntity
  8
0
100
AcDbBlockBegin
  2
*D97
 70
     1
 10
0.0
 20
0.0
 30
0.0
  3
*D97
  1

  0
LINE
  5
5C83
330
5B8B
100
AcDbEntity
  8
2寸法線
 62
     0
440
 16777216
370
    -2
100
AcDbLine
 10
668.7476232296612
 20
123.0603136857021
 30
0.0
 11
668.7476232296612
 21
93.02692670295755
 31
0.0
  0
LINE
  5
5C84
330
5B8B
100
AcDbEntity
  8
2寸法線
 62
     0
440
 16777216
370
    -2
100
AcDbLine
 10
795.7476232296621
 20
123.0603136856894
 30
0.0
 11
795.7476232296621
 21
93.02692670295755
 31
0.0
  0
LINE
  5
5C85
330
5B8B
100
AcDbEntity
  8
2寸法線
 62
     0
440
 16777216
370
    -2
100
AcDbLine
 10
670.5476232296612
 20
94.02692670295754
 30
0.0
 11
793.9476232296621
 21
94.02692670295754
 31
0.0
  0
INSERT
  5
5C86
330
5B8B
100
AcDbEntity
  8
2寸法線
 62
     0
440
 16777216
370
    -2
100
AcDbBlockReference
  2
2
 10
668.7476232296612
 20
94.02692670295754
 30
0.0
 41
1.8
 42
1.8
 43
1.8
 50
180.0
  0
INSERT
  5
5C87
330
5B8B
100
AcDbEntity
  8
2寸法線
 62
     0
440
 16777216
370
    -2
100
AcDbBlockReference
  2
2
 10
795.7476232296621
 20
94.02692670295754
 30
0.0
 41
1.8
 42
1.8
 43
1.8
  0
MTEXT
  5
5C88
330
5B8B
100
AcDbEntity
  8
2寸法線
 62
     0
440
 16777216
100
AcDbMText
 10
732.2476232296617
 20
95.77692670295755
 30
0.0
 40
2.5
 41
0.0
 46
0.0
 71
     5
 72
     1
  1
\A1;127
  7
KANJI
 73
     1
 44
1.0
  0
POINT
  5
5C89
330
5B8B
100
AcDbEntity
  8
DEFPOINTS
 62
     0
440
 16777216
100
AcDbPoint
 10
668.7476232296612
 20
124.0603136857021
 30
0.0
  0
POINT
  5
5C8A
330
5B8B
100
AcDbEntity
  8
DEFPOINTS
 62
     0
440
 16777216
100
AcDbPoint
 10
795.7476232296621
 20
124.0603136856893
 30
0.0
  0
POINT
  5
5C8B
330
5B8B
100
AcDbEntity
  8
DEFPOINTS
 62
     0
440
 16777216
100
AcDbPoint
 10
795.7476232296621
 20
94.02692670295754
 30
0.0
  0
ENDBLK
  5
5B8D
330
5B8B
100
AcDbEntity
  8
0
100
AcDbBlockEnd
  0
BLOCK
  5
5B98
330
5B97
100
AcDbEntity
  8
0
100
AcDbBlockBegin
  2
*D98
 70
     1
 10
0.0
 20
0.0
 30
0.0
  3
*D98
  1

  0
LINE
  5
5C8C
330
5B97
100
AcDbEntity
  8
2寸法線
 62
     0
440
 16777216
370
    -2
100
AcDbLine
 10
790.9555397147735
 20
161.1830409052359
 30
0.0
 11
787.3603016195354
 21
161.1830409052359
 31
0.0
  0
LINE
  5
5C8D
330
5B97
100
AcDbEntity
  8
2寸法線
 62
     0
440
 16777216
370
    -2
100
AcDbLine
 10
787.3603016195354
 20
161.1830409052359
 30
0.0
 11
780.2233745389781
 21
170.8313985662313
 31
0.0
  0
MTEXT
  5
5C8E
330
5B97
100
AcDbEntity
  8
2寸法線
 62
     0
440
 16777216
100
AcDbMText
 10
789.4079206671545
 20
162.9330409052359
 30
0.0
 40
2.5
 41
0.0
 46
0.0
 71
     5
 72
     1
  1
\A1;R1
  7
KANJI
 73
     1
 44
1.0
  0
INSERT
  5
5C8F
330
5B97
100
AcDbEntity
  8
2寸法線
 62
     0
440
 16777216
370
    -2
100
AcDbBlockReference
  2
2
 10
779.1529340930251
 20
172.2785188969806
 30
0.0
 41
1.8
 42
1.8
 43
1.8
 50
126.4904745276124
  0
POINT
  5
5C90
330
5B97
100
AcDbEntity
  8
DEFPOINTS
 62
     0
440
 16777216
100
AcDbPoint
 10
779.1529340930251
 20
172.2785188969806
 30
0.0
  0
POINT
  5
5C91
330
5B97
100
AcDbEntity
  8
DEFPOINTS
 62
     0
440
 16777216
100
AcDbPoint
 10
779.747623229658
 20
171.4745631576857
 30
0.0
  0
ENDBLK
  5
5B99
330
5B97
100
AcDbEntity
  8
0
100
AcDbBlockEnd
  0
BLOCK
  5
5BA1
330
5BA0
100
AcDbEntity
  8
0
100
AcDbBlockBegin
  2
*D99
 70
     1
 10
0.0
 20
0.0
 30
0.0
  3
*D99
  1

  0
LINE
  5
5C92
330
5BA0
100
AcDbEntity
  8
2寸法線
 62
     0
440
 16777216
370
    -2
100
AcDbLine
 10
709.7476232296612
 20
32.03174541485123
 30
0.0
 11
709.7476232296612
 21
7.68313833718048
 31
0.0
  0
LINE
  5
5C93
330
5BA0
100
AcDbEntity
  8
2寸法線
 62
     0
440
 16777216
370
    -2
100
AcDbLine
 10
754.747623229661
 20
32.03174541485123
 30
0.0
 11
754.747623229661
 21
7.68313833718048
 31
0.0
  0
LINE
  5
5C94
330
5BA0
100
AcDbEntity
  8
2寸法線
 62
     0
440
 16777216
370
    -2
100
AcDbLine
 10
711.5476232296612
 20
8.68313833718048
 30
0.0
 11
752.9476232296611
 21
8.68313833718048
 31
0.0
  0
INSERT
  5
5C95
330
5BA0
100
AcDbEntity
  8
2寸法線
 62
     0
440
 16777216
370
    -2
100
AcDbBlockReference
  2
2
 10
709.7476232296612
 20
8.68313833718048
 30
0.0
 41
1.8
 42
1.8
 43
1.8
 50
180.0
  0
INSERT
  5
5C96
330
5BA0
100
AcDbEntity
  8
2寸法線
 62
     0
440
 16777216
370
    -2
100
AcDbBlockReference
  2
2
 10
754.747623229661
 20
8.68313833718048
 30
0.0
 41
1.8
 42
1.8
 43
1.8
  0
MTEXT
  5
5C97
330
5BA0
100
AcDbEntity
  8
2寸法線
 62
     0
440
 16777216
100
AcDbMText
 10
732.2476232296611
 20
10.43313833718048
 30
0.0
 40
2.5
 41
0.0
 46
0.0
 71
     5
 72
     1
  1
\A1;（45）
  7
KANJI
 73
     1
 44
1.0
  0
POINT
  5
5C98
330
5BA0
100
AcDbEntity
  8
DEFPOINTS
 62
     0
440
 16777216
100
AcDbPoint
 10
709.7476232296612
 20
33.03174541485123
 30
0.0
  0
POINT
  5
5C99
330
5BA0
100
AcDbEntity
  8
DEFPOINTS
 62
     0
440
 16777216
100
AcDbPoint
 10
754.747623229661
 20
33.03174541485123
 30
0.0
  0
POINT
  5
5C9A
330
5BA0
100
AcDbEntity
  8
DEFPOINTS
 62
     0
440
 16777216
100
AcDbPoint
 10
754.747623229661
 20
8.68313833718048
 30
0.0
  0
ENDBLK
  5
5BA2
330
5BA0
100
AcDbEntity
  8
0
100
AcDbBlockEnd
  0
BLOCK
  5
5BAD
330
5BAC
100
AcDbEntity
  8
0
100
AcDbBlockBegin
  2
*D100
 70
     1
 10
0.0
 20
0.0
 30
0.0
  3
*D100
  1

  0
LINE
  5
5C9B
330
5BAC
100
AcDbEntity
  8
2寸法線
 62
     0
440
 16777216
370
    -2
100
AcDbLine
 10
708.7476232296615
 20
33.03174541485125
 30
0.0
 11
698.7732819376636
 21
33.03174541485125
 31
0.0
  0
LINE
  5
5C9C
330
5BAC
100
AcDbEntity
  8
2寸法線
 62
     0
440
 16777216
370
    -2
100
AcDbLine
 10
708.7476232296617
 20
58.03174541485126
 30
0.0
 11
698.7732819376636
 21
58.03174541485126
 31
0.0
  0
LINE
  5
5C9D
330
5BAC
100
AcDbEntity
  8
2寸法線
 62
     0
440
 16777216
370
    -2
100
AcDbLine
 10
699.7732819376635
 20
34.83174541485124
 30
0.0
 11
699.7732819376635
 21
56.23174541485126
 31
0.0
  0
INSERT
  5
5C9E
330
5BAC
100
AcDbEntity
  8
2寸法線
 62
     0
440
 16777216
370
    -2
100
AcDbBlockReference
  2
2
 10
699.7732819376635
 20
33.03174541485125
 30
0.0
 41
1.8
 42
1.8
 43
1.8
 50
270.0
  0
INSERT
  5
5C9F
330
5BAC
100
AcDbEntity
  8
2寸法線
 62
     0
440
 16777216
370
    -2
100
AcDbBlockReference
  2
2
 10
699.7732819376635
 20
58.03174541485126
 30
0.0
 41
1.8
 42
1.8
 43
1.8
 50
90.0
  0
MTEXT
  5
5CA0
330
5BAC
100
AcDbEntity
  8
2寸法線
 62
     0
440
 16777216
100
AcDbMText
 10
698.0232819376634
 20
45.53174541485105
 30
0.0
 40
2.5
 41
0.0
 46
0.0
 71
     5
 72
     1
  1
\A1;（25）
  7
KANJI
 11
0.0000000000000001
 21
1.0
 31
0.0
 73
     1
 44
1.0
  0
POINT
  5
5CA1
330
5BAC
100
AcDbEntity
  8
DEFPOINTS
 62
     0
440
 16777216
100
AcDbPoint
 10
709.7476232296615
 20
33.03174541485125
 30
0.0
  0
POINT
  5
5CA2
330
5BAC
100
AcDbEntity
  8
DEFPOINTS
 62
     0
440
 16777216
100
AcDbPoint
 10
709.7476232296616
 20
58.03174541485126
 30
0.0
  0
POINT
  5
5CA3
330
5BAC
100
AcDbEntity
  8
DEFPOINTS
 62
     0
440
 16777216
100
AcDbPoint
 10
699.7732819376635
 20
58.03174541485126
 30
0.0
  0
ENDBLK
  5
5BAE
330
5BAC
100
AcDbEntity
  8
0
100
AcDbBlockEnd
  0
ENDSEC
  0
SECTION
  2
ENTITIES
  0
LINE
  5
54CB
330
52AC
100
AcDbEntity
  8
1外形線
100
AcDbLine
 10
388.351062818122
 20
-63.66288943343938
 30
0.0
 11
324.851062818122
 21
-63.66288943343938
 31
0.0
  0
LINE
  5
54CC
330
52AC
100
AcDbEntity
  8
1外形線
100
AcDbLine
 10
261.3510628181202
 20
-63.66288943343938
 30
0.0
 11
324.851062818122
 21
-63.66288943343938
 31
0.0
  0
LINE
  5
54CD
330
52AC
100
AcDbEntity
  8
1外形線
100
AcDbLine
 10
388.3510628181221
 20
-11.76288943344161
 30
0.0
 11
324.851062818122
 21
-11.76288943344161
 31
0.0
  0
LINE
  5
54CE
330
52AC
100
AcDbEntity
  8
1外形線
100
AcDbLine
 10
261.3510628181202
 20
-11.76288943344156
 30
0.0
 11
324.851062818122
 21
-11.76288943344161
 31
0.0
  0
LINE
  5
54D1
330
52AC
100
AcDbEntity
  8
1外形線
100
AcDbLine
 10
262.2515590990979
 20
-10.67283980534779
 30
0.0
 11
269.8622198811163
 21
-9.911773727144861
 31
0.0
  0
ARC
  5
54D2
330
52AC
100
AcDbEntity
  8
1外形線
100
AcDbCircle
 10
262.3510628181184
 20
-11.66787699555783
 30
0.0
 40
1.0
100
AcDbArc
 50
95.71059313747111
 51
180.000000000013
  0
ARC
  5
54D3
330
52AC
100
AcDbEntity
  8
1外形線
100
AcDbCircle
 10
272.8473314517513
 20
-39.76288943344474
 30
0.0
 40
30.0
100
AcDbArc
 50
90.0
 51
95.71059313747111
  0
LINE
  5
54D4
330
52AC
100
AcDbEntity
  8
1外形線
100
AcDbLine
 10
272.8473314517514
 20
-9.762889433441557
 30
0.0
 11
324.851062818122
 21
-9.762889433441614
 31
0.0
  0
LINE
  5
54D5
330
52AC
100
AcDbEntity
  8
1外形線
100
AcDbLine
 10
261.351062818122
 20
-37.71288943343865
 30
0.0
 11
261.3510628181221
 21
-11.66787699555829
 31
0.0
  0
LINE
  5
54D6
330
52AC
100
AcDbEntity
  8
1外形線
100
AcDbLine
 10
261.351062818122
 20
-37.71288943343865
 30
0.0
 11
261.351062818122
 21
-63.75790187131901
 31
0.0
  0
LINE
  5
54D7
330
52AC
100
AcDbEntity
  8
1外形線
100
AcDbLine
 10
272.8473314517513
 20
-65.66288943343574
 30
0.0
 11
324.851062818122
 21
-65.66288943343574
 31
0.0
  0
ARC
  5
54D8
330
52AC
100
AcDbEntity
  8
1外形線
100
AcDbCircle
 10
272.8473314517513
 20
-35.66288943343165
 30
0.0
 40
30.0
100
AcDbArc
 50
264.2894068625289
 51
270.0
  0
ARC
  5
54D9
330
52AC
100
AcDbEntity
  8
1外形線
100
AcDbCircle
 10
262.3510628181183
 20
-63.75790187131855
 30
0.0
 40
1.0
100
AcDbArc
 50
179.999999999987
 51
264.2894068625289
  0
LINE
  5
54DA
330
52AC
100
AcDbEntity
  8
1外形線
100
AcDbLine
 10
262.2515590990978
 20
-64.7529390615295
 30
0.0
 11
269.8622198811162
 21
-65.51400513973243
 31
0.0
  0
LINE
  5
54DB
330
52AC
100
AcDbEntity
  8
1外形線
100
AcDbLine
 10
388.3510628181221
 20
-37.71288943343865
 30
0.0
 11
388.3510628181221
 21
-11.66787699555834
 31
0.0
  0
LINE
  5
54DC
330
52AC
100
AcDbEntity
  8
1外形線
100
AcDbLine
 10
376.8547941844909
 20
-9.762889433441614
 30
0.0
 11
324.851062818122
 21
-9.762889433441614
 31
0.0
  0
ARC
  5
54DD
330
52AC
100
AcDbEntity
  8
1外形線
100
AcDbCircle
 10
376.8547941844927
 20
-39.76288943344474
 30
0.0
 40
30.0
100
AcDbArc
 50
84.28940686252888
 51
90.0
  0
ARC
  5
54DE
330
52AC
100
AcDbEntity
  8
1外形線
100
AcDbCircle
 10
387.3510628181257
 20
-11.66787699555789
 30
0.0
 40
1.0
100
AcDbArc
 50
359.999999999987
 51
84.28940686252888
  0
LINE
  5
54DF
330
52AC
100
AcDbEntity
  8
1外形線
100
AcDbLine
 10
387.4505665371462
 20
-10.67283980534785
 30
0.0
 11
379.8399057551278
 21
-9.911773727144918
 31
0.0
  0
LINE
  5
54E0
330
52AC
100
AcDbEntity
  8
1外形線
100
AcDbLine
 10
387.4505665371462
 20
-64.7529390615295
 30
0.0
 11
379.8399057551277
 21
-65.51400513973243
 31
0.0
  0
ARC
  5
54E1
330
52AC
100
AcDbEntity
  8
1外形線
100
AcDbCircle
 10
387.3510628181256
 20
-63.75790187131855
 30
0.0
 40
1.0
100
AcDbArc
 50
275.7105931374711
 51
0.0000000000130276
  0
ARC
  5
54E2
330
52AC
100
AcDbEntity
  8
1外形線
100
AcDbCircle
 10
376.8547941844927
 20
-35.66288943343165
 30
0.0
 40
30.0
100
AcDbArc
 50
270.0
 51
275.7105931374711
  0
LINE
  5
54E3
330
52AC
100
AcDbEntity
  8
1外形線
100
AcDbLine
 10
376.8547941844908
 20
-65.66288943343574
 30
0.0
 11
324.851062818122
 21
-65.66288943343574
 31
0.0
  0
LINE
  5
54E4
330
52AC
100
AcDbEntity
  8
1外形線
100
AcDbLine
 10
388.3510628181221
 20
-37.71288943343865
 30
0.0
 11
388.351062818122
 21
-63.75790187131901
 31
0.0
  0
LINE
  5
54E5
330
52AC
100
AcDbEntity
  8
1外形線
100
AcDbLine
 10
388.3510628181221
 20
98.0584388521197
 30
0.0
 11
388.3510628181221
 21
48.46342641424371
 31
0.0
  0
LINE
  5
54E6
330
52AC
100
AcDbEntity
  8
1外形線
100
AcDbLine
 10
324.851062818122
 20
48.46342641424371
 30
0.0
 11
388.3510628181221
 21
48.46342641424371
 31
0.0
  0
LINE
  5
54E7
330
52AC
100
AcDbEntity
  8
1外形線
100
AcDbLine
 10
324.851062818122
 20
99.9634264142419
 30
0.0
 11
376.8547941844909
 21
99.9634264142419
 31
0.0
  0
ARC
  5
54E8
330
52AC
100
AcDbEntity
  8
1外形線
100
AcDbCircle
 10
376.8547941844909
 20
69.96342641423325
 30
0.0
 40
30.0
100
AcDbArc
 50
84.28940686252888
 51
90.0
  0
ARC
  5
54E9
330
52AC
100
AcDbEntity
  8
1外形線
100
AcDbCircle
 10
387.3510628181239
 20
98.05843885212016
 30
0.0
 40
1.0
100
AcDbArc
 50
359.999999999987
 51
84.28940686252888
  0
LINE
  5
54EA
330
52AC
100
AcDbEntity
  8
1外形線
100
AcDbLine
 10
387.4505665371444
 20
99.05347604233021
 30
0.0
 11
379.839905755126
 21
99.81454212053314
 31
0.0
  0
LINE
  5
5529
330
52AC
100
AcDbEntity
  8
1外形線
100
AcDbLine
 10
262.2515590990997
 20
99.05347604233027
 30
0.0
 11
269.8622198811181
 21
99.8145421205332
 31
0.0
  0
ARC
  5
552A
330
52AC
100
AcDbEntity
  8
1外形線
100
AcDbCircle
 10
262.3510628181202
 20
98.05843885212068
 30
0.0
 40
1.0
100
AcDbArc
 50
95.71059313747111
 51
180.000000000013
  0
ARC
  5
552B
330
52AC
100
AcDbEntity
  8
1外形線
100
AcDbCircle
 10
272.8473314517533
 20
69.96342641423376
 30
0.0
 40
30.0
100
AcDbArc
 50
90.0
 51
95.71059313747111
  0
LINE
  5
552C
330
52AC
100
AcDbEntity
  8
1外形線
100
AcDbLine
 10
261.3510628181221
 20
98.05843885211977
 30
0.0
 11
261.3510628181221
 21
48.46342641424377
 31
0.0
  0
LINE
  5
552E
330
52AC
100
AcDbEntity
  8
1外形線
100
AcDbLine
 10
324.8510628181184
 20
99.9634264142419
 30
0.0
 11
272.8473314517496
 21
99.96342641424195
 31
0.0
  0
LINE
  5
552F
330
52AC
100
AcDbEntity
  8
1外形線
100
AcDbLine
 10
324.8510628181184
 20
48.46342641424371
 30
0.0
 11
261.3510628181184
 21
48.46342641424377
 31
0.0
  0
LINE
  5
5543
330
52AC
100
AcDbEntity
  8
1外形線
100
AcDbLine
 10
465.2398308151632
 20
48.46342641424371
 30
0.0
 11
464.7847473176125
 21
72.97392758860542
 31
0.0
  0
LINE
  5
5549
330
52AC
100
AcDbEntity
  8
1外形線
100
AcDbLine
 10
463.2394861158909
 20
48.46342641424371
 30
0.0
 11
462.7850919574857
 21
72.93680023047227
 31
0.0
  0
ARC
  5
554A
330
52AC
100
AcDbEntity
  8
1外形線
100
AcDbCircle
 10
437.2894861158902
 20
72.46342641424371
 30
0.0
 40
25.5
100
AcDbArc
 50
1.063681561402866
 51
90.0
  0
ARC
  5
554B
330
52AC
100
AcDbEntity
  8
1外形線
100
AcDbCircle
 10
437.2894861158902
 20
72.46342641424371
 30
0.0
 40
27.5
100
AcDbArc
 50
1.063681561402866
 51
90.0
  0
LINE
  5
554C
330
52AC
100
AcDbEntity
  8
1外形線
100
AcDbLine
 10
463.2394861158909
 20
48.46342641424371
 30
0.0
 11
465.2398308151632
 21
48.46342641424371
 31
0.0
  0
LINE
  5
554D
330
52AC
100
AcDbEntity
  8
1外形線
100
AcDbLine
 10
411.3394861158894
 20
48.46342641424371
 30
0.0
 11
409.3391414166172
 21
48.46342641424371
 31
0.0
  0
ARC
  5
554E
330
52AC
100
AcDbEntity
  8
1外形線
100
AcDbCircle
 10
437.2894861158902
 20
72.46342641424371
 30
0.0
 40
27.5
100
AcDbArc
 50
90.0
 51
178.9363184385971
  0
ARC
  5
554F
330
52AC
100
AcDbEntity
  8
1外形線
100
AcDbCircle
 10
437.2894861158902
 20
72.46342641424371
 30
0.0
 40
25.5
100
AcDbArc
 50
90.0
 51
178.9363184385971
  0
LINE
  5
5550
330
52AC
100
AcDbEntity
  8
1外形線
100
AcDbLine
 10
411.3394861158893
 20
48.46342641424371
 30
0.0
 11
411.7938802742946
 21
72.93680023047227
 31
0.0
  0
LINE
  5
5552
330
52AC
100
AcDbEntity
  8
1外形線
100
AcDbLine
 10
409.3391414166172
 20
48.46342641424371
 30
0.0
 11
409.7942249141679
 21
72.97392758860542
 31
0.0
  0
CIRCLE
  5
5968
330
52AC
100
AcDbEntity
  8
1外形線
100
AcDbCircle
 10
324.851062818122
 20
-37.71288943344047
 30
0.0
 40
2.149999999999999
  0
LINE
  5
596B
330
52AC
100
AcDbEntity
  8
1外形線
100
AcDbLine
 10
347.851062818122
 20
-63.66288943343938
 30
0.0
 11
347.851062818122
 21
-61.66288943344119
 31
0.0
  0
LINE
  5
596C
330
52AC
100
AcDbEntity
  8
1外形線
100
AcDbLine
 10
371.851062818122
 20
-63.66288943343938
 30
0.0
 11
371.851062818122
 21
-61.66288943344119
 31
0.0
  0
LINE
  5
596D
330
52AC
100
AcDbEntity
  8
1外形線
100
AcDbLine
 10
347.851062818122
 20
-61.66288943344119
 30
0.0
 11
371.851062818122
 21
-61.66288943344119
 31
0.0
  0
ARC
  5
596E
330
52AC
100
AcDbEntity
  8
1外形線
100
AcDbCircle
 10
372.351062818122
 20
-62.66288943343937
 30
0.0
 40
1.0
100
AcDbArc
 50
270.0
 51
0.0
  0
LINE
  5
596F
330
52AC
100
AcDbEntity
  8
1外形線
100
AcDbLine
 10
373.351062818122
 20
-62.66288943343937
 30
0.0
 11
373.3510628181256
 21
-37.71288943344229
 31
0.0
  0
LINE
  5
5970
330
52AC
100
AcDbEntity
  8
1外形線
100
AcDbLine
 10
372.351062818122
 20
-63.66288943343938
 30
0.0
 11
324.851062818122
 21
-63.66288943343755
 31
0.0
  0
ARC
  5
5971
330
52AC
100
AcDbEntity
  8
1外形線
100
AcDbCircle
 10
387.351062818122
 20
-51.71288943344046
 30
0.0
 40
1.0
100
AcDbArc
 50
270.0
 51
0.0
  0
LINE
  5
5972
330
52AC
100
AcDbEntity
  8
1外形線
100
AcDbLine
 10
387.351062818122
 20
-52.71288943344046
 30
0.0
 11
373.351062818122
 21
-52.71288943344046
 31
0.0
  0
LINE
  5
5973
330
52AC
100
AcDbEntity
  8
1外形線
100
AcDbLine
 10
388.351062818122
 20
-37.71288943344047
 30
0.0
 11
388.351062818122
 21
-51.71288943344046
 31
0.0
  0
LINE
  5
5974
330
52AC
100
AcDbEntity
  8
1外形線
100
AcDbLine
 10
387.351062818122
 20
-37.71288943344047
 30
0.0
 11
387.351062818122
 21
-52.71288943344228
 31
0.0
  0
LINE
  5
5975
330
52AC
100
AcDbEntity
  8
1外形線
100
AcDbLine
 10
347.851062818122
 20
-13.76288943343974
 30
0.0
 11
371.851062818122
 21
-13.76288943343974
 31
0.0
  0
LINE
  5
5976
330
52AC
100
AcDbEntity
  8
1外形線
100
AcDbLine
 10
347.851062818122
 20
-11.76288943344156
 30
0.0
 11
347.851062818122
 21
-13.76288943343974
 31
0.0
  0
LINE
  5
5977
330
52AC
100
AcDbEntity
  8
1外形線
100
AcDbLine
 10
388.351062818122
 20
-37.71288943344047
 30
0.0
 11
388.351062818122
 21
-23.71288943344047
 31
0.0
  0
LINE
  5
5978
330
52AC
100
AcDbEntity
  8
1外形線
100
AcDbLine
 10
387.351062818122
 20
-22.71288943344047
 30
0.0
 11
373.351062818122
 21
-22.71288943344047
 31
0.0
  0
ARC
  5
5979
330
52AC
100
AcDbEntity
  8
1外形線
100
AcDbCircle
 10
387.351062818122
 20
-23.71288943344047
 30
0.0
 40
1.0
100
AcDbArc
 50
0.0
 51
90.0
  0
LINE
  5
597A
330
52AC
100
AcDbEntity
  8
1外形線
100
AcDbLine
 10
372.351062818122
 20
-11.76288943344156
 30
0.0
 11
324.851062818122
 21
-11.76288943344337
 31
0.0
  0
LINE
  5
597B
330
52AC
100
AcDbEntity
  8
1外形線
100
AcDbLine
 10
373.351062818122
 20
-12.76288943344155
 30
0.0
 11
373.3510628181256
 21
-37.71288943344229
 31
0.0
  0
ARC
  5
597C
330
52AC
100
AcDbEntity
  8
1外形線
100
AcDbCircle
 10
372.351062818122
 20
-12.76288943344155
 30
0.0
 40
1.0
100
AcDbArc
 50
0.0
 51
90.0
  0
LINE
  5
597D
330
52AC
100
AcDbEntity
  8
1外形線
100
AcDbLine
 10
371.851062818122
 20
-11.76288943344156
 30
0.0
 11
371.851062818122
 21
-13.76288943343974
 31
0.0
  0
LINE
  5
597E
330
52AC
100
AcDbEntity
  8
1外形線
100
AcDbLine
 10
387.351062818122
 20
-37.71288943344047
 30
0.0
 11
387.351062818122
 21
-22.71288943343865
 31
0.0
  0
LINE
  5
597F
330
52AC
100
AcDbEntity
  8
1外形線
100
AcDbLine
 10
262.351062818122
 20
-37.71288943344047
 30
0.0
 11
262.351062818122
 21
-52.71288943344228
 31
0.0
  0
LINE
  5
5980
330
52AC
100
AcDbEntity
  8
1外形線
100
AcDbLine
 10
262.351062818122
 20
-37.71288943344047
 30
0.0
 11
262.351062818122
 21
-22.71288943343865
 31
0.0
  0
LINE
  5
5983
330
52AC
100
AcDbEntity
  8
1外形線
100
AcDbLine
 10
277.851062818122
 20
-11.76288943344156
 30
0.0
 11
277.851062818122
 21
-13.76288943343974
 31
0.0
  0
ARC
  5
5984
330
52AC
100
AcDbEntity
  8
1外形線
100
AcDbCircle
 10
277.351062818122
 20
-12.76288943344155
 30
0.0
 40
1.0
100
AcDbArc
 50
90.0
 51
180.0
  0
LINE
  5
5985
330
52AC
100
AcDbEntity
  8
1外形線
100
AcDbLine
 10
276.351062818122
 20
-12.76288943344155
 30
0.0
 11
276.3510628181184
 21
-37.71288943344229
 31
0.0
  0
LINE
  5
5986
330
52AC
100
AcDbEntity
  8
1外形線
100
AcDbLine
 10
277.351062818122
 20
-11.76288943344156
 30
0.0
 11
324.851062818122
 21
-11.76288943344337
 31
0.0
  0
ARC
  5
5987
330
52AC
100
AcDbEntity
  8
1外形線
100
AcDbCircle
 10
262.351062818122
 20
-23.71288943344047
 30
0.0
 40
1.0
100
AcDbArc
 50
90.0
 51
180.0
  0
LINE
  5
5988
330
52AC
100
AcDbEntity
  8
1外形線
100
AcDbLine
 10
262.351062818122
 20
-22.71288943344047
 30
0.0
 11
276.351062818122
 21
-22.71288943344047
 31
0.0
  0
LINE
  5
5989
330
52AC
100
AcDbEntity
  8
1外形線
100
AcDbLine
 10
261.351062818122
 20
-37.71288943344047
 30
0.0
 11
261.351062818122
 21
-23.71288943344047
 31
0.0
  0
LINE
  5
598A
330
52AC
100
AcDbEntity
  8
1外形線
100
AcDbLine
 10
261.351062818122
 20
-37.71288943344047
 30
0.0
 11
261.351062818122
 21
-51.71288943344046
 31
0.0
  0
LINE
  5
598B
330
52AC
100
AcDbEntity
  8
1外形線
100
AcDbLine
 10
262.351062818122
 20
-52.71288943344046
 30
0.0
 11
276.351062818122
 21
-52.71288943344046
 31
0.0
  0
ARC
  5
598C
330
52AC
100
AcDbEntity
  8
1外形線
100
AcDbCircle
 10
262.351062818122
 20
-51.71288943344046
 30
0.0
 40
1.0
100
AcDbArc
 50
180.0
 51
270.0
  0
LINE
  5
598D
330
52AC
100
AcDbEntity
  8
1外形線
100
AcDbLine
 10
277.351062818122
 20
-63.66288943343938
 30
0.0
 11
324.851062818122
 21
-63.66288943343755
 31
0.0
  0
LINE
  5
598E
330
52AC
100
AcDbEntity
  8
1外形線
100
AcDbLine
 10
276.351062818122
 20
-62.66288943343937
 30
0.0
 11
276.3510628181184
 21
-37.71288943344229
 31
0.0
  0
ARC
  5
598F
330
52AC
100
AcDbEntity
  8
1外形線
100
AcDbCircle
 10
277.351062818122
 20
-62.66288943343937
 30
0.0
 40
1.0
100
AcDbArc
 50
180.0
 51
270.0
  0
LINE
  5
5990
330
52AC
100
AcDbEntity
  8
1外形線
100
AcDbLine
 10
301.851062818122
 20
-61.66288943344119
 30
0.0
 11
277.851062818122
 21
-61.66288943344119
 31
0.0
  0
LINE
  5
5991
330
52AC
100
AcDbEntity
  8
1外形線
100
AcDbLine
 10
277.851062818122
 20
-63.66288943343938
 30
0.0
 11
277.851062818122
 21
-61.66288943344119
 31
0.0
  0
LINE
  5
5992
330
52AC
100
AcDbEntity
  8
1外形線
100
AcDbLine
 10
301.851062818122
 20
-63.66288943343938
 30
0.0
 11
301.851062818122
 21
-61.66288943344119
 31
0.0
  0
LINE
  5
5993
330
52AC
100
AcDbEntity
  8
1外形線
100
AcDbLine
 10
301.851062818122
 20
-11.76288943344156
 30
0.0
 11
301.851062818122
 21
-13.76288943343974
 31
0.0
  0
LINE
  5
5994
330
52AC
100
AcDbEntity
  8
1外形線
100
AcDbLine
 10
301.851062818122
 20
-13.76288943343974
 30
0.0
 11
277.851062818122
 21
-13.76288943343974
 31
0.0
  0
LINE
  5
59FA
330
52AC
100
AcDbEntity
  8
1外形線
100
AcDbLine
 10
450.7894861158938
 20
54.46342641424553
 30
0.0
 11
459.7394861158837
 21
54.46342641424553
 31
0.0
  0
LINE
  5
59FB
330
52AC
100
AcDbEntity
  8
1外形線
100
AcDbLine
 10
437.2894861158902
 20
48.46342641424371
 30
0.0
 11
463.2394861158836
 21
48.46342641424371
 31
0.0
  0
LINE
  5
59FC
330
52AC
100
AcDbEntity
  8
1外形線
100
AcDbLine
 10
452.289486115892
 20
54.46342641424007
 30
0.0
 11
452.7894861158902
 21
54.46342641424007
 31
0.0
  0
LINE
  5
59FD
330
52AC
100
AcDbEntity
  8
1外形線
100
AcDbLine
 10
450.789486115892
 20
52.96342641424008
 30
0.0
 11
450.7894861158938
 21
54.46342641424553
 31
0.0
  0
LINE
  5
59FE
330
52AC
100
AcDbEntity
  8
1外形線
100
AcDbLine
 10
452.289486115892
 20
54.46342641424007
 30
0.0
 11
450.789486115892
 21
54.46342641424007
 31
0.0
  0
LINE
  5
59FF
330
52AC
100
AcDbEntity
  8
1外形線
100
AcDbLine
 10
450.789486115892
 20
52.96342641424008
 30
0.0
 11
437.2894861158902
 21
52.96342641424008
 31
0.0
  0
LINE
  5
5A00
330
52AC
100
AcDbEntity
  8
1外形線
100
AcDbLine
 10
452.289486115892
 20
50.96342641424008
 30
0.0
 11
452.289486115892
 21
54.46342641424007
 31
0.0
  0
LINE
  5
5A01
330
52AC
100
AcDbEntity
  8
1外形線
100
AcDbLine
 10
452.289486115892
 20
50.96342641424008
 30
0.0
 11
437.2894861158902
 21
50.96342641424008
 31
0.0
  0
LINE
  5
5A02
330
52AC
100
AcDbEntity
  8
1外形線
100
AcDbLine
 10
422.2894861158902
 20
50.96342641424008
 30
0.0
 11
437.2894861158902
 21
50.96342641424008
 31
0.0
  0
LINE
  5
5A03
330
52AC
100
AcDbEntity
  8
1外形線
100
AcDbLine
 10
422.2894861158902
 20
50.96342641424008
 30
0.0
 11
422.2894861158902
 21
54.46342641424007
 31
0.0
  0
LINE
  5
5A04
330
52AC
100
AcDbEntity
  8
1外形線
100
AcDbLine
 10
423.7894861158902
 20
52.96342641424008
 30
0.0
 11
437.2894861158902
 21
52.96342641424008
 31
0.0
  0
LINE
  5
5A05
330
52AC
100
AcDbEntity
  8
1外形線
100
AcDbLine
 10
422.2894861158902
 20
54.46342641424007
 30
0.0
 11
423.789486115892
 21
54.46342641424007
 31
0.0
  0
LINE
  5
5A06
330
52AC
100
AcDbEntity
  8
1外形線
100
AcDbLine
 10
423.7894861158902
 20
52.96342641424008
 30
0.0
 11
423.789486115892
 21
54.46342641424007
 31
0.0
  0
LINE
  5
5A07
330
52AC
100
AcDbEntity
  8
1外形線
100
AcDbLine
 10
422.2894861158902
 20
54.46342641424007
 30
0.0
 11
414.8394861158912
 21
54.46342641424007
 31
0.0
  0
LINE
  5
5A08
330
52AC
100
AcDbEntity
  8
1外形線
100
AcDbLine
 10
437.2894861158902
 20
48.46342641424371
 30
0.0
 11
411.3394861158913
 21
48.46342641424371
 31
0.0
  0
ARC
  5
5A09
330
52AC
100
AcDbEntity
  8
1外形線
100
AcDbCircle
 10
413.8394861158912
 20
56.96342641424735
 30
0.0
 40
1.0
100
AcDbArc
 50
0.0
 51
126.4460475890915
  0
LINE
  5
5A0A
330
52AC
100
AcDbEntity
  8
1外形線
100
AcDbLine
 10
411.8762919647934
 20
56.75673493643398
 30
0.0
 11
413.2454205423118
 21
57.76784303160775
 31
0.0
  0
ARC
  5
5A0B
330
52AC
100
AcDbEntity
  8
1外形線
100
AcDbCircle
 10
412.4703575383746
 20
55.95231831907176
 30
0.0
 40
1.0
100
AcDbArc
 50
126.446047589115
 51
179.0000000000242
  0
LINE
  5
5A0C
330
52AC
100
AcDbEntity
  8
1外形線
100
AcDbLine
 10
411.3394861158913
 20
48.46342641424371
 30
0.0
 11
411.4705098432177
 21
55.96977072550862
 31
0.0
  0
LINE
  5
5A0D
330
52AC
100
AcDbEntity
  8
1外形線
100
AcDbLine
 10
414.8394861158912
 20
54.46342641424371
 30
0.0
 11
414.8394861158912
 21
56.96342641424553
 31
0.0
  0
LINE
  5
5A0F
330
52AC
100
AcDbEntity
  8
1外形線
100
AcDbLine
 10
459.7394861158837
 20
54.46342641424553
 30
0.0
 11
459.7394861158854
 21
56.96342641424189
 31
0.0
  0
LINE
  5
5A10
330
52AC
100
AcDbEntity
  8
1外形線
100
AcDbLine
 10
463.2394861158836
 20
48.46342641424371
 30
0.0
 11
463.108462388559
 21
55.96977072550316
 31
0.0
  0
ARC
  5
5A11
330
52AC
100
AcDbEntity
  8
1外形線
100
AcDbCircle
 10
462.1086146934021
 20
55.95231831906812
 30
0.0
 40
1.0
100
AcDbArc
 50
0.9999999999757104
 51
53.55395241088499
  0
LINE
  5
5A12
330
52AC
100
AcDbEntity
  8
1外形線
100
AcDbLine
 10
462.7026802669834
 20
56.75673493642853
 30
0.0
 11
461.3335516894667
 21
57.76784303160411
 31
0.0
  0
ARC
  5
5A13
330
52AC
100
AcDbEntity
  8
1外形線
100
AcDbCircle
 10
460.7394861158854
 20
56.96342641424189
 30
0.0
 40
1.0
100
AcDbArc
 50
53.55395241089314
 51
180.0
  0
ENDSEC
  0
SECTION
  2
OBJECTS
  0
DICTIONARY
  5
5249
330
0
100
AcDbDictionary
281
     1
  3
ACAD_CIP_PREVIOUS_PRODUCT_INFO
350
52BD
  3
ACAD_COLOR
350
529F
  3
ACAD_DETAILVIEWSTYLE
350
52A6
  3
ACAD_GROUP
350
524A
  3
ACAD_LAYOUT
350
529E
  3
ACAD_MATERIAL
350
524D
  3
ACAD_MLEADERSTYLE
350
52A2
  3
ACAD_MLINESTYLE
350
529B
  3
ACAD_PLOTSETTINGS
350
529D
  3
ACAD_PLOTSTYLENAME
350
524B
  3
ACAD_SCALELIST
350
527F
  3
ACAD_SECTIONVIEWSTYLE
350
52A4
  3
ACAD_TABLESTYLE
350
52A0
  3
ACAD_VISUALSTYLE
350
5266
  3
ACDB_RECOMPOSE_DATA
350
5D4A
  3
AcDbVariableDictionary
350
5D3E
  0
DICTIONARY
  5
53C7
330
523F
100
AcDbDictionary
280
     1
281
     1
  3
ACAD_LAYERSTATES
360
53C8
  0
DICTIONARY
  5
5D38
330
5291
100
AcDbDictionary
280
     1
281
     1
  3
ADSK_XREC_LAYER_RECONCILED
360
5D39
  0
DICTIONARY
  5
5D3A
330
52B1
100
AcDbDictionary
280
     1
281
     1
  3
ADSK_XREC_LAYER_RECONCILED
360
5D3B
  0
DICTIONARY
  5
53BF
330
53BE
100
AcDbDictionary
280
     1
281
     1
  3
ADSK_XREC_LAYER_RECONCILED
360
5D3C
  0
DICTIONARY
  5
53C1
330
53C0
100
AcDbDictionary
280
     1
281
     1
  3
ADSK_XREC_LAYER_RECONCILED
360
5D3D
  0
XRECORD
  5
52BD
102
{ACAD_REACTORS
330
5249
102
}
330
5249
100
AcDbXrecord
280
     1
300
ACD
300
2022
300

  0
DICTIONARY
  5
529F
102
{ACAD_REACTORS
330
5249
102
}
330
5249
100
AcDbDictionary
281
     1
  0
DICTIONARY
  5
52A6
102
{ACAD_REACTORS
330
5249
102
}
330
5249
100
AcDbDictionary
281
     1
  3
Imperial24
350
52A7
  3
Metric50
350
53CA
  0
DICTIONARY
  5
524A
102
{ACAD_REACTORS
330
5249
102
}
330
5249
100
AcDbDictionary
281
     1
  0
DICTIONARY
  5
529E
102
{ACAD_REACTORS
330
5249
102
}
330
5249
100
AcDbDictionary
281
     1
  3
Model
350
52AF
  3
レイアウト1
350
52AB
  0
DICTIONARY
  5
524D
102
{ACAD_REACTORS
330
5249
102
}
330
5249
100
AcDbDictionary
281
     1
  3
ByBlock
350
5256
  3
ByLayer
350
524E
  3
Global
350
525E
  0
DICTIONARY
  5
52A2
102
{ACAD_REACTORS
330
5249
102
}
330
5249
100
AcDbDictionary
281
     1
  3
Standard
350
52A3
  0
DICTIONARY
  5
529B
102
{ACAD_REACTORS
330
5249
102
}
330
5249
100
AcDbDictionary
281
     1
  3
Standard
350
529C
  0
DICTIONARY
  5
529D
102
{ACAD_REACTORS
330
5249
102
}
330
5249
100
AcDbDictionary
281
     1
  0
ACDBDICTIONARYWDFLT
  5
524B
102
{ACAD_REACTORS
330
5249
102
}
330
5249
100
AcDbDictionary
281
     1
  3
Normal
350
524C
100
AcDbDictionaryWithDefault
340
524C
  0
DICTIONARY
  5
527F
102
{ACAD_REACTORS
330
5249
102
}
330
5249
100
AcDbDictionary
281
     1
  3
A0
350
5280
  3
A1
350
5281
  3
A2
350
5282
  3
A3
350
5283
  3
A4
350
5284
  3
A5
350
5285
  3
A6
350
5286
  3
A7
350
5287
  3
A8
350
5288
  3
A9
350
5289
  3
B0
350
528A
  3
B1
350
528B
  3
B2
350
528C
  3
B3
350
528D
  3
B4
350
528E
  3
B5
350
528F
  3
B6
350
5290
  0
DICTIONARY
  5
52A4
102
{ACAD_REACTORS
330
5249
102
}
330
5249
100
AcDbDictionary
281
     1
  3
Imperial24
350
52A5
  3
Metric50
350
53C9
  0
DICTIONARY
  5
52A0
102
{ACAD_REACTORS
330
5249
102
}
330
5249
100
AcDbDictionary
281
     1
  3
Standard
350
52A1
  0
DICTIONARY
  5
5266
102
{ACAD_REACTORS
330
5249
102
}
330
5249
100
AcDbDictionary
281
     1
  3
2dWireframe
350
526C
  3
Basic
350
526B
  3
Brighten
350
5272
  3
ColorChange
350
5276
  3
Conceptual
350
526F
  3
Dim
350
5271
  3
EdgeColorOff
350
527E
  3
Facepattern
350
5275
  3
Flat
350
5267
  3
FlatWithEdges
350
5268
  3
Gouraud
350
5269
  3
GouraudWithEdges
350
526A
  3
Hidden
350
526E
  3
JitterOff
350
527C
  3
Linepattern
350
5274
  3
OverhangOff
350
527D
  3
Realistic
350
5270
  3
Shaded
350
527B
  3
Shaded with edges
350
527A
  3
Shades of Gray
350
5277
  3
Sketchy
350
5278
  3
Thicken
350
5273
  3
Wireframe
350
526D
  3
X-Ray
350
5279
  0
XRECORD
  5
5D4A
102
{ACAD_REACTORS
330
5249
102
}
330
5249
100
AcDbXrecord
280
     1
 90
        1
330
52A1
  0
DICTIONARY
  5
5D3E
102
{ACAD_REACTORS
330
5249
102
}
330
5249
100
AcDbDictionary
281
     1
  3
CANNOSCALE
350
5D44
  3
CMLEADERSTYLE
350
5D40
  3
CTABLESTYLE
350
5D3F
  3
CVIEWDETAILSTYLE
350
5D41
  3
CVIEWSECTIONSTYLE
350
5D42
  3
LAYEREVAL
350
5D46
  3
LAYERNOTIFY
350
5D47
  3
LIGHTINGUNITS
350
5D45
  3
MSLTSCALE
350
5D43
  0
DICTIONARY
  5
53C8
102
{ACAD_REACTORS
330
53C7
102
}
330
53C7
100
AcDbDictionary
281
     1
  0
XRECORD
  5
5D39
102
{ACAD_REACTORS
330
5D38
102
}
330
5D38
100
AcDbXrecord
280
     1
290
     1
  0
XRECORD
  5
5D3B
102
{ACAD_REACTORS
330
5D3A
102
}
330
5D3A
100
AcDbXrecord
280
     1
290
     1
  0
XRECORD
  5
5D3C
102
{ACAD_REACTORS
330
53BF
102
}
330
53BF
100
AcDbXrecord
280
     1
290
     1
  0
XRECORD
  5
5D3D
102
{ACAD_REACTORS
330
53C1
102
}
330
53C1
100
AcDbXrecord
280
     1
290
     1
  0
ACDBDETAILVIEWSTYLE
  5
52A7
102
{ACAD_XDICTIONARY
360
5D7D
102
}
102
{ACAD_REACTORS
330
52A6
102
}
330
52A6
100
AcDbModelDocViewStyle
 70
     0
  3
Imperial24
290
     0
100
AcDbDetailViewStyle
 70
     0
 71
     0
 90
        3
 71
     1
340
5292
 62
   256
 40
0.24
340
0
 62
   256
 40
0.24
300

 40
0.36
280
     3
 71
     2
340
5299
 90
       25
 62
   256
 71
     3
340
5292
 62
   256
 40
0.24
 90
        1
 40
0.75
 90
        1
300
%<\AcVar ViewType \f "%tc1">% %<\AcVar ViewDetailId>%\PSCALE %<\AcVar ViewScale \f "%sn">%
 71
     4
340
5299
 90
       25
 62
   256
340
5299
 90
       25
 62
   256
280
     0
  0
ACDBDETAILVIEWSTYLE
  5
53CA
102
{ACAD_XDICTIONARY
360
5D81
102
}
102
{ACAD_REACTORS
330
52A6
102
}
330
52A6
100
AcDbModelDocViewStyle
 70
     0
  3
Metric50
290
     0
100
AcDbDetailViewStyle
 70
     0
 71
     0
 90
        3
 71
     1
340
5292
 62
   256
 40
5.0
340
0
 62
   256
 40
5.0
300

 40
0.0
280
     1
 71
     2
340
5299
 90
       25
 62
   256
 71
     3
340
5292
 62
   256
 40
5.0
 90
        0
 40
15.0
 90
        1
300
%<\AcVar ViewDetailId>% (%<\AcVar ViewScale \f "%sn">%)
 71
     4
340
5299
 90
       25
 62
   256
340
5299
 90
       25
 62
   256
280
     0
  0
LAYOUT
  5
52AF
102
{ACAD_REACTORS
330
529E
102
}
330
529E
100
AcDbPlotSettings
  1

  2
SHARP MX-5151 (1502249400)
  4

  6

 40
0.0
 41
0.0
 42
0.0
 43
0.0
 44
0.0
 45
0.0
 46
0.0
 47
0.0
 48
0.0
 49
0.0
140
0.0
141
0.0
142
1.0
143
1.0
 70
  1712
 72
     0
 73
     0
 74
     0
  7

 75
     0
147
1.0
 76
     0
 77
     2
 78
   300
148
0.0
149
0.0
100
AcDbLayout
  1
Model
 70
     1
 71
     0
 10
0.0
 20
0.0
 11
12.0
 21
9.0
 12
0.0
 22
0.0
 32
0.0
 14
0.0
 24
0.0
 34
0.0
 15
0.0
 25
0.0
 35
0.0
146
0.0
 13
0.0
 23
0.0
 33
0.0
 16
1.0
 26
0.0
 36
0.0
 17
0.0
 27
1.0
 37
0.0
 76
     0
330
52AC
331
52B0
  0
LAYOUT
  5
52AB
102
{ACAD_REACTORS
330
529E
102
}
330
529E
100
AcDbPlotSettings
  1

  2
SHARP MX-5151 (1502249400)
  4

  6

 40
0.0
 41
0.0
 42
0.0
 43
0.0
 44
0.0
 45
0.0
 46
0.0
 47
0.0
 48
0.0
 49
0.0
140
0.0
141
0.0
142
1.0
143
1.0
 70
   688
 72
     0
 73
     0
 74
     5
  7

 75
    16
147
1.0
 76
     0
 77
     2
 78
   300
148
0.0
149
0.0
100
AcDbLayout
  1
レイアウト1
 70
     1
 71
     1
 10
0.0
 20
0.0
 11
420.0
 21
297.0
 12
0.0
 22
0.0
 32
0.0
 14
1.000000000000000E+20
 24
1.000000000000000E+20
 34
1.000000000000000E+20
 15
-1.000000000000000E+20
 25
-1.000000000000000E+20
 35
-1.000000000000000E+20
146
0.0
 13
0.0
 23
0.0
 33
0.0
 16
1.0
 26
0.0
 36
0.0
 17
0.0
 27
1.0
 37
0.0
 76
     0
330
52A8
  0
MATERIAL
  5
5256
102
{ACAD_XDICTIONARY
360
5257
102
}
102
{ACAD_REACTORS
330
524D
102
}
330
524D
100
AcDbMaterial
  1
ByBlock
 72
     0
 43
0.0208333333333333
 43
0.0
 43
0.0
 43
0.0
 43
0.0
 43
0.0208333333333333
 43
0.0
 43
0.0
 43
0.0
 43
0.0
 43
1.0
 43
0.0
 43
0.0
 43
0.0
 43
0.0
 43
1.0
 77
     0
 47
0.0208333333333333
 47
0.0
 47
0.0
 47
0.0
 47
0.0
 47
0.0208333333333333
 47
0.0
 47
0.0
 47
0.0
 47
0.0
 47
1.0
 47
0.0
 47
0.0
 47
0.0
 47
0.0
 47
1.0
171
     0
 49
0.0208333333333333
 49
0.0
 49
0.0
 49
0.0
 49
0.0
 49
0.0208333333333333
 49
0.0
 49
0.0
 49
0.0
 49
0.0
 49
1.0
 49
0.0
 49
0.0
 49
0.0
 49
0.0
 49
1.0
175
     0
142
0.0208333333333333
142
0.0
142
0.0
142
0.0
142
0.0
142
0.0208333333333333
142
0.0
142
0.0
142
0.0
142
0.0
142
1.0
142
0.0
142
0.0
142
0.0
142
0.0
142
1.0
179
     0
144
0.0208333333333333
144
0.0
144
0.0
144
0.0
144
0.0
144
0.0208333333333333
144
0.0
144
0.0
144
0.0
144
0.0
144
1.0
144
0.0
144
0.0
144
0.0
144
0.0
144
1.0
147
0.0208333333333333
147
0.0
147
0.0
147
0.0
147
0.0
147
0.0208333333333333
147
0.0
147
0.0
147
0.0
147
0.0
147
1.0
147
0.0
147
0.0
147
0.0
147
0.0
147
1.0
  0
MATERIAL
  5
524E
102
{ACAD_XDICTIONARY
360
524F
102
}
102
{ACAD_REACTORS
330
524D
102
}
330
524D
100
AcDbMaterial
  1
ByLayer
 72
     0
 43
0.0208333333333333
 43
0.0
 43
0.0
 43
0.0
 43
0.0
 43
0.0208333333333333
 43
0.0
 43
0.0
 43
0.0
 43
0.0
 43
1.0
 43
0.0
 43
0.0
 43
0.0
 43
0.0
 43
1.0
 77
     0
 47
0.0208333333333333
 47
0.0
 47
0.0
 47
0.0
 47
0.0
 47
0.0208333333333333
 47
0.0
 47
0.0
 47
0.0
 47
0.0
 47
1.0
 47
0.0
 47
0.0
 47
0.0
 47
0.0
 47
1.0
171
     0
 49
0.0208333333333333
 49
0.0
 49
0.0
 49
0.0
 49
0.0
 49
0.0208333333333333
 49
0.0
 49
0.0
 49
0.0
 49
0.0
 49
1.0
 49
0.0
 49
0.0
 49
0.0
 49
0.0
 49
1.0
175
     0
142
0.0208333333333333
142
0.0
142
0.0
142
0.0
142
0.0
142
0.0208333333333333
142
0.0
142
0.0
142
0.0
142
0.0
142
1.0
142
0.0
142
0.0
142
0.0
142
0.0
142
1.0
179
     0
144
0.0208333333333333
144
0.0
144
0.0
144
0.0
144
0.0
144
0.0208333333333333
144
0.0
144
0.0
144
0.0
144
0.0
144
1.0
144
0.0
144
0.0
144
0.0
144
0.0
144
1.0
147
0.0208333333333333
147
0.0
147
0.0
147
0.0
147
0.0
147
0.0208333333333333
147
0.0
147
0.0
147
0.0
147
0.0
147
1.0
147
0.0
147
0.0
147
0.0
147
0.0
147
1.0
  0
MATERIAL
  5
525E
102
{ACAD_XDICTIONARY
360
525F
102
}
102
{ACAD_REACTORS
330
524D
102
}
330
524D
100
AcDbMaterial
  1
Global
 72
     0
 43
0.0208333333333333
 43
0.0
 43
0.0
 43
0.0
 43
0.0
 43
0.0208333333333333
 43
0.0
 43
0.0
 43
0.0
 43
0.0
 43
1.0
 43
0.0
 43
0.0
 43
0.0
 43
0.0
 43
1.0
 77
     0
 47
0.0208333333333333
 47
0.0
 47
0.0
 47
0.0
 47
0.0
 47
0.0208333333333333
 47
0.0
 47
0.0
 47
0.0
 47
0.0
 47
1.0
 47
0.0
 47
0.0
 47
0.0
 47
0.0
 47
1.0
171
     0
 49
0.0208333333333333
 49
0.0
 49
0.0
 49
0.0
 49
0.0
 49
0.0208333333333333
 49
0.0
 49
0.0
 49
0.0
 49
0.0
 49
1.0
 49
0.0
 49
0.0
 49
0.0
 49
0.0
 49
1.0
175
     0
142
0.0208333333333333
142
0.0
142
0.0
142
0.0
142
0.0
142
0.0208333333333333
142
0.0
142
0.0
142
0.0
142
0.0
142
1.0
142
0.0
142
0.0
142
0.0
142
0.0
142
1.0
179
     0
144
0.0208333333333333
144
0.0
144
0.0
144
0.0
144
0.0
144
0.0208333333333333
144
0.0
144
0.0
144
0.0
144
0.0
144
1.0
144
0.0
144
0.0
144
0.0
144
0.0
144
1.0
147
0.0208333333333333
147
0.0
147
0.0
147
0.0
147
0.0
147
0.0208333333333333
147
0.0
147
0.0
147
0.0
147
0.0
147
1.0
147
0.0
147
0.0
147
0.0
147
0.0
147
1.0
  0
MLEADERSTYLE
  5
52A3
102
{ACAD_REACTORS
330
52A2
102
}
330
52A2
100
AcDbMLeaderStyle
179
     2
170
     2
171
     1
172
     0
 90
        2
 40
0.0
 41
0.0
173
     1
 91
-1056964608
340
5297
 92
       -2
290
     1
 42
0.09
291
     1
 43
0.36
  3
Standard
 44
0.18
300

342
5292
174
     1
178
     6
175
     1
176
     0
 93
-1056964608
 45
0.18
292
     0
297
     0
 46
0.18
 94
-1056964608
 47
1.0
 49
1.0
140
1.0
293
     1
141
0.0
294
     1
177
     0
142
1.0
295
     0
296
     0
143
0.125
271
     0
272
     9
273
     9
  0
MLINESTYLE
  5
529C
102
{ACAD_REACTORS
330
529B
102
}
330
529B
100
AcDbMlineStyle
  2
STANDARD
 70
     0
  3

 62
   256
 51
90.0
 52
90.0
 71
     2
 49
0.5
 62
   256
  6
BYLAYER
 49
-0.5
 62
   256
  6
BYLAYER
  0
ACDBPLACEHOLDER
  5
524C
102
{ACAD_REACTORS
330
524B
102
}
330
524B
  0
SCALE
  5
5280
102
{ACAD_REACTORS
330
527F
102
}
330
527F
100
AcDbScale
 70
     0
300
1:1
140
1.0
141
1.0
290
     1
  0
SCALE
  5
5281
102
{ACAD_REACTORS
330
527F
102
}
330
527F
100
AcDbScale
 70
     0
300
1/128" = 1'-0"
140
0.0078125
141
12.0
290
     0
  0
SCALE
  5
5282
102
{ACAD_REACTORS
330
527F
102
}
330
527F
100
AcDbScale
 70
     0
300
1/64" = 1'-0"
140
0.015625
141
12.0
290
     0
  0
SCALE
  5
5283
102
{ACAD_REACTORS
330
527F
102
}
330
527F
100
AcDbScale
 70
     0
300
1/32" = 1'-0"
140
0.03125
141
12.0
290
     0
  0
SCALE
  5
5284
102
{ACAD_REACTORS
330
527F
102
}
330
527F
100
AcDbScale
 70
     0
300
1/16" = 1'-0"
140
0.0625
141
12.0
290
     0
  0
SCALE
  5
5285
102
{ACAD_REACTORS
330
527F
102
}
330
527F
100
AcDbScale
 70
     0
300
3/32" = 1'-0"
140
0.09375
141
12.0
290
     0
  0
SCALE
  5
5286
102
{ACAD_REACTORS
330
527F
102
}
330
527F
100
AcDbScale
 70
     0
300
1/8" = 1'-0"
140
0.125
141
12.0
290
     0
  0
SCALE
  5
5287
102
{ACAD_REACTORS
330
527F
102
}
330
527F
100
AcDbScale
 70
     0
300
3/16" = 1'-0"
140
0.1875
141
12.0
290
     0
  0
SCALE
  5
5288
102
{ACAD_REACTORS
330
527F
102
}
330
527F
100
AcDbScale
 70
     0
300
1/4" = 1'-0"
140
0.25
141
12.0
290
     0
  0
SCALE
  5
5289
102
{ACAD_REACTORS
330
527F
102
}
330
527F
100
AcDbScale
 70
     0
300
3/8" = 1'-0"
140
0.375
141
12.0
290
     0
  0
SCALE
  5
528A
102
{ACAD_REACTORS
330
527F
102
}
330
527F
100
AcDbScale
 70
     0
300
1/2" = 1'-0"
140
0.5
141
12.0
290
     0
  0
SCALE
  5
528B
102
{ACAD_REACTORS
330
527F
102
}
330
527F
100
AcDbScale
 70
     0
300
3/4" = 1'-0"
140
0.75
141
12.0
290
     0
  0
SCALE
  5
528C
102
{ACAD_REACTORS
330
527F
102
}
330
527F
100
AcDbScale
 70
     0
300
1" = 1'-0"
140
1.0
141
12.0
290
     0
  0
SCALE
  5
528D
102
{ACAD_REACTORS
330
527F
102
}
330
527F
100
AcDbScale
 70
     0
300
1-1/2" = 1'-0"
140
1.5
141
12.0
290
     0
  0
SCALE
  5
528E
102
{ACAD_REACTORS
330
527F
102
}
330
527F
100
AcDbScale
 70
     0
300
3" = 1'-0"
140
3.0
141
12.0
290
     0
  0
SCALE
  5
528F
102
{ACAD_REACTORS
330
527F
102
}
330
527F
100
AcDbScale
 70
     0
300
6" = 1'-0"
140
6.0
141
12.0
290
     0
  0
SCALE
  5
5290
102
{ACAD_REACTORS
330
527F
102
}
330
527F
100
AcDbScale
 70
     0
300
1'-0" = 1'-0"
140
12.0
141
12.0
290
     0
  0
ACDBSECTIONVIEWSTYLE
  5
52A5
102
{ACAD_XDICTIONARY
360
5D7B
102
}
102
{ACAD_REACTORS
330
52A4
102
}
330
52A4
100
AcDbModelDocViewStyle
 70
     0
  3
Imperial24
290
     0
100
AcDbSectionViewStyle
 70
     0
 71
     0
 90
       78
 71
     1
340
5292
 62
   256
 40
0.24
340
0
340
0
 62
   256
 40
0.24
300
I, O, Q, S, X, Z
 40
0.48
 90
        3
 40
0.18
 90
        1
 71
     2
340
5299
 90
       25
 62
   256
340
5299
 90
       50
 62
   256
 40
0.24
 40
0.0
 40
0.24
 71
     3
340
5292
 62
   256
 40
0.24
 90
        1
 40
0.75
 90
        1
300
%<\AcVar ViewType \f "%tc1">% %<\AcVar ViewSectionStartId>%-%<\AcVar ViewSectionEndId>%\PSCALE %<\AcVar ViewScale \f "%sn">%
 71
     4
 62
   256
 62
   257
300
ANSI31
 40
1.0
 90
        0
290
     0
290
     0
 90
        6
 40
0.0
 40
1.570796326794896
 40
0.2617993877991494
 40
1.308996938995747
 40
-0.2617993877991494
 40
1.832595714594046
  0
ACDBSECTIONVIEWSTYLE
  5
53C9
102
{ACAD_XDICTIONARY
360
5D7F
102
}
102
{ACAD_REACTORS
330
52A4
102
}
330
52A4
100
AcDbModelDocViewStyle
 70
     0
  3
Metric50
290
     0
100
AcDbSectionViewStyle
 70
     0
 71
     0
 90
      102
 71
     1
340
5292
 62
   256
 40
5.0
340
0
340
0
 62
   256
 40
5.0
300
I, O, Q, S, X, Z
 40
10.0
 90
        0
 40
2.5
 90
        0
 71
     2
340
5299
 90
       25
 62
   256
340
5299
 90
       50
 62
   256
 40
5.0
 40
2.5
 40
5.0
 71
     3
340
5292
 62
   256
 40
5.0
 90
        0
 40
15.0
 90
        1
300
%<\AcVar ViewSectionStartId>%-%<\AcVar ViewSectionEndId>% (%<\AcVar ViewScale \f "%sn">%)
 71
     4
 62
   256
 62
   257
300
ANSI31
 40
1.0
 90
        0
290
     0
290
     0
 90
        6
 40
0.0
 40
1.570796326794896
 40
0.2617993877991494
 40
1.308996938995747
 40
-0.2617993877991494
 40
1.832595714594046
  0
TABLESTYLE
  5
52A1
102
{ACAD_XDICTIONARY
360
5D48
102
}
102
{ACAD_REACTORS
330
52A0
102
}
330
52A0
100
AcDbTableStyle
280
     0
  3
Standard
 70
     0
 71
     0
 40
0.06
 41
0.06
280
     0
281
     0
  7
STANDARD
140
0.18
170
     2
 62
     0
 63
     7
283
     0
 90
      512
 91
        0
  1

274
    -2
284
     1
 64
     0
275
    -2
285
     1
 65
     0
276
    -2
286
     1
 66
     0
277
    -2
287
     1
 67
     0
278
    -2
288
     1
 68
     0
279
    -2
289
     1
 69
     0
  7
STANDARD
140
0.25
170
     5
 62
     0
 63
     7
283
     0
 90
      512
 91
        0
  1

274
    -2
284
     1
 64
     0
275
    -2
285
     1
 65
     0
276
    -2
286
     1
 66
     0
277
    -2
287
     1
 67
     0
278
    -2
288
     1
 68
     0
279
    -2
289
     1
 69
     0
  7
STANDARD
140
0.18
170
     5
 62
     0
 63
     7
283
     0
 90
      512
 91
        0
  1

274
    -2
284
     1
 64
     0
275
    -2
285
     1
 65
     0
276
    -2
286
     1
 66
     0
277
    -2
287
     1
 67
     0
278
    -2
288
     1
 68
     0
279
    -2
289
     1
 69
     0
  0
VISUALSTYLE
  5
526C
102
{ACAD_XDICTIONARY
360
5D55
102
}
102
{ACAD_REACTORS
330
5266
102
}
330
5266
100
AcDbVisualStyle
  2
2dWireframe
 70
     4
177
     2
291
     0
 71
     0
176
     1
 72
     2
176
     1
 73
     0
176
     1
 90
        0
176
     1
 40
0.6
176
     1
 41
30.0
176
     1
 63
     7
421
 16777215
176
     1
 74
     1
176
     1
 91
        4
176
     1
 64
     7
176
     1
 65
   257
176
     1
 75
     1
176
     1
175
     1
176
     1
 42
1.0
176
     1
 92
        0
176
     1
 66
   257
176
     1
 43
1.0
176
     1
 76
     1
176
     1
 77
     6
176
     1
 78
     2
176
     1
 67
     7
176
     1
 79
     5
176
     1
170
     0
176
     1
171
     0
176
     1
290
     0
176
     1
 93
        1
176
     1
 44
0.0
176
     1
173
     0
176
     1
1001
ACAD
1000
AcDbSavedByObjectVersion
1070
     0
  0
VISUALSTYLE
  5
526B
102
{ACAD_XDICTIONARY
360
5D53
102
}
102
{ACAD_REACTORS
330
5266
102
}
330
5266
100
AcDbVisualStyle
  2
Basic
 70
     7
177
     2
291
     1
 71
     1
176
     1
 72
     0
176
     1
 73
     1
176
     1
 90
        0
176
     1
 40
0.6
176
     1
 41
30.0
176
     1
 63
     7
421
 16777215
176
     1
 74
     0
176
     1
 91
        4
176
     1
 64
     7
176
     1
 65
   257
176
     1
 75
     1
176
     1
175
     1
176
     1
 42
1.0
176
     1
 92
        8
176
     1
 66
     7
176
     1
 43
1.0
176
     1
 76
     1
176
     1
 77
     6
176
     1
 78
     2
176
     1
 67
     7
176
     1
 79
     5
176
     1
170
     0
176
     1
171
     0
176
     1
290
     0
176
     1
 93
        1
176
     1
 44
0.0
176
     1
173
     0
176
     1
1001
ACAD
1000
AcDbSavedByObjectVersion
1070
     0
  0
VISUALSTYLE
  5
5272
102
{ACAD_XDICTIONARY
360
5D61
102
}
102
{ACAD_REACTORS
330
5266
102
}
330
5266
100
AcDbVisualStyle
  2
Brighten
 70
    12
177
     2
291
     1
 71
     2
176
     1
 72
     2
176
     1
 73
     0
176
     1
 90
        0
176
     1
 40
0.6
176
     1
 41
30.0
176
     1
 63
     7
421
 16777215
176
     1
 74
     1
176
     1
 91
        4
176
     1
 64
     7
176
     1
 65
   257
176
     1
 75
     1
176
     1
175
     1
176
     1
 42
1.0
176
     1
 92
        8
176
     1
 66
     7
176
     1
 43
1.0
176
     1
 76
     1
176
     1
 77
     6
176
     1
 78
     2
176
     1
 67
     7
176
     1
 79
     5
176
     1
170
     0
176
     1
171
     0
176
     1
290
     0
176
     1
 93
        1
176
     1
 44
50.0
176
     1
173
     0
176
     1
1001
ACAD
1000
AcDbSavedByObjectVersion
1070
     0
  0
VISUALSTYLE
  5
5276
102
{ACAD_XDICTIONARY
360
5D69
102
}
102
{ACAD_REACTORS
330
5266
102
}
330
5266
100
AcDbVisualStyle
  2
ColorChange
 70
    16
177
     2
291
     1
 71
     2
176
     1
 72
     2
176
     1
 73
     3
176
     1
 90
        0
176
     1
 40
0.6
176
     1
 41
30.0
176
     1
 63
     8
421
  8421504
176
     1
 74
     1
176
     1
 91
        4
176
     1
 64
     7
176
     1
 65
   257
176
     1
 75
     1
176
     1
175
     1
176
     1
 42
1.0
176
     1
 92
        8
176
     1
 66
     8
424
  8421504
176
     1
 43
1.0
176
     1
 76
     1
176
     1
 77
     6
176
     1
 78
     2
176
     1
 67
     7
176
     1
 79
     5
176
     1
170
     0
176
     1
171
     0
176
     1
290
     0
176
     1
 93
        1
176
     1
 44
0.0
176
     1
173
     0
176
     1
1001
ACAD
1000
AcDbSavedByObjectVersion
1070
     0
  0
VISUALSTYLE
  5
526F
102
{ACAD_XDICTIONARY
360
5D5B
102
}
102
{ACAD_REACTORS
330
5266
102
}
330
5266
100
AcDbVisualStyle
  2
Conceptual
 70
     9
177
     2
291
     0
 71
     3
176
     1
 72
     2
176
     1
 73
     0
176
     1
 90
        0
176
     1
 40
0.6
176
     1
 41
30.0
176
     1
 63
     7
421
 16777215
176
     1
 74
     2
176
     1
 91
        2
176
     1
 64
     7
176
     1
 65
   257
176
     1
 75
     1
176
     1
175
     1
176
     1
 42
179.0
176
     1
 92
        8
176
     1
 66
     7
176
     1
 43
1.0
176
     1
 76
     1
176
     1
 77
     6
176
     1
 78
     2
176
     1
 67
     7
176
     1
 79
     3
176
     1
170
     0
176
     1
171
     0
176
     1
290
     0
176
     1
 93
        1
176
     1
 44
0.0
176
     1
173
     0
176
     1
1001
ACAD
1000
AcDbSavedByObjectVersion
1070
     0
  0
VISUALSTYLE
  5
5271
102
{ACAD_XDICTIONARY
360
5D5F
102
}
102
{ACAD_REACTORS
330
5266
102
}
330
5266
100
AcDbVisualStyle
  2
Dim
 70
    11
177
     2
291
     1
 71
     2
176
     1
 72
     2
176
     1
 73
     0
176
     1
 90
        0
176
     1
 40
0.6
176
     1
 41
30.0
176
     1
 63
     7
421
 16777215
176
     1
 74
     1
176
     1
 91
        4
176
     1
 64
     7
176
     1
 65
   257
176
     1
 75
     1
176
     1
175
     1
176
     1
 42
1.0
176
     1
 92
        8
176
     1
 66
     7
176
     1
 43
1.0
176
     1
 76
     1
176
     1
 77
     6
176
     1
 78
     2
176
     1
 67
     7
176
     1
 79
     5
176
     1
170
     0
176
     1
171
     0
176
     1
290
     0
176
     1
 93
        1
176
     1
 44
-50.0
176
     1
173
     0
176
     1
1001
ACAD
1000
AcDbSavedByObjectVersion
1070
     0
  0
VISUALSTYLE
  5
527E
102
{ACAD_XDICTIONARY
360
5D79
102
}
102
{ACAD_REACTORS
330
5266
102
}
330
5266
100
AcDbVisualStyle
  2
EdgeColorOff
 70
    22
177
     2
291
     1
 71
     2
176
     0
 72
     2
176
     0
 73
     0
176
     0
 90
        0
176
     0
 40
0.6
176
     0
 41
30.0
176
     0
 63
     7
421
 16777215
176
     0
 74
     1
176
     0
 91
        4
176
     0
 64
     7
176
     0
 65
   257
176
     0
 75
     1
176
     0
175
     1
176
     0
 42
1.0
176
     0
 92
        8
176
     2
 66
     7
176
     0
 43
1.0
176
     0
 76
     1
176
     0
 77
     6
176
     0
 78
     2
176
     0
 67
     7
176
     0
 79
     5
176
     0
170
     0
176
     0
171
     0
176
     0
290
     0
176
     0
 93
        1
176
     0
 44
0.0
176
     0
173
     0
176
     0
1001
ACAD
1000
AcDbSavedByObjectVersion
1070
     0
  0
VISUALSTYLE
  5
5275
102
{ACAD_XDICTIONARY
360
5D67
102
}
102
{ACAD_REACTORS
330
5266
102
}
330
5266
100
AcDbVisualStyle
  2
Facepattern
 70
    15
177
     2
291
     1
 71
     2
176
     1
 72
     2
176
     1
 73
     0
176
     1
 90
        0
176
     1
 40
0.6
176
     1
 41
30.0
176
     1
 63
     7
421
 16777215
176
     1
 74
     1
176
     1
 91
        4
176
     1
 64
     7
176
     1
 65
   257
176
     1
 75
     1
176
     1
175
     1
176
     1
 42
1.0
176
     1
 92
        8
176
     1
 66
     7
176
     1
 43
1.0
176
     1
 76
     1
176
     1
 77
     6
176
     1
 78
     2
176
     1
 67
     7
176
     1
 79
     5
176
     1
170
     0
176
     1
171
     0
176
     1
290
     0
176
     1
 93
        1
176
     1
 44
0.0
176
     1
173
     0
176
     1
1001
ACAD
1000
AcDbSavedByObjectVersion
1070
     0
  0
VISUALSTYLE
  5
5267
102
{ACAD_XDICTIONARY
360
5D4B
102
}
102
{ACAD_REACTORS
330
5266
102
}
330
5266
100
AcDbVisualStyle
  2
Flat
 70
     0
177
     2
291
     1
 71
     2
176
     1
 72
     1
176
     1
 73
     1
176
     1
 90
        2
176
     1
 40
0.6
176
     1
 41
30.0
176
     1
 63
     7
421
 16777215
176
     1
 74
     0
176
     1
 91
        0
176
     1
 64
     7
176
     1
 65
   257
176
     1
 75
     1
176
     1
175
     1
176
     1
 42
1.0
176
     1
 92
        8
176
     1
 66
     7
176
     1
 43
1.0
176
     1
 76
     1
176
     1
 77
     6
176
     1
 78
     2
176
     1
 67
     7
176
     1
 79
     5
176
     1
170
     0
176
     1
171
     0
176
     1
290
     0
176
     1
 93
       13
176
     1
 44
0.0
176
     1
173
     0
176
     1
1001
ACAD
1000
AcDbSavedByObjectVersion
1070
     0
  0
VISUALSTYLE
  5
5268
102
{ACAD_XDICTIONARY
360
5D4D
102
}
102
{ACAD_REACTORS
330
5266
102
}
330
5266
100
AcDbVisualStyle
  2
FlatWithEdges
 70
     1
177
     2
291
     1
 71
     2
176
     1
 72
     1
176
     1
 73
     1
176
     1
 90
        2
176
     1
 40
0.6
176
     1
 41
30.0
176
     1
 63
     7
421
 16777215
176
     1
 74
     1
176
     1
 91
        0
176
     1
 64
     7
176
     1
 65
   257
176
     1
 75
     1
176
     1
175
     1
176
     1
 42
1.0
176
     1
 92
        0
176
     1
 66
   257
176
     1
 43
1.0
176
     1
 76
     1
176
     1
 77
     6
176
     1
 78
     2
176
     1
 67
     7
176
     1
 79
     5
176
     1
170
     0
176
     1
171
     0
176
     1
290
     0
176
     1
 93
       13
176
     1
 44
0.0
176
     1
173
     0
176
     1
1001
ACAD
1000
AcDbSavedByObjectVersion
1070
     0
  0
VISUALSTYLE
  5
5269
102
{ACAD_XDICTIONARY
360
5D4F
102
}
102
{ACAD_REACTORS
330
5266
102
}
330
5266
100
AcDbVisualStyle
  2
Gouraud
 70
     2
177
     2
291
     1
 71
     2
176
     1
 72
     2
176
     1
 73
     1
176
     1
 90
        2
176
     1
 40
0.6
176
     1
 41
30.0
176
     1
 63
     7
421
 16777215
176
     1
 74
     0
176
     1
 91
        0
176
     1
 64
     7
176
     1
 65
   257
176
     1
 75
     1
176
     1
175
     1
176
     1
 42
1.0
176
     1
 92
        0
176
     1
 66
     7
176
     1
 43
1.0
176
     1
 76
     1
176
     1
 77
     6
176
     1
 78
     2
176
     1
 67
     7
176
     1
 79
     5
176
     1
170
     0
176
     1
171
     0
176
     1
290
     0
176
     1
 93
       13
176
     1
 44
0.0
176
     1
173
     0
176
     1
1001
ACAD
1000
AcDbSavedByObjectVersion
1070
     0
  0
VISUALSTYLE
  5
526A
102
{ACAD_XDICTIONARY
360
5D51
102
}
102
{ACAD_REACTORS
330
5266
102
}
330
5266
100
AcDbVisualStyle
  2
GouraudWithEdges
 70
     3
177
     2
291
     1
 71
     2
176
     1
 72
     2
176
     1
 73
     1
176
     1
 90
        2
176
     1
 40
0.6
176
     1
 41
30.0
176
     1
 63
     7
421
 16777215
176
     1
 74
     1
176
     1
 91
        0
176
     1
 64
     7
176
     1
 65
   257
176
     1
 75
     1
176
     1
175
     1
176
     1
 42
1.0
176
     1
 92
        0
176
     1
 66
   257
176
     1
 43
1.0
176
     1
 76
     1
176
     1
 77
     6
176
     1
 78
     2
176
     1
 67
     7
176
     1
 79
     5
176
     1
170
     0
176
     1
171
     0
176
     1
290
     0
176
     1
 93
       13
176
     1
 44
0.0
176
     1
173
     0
176
     1
1001
ACAD
1000
AcDbSavedByObjectVersion
1070
     0
  0
VISUALSTYLE
  5
526E
102
{ACAD_XDICTIONARY
360
5D59
102
}
102
{ACAD_REACTORS
330
5266
102
}
330
5266
100
AcDbVisualStyle
  2
Hidden
 70
     6
177
     2
291
     0
 71
     1
176
     1
 72
     2
176
     1
 73
     2
176
     1
 90
        0
176
     1
 40
0.6
176
     1
 41
30.0
176
     1
 63
     7
421
 16777215
176
     1
 74
     2
176
     1
 91
        2
176
     1
 64
     7
176
     1
 65
   257
176
     1
 75
     2
176
     1
175
     1
176
     1
 42
40.0
176
     1
 92
        0
176
     1
 66
   257
176
     1
 43
1.0
176
     1
 76
     1
176
     1
 77
     6
176
     1
 78
     2
176
     1
 67
     7
176
     1
 79
     3
176
     1
170
     0
176
     1
171
     0
176
     1
290
     0
176
     1
 93
        1
176
     1
 44
0.0
176
     1
173
     0
176
     1
1001
ACAD
1000
AcDbSavedByObjectVersion
1070
     0
  0
VISUALSTYLE
  5
527C
102
{ACAD_XDICTIONARY
360
5D75
102
}
102
{ACAD_REACTORS
330
5266
102
}
330
5266
100
AcDbVisualStyle
  2
JitterOff
 70
    20
177
     2
291
     1
 71
     2
176
     0
 72
     2
176
     0
 73
     0
176
     0
 90
        0
176
     0
 40
0.6
176
     0
 41
30.0
176
     0
 63
     7
421
 16777215
176
     0
 74
     1
176
     0
 91
        4
176
     0
 64
     7
176
     0
 65
   257
176
     0
 75
     1
176
     0
175
     1
176
     0
 42
1.0
176
     0
 92
       10
176
     2
 66
     7
176
     0
 43
1.0
176
     0
 76
     1
176
     0
 77
     6
176
     0
 78
     2
176
     0
 67
     7
176
     0
 79
     5
176
     0
170
     0
176
     0
171
     0
176
     0
290
     0
176
     0
 93
        1
176
     0
 44
0.0
176
     0
173
     0
176
     0
1001
ACAD
1000
AcDbSavedByObjectVersion
1070
     0
  0
VISUALSTYLE
  5
5274
102
{ACAD_XDICTIONARY
360
5D65
102
}
102
{ACAD_REACTORS
330
5266
102
}
330
5266
100
AcDbVisualStyle
  2
Linepattern
 70
    14
177
     2
291
     1
 71
     2
176
     1
 72
     2
176
     1
 73
     0
176
     1
 90
        0
176
     1
 40
0.6
176
     1
 41
30.0
176
     1
 63
     7
421
 16777215
176
     1
 74
     1
176
     1
 91
        4
176
     1
 64
     7
176
     1
 65
   257
176
     1
 75
     7
176
     1
175
     7
176
     1
 42
1.0
176
     1
 92
        8
176
     1
 66
     7
176
     1
 43
1.0
176
     1
 76
     1
176
     1
 77
     6
176
     1
 78
     2
176
     1
 67
     7
176
     1
 79
     5
176
     1
170
     0
176
     1
171
     0
176
     1
290
     0
176
     1
 93
        1
176
     1
 44
0.0
176
     1
173
     0
176
     1
1001
ACAD
1000
AcDbSavedByObjectVersion
1070
     0
  0
VISUALSTYLE
  5
527D
102
{ACAD_XDICTIONARY
360
5D77
102
}
102
{ACAD_REACTORS
330
5266
102
}
330
5266
100
AcDbVisualStyle
  2
OverhangOff
 70
    21
177
     2
291
     1
 71
     2
176
     0
 72
     2
176
     0
 73
     0
176
     0
 90
        0
176
     0
 40
0.6
176
     0
 41
30.0
176
     0
 63
     7
421
 16777215
176
     0
 74
     1
176
     0
 91
        4
176
     0
 64
     7
176
     0
 65
   257
176
     0
 75
     1
176
     0
175
     1
176
     0
 42
1.0
176
     0
 92
        9
176
     2
 66
     7
176
     0
 43
1.0
176
     0
 76
     1
176
     0
 77
     6
176
     0
 78
     2
176
     0
 67
     7
176
     0
 79
     5
176
     0
170
     0
176
     0
171
     0
176
     0
290
     0
176
     0
 93
        1
176
     0
 44
0.0
176
     0
173
     0
176
     0
1001
ACAD
1000
AcDbSavedByObjectVersion
1070
     0
  0
VISUALSTYLE
  5
5270
102
{ACAD_XDICTIONARY
360
5D5D
102
}
102
{ACAD_REACTORS
330
5266
102
}
330
5266
100
AcDbVisualStyle
  2
Realistic
 70
     8
177
     2
291
     0
 71
     2
176
     1
 72
     3
176
     1
 73
     0
176
     1
 90
        2
176
     1
 40
0.6
176
     1
 41
30.0
176
     1
 63
     7
421
 16777215
176
     1
 74
     0
176
     1
 91
        0
176
     1
 64
     7
176
     1
 65
   257
176
     1
 75
     1
176
     1
175
     1
176
     1
 42
1.0
176
     1
 92
        8
176
     1
 66
   257
176
     1
 43
1.0
176
     1
 76
     1
176
     1
 77
     6
176
     1
 78
     2
176
     1
 67
     7
176
     1
 79
     3
176
     1
170
     0
176
     1
171
     0
176
     1
290
     0
176
     1
 93
       13
176
     1
 44
0.0
176
     1
173
     0
176
     1
1001
ACAD
1000
AcDbSavedByObjectVersion
1070
     0
  0
VISUALSTYLE
  5
527B
102
{ACAD_XDICTIONARY
360
5D73
102
}
102
{ACAD_REACTORS
330
5266
102
}
330
5266
100
AcDbVisualStyle
  2
Shaded
 70
    27
177
     2
291
     0
 71
     2
176
     1
 72
     2
176
     1
 73
     1
176
     1
 90
        2
176
     1
 40
0.6
176
     1
 41
30.0
176
     1
 63
     7
421
 16777215
176
     1
 74
     0
176
     1
 91
        4
176
     1
 64
     7
176
     1
 65
   257
176
     1
 75
     1
176
     1
175
     1
176
     1
 42
1.0
176
     1
 92
        8
176
     1
 66
   257
176
     1
 43
1.0
176
     1
 76
     1
176
     1
 77
     6
176
     1
 78
     2
176
     1
 67
     8
425
  7895160
176
     1
 79
     3
176
     1
170
     0
176
     1
171
     0
176
     1
290
     0
176
     1
 93
        5
176
     1
 44
0.0
176
     1
173
     0
176
     1
1001
ACAD
1000
AcDbSavedByObjectVersion
1070
     0
  0
VISUALSTYLE
  5
527A
102
{ACAD_XDICTIONARY
360
5D71
102
}
102
{ACAD_REACTORS
330
5266
102
}
330
5266
100
AcDbVisualStyle
  2
Shaded with edges
 70
    26
177
     2
291
     0
 71
     2
176
     1
 72
     2
176
     1
 73
     1
176
     1
 90
        2
176
     1
 40
0.6
176
     1
 41
30.0
176
     1
 63
     7
421
 16777215
176
     1
 74
     1
176
     1
 91
        2
176
     1
 64
     7
176
     1
 65
   257
176
     1
 75
     2
176
     1
175
     1
176
     1
 42
1.0
176
     1
 92
        8
176
     1
 66
   257
176
     1
 43
1.0
176
     1
 76
     1
176
     1
 77
     6
176
     1
 78
     2
176
     1
 67
     7
176
     1
 79
     3
176
     1
170
     0
176
     1
171
     0
176
     1
290
     0
176
     1
 93
        5
176
     1
 44
0.0
176
     1
173
     0
176
     1
1001
ACAD
1000
AcDbSavedByObjectVersion
1070
     0
  0
VISUALSTYLE
  5
5277
102
{ACAD_XDICTIONARY
360
5D6B
102
}
102
{ACAD_REACTORS
330
5266
102
}
330
5266
100
AcDbVisualStyle
  2
Shades of Gray
 70
    23
177
     2
291
     0
 71
     2
176
     1
 72
     2
176
     1
 73
     3
176
     1
 90
        0
176
     1
 40
0.6
176
     1
 41
30.0
176
     1
 63
     7
421
 16777215
176
     1
 74
     2
176
     1
 91
        2
176
     1
 64
     7
176
     1
 65
     7
176
     1
 75
     1
176
     1
175
     1
176
     1
 42
40.0
176
     1
 92
        8
176
     1
 66
     7
176
     1
 43
1.0
176
     1
 76
     1
176
     1
 77
     6
176
     1
 78
     2
176
     1
 67
     7
176
     1
 79
     3
176
     1
170
     0
176
     1
171
     0
176
     1
290
     0
176
     1
 93
        1
176
     1
 44
0.0
176
     1
173
     0
176
     1
1001
ACAD
1000
AcDbSavedByObjectVersion
1070
     0
  0
VISUALSTYLE
  5
5278
102
{ACAD_XDICTIONARY
360
5D6D
102
}
102
{ACAD_REACTORS
330
5266
102
}
330
5266
100
AcDbVisualStyle
  2
Sketchy
 70
    24
177
     2
291
     0
 71
     1
176
     1
 72
     2
176
     1
 73
     2
176
     1
 90
        0
176
     1
 40
0.6
176
     1
 41
30.0
176
     1
 63
     7
421
 16777215
176
     1
 74
     2
176
     1
 91
        2
176
     1
 64
     7
176
     1
 65
     7
176
     1
 75
     1
176
     1
175
     1
176
     1
 42
40.0
176
     1
 92
       11
176
     1
 66
     7
176
     1
 43
1.0
176
     1
 76
     1
176
     1
 77
     6
176
     1
 78
     2
176
     1
 67
     7
176
     1
 79
     6
176
     1
170
     0
176
     1
171
     0
176
     1
290
     0
176
     1
 93
        1
176
     1
 44
0.0
176
     1
173
     0
176
     1
1001
ACAD
1000
AcDbSavedByObjectVersion
1070
     0
  0
VISUALSTYLE
  5
5273
102
{ACAD_XDICTIONARY
360
5D63
102
}
102
{ACAD_REACTORS
330
5266
102
}
330
5266
100
AcDbVisualStyle
  2
Thicken
 70
    13
177
     2
291
     1
 71
     2
176
     1
 72
     2
176
     1
 73
     0
176
     1
 90
        0
176
     1
 40
0.6
176
     1
 41
30.0
176
     1
 63
     7
421
 16777215
176
     1
 74
     1
176
     1
 91
        4
176
     1
 64
     7
176
     1
 65
   257
176
     1
 75
     1
176
     1
175
     1
176
     1
 42
1.0
176
     1
 92
       12
176
     1
 66
     7
176
     1
 43
1.0
176
     1
 76
     1
176
     1
 77
     6
176
     1
 78
     2
176
     1
 67
     7
176
     1
 79
     5
176
     1
170
     0
176
     1
171
     0
176
     1
290
     0
176
     1
 93
        1
176
     1
 44
0.0
176
     1
173
     0
176
     1
1001
ACAD
1000
AcDbSavedByObjectVersion
1070
     0
  0
VISUALSTYLE
  5
526D
102
{ACAD_XDICTIONARY
360
5D57
102
}
102
{ACAD_REACTORS
330
5266
102
}
330
5266
100
AcDbVisualStyle
  2
Wireframe
 70
     5
177
     2
291
     0
 71
     0
176
     1
 72
     2
176
     1
 73
     0
176
     1
 90
        0
176
     1
 40
0.6
176
     1
 41
30.0
176
     1
 63
     7
421
 16777215
176
     1
 74
     1
176
     1
 91
        4
176
     1
 64
     7
176
     1
 65
   257
176
     1
 75
     1
176
     1
175
     1
176
     1
 42
1.0
176
     1
 92
        0
176
     1
 66
   257
176
     1
 43
1.0
176
     1
 76
     1
176
     1
 77
     6
176
     1
 78
     2
176
     1
 67
     7
176
     1
 79
     3
176
     1
170
     0
176
     1
171
     0
176
     1
290
     0
176
     1
 93
        1
176
     1
 44
0.0
176
     1
173
     0
176
     1
1001
ACAD
1000
AcDbSavedByObjectVersion
1070
     0
  0
VISUALSTYLE
  5
5279
102
{ACAD_XDICTIONARY
360
5D6F
102
}
102
{ACAD_REACTORS
330
5266
102
}
330
5266
100
AcDbVisualStyle
  2
X-Ray
 70
    25
177
     2
291
     0
 71
     2
176
     1
 72
     2
176
     1
 73
     1
176
     1
 90
        1
176
     1
 40
0.5
176
     1
 41
30.0
176
     1
 63
     7
421
 16777215
176
     1
 74
     1
176
     1
 91
        0
176
     1
 64
     7
176
     1
 65
   257
176
     1
 75
     1
176
     1
175
     1
176
     1
 42
1.0
176
     1
 92
        8
176
     1
 66
     7
176
     1
 43
1.0
176
     1
 76
     1
176
     1
 77
     6
176
     1
 78
     2
176
     1
 67
     7
176
     1
 79
     3
176
     1
170
     0
176
     1
171
     0
176
     1
290
     0
176
     1
 93
       13
176
     1
 44
0.0
176
     1
173
     0
176
     1
1001
ACAD
1000
AcDbSavedByObjectVersion
1070
     0
  0
DICTIONARYVAR
  5
5D44
102
{ACAD_REACTORS
330
5D3E
102
}
330
5D3E
100
DictionaryVariables
280
     0
  1
1:1
  0
DICTIONARYVAR
  5
5D40
102
{ACAD_REACTORS
330
5D3E
102
}
330
5D3E
100
DictionaryVariables
280
     0
  1
STANDARD
  0
DICTIONARYVAR
  5
5D3F
102
{ACAD_REACTORS
330
5D3E
102
}
330
5D3E
100
DictionaryVariables
280
     0
  1
STANDARD
  0
DICTIONARYVAR
  5
5D41
102
{ACAD_REACTORS
330
5D3E
102
}
330
5D3E
100
DictionaryVariables
280
     0
  1
Imperial24
  0
DICTIONARYVAR
  5
5D42
102
{ACAD_REACTORS
330
5D3E
102
}
330
5D3E
100
DictionaryVariables
280
     0
  1
Imperial24
  0
DICTIONARYVAR
  5
5D46
102
{ACAD_REACTORS
330
5D3E
102
}
330
5D3E
100
DictionaryVariables
280
     0
  1
1
  0
DICTIONARYVAR
  5
5D47
102
{ACAD_REACTORS
330
5D3E
102
}
330
5D3E
100
DictionaryVariables
280
     0
  1
15
  0
DICTIONARYVAR
  5
5D45
102
{ACAD_REACTORS
330
5D3E
102
}
330
5D3E
100
DictionaryVariables
280
     0
  1
0
  0
DICTIONARYVAR
  5
5D43
102
{ACAD_REACTORS
330
5D3E
102
}
330
5D3E
100
DictionaryVariables
280
     0
  1
0
  0
DICTIONARY
  5
5D7D
330
52A7
100
AcDbDictionary
280
     1
281
     1
  3
ACAD_XREC_ROUNDTRIP
360
5D7E
  0
DICTIONARY
  5
5D81
330
53CA
100
AcDbDictionary
280
     1
281
     1
  3
ACAD_XREC_ROUNDTRIP
360
5D82
  0
DICTIONARY
  5
5257
330
5256
100
AcDbDictionary
280
     1
281
     1
  3
BUMPTILE
360
5259
  3
DIFFUSETILE
360
5258
  3
OPACITYTILE
360
525C
  3
REFLECTIONTILE
360
525B
  3
REFRACTIONTILE
360
525D
  3
SPECULARTILE
360
525A
  0
DICTIONARY
  5
524F
330
524E
100
AcDbDictionary
280
     1
281
     1
  3
BUMPTILE
360
5251
  3
DIFFUSETILE
360
5250
  3
OPACITYTILE
360
5254
  3
REFLECTIONTILE
360
5253
  3
REFRACTIONTILE
360
5255
  3
SPECULARTILE
360
5252
  0
DICTIONARY
  5
525F
330
525E
100
AcDbDictionary
280
     1
281
     1
  3
BUMPTILE
360
5261
  3
DIFFUSETILE
360
5260
  3
OPACITYTILE
360
5264
  3
REFLECTIONTILE
360
5263
  3
REFRACTIONTILE
360
5265
  3
SPECULARTILE
360
5262
  0
DICTIONARY
  5
5D7B
330
52A5
100
AcDbDictionary
280
     1
281
     1
  3
ACAD_XREC_ROUNDTRIP
360
5D7C
  0
DICTIONARY
  5
5D7F
330
53C9
100
AcDbDictionary
280
     1
281
     1
  3
ACAD_XREC_ROUNDTRIP
360
5D80
  0
DICTIONARY
  5
5D48
330
52A1
100
AcDbDictionary
280
     1
281
     1
  3
ACAD_ROUNDTRIP_2008_TABLESTYLE_CELLSTYLEMAP
360
5D49
  0
DICTIONARY
  5
5D55
330
526C
100
AcDbDictionary
280
     1
281
     1
  3
ACAD_XREC_ROUNDTRIP
360
5D56
  0
DICTIONARY
  5
5D53
330
526B
100
AcDbDictionary
280
     1
281
     1
  3
ACAD_XREC_ROUNDTRIP
360
5D54
  0
DICTIONARY
  5
5D61
330
5272
100
AcDbDictionary
280
     1
281
     1
  3
ACAD_XREC_ROUNDTRIP
360
5D62
  0
DICTIONARY
  5
5D69
330
5276
100
AcDbDictionary
280
     1
281
     1
  3
ACAD_XREC_ROUNDTRIP
360
5D6A
  0
DICTIONARY
  5
5D5B
330
526F
100
AcDbDictionary
280
     1
281
     1
  3
ACAD_XREC_ROUNDTRIP
360
5D5C
  0
DICTIONARY
  5
5D5F
330
5271
100
AcDbDictionary
280
     1
281
     1
  3
ACAD_XREC_ROUNDTRIP
360
5D60
  0
DICTIONARY
  5
5D79
330
527E
100
AcDbDictionary
280
     1
281
     1
  3
ACAD_XREC_ROUNDTRIP
360
5D7A
  0
DICTIONARY
  5
5D67
330
5275
100
AcDbDictionary
280
     1
281
     1
  3
ACAD_XREC_ROUNDTRIP
360
5D68
  0
DICTIONARY
  5
5D4B
330
5267
100
AcDbDictionary
280
     1
281
     1
  3
ACAD_XREC_ROUNDTRIP
360
5D4C
  0
DICTIONARY
  5
5D4D
330
5268
100
AcDbDictionary
280
     1
281
     1
  3
ACAD_XREC_ROUNDTRIP
360
5D4E
  0
DICTIONARY
  5
5D4F
330
5269
100
AcDbDictionary
280
     1
281
     1
  3
ACAD_XREC_ROUNDTRIP
360
5D50
  0
DICTIONARY
  5
5D51
330
526A
100
AcDbDictionary
280
     1
281
     1
  3
ACAD_XREC_ROUNDTRIP
360
5D52
  0
DICTIONARY
  5
5D59
330
526E
100
AcDbDictionary
280
     1
281
     1
  3
ACAD_XREC_ROUNDTRIP
360
5D5A
  0
DICTIONARY
  5
5D75
330
527C
100
AcDbDictionary
280
     1
281
     1
  3
ACAD_XREC_ROUNDTRIP
360
5D76
  0
DICTIONARY
  5
5D65
330
5274
100
AcDbDictionary
280
     1
281
     1
  3
ACAD_XREC_ROUNDTRIP
360
5D66
  0
DICTIONARY
  5
5D77
330
527D
100
AcDbDictionary
280
     1
281
     1
  3
ACAD_XREC_ROUNDTRIP
360
5D78
  0
DICTIONARY
  5
5D5D
330
5270
100
AcDbDictionary
280
     1
281
     1
  3
ACAD_XREC_ROUNDTRIP
360
5D5E
  0
DICTIONARY
  5
5D73
330
527B
100
AcDbDictionary
280
     1
281
     1
  3
ACAD_XREC_ROUNDTRIP
360
5D74
  0
DICTIONARY
  5
5D71
330
527A
100
AcDbDictionary
280
     1
281
     1
  3
ACAD_XREC_ROUNDTRIP
360
5D72
  0
DICTIONARY
  5
5D6B
330
5277
100
AcDbDictionary
280
     1
281
     1
  3
ACAD_XREC_ROUNDTRIP
360
5D6C
  0
DICTIONARY
  5
5D6D
330
5278
100
AcDbDictionary
280
     1
281
     1
  3
ACAD_XREC_ROUNDTRIP
360
5D6E
  0
DICTIONARY
  5
5D63
330
5273
100
AcDbDictionary
280
     1
281
     1
  3
ACAD_XREC_ROUNDTRIP
360
5D64
  0
DICTIONARY
  5
5D57
330
526D
100
AcDbDictionary
280
     1
281
     1
  3
ACAD_XREC_ROUNDTRIP
360
5D58
  0
DICTIONARY
  5
5D6F
330
5279
100
AcDbDictionary
280
     1
281
     1
  3
ACAD_XREC_ROUNDTRIP
360
5D70
  0
XRECORD
  5
5D7E
102
{ACAD_REACTORS
330
5D7D
102
}
330
5D7D
100
AcDbXrecord
280
     1
102
DISPLAYNAME
  1
Imperial24
102
FLAGS
 90
        0
  0
XRECORD
  5
5D82
102
{ACAD_REACTORS
330
5D81
102
}
330
5D81
100
AcDbXrecord
280
     1
102
DISPLAYNAME
  1
Metric50
102
FLAGS
 90
        0
  0
XRECORD
  5
5259
102
{ACAD_REACTORS
330
5257
102
}
330
5257
100
AcDbXrecord
280
     1
270
     1
271
     1
  0
XRECORD
  5
5258
102
{ACAD_REACTORS
330
5257
102
}
330
5257
100
AcDbXrecord
280
     1
270
     1
271
     1
  0
XRECORD
  5
525C
102
{ACAD_REACTORS
330
5257
102
}
330
5257
100
AcDbXrecord
280
     1
270
     1
271
     1
  0
XRECORD
  5
525B
102
{ACAD_REACTORS
330
5257
102
}
330
5257
100
AcDbXrecord
280
     1
270
     1
271
     1
  0
XRECORD
  5
525D
102
{ACAD_REACTORS
330
5257
102
}
330
5257
100
AcDbXrecord
280
     1
270
     1
271
     1
  0
XRECORD
  5
525A
102
{ACAD_REACTORS
330
5257
102
}
330
5257
100
AcDbXrecord
280
     1
270
     1
271
     1
  0
XRECORD
  5
5251
102
{ACAD_REACTORS
330
524F
102
}
330
524F
100
AcDbXrecord
280
     1
270
     1
271
     1
  0
XRECORD
  5
5250
102
{ACAD_REACTORS
330
524F
102
}
330
524F
100
AcDbXrecord
280
     1
270
     1
271
     1
  0
XRECORD
  5
5254
102
{ACAD_REACTORS
330
524F
102
}
330
524F
100
AcDbXrecord
280
     1
270
     1
271
     1
  0
XRECORD
  5
5253
102
{ACAD_REACTORS
330
524F
102
}
330
524F
100
AcDbXrecord
280
     1
270
     1
271
     1
  0
XRECORD
  5
5255
102
{ACAD_REACTORS
330
524F
102
}
330
524F
100
AcDbXrecord
280
     1
270
     1
271
     1
  0
XRECORD
  5
5252
102
{ACAD_REACTORS
330
524F
102
}
330
524F
100
AcDbXrecord
280
     1
270
     1
271
     1
  0
XRECORD
  5
5261
102
{ACAD_REACTORS
330
525F
102
}
330
525F
100
AcDbXrecord
280
     1
270
     1
271
     1
  0
XRECORD
  5
5260
102
{ACAD_REACTORS
330
525F
102
}
330
525F
100
AcDbXrecord
280
     1
270
     1
271
     1
  0
XRECORD
  5
5264
102
{ACAD_REACTORS
330
525F
102
}
330
525F
100
AcDbXrecord
280
     1
270
     1
271
     1
  0
XRECORD
  5
5263
102
{ACAD_REACTORS
330
525F
102
}
330
525F
100
AcDbXrecord
280
     1
270
     1
271
     1
  0
XRECORD
  5
5265
102
{ACAD_REACTORS
330
525F
102
}
330
525F
100
AcDbXrecord
280
     1
270
     1
271
     1
  0
XRECORD
  5
5262
102
{ACAD_REACTORS
330
525F
102
}
330
525F
100
AcDbXrecord
280
     1
270
     1
271
     1
  0
XRECORD
  5
5D7C
102
{ACAD_REACTORS
330
5D7B
102
}
330
5D7B
100
AcDbXrecord
280
     1
102
DISPLAYNAME
  1
Imperial24
102
FLAGS
 90
        0
  0
XRECORD
  5
5D80
102
{ACAD_REACTORS
330
5D7F
102
}
330
5D7F
100
AcDbXrecord
280
     1
102
DISPLAYNAME
  1
Metric50
102
FLAGS
 90
        0
  0
CELLSTYLEMAP
  5
5D49
102
{ACAD_REACTORS
330
5D48
102
}
330
5D48
100
AcDbCellStyleMap
 90
        3
300
CELLSTYLE
  1
TABLEFORMAT_BEGIN
 90
        5
170
     1
 91
        0
 92
    32768
 62
   257
 93
        1
300
CONTENTFORMAT
  1
CONTENTFORMAT_BEGIN
 90
        0
 91
        0
 92
      512
 93
        0
300

 40
0.0
140
1.0
 94
        5
 62
     0
340
5292
144
0.25
309
CONTENTFORMAT_END
171
     0
 94
        0
309
TABLEFORMAT_END
  1
CELLSTYLE_BEGIN
 90
        1
 91
        1
300
_TITLE
309
CELLSTYLE_END
300
CELLSTYLE
  1
TABLEFORMAT_BEGIN
 90
        5
170
     1
 91
        0
 92
        0
 62
   257
 93
        1
300
CONTENTFORMAT
  1
CONTENTFORMAT_BEGIN
 90
        0
 91
        0
 92
      512
 93
        0
300

 40
0.0
140
1.0
 94
        5
 62
     0
340
5292
144
0.18
309
CONTENTFORMAT_END
171
     0
 94
        0
309
TABLEFORMAT_END
  1
CELLSTYLE_BEGIN
 90
        2
 91
        1
300
_HEADER
309
CELLSTYLE_END
300
CELLSTYLE
  1
TABLEFORMAT_BEGIN
 90
        5
170
     1
 91
        0
 92
        0
 62
   257
 93
        1
300
CONTENTFORMAT
  1
CONTENTFORMAT_BEGIN
 90
        0
 91
        0
 92
      512
 93
        0
300

 40
0.0
140
1.0
 94
        2
 62
     0
340
5292
144
0.18
309
CONTENTFORMAT_END
171
     0
 94
        0
309
TABLEFORMAT_END
  1
CELLSTYLE_BEGIN
 90
        3
 91
        2
300
_DATA
309
CELLSTYLE_END
  0
XRECORD
  5
5D56
102
{ACAD_REACTORS
330
5D55
102
}
330
5D55
100
AcDbXrecord
280
     1
102
RTVSPost2010Prop28
280
     1
102
RTVSPost2010PropOp28
 70
     1
102
RTVSPost2010Prop29
280
     1
102
RTVSPost2010PropOp29
 70
     1
102
RTVSPost2010Prop30
280
     0
102
RTVSPost2010PropOp30
 70
     1
102
RTVSPost2010Prop31
280
     0
102
RTVSPost2010PropOp31
 70
     1
102
RTVSPost2010Prop32
280
     0
102
RTVSPost2010PropOp32
 70
     1
102
RTVSPost2010Prop33
280
     0
102
RTVSPost2010PropOp33
 70
     1
102
RTVSPost2010Prop34
280
     0
102
RTVSPost2010PropOp34
 70
     1
102
RTVSPost2010Prop35
280
     0
102
RTVSPost2010PropOp35
 70
     1
102
RTVSPost2010Prop36
280
     0
102
RTVSPost2010PropOp36
 70
     1
102
RTVSPost2010Prop37
 90
       50
102
RTVSPost2010PropOp37
 70
     1
102
RTVSPost2010Prop38
140
0.0
102
RTVSPost2010PropOp38
 70
     1
102
RTVSPost2010Prop39
140
1.0
102
RTVSPost2010PropOp39
 70
     1
102
RTVSPost2010Prop40
 90
        0
102
RTVSPost2010PropOp40
 70
     1
102
RTVSPost2010Prop41ColorIndex
 90
       18
102
RTVSPost2010Prop41ColorRGB
 90
        0
102
RTVSPost2010PropOp41
 70
     1
102
RTVSPost2010Prop42
 90
       50
102
RTVSPost2010PropOp42
 70
     1
102
RTVSPost2010Prop43
 90
        3
102
RTVSPost2010PropOp43
 70
     1
102
RTVSPost2010Prop44ColorIndex
 90
        5
102
RTVSPost2010Prop44ColorRGB
 90
      255
102
RTVSPost2010PropOp44
 70
     1
102
RTVSPost2010Prop45
280
     0
102
RTVSPost2010PropOp45
 70
     1
102
RTVSPost2010Prop46
 90
       50
102
RTVSPost2010PropOp46
 70
     1
102
RTVSPost2010Prop47
 90
       50
102
RTVSPost2010PropOp47
 70
     1
102
RTVSPost2010Prop48
 90
       50
102
RTVSPost2010PropOp48
 70
     1
102
RTVSPost2010Prop49
280
     0
102
RTVSPost2010PropOp49
 70
     1
102
RTVSPost2010Prop50
 90
       50
102
RTVSPost2010PropOp50
 70
     1
102
RTVSPost2010Prop51ColorIndex
 90
      256
102
RTVSPost2010Prop51ColorRGB
 90
-16777216
102
RTVSPost2010PropOp51
 70
     0
102
RTVSPost2010Prop52
140
1.0
102
RTVSPost2010PropOp52
 70
     0
102
RTVSPost2010Prop53
 90
        2
102
RTVSPost2010PropOp53
 70
     1
102
RTVSPost2010Prop54
  1
strokes_ogs.tif
102
RTVSPost2010PropOp54
 70
     1
102
RTVSPost2010Prop55
280
     0
102
RTVSPost2010PropOp55
 70
     1
102
RTVSPost2010Prop56
140
1.0
102
RTVSPost2010PropOp56
 70
     1
102
RTVSPost2010Prop57
140
1.0
102
RTVSPost2010PropOp57
 70
     1
  0
XRECORD
  5
5D54
102
{ACAD_REACTORS
330
5D53
102
}
330
5D53
100
AcDbXrecord
280
     1
102
RTVSPost2010Prop28
280
     0
102
RTVSPost2010PropOp28
 70
     1
102
RTVSPost2010Prop29
280
     1
102
RTVSPost2010PropOp29
 70
     1
102
RTVSPost2010Prop30
280
     1
102
RTVSPost2010PropOp30
 70
     1
102
RTVSPost2010Prop31
280
     0
102
RTVSPost2010PropOp31
 70
     1
102
RTVSPost2010Prop32
280
     0
102
RTVSPost2010PropOp32
 70
     1
102
RTVSPost2010Prop33
280
     0
102
RTVSPost2010PropOp33
 70
     1
102
RTVSPost2010Prop34
280
     0
102
RTVSPost2010PropOp34
 70
     1
102
RTVSPost2010Prop35
280
     0
102
RTVSPost2010PropOp35
 70
     1
102
RTVSPost2010Prop36
280
     0
102
RTVSPost2010PropOp36
 70
     1
102
RTVSPost2010Prop37
 90
       50
102
RTVSPost2010PropOp37
 70
     1
102
RTVSPost2010Prop38
140
0.0
102
RTVSPost2010PropOp38
 70
     1
102
RTVSPost2010Prop39
140
1.0
102
RTVSPost2010PropOp39
 70
     1
102
RTVSPost2010Prop40
 90
        0
102
RTVSPost2010PropOp40
 70
     1
102
RTVSPost2010Prop41ColorIndex
 90
       18
102
RTVSPost2010Prop41ColorRGB
 90
        0
102
RTVSPost2010PropOp41
 70
     1
102
RTVSPost2010Prop42
 90
       50
102
RTVSPost2010PropOp42
 70
     1
102
RTVSPost2010Prop43
 90
        3
102
RTVSPost2010PropOp43
 70
     1
102
RTVSPost2010Prop44ColorIndex
 90
        5
102
RTVSPost2010Prop44ColorRGB
 90
      255
102
RTVSPost2010PropOp44
 70
     1
102
RTVSPost2010Prop45
280
     0
102
RTVSPost2010PropOp45
 70
     1
102
RTVSPost2010Prop46
 90
       50
102
RTVSPost2010PropOp46
 70
     1
102
RTVSPost2010Prop47
 90
       50
102
RTVSPost2010PropOp47
 70
     1
102
RTVSPost2010Prop48
 90
       50
102
RTVSPost2010PropOp48
 70
     1
102
RTVSPost2010Prop49
280
     0
102
RTVSPost2010PropOp49
 70
     1
102
RTVSPost2010Prop50
 90
       50
102
RTVSPost2010PropOp50
 70
     1
102
RTVSPost2010Prop51ColorIndex
 90
      256
102
RTVSPost2010Prop51ColorRGB
 90
-16777216
102
RTVSPost2010PropOp51
 70
     0
102
RTVSPost2010Prop52
140
1.0
102
RTVSPost2010PropOp52
 70
     0
102
RTVSPost2010Prop53
 90
        2
102
RTVSPost2010PropOp53
 70
     1
102
RTVSPost2010Prop54
  1
strokes_ogs.tif
102
RTVSPost2010PropOp54
 70
     1
102
RTVSPost2010Prop55
280
     0
102
RTVSPost2010PropOp55
 70
     1
102
RTVSPost2010Prop56
140
1.0
102
RTVSPost2010PropOp56
 70
     1
102
RTVSPost2010Prop57
140
1.0
102
RTVSPost2010PropOp57
 70
     1
  0
XRECORD
  5
5D62
102
{ACAD_REACTORS
330
5D61
102
}
330
5D61
100
AcDbXrecord
280
     1
102
RTVSPost2010Prop28
280
     0
102
RTVSPost2010PropOp28
 70
     1
102
RTVSPost2010Prop29
280
     1
102
RTVSPost2010PropOp29
 70
     1
102
RTVSPost2010Prop30
280
     1
102
RTVSPost2010PropOp30
 70
     1
102
RTVSPost2010Prop31
280
     0
102
RTVSPost2010PropOp31
 70
     1
102
RTVSPost2010Prop32
280
     0
102
RTVSPost2010PropOp32
 70
     1
102
RTVSPost2010Prop33
280
     0
102
RTVSPost2010PropOp33
 70
     1
102
RTVSPost2010Prop34
280
     0
102
RTVSPost2010PropOp34
 70
     1
102
RTVSPost2010Prop35
280
     0
102
RTVSPost2010PropOp35
 70
     1
102
RTVSPost2010Prop36
280
     0
102
RTVSPost2010PropOp36
 70
     1
102
RTVSPost2010Prop37
 90
       50
102
RTVSPost2010PropOp37
 70
     1
102
RTVSPost2010Prop38
140
0.0
102
RTVSPost2010PropOp38
 70
     1
102
RTVSPost2010Prop39
140
1.0
102
RTVSPost2010PropOp39
 70
     1
102
RTVSPost2010Prop40
 90
        0
102
RTVSPost2010PropOp40
 70
     1
102
RTVSPost2010Prop41ColorIndex
 90
       18
102
RTVSPost2010Prop41ColorRGB
 90
        0
102
RTVSPost2010PropOp41
 70
     1
102
RTVSPost2010Prop42
 90
       50
102
RTVSPost2010PropOp42
 70
     1
102
RTVSPost2010Prop43
 90
        3
102
RTVSPost2010PropOp43
 70
     1
102
RTVSPost2010Prop44ColorIndex
 90
        5
102
RTVSPost2010Prop44ColorRGB
 90
      255
102
RTVSPost2010PropOp44
 70
     1
102
RTVSPost2010Prop45
280
     0
102
RTVSPost2010PropOp45
 70
     1
102
RTVSPost2010Prop46
 90
       50
102
RTVSPost2010PropOp46
 70
     1
102
RTVSPost2010Prop47
 90
       50
102
RTVSPost2010PropOp47
 70
     1
102
RTVSPost2010Prop48
 90
       50
102
RTVSPost2010PropOp48
 70
     1
102
RTVSPost2010Prop49
280
     0
102
RTVSPost2010PropOp49
 70
     1
102
RTVSPost2010Prop50
 90
       50
102
RTVSPost2010PropOp50
 70
     1
102
RTVSPost2010Prop51ColorIndex
 90
      256
102
RTVSPost2010Prop51ColorRGB
 90
-16777216
102
RTVSPost2010PropOp51
 70
     0
102
RTVSPost2010Prop52
140
1.0
102
RTVSPost2010PropOp52
 70
     0
102
RTVSPost2010Prop53
 90
        2
102
RTVSPost2010PropOp53
 70
     1
102
RTVSPost2010Prop54
  1
strokes_ogs.tif
102
RTVSPost2010PropOp54
 70
     1
102
RTVSPost2010Prop55
280
     0
102
RTVSPost2010PropOp55
 70
     1
102
RTVSPost2010Prop56
140
1.0
102
RTVSPost2010PropOp56
 70
     1
102
RTVSPost2010Prop57
140
1.0
102
RTVSPost2010PropOp57
 70
     1
  0
XRECORD
  5
5D6A
102
{ACAD_REACTORS
330
5D69
102
}
330
5D69
100
AcDbXrecord
280
     1
102
RTVSPost2010Prop28
280
     0
102
RTVSPost2010PropOp28
 70
     1
102
RTVSPost2010Prop29
280
     1
102
RTVSPost2010PropOp29
 70
     1
102
RTVSPost2010Prop30
280
     1
102
RTVSPost2010PropOp30
 70
     1
102
RTVSPost2010Prop31
280
     0
102
RTVSPost2010PropOp31
 70
     1
102
RTVSPost2010Prop32
280
     0
102
RTVSPost2010PropOp32
 70
     1
102
RTVSPost2010Prop33
280
     0
102
RTVSPost2010PropOp33
 70
     1
102
RTVSPost2010Prop34
280
     0
102
RTVSPost2010PropOp34
 70
     1
102
RTVSPost2010Prop35
280
     0
102
RTVSPost2010PropOp35
 70
     1
102
RTVSPost2010Prop36
280
     0
102
RTVSPost2010PropOp36
 70
     1
102
RTVSPost2010Prop37
 90
       50
102
RTVSPost2010PropOp37
 70
     1
102
RTVSPost2010Prop38
140
0.0
102
RTVSPost2010PropOp38
 70
     1
102
RTVSPost2010Prop39
140
1.0
102
RTVSPost2010PropOp39
 70
     1
102
RTVSPost2010Prop40
 90
        0
102
RTVSPost2010PropOp40
 70
     1
102
RTVSPost2010Prop41ColorIndex
 90
       18
102
RTVSPost2010Prop41ColorRGB
 90
        0
102
RTVSPost2010PropOp41
 70
     1
102
RTVSPost2010Prop42
 90
       50
102
RTVSPost2010PropOp42
 70
     1
102
RTVSPost2010Prop43
 90
        3
102
RTVSPost2010PropOp43
 70
     1
102
RTVSPost2010Prop44ColorIndex
 90
        5
102
RTVSPost2010Prop44ColorRGB
 90
      255
102
RTVSPost2010PropOp44
 70
     1
102
RTVSPost2010Prop45
280
     0
102
RTVSPost2010PropOp45
 70
     1
102
RTVSPost2010Prop46
 90
       50
102
RTVSPost2010PropOp46
 70
     1
102
RTVSPost2010Prop47
 90
       50
102
RTVSPost2010PropOp47
 70
     1
102
RTVSPost2010Prop48
 90
       50
102
RTVSPost2010PropOp48
 70
     1
102
RTVSPost2010Prop49
280
     0
102
RTVSPost2010PropOp49
 70
     1
102
RTVSPost2010Prop50
 90
       50
102
RTVSPost2010PropOp50
 70
     1
102
RTVSPost2010Prop51ColorIndex
 90
      256
102
RTVSPost2010Prop51ColorRGB
 90
-16777216
102
RTVSPost2010PropOp51
 70
     0
102
RTVSPost2010Prop52
140
1.0
102
RTVSPost2010PropOp52
 70
     0
102
RTVSPost2010Prop53
 90
        2
102
RTVSPost2010PropOp53
 70
     1
102
RTVSPost2010Prop54
  1
strokes_ogs.tif
102
RTVSPost2010PropOp54
 70
     1
102
RTVSPost2010Prop55
280
     0
102
RTVSPost2010PropOp55
 70
     1
102
RTVSPost2010Prop56
140
1.0
102
RTVSPost2010PropOp56
 70
     1
102
RTVSPost2010Prop57
140
1.0
102
RTVSPost2010PropOp57
 70
     1
  0
XRECORD
  5
5D5C
102
{ACAD_REACTORS
330
5D5B
102
}
330
5D5B
100
AcDbXrecord
280
     1
102
RTVSPost2010Prop28
280
     0
102
RTVSPost2010PropOp28
 70
     1
102
RTVSPost2010Prop29
280
     1
102
RTVSPost2010PropOp29
 70
     1
102
RTVSPost2010Prop30
280
     1
102
RTVSPost2010PropOp30
 70
     1
102
RTVSPost2010Prop31
280
     0
102
RTVSPost2010PropOp31
 70
     1
102
RTVSPost2010Prop32
280
     0
102
RTVSPost2010PropOp32
 70
     1
102
RTVSPost2010Prop33
280
     0
102
RTVSPost2010PropOp33
 70
     1
102
RTVSPost2010Prop34
280
     0
102
RTVSPost2010PropOp34
 70
     1
102
RTVSPost2010Prop35
280
     0
102
RTVSPost2010PropOp35
 70
     1
102
RTVSPost2010Prop36
280
     0
102
RTVSPost2010PropOp36
 70
     1
102
RTVSPost2010Prop37
 90
       50
102
RTVSPost2010PropOp37
 70
     1
102
RTVSPost2010Prop38
140
0.0
102
RTVSPost2010PropOp38
 70
     1
102
RTVSPost2010Prop39
140
1.0
102
RTVSPost2010PropOp39
 70
     1
102
RTVSPost2010Prop40
 90
        0
102
RTVSPost2010PropOp40
 70
     1
102
RTVSPost2010Prop41ColorIndex
 90
       18
102
RTVSPost2010Prop41ColorRGB
 90
        0
102
RTVSPost2010PropOp41
 70
     1
102
RTVSPost2010Prop42
 90
       50
102
RTVSPost2010PropOp42
 70
     1
102
RTVSPost2010Prop43
 90
        3
102
RTVSPost2010PropOp43
 70
     1
102
RTVSPost2010Prop44ColorIndex
 90
        5
102
RTVSPost2010Prop44ColorRGB
 90
      255
102
RTVSPost2010PropOp44
 70
     1
102
RTVSPost2010Prop45
280
     0
102
RTVSPost2010PropOp45
 70
     1
102
RTVSPost2010Prop46
 90
       50
102
RTVSPost2010PropOp46
 70
     1
102
RTVSPost2010Prop47
 90
       50
102
RTVSPost2010PropOp47
 70
     1
102
RTVSPost2010Prop48
 90
       50
102
RTVSPost2010PropOp48
 70
     1
102
RTVSPost2010Prop49
280
     0
102
RTVSPost2010PropOp49
 70
     1
102
RTVSPost2010Prop50
 90
       50
102
RTVSPost2010PropOp50
 70
     1
102
RTVSPost2010Prop51ColorIndex
 90
      256
102
RTVSPost2010Prop51ColorRGB
 90
-16777216
102
RTVSPost2010PropOp51
 70
     0
102
RTVSPost2010Prop52
140
1.0
102
RTVSPost2010PropOp52
 70
     0
102
RTVSPost2010Prop53
 90
        2
102
RTVSPost2010PropOp53
 70
     1
102
RTVSPost2010Prop54
  1
strokes_ogs.tif
102
RTVSPost2010PropOp54
 70
     1
102
RTVSPost2010Prop55
280
     0
102
RTVSPost2010PropOp55
 70
     1
102
RTVSPost2010Prop56
140
1.0
102
RTVSPost2010PropOp56
 70
     1
102
RTVSPost2010Prop57
140
1.0
102
RTVSPost2010PropOp57
 70
     1
  0
XRECORD
  5
5D60
102
{ACAD_REACTORS
330
5D5F
102
}
330
5D5F
100
AcDbXrecord
280
     1
102
RTVSPost2010Prop28
280
     0
102
RTVSPost2010PropOp28
 70
     1
102
RTVSPost2010Prop29
280
     1
102
RTVSPost2010PropOp29
 70
     1
102
RTVSPost2010Prop30
280
     1
102
RTVSPost2010PropOp30
 70
     1
102
RTVSPost2010Prop31
280
     0
102
RTVSPost2010PropOp31
 70
     1
102
RTVSPost2010Prop32
280
     0
102
RTVSPost2010PropOp32
 70
     1
102
RTVSPost2010Prop33
280
     0
102
RTVSPost2010PropOp33
 70
     1
102
RTVSPost2010Prop34
280
     0
102
RTVSPost2010PropOp34
 70
     1
102
RTVSPost2010Prop35
280
     0
102
RTVSPost2010PropOp35
 70
     1
102
RTVSPost2010Prop36
280
     0
102
RTVSPost2010PropOp36
 70
     1
102
RTVSPost2010Prop37
 90
       50
102
RTVSPost2010PropOp37
 70
     1
102
RTVSPost2010Prop38
140
0.0
102
RTVSPost2010PropOp38
 70
     1
102
RTVSPost2010Prop39
140
1.0
102
RTVSPost2010PropOp39
 70
     1
102
RTVSPost2010Prop40
 90
        0
102
RTVSPost2010PropOp40
 70
     1
102
RTVSPost2010Prop41ColorIndex
 90
       18
102
RTVSPost2010Prop41ColorRGB
 90
        0
102
RTVSPost2010PropOp41
 70
     1
102
RTVSPost2010Prop42
 90
       50
102
RTVSPost2010PropOp42
 70
     1
102
RTVSPost2010Prop43
 90
        3
102
RTVSPost2010PropOp43
 70
     1
102
RTVSPost2010Prop44ColorIndex
 90
        5
102
RTVSPost2010Prop44ColorRGB
 90
      255
102
RTVSPost2010PropOp44
 70
     1
102
RTVSPost2010Prop45
280
     0
102
RTVSPost2010PropOp45
 70
     1
102
RTVSPost2010Prop46
 90
       50
102
RTVSPost2010PropOp46
 70
     1
102
RTVSPost2010Prop47
 90
       50
102
RTVSPost2010PropOp47
 70
     1
102
RTVSPost2010Prop48
 90
       50
102
RTVSPost2010PropOp48
 70
     1
102
RTVSPost2010Prop49
280
     0
102
RTVSPost2010PropOp49
 70
     1
102
RTVSPost2010Prop50
 90
       50
102
RTVSPost2010PropOp50
 70
     1
102
RTVSPost2010Prop51ColorIndex
 90
      256
102
RTVSPost2010Prop51ColorRGB
 90
-16777216
102
RTVSPost2010PropOp51
 70
     0
102
RTVSPost2010Prop52
140
1.0
102
RTVSPost2010PropOp52
 70
     0
102
RTVSPost2010Prop53
 90
        2
102
RTVSPost2010PropOp53
 70
     1
102
RTVSPost2010Prop54
  1
strokes_ogs.tif
102
RTVSPost2010PropOp54
 70
     1
102
RTVSPost2010Prop55
280
     0
102
RTVSPost2010PropOp55
 70
     1
102
RTVSPost2010Prop56
140
1.0
102
RTVSPost2010PropOp56
 70
     1
102
RTVSPost2010Prop57
140
1.0
102
RTVSPost2010PropOp57
 70
     1
  0
XRECORD
  5
5D7A
102
{ACAD_REACTORS
330
5D79
102
}
330
5D79
100
AcDbXrecord
280
     1
102
RTVSPost2010Prop28
280
     0
102
RTVSPost2010PropOp28
 70
     1
102
RTVSPost2010Prop29
280
     1
102
RTVSPost2010PropOp29
 70
     1
102
RTVSPost2010Prop30
280
     1
102
RTVSPost2010PropOp30
 70
     1
102
RTVSPost2010Prop31
280
     0
102
RTVSPost2010PropOp31
 70
     1
102
RTVSPost2010Prop32
280
     0
102
RTVSPost2010PropOp32
 70
     1
102
RTVSPost2010Prop33
280
     0
102
RTVSPost2010PropOp33
 70
     1
102
RTVSPost2010Prop34
280
     0
102
RTVSPost2010PropOp34
 70
     1
102
RTVSPost2010Prop35
280
     0
102
RTVSPost2010PropOp35
 70
     1
102
RTVSPost2010Prop36
280
     0
102
RTVSPost2010PropOp36
 70
     1
102
RTVSPost2010Prop37
 90
       50
102
RTVSPost2010PropOp37
 70
     0
102
RTVSPost2010Prop38
140
0.0
102
RTVSPost2010PropOp38
 70
     0
102
RTVSPost2010Prop39
140
1.0
102
RTVSPost2010PropOp39
 70
     0
102
RTVSPost2010Prop40
 90
        0
102
RTVSPost2010PropOp40
 70
     0
102
RTVSPost2010Prop41ColorIndex
 90
       18
102
RTVSPost2010Prop41ColorRGB
 90
        0
102
RTVSPost2010PropOp41
 70
     0
102
RTVSPost2010Prop42
 90
       50
102
RTVSPost2010PropOp42
 70
     0
102
RTVSPost2010Prop43
 90
        3
102
RTVSPost2010PropOp43
 70
     0
102
RTVSPost2010Prop44ColorIndex
 90
        5
102
RTVSPost2010Prop44ColorRGB
 90
      255
102
RTVSPost2010PropOp44
 70
     0
102
RTVSPost2010Prop45
280
     0
102
RTVSPost2010PropOp45
 70
     1
102
RTVSPost2010Prop46
 90
       50
102
RTVSPost2010PropOp46
 70
     0
102
RTVSPost2010Prop47
 90
       50
102
RTVSPost2010PropOp47
 70
     0
102
RTVSPost2010Prop48
 90
       50
102
RTVSPost2010PropOp48
 70
     0
102
RTVSPost2010Prop49
280
     0
102
RTVSPost2010PropOp49
 70
     1
102
RTVSPost2010Prop50
 90
       50
102
RTVSPost2010PropOp50
 70
     0
102
RTVSPost2010Prop51ColorIndex
 90
      256
102
RTVSPost2010Prop51ColorRGB
 90
-16777216
102
RTVSPost2010PropOp51
 70
     0
102
RTVSPost2010Prop52
140
1.0
102
RTVSPost2010PropOp52
 70
     0
102
RTVSPost2010Prop53
 90
        2
102
RTVSPost2010PropOp53
 70
     0
102
RTVSPost2010Prop54
  1
strokes_ogs.tif
102
RTVSPost2010PropOp54
 70
     0
102
RTVSPost2010Prop55
280
     0
102
RTVSPost2010PropOp55
 70
     1
102
RTVSPost2010Prop56
140
1.0
102
RTVSPost2010PropOp56
 70
     0
102
RTVSPost2010Prop57
140
1.0
102
RTVSPost2010PropOp57
 70
     0
  0
XRECORD
  5
5D68
102
{ACAD_REACTORS
330
5D67
102
}
330
5D67
100
AcDbXrecord
280
     1
102
RTVSPost2010Prop28
280
     0
102
RTVSPost2010PropOp28
 70
     1
102
RTVSPost2010Prop29
280
     1
102
RTVSPost2010PropOp29
 70
     1
102
RTVSPost2010Prop30
280
     1
102
RTVSPost2010PropOp30
 70
     1
102
RTVSPost2010Prop31
280
     0
102
RTVSPost2010PropOp31
 70
     1
102
RTVSPost2010Prop32
280
     0
102
RTVSPost2010PropOp32
 70
     1
102
RTVSPost2010Prop33
280
     0
102
RTVSPost2010PropOp33
 70
     1
102
RTVSPost2010Prop34
280
     0
102
RTVSPost2010PropOp34
 70
     1
102
RTVSPost2010Prop35
280
     0
102
RTVSPost2010PropOp35
 70
     1
102
RTVSPost2010Prop36
280
     0
102
RTVSPost2010PropOp36
 70
     1
102
RTVSPost2010Prop37
 90
       50
102
RTVSPost2010PropOp37
 70
     1
102
RTVSPost2010Prop38
140
0.0
102
RTVSPost2010PropOp38
 70
     1
102
RTVSPost2010Prop39
140
1.0
102
RTVSPost2010PropOp39
 70
     1
102
RTVSPost2010Prop40
 90
        0
102
RTVSPost2010PropOp40
 70
     1
102
RTVSPost2010Prop41ColorIndex
 90
       18
102
RTVSPost2010Prop41ColorRGB
 90
        0
102
RTVSPost2010PropOp41
 70
     1
102
RTVSPost2010Prop42
 90
       50
102
RTVSPost2010PropOp42
 70
     1
102
RTVSPost2010Prop43
 90
        3
102
RTVSPost2010PropOp43
 70
     1
102
RTVSPost2010Prop44ColorIndex
 90
        5
102
RTVSPost2010Prop44ColorRGB
 90
      255
102
RTVSPost2010PropOp44
 70
     1
102
RTVSPost2010Prop45
280
     0
102
RTVSPost2010PropOp45
 70
     1
102
RTVSPost2010Prop46
 90
       50
102
RTVSPost2010PropOp46
 70
     1
102
RTVSPost2010Prop47
 90
       50
102
RTVSPost2010PropOp47
 70
     1
102
RTVSPost2010Prop48
 90
       50
102
RTVSPost2010PropOp48
 70
     1
102
RTVSPost2010Prop49
280
     0
102
RTVSPost2010PropOp49
 70
     1
102
RTVSPost2010Prop50
 90
       50
102
RTVSPost2010PropOp50
 70
     1
102
RTVSPost2010Prop51ColorIndex
 90
      256
102
RTVSPost2010Prop51ColorRGB
 90
-16777216
102
RTVSPost2010PropOp51
 70
     0
102
RTVSPost2010Prop52
140
1.0
102
RTVSPost2010PropOp52
 70
     0
102
RTVSPost2010Prop53
 90
        2
102
RTVSPost2010PropOp53
 70
     1
102
RTVSPost2010Prop54
  1
strokes_ogs.tif
102
RTVSPost2010PropOp54
 70
     1
102
RTVSPost2010Prop55
280
     0
102
RTVSPost2010PropOp55
 70
     1
102
RTVSPost2010Prop56
140
1.0
102
RTVSPost2010PropOp56
 70
     1
102
RTVSPost2010Prop57
140
1.0
102
RTVSPost2010PropOp57
 70
     1
  0
XRECORD
  5
5D4C
102
{ACAD_REACTORS
330
5D4B
102
}
330
5D4B
100
AcDbXrecord
280
     1
102
RTVSPost2010Prop28
280
     0
102
RTVSPost2010PropOp28
 70
     1
102
RTVSPost2010Prop29
280
     1
102
RTVSPost2010PropOp29
 70
     1
102
RTVSPost2010Prop30
280
     1
102
RTVSPost2010PropOp30
 70
     1
102
RTVSPost2010Prop31
280
     0
102
RTVSPost2010PropOp31
 70
     1
102
RTVSPost2010Prop32
280
     0
102
RTVSPost2010PropOp32
 70
     1
102
RTVSPost2010Prop33
280
     0
102
RTVSPost2010PropOp33
 70
     1
102
RTVSPost2010Prop34
280
     0
102
RTVSPost2010PropOp34
 70
     1
102
RTVSPost2010Prop35
280
     0
102
RTVSPost2010PropOp35
 70
     1
102
RTVSPost2010Prop36
280
     0
102
RTVSPost2010PropOp36
 70
     1
102
RTVSPost2010Prop37
 90
       50
102
RTVSPost2010PropOp37
 70
     1
102
RTVSPost2010Prop38
140
0.0
102
RTVSPost2010PropOp38
 70
     1
102
RTVSPost2010Prop39
140
1.0
102
RTVSPost2010PropOp39
 70
     1
102
RTVSPost2010Prop40
 90
        0
102
RTVSPost2010PropOp40
 70
     1
102
RTVSPost2010Prop41ColorIndex
 90
       18
102
RTVSPost2010Prop41ColorRGB
 90
        0
102
RTVSPost2010PropOp41
 70
     1
102
RTVSPost2010Prop42
 90
       50
102
RTVSPost2010PropOp42
 70
     1
102
RTVSPost2010Prop43
 90
        3
102
RTVSPost2010PropOp43
 70
     1
102
RTVSPost2010Prop44ColorIndex
 90
        5
102
RTVSPost2010Prop44ColorRGB
 90
      255
102
RTVSPost2010PropOp44
 70
     1
102
RTVSPost2010Prop45
280
     0
102
RTVSPost2010PropOp45
 70
     1
102
RTVSPost2010Prop46
 90
       50
102
RTVSPost2010PropOp46
 70
     1
102
RTVSPost2010Prop47
 90
       50
102
RTVSPost2010PropOp47
 70
     1
102
RTVSPost2010Prop48
 90
       50
102
RTVSPost2010PropOp48
 70
     1
102
RTVSPost2010Prop49
280
     0
102
RTVSPost2010PropOp49
 70
     1
102
RTVSPost2010Prop50
 90
       50
102
RTVSPost2010PropOp50
 70
     1
102
RTVSPost2010Prop51ColorIndex
 90
      256
102
RTVSPost2010Prop51ColorRGB
 90
-16777216
102
RTVSPost2010PropOp51
 70
     0
102
RTVSPost2010Prop52
140
1.0
102
RTVSPost2010PropOp52
 70
     0
102
RTVSPost2010Prop53
 90
        2
102
RTVSPost2010PropOp53
 70
     1
102
RTVSPost2010Prop54
  1
strokes_ogs.tif
102
RTVSPost2010PropOp54
 70
     1
102
RTVSPost2010Prop55
280
     0
102
RTVSPost2010PropOp55
 70
     1
102
RTVSPost2010Prop56
140
1.0
102
RTVSPost2010PropOp56
 70
     1
102
RTVSPost2010Prop57
140
1.0
102
RTVSPost2010PropOp57
 70
     1
  0
XRECORD
  5
5D4E
102
{ACAD_REACTORS
330
5D4D
102
}
330
5D4D
100
AcDbXrecord
280
     1
102
RTVSPost2010Prop28
280
     0
102
RTVSPost2010PropOp28
 70
     1
102
RTVSPost2010Prop29
280
     1
102
RTVSPost2010PropOp29
 70
     1
102
RTVSPost2010Prop30
280
     1
102
RTVSPost2010PropOp30
 70
     1
102
RTVSPost2010Prop31
280
     0
102
RTVSPost2010PropOp31
 70
     1
102
RTVSPost2010Prop32
280
     0
102
RTVSPost2010PropOp32
 70
     1
102
RTVSPost2010Prop33
280
     0
102
RTVSPost2010PropOp33
 70
     1
102
RTVSPost2010Prop34
280
     0
102
RTVSPost2010PropOp34
 70
     1
102
RTVSPost2010Prop35
280
     0
102
RTVSPost2010PropOp35
 70
     1
102
RTVSPost2010Prop36
280
     0
102
RTVSPost2010PropOp36
 70
     1
102
RTVSPost2010Prop37
 90
       50
102
RTVSPost2010PropOp37
 70
     1
102
RTVSPost2010Prop38
140
0.0
102
RTVSPost2010PropOp38
 70
     1
102
RTVSPost2010Prop39
140
1.0
102
RTVSPost2010PropOp39
 70
     1
102
RTVSPost2010Prop40
 90
        0
102
RTVSPost2010PropOp40
 70
     1
102
RTVSPost2010Prop41ColorIndex
 90
       18
102
RTVSPost2010Prop41ColorRGB
 90
        0
102
RTVSPost2010PropOp41
 70
     1
102
RTVSPost2010Prop42
 90
       50
102
RTVSPost2010PropOp42
 70
     1
102
RTVSPost2010Prop43
 90
        3
102
RTVSPost2010PropOp43
 70
     1
102
RTVSPost2010Prop44ColorIndex
 90
        5
102
RTVSPost2010Prop44ColorRGB
 90
      255
102
RTVSPost2010PropOp44
 70
     1
102
RTVSPost2010Prop45
280
     0
102
RTVSPost2010PropOp45
 70
     1
102
RTVSPost2010Prop46
 90
       50
102
RTVSPost2010PropOp46
 70
     1
102
RTVSPost2010Prop47
 90
       50
102
RTVSPost2010PropOp47
 70
     1
102
RTVSPost2010Prop48
 90
       50
102
RTVSPost2010PropOp48
 70
     1
102
RTVSPost2010Prop49
280
     0
102
RTVSPost2010PropOp49
 70
     1
102
RTVSPost2010Prop50
 90
       50
102
RTVSPost2010PropOp50
 70
     1
102
RTVSPost2010Prop51ColorIndex
 90
      256
102
RTVSPost2010Prop51ColorRGB
 90
-16777216
102
RTVSPost2010PropOp51
 70
     0
102
RTVSPost2010Prop52
140
1.0
102
RTVSPost2010PropOp52
 70
     0
102
RTVSPost2010Prop53
 90
        2
102
RTVSPost2010PropOp53
 70
     1
102
RTVSPost2010Prop54
  1
strokes_ogs.tif
102
RTVSPost2010PropOp54
 70
     1
102
RTVSPost2010Prop55
280
     0
102
RTVSPost2010PropOp55
 70
     1
102
RTVSPost2010Prop56
140
1.0
102
RTVSPost2010PropOp56
 70
     1
102
RTVSPost2010Prop57
140
1.0
102
RTVSPost2010PropOp57
 70
     1
  0
XRECORD
  5
5D50
102
{ACAD_REACTORS
330
5D4F
102
}
330
5D4F
100
AcDbXrecord
280
     1
102
RTVSPost2010Prop28
280
     0
102
RTVSPost2010PropOp28
 70
     1
102
RTVSPost2010Prop29
280
     1
102
RTVSPost2010PropOp29
 70
     1
102
RTVSPost2010Prop30
280
     1
102
RTVSPost2010PropOp30
 70
     1
102
RTVSPost2010Prop31
280
     0
102
RTVSPost2010PropOp31
 70
     1
102
RTVSPost2010Prop32
280
     0
102
RTVSPost2010PropOp32
 70
     1
102
RTVSPost2010Prop33
280
     0
102
RTVSPost2010PropOp33
 70
     1
102
RTVSPost2010Prop34
280
     0
102
RTVSPost2010PropOp34
 70
     1
102
RTVSPost2010Prop35
280
     0
102
RTVSPost2010PropOp35
 70
     1
102
RTVSPost2010Prop36
280
     0
102
RTVSPost2010PropOp36
 70
     1
102
RTVSPost2010Prop37
 90
       50
102
RTVSPost2010PropOp37
 70
     1
102
RTVSPost2010Prop38
140
0.0
102
RTVSPost2010PropOp38
 70
     1
102
RTVSPost2010Prop39
140
1.0
102
RTVSPost2010PropOp39
 70
     1
102
RTVSPost2010Prop40
 90
        0
102
RTVSPost2010PropOp40
 70
     1
102
RTVSPost2010Prop41ColorIndex
 90
       18
102
RTVSPost2010Prop41ColorRGB
 90
        0
102
RTVSPost2010PropOp41
 70
     1
102
RTVSPost2010Prop42
 90
       50
102
RTVSPost2010PropOp42
 70
     1
102
RTVSPost2010Prop43
 90
        3
102
RTVSPost2010PropOp43
 70
     1
102
RTVSPost2010Prop44ColorIndex
 90
        5
102
RTVSPost2010Prop44ColorRGB
 90
      255
102
RTVSPost2010PropOp44
 70
     1
102
RTVSPost2010Prop45
280
     0
102
RTVSPost2010PropOp45
 70
     1
102
RTVSPost2010Prop46
 90
       50
102
RTVSPost2010PropOp46
 70
     1
102
RTVSPost2010Prop47
 90
       50
102
RTVSPost2010PropOp47
 70
     1
102
RTVSPost2010Prop48
 90
       50
102
RTVSPost2010PropOp48
 70
     1
102
RTVSPost2010Prop49
280
     0
102
RTVSPost2010PropOp49
 70
     1
102
RTVSPost2010Prop50
 90
       50
102
RTVSPost2010PropOp50
 70
     1
102
RTVSPost2010Prop51ColorIndex
 90
      256
102
RTVSPost2010Prop51ColorRGB
 90
-16777216
102
RTVSPost2010PropOp51
 70
     0
102
RTVSPost2010Prop52
140
1.0
102
RTVSPost2010PropOp52
 70
     0
102
RTVSPost2010Prop53
 90
        2
102
RTVSPost2010PropOp53
 70
     1
102
RTVSPost2010Prop54
  1
strokes_ogs.tif
102
RTVSPost2010PropOp54
 70
     1
102
RTVSPost2010Prop55
280
     0
102
RTVSPost2010PropOp55
 70
     1
102
RTVSPost2010Prop56
140
1.0
102
RTVSPost2010PropOp56
 70
     1
102
RTVSPost2010Prop57
140
1.0
102
RTVSPost2010PropOp57
 70
     1
  0
XRECORD
  5
5D52
102
{ACAD_REACTORS
330
5D51
102
}
330
5D51
100
AcDbXrecord
280
     1
102
RTVSPost2010Prop28
280
     0
102
RTVSPost2010PropOp28
 70
     1
102
RTVSPost2010Prop29
280
     1
102
RTVSPost2010PropOp29
 70
     1
102
RTVSPost2010Prop30
280
     1
102
RTVSPost2010PropOp30
 70
     1
102
RTVSPost2010Prop31
280
     0
102
RTVSPost2010PropOp31
 70
     1
102
RTVSPost2010Prop32
280
     0
102
RTVSPost2010PropOp32
 70
     1
102
RTVSPost2010Prop33
280
     0
102
RTVSPost2010PropOp33
 70
     1
102
RTVSPost2010Prop34
280
     0
102
RTVSPost2010PropOp34
 70
     1
102
RTVSPost2010Prop35
280
     0
102
RTVSPost2010PropOp35
 70
     1
102
RTVSPost2010Prop36
280
     0
102
RTVSPost2010PropOp36
 70
     1
102
RTVSPost2010Prop37
 90
       50
102
RTVSPost2010PropOp37
 70
     1
102
RTVSPost2010Prop38
140
0.0
102
RTVSPost2010PropOp38
 70
     1
102
RTVSPost2010Prop39
140
1.0
102
RTVSPost2010PropOp39
 70
     1
102
RTVSPost2010Prop40
 90
        0
102
RTVSPost2010PropOp40
 70
     1
102
RTVSPost2010Prop41ColorIndex
 90
       18
102
RTVSPost2010Prop41ColorRGB
 90
        0
102
RTVSPost2010PropOp41
 70
     1
102
RTVSPost2010Prop42
 90
       50
102
RTVSPost2010PropOp42
 70
     1
102
RTVSPost2010Prop43
 90
        3
102
RTVSPost2010PropOp43
 70
     1
102
RTVSPost2010Prop44ColorIndex
 90
        5
102
RTVSPost2010Prop44ColorRGB
 90
      255
102
RTVSPost2010PropOp44
 70
     1
102
RTVSPost2010Prop45
280
     0
102
RTVSPost2010PropOp45
 70
     1
102
RTVSPost2010Prop46
 90
       50
102
RTVSPost2010PropOp46
 70
     1
102
RTVSPost2010Prop47
 90
       50
102
RTVSPost2010PropOp47
 70
     1
102
RTVSPost2010Prop48
 90
       50
102
RTVSPost2010PropOp48
 70
     1
102
RTVSPost2010Prop49
280
     0
102
RTVSPost2010PropOp49
 70
     1
102
RTVSPost2010Prop50
 90
       50
102
RTVSPost2010PropOp50
 70
     1
102
RTVSPost2010Prop51ColorIndex
 90
      256
102
RTVSPost2010Prop51ColorRGB
 90
-16777216
102
RTVSPost2010PropOp51
 70
     0
102
RTVSPost2010Prop52
140
1.0
102
RTVSPost2010PropOp52
 70
     0
102
RTVSPost2010Prop53
 90
        2
102
RTVSPost2010PropOp53
 70
     1
102
RTVSPost2010Prop54
  1
strokes_ogs.tif
102
RTVSPost2010PropOp54
 70
     1
102
RTVSPost2010Prop55
280
     0
102
RTVSPost2010PropOp55
 70
     1
102
RTVSPost2010Prop56
140
1.0
102
RTVSPost2010PropOp56
 70
     1
102
RTVSPost2010Prop57
140
1.0
102
RTVSPost2010PropOp57
 70
     1
  0
XRECORD
  5
5D5A
102
{ACAD_REACTORS
330
5D59
102
}
330
5D59
100
AcDbXrecord
280
     1
102
RTVSPost2010Prop28
280
     0
102
RTVSPost2010PropOp28
 70
     1
102
RTVSPost2010Prop29
280
     1
102
RTVSPost2010PropOp29
 70
     1
102
RTVSPost2010Prop30
280
     1
102
RTVSPost2010PropOp30
 70
     1
102
RTVSPost2010Prop31
280
     0
102
RTVSPost2010PropOp31
 70
     1
102
RTVSPost2010Prop32
280
     0
102
RTVSPost2010PropOp32
 70
     1
102
RTVSPost2010Prop33
280
     0
102
RTVSPost2010PropOp33
 70
     1
102
RTVSPost2010Prop34
280
     0
102
RTVSPost2010PropOp34
 70
     1
102
RTVSPost2010Prop35
280
     0
102
RTVSPost2010PropOp35
 70
     1
102
RTVSPost2010Prop36
280
     0
102
RTVSPost2010PropOp36
 70
     1
102
RTVSPost2010Prop37
 90
       50
102
RTVSPost2010PropOp37
 70
     1
102
RTVSPost2010Prop38
140
0.0
102
RTVSPost2010PropOp38
 70
     1
102
RTVSPost2010Prop39
140
1.0
102
RTVSPost2010PropOp39
 70
     1
102
RTVSPost2010Prop40
 90
        0
102
RTVSPost2010PropOp40
 70
     1
102
RTVSPost2010Prop41ColorIndex
 90
       18
102
RTVSPost2010Prop41ColorRGB
 90
        0
102
RTVSPost2010PropOp41
 70
     1
102
RTVSPost2010Prop42
 90
       50
102
RTVSPost2010PropOp42
 70
     1
102
RTVSPost2010Prop43
 90
        3
102
RTVSPost2010PropOp43
 70
     1
102
RTVSPost2010Prop44ColorIndex
 90
        5
102
RTVSPost2010Prop44ColorRGB
 90
      255
102
RTVSPost2010PropOp44
 70
     1
102
RTVSPost2010Prop45
280
     0
102
RTVSPost2010PropOp45
 70
     1
102
RTVSPost2010Prop46
 90
       50
102
RTVSPost2010PropOp46
 70
     1
102
RTVSPost2010Prop47
 90
       50
102
RTVSPost2010PropOp47
 70
     1
102
RTVSPost2010Prop48
 90
       50
102
RTVSPost2010PropOp48
 70
     1
102
RTVSPost2010Prop49
280
     0
102
RTVSPost2010PropOp49
 70
     1
102
RTVSPost2010Prop50
 90
       50
102
RTVSPost2010PropOp50
 70
     1
102
RTVSPost2010Prop51ColorIndex
 90
      256
102
RTVSPost2010Prop51ColorRGB
 90
-16777216
102
RTVSPost2010PropOp51
 70
     0
102
RTVSPost2010Prop52
140
1.0
102
RTVSPost2010PropOp52
 70
     0
102
RTVSPost2010Prop53
 90
        2
102
RTVSPost2010PropOp53
 70
     1
102
RTVSPost2010Prop54
  1
strokes_ogs.tif
102
RTVSPost2010PropOp54
 70
     1
102
RTVSPost2010Prop55
280
     0
102
RTVSPost2010PropOp55
 70
     1
102
RTVSPost2010Prop56
140
1.0
102
RTVSPost2010PropOp56
 70
     1
102
RTVSPost2010Prop57
140
1.0
102
RTVSPost2010PropOp57
 70
     1
  0
XRECORD
  5
5D76
102
{ACAD_REACTORS
330
5D75
102
}
330
5D75
100
AcDbXrecord
280
     1
102
RTVSPost2010Prop28
280
     0
102
RTVSPost2010PropOp28
 70
     1
102
RTVSPost2010Prop29
280
     1
102
RTVSPost2010PropOp29
 70
     1
102
RTVSPost2010Prop30
280
     1
102
RTVSPost2010PropOp30
 70
     1
102
RTVSPost2010Prop31
280
     0
102
RTVSPost2010PropOp31
 70
     1
102
RTVSPost2010Prop32
280
     0
102
RTVSPost2010PropOp32
 70
     1
102
RTVSPost2010Prop33
280
     0
102
RTVSPost2010PropOp33
 70
     1
102
RTVSPost2010Prop34
280
     0
102
RTVSPost2010PropOp34
 70
     1
102
RTVSPost2010Prop35
280
     0
102
RTVSPost2010PropOp35
 70
     1
102
RTVSPost2010Prop36
280
     0
102
RTVSPost2010PropOp36
 70
     1
102
RTVSPost2010Prop37
 90
       50
102
RTVSPost2010PropOp37
 70
     0
102
RTVSPost2010Prop38
140
0.0
102
RTVSPost2010PropOp38
 70
     0
102
RTVSPost2010Prop39
140
1.0
102
RTVSPost2010PropOp39
 70
     0
102
RTVSPost2010Prop40
 90
        0
102
RTVSPost2010PropOp40
 70
     0
102
RTVSPost2010Prop41ColorIndex
 90
       18
102
RTVSPost2010Prop41ColorRGB
 90
        0
102
RTVSPost2010PropOp41
 70
     0
102
RTVSPost2010Prop42
 90
       50
102
RTVSPost2010PropOp42
 70
     0
102
RTVSPost2010Prop43
 90
        3
102
RTVSPost2010PropOp43
 70
     0
102
RTVSPost2010Prop44ColorIndex
 90
        5
102
RTVSPost2010Prop44ColorRGB
 90
      255
102
RTVSPost2010PropOp44
 70
     0
102
RTVSPost2010Prop45
280
     0
102
RTVSPost2010PropOp45
 70
     1
102
RTVSPost2010Prop46
 90
       50
102
RTVSPost2010PropOp46
 70
     0
102
RTVSPost2010Prop47
 90
       50
102
RTVSPost2010PropOp47
 70
     0
102
RTVSPost2010Prop48
 90
       50
102
RTVSPost2010PropOp48
 70
     0
102
RTVSPost2010Prop49
280
     0
102
RTVSPost2010PropOp49
 70
     1
102
RTVSPost2010Prop50
 90
       50
102
RTVSPost2010PropOp50
 70
     0
102
RTVSPost2010Prop51ColorIndex
 90
      256
102
RTVSPost2010Prop51ColorRGB
 90
-16777216
102
RTVSPost2010PropOp51
 70
     0
102
RTVSPost2010Prop52
140
1.0
102
RTVSPost2010PropOp52
 70
     0
102
RTVSPost2010Prop53
 90
        2
102
RTVSPost2010PropOp53
 70
     0
102
RTVSPost2010Prop54
  1
strokes_ogs.tif
102
RTVSPost2010PropOp54
 70
     0
102
RTVSPost2010Prop55
280
     0
102
RTVSPost2010PropOp55
 70
     1
102
RTVSPost2010Prop56
140
1.0
102
RTVSPost2010PropOp56
 70
     0
102
RTVSPost2010Prop57
140
1.0
102
RTVSPost2010PropOp57
 70
     0
  0
XRECORD
  5
5D66
102
{ACAD_REACTORS
330
5D65
102
}
330
5D65
100
AcDbXrecord
280
     1
102
RTVSPost2010Prop28
280
     0
102
RTVSPost2010PropOp28
 70
     1
102
RTVSPost2010Prop29
280
     1
102
RTVSPost2010PropOp29
 70
     1
102
RTVSPost2010Prop30
280
     1
102
RTVSPost2010PropOp30
 70
     1
102
RTVSPost2010Prop31
280
     0
102
RTVSPost2010PropOp31
 70
     1
102
RTVSPost2010Prop32
280
     0
102
RTVSPost2010PropOp32
 70
     1
102
RTVSPost2010Prop33
280
     0
102
RTVSPost2010PropOp33
 70
     1
102
RTVSPost2010Prop34
280
     0
102
RTVSPost2010PropOp34
 70
     1
102
RTVSPost2010Prop35
280
     0
102
RTVSPost2010PropOp35
 70
     1
102
RTVSPost2010Prop36
280
     0
102
RTVSPost2010PropOp36
 70
     1
102
RTVSPost2010Prop37
 90
       50
102
RTVSPost2010PropOp37
 70
     1
102
RTVSPost2010Prop38
140
0.0
102
RTVSPost2010PropOp38
 70
     1
102
RTVSPost2010Prop39
140
1.0
102
RTVSPost2010PropOp39
 70
     1
102
RTVSPost2010Prop40
 90
        0
102
RTVSPost2010PropOp40
 70
     1
102
RTVSPost2010Prop41ColorIndex
 90
       18
102
RTVSPost2010Prop41ColorRGB
 90
        0
102
RTVSPost2010PropOp41
 70
     1
102
RTVSPost2010Prop42
 90
       50
102
RTVSPost2010PropOp42
 70
     1
102
RTVSPost2010Prop43
 90
        3
102
RTVSPost2010PropOp43
 70
     1
102
RTVSPost2010Prop44ColorIndex
 90
        5
102
RTVSPost2010Prop44ColorRGB
 90
      255
102
RTVSPost2010PropOp44
 70
     1
102
RTVSPost2010Prop45
280
     0
102
RTVSPost2010PropOp45
 70
     1
102
RTVSPost2010Prop46
 90
       50
102
RTVSPost2010PropOp46
 70
     1
102
RTVSPost2010Prop47
 90
       50
102
RTVSPost2010PropOp47
 70
     1
102
RTVSPost2010Prop48
 90
       50
102
RTVSPost2010PropOp48
 70
     1
102
RTVSPost2010Prop49
280
     0
102
RTVSPost2010PropOp49
 70
     1
102
RTVSPost2010Prop50
 90
       50
102
RTVSPost2010PropOp50
 70
     1
102
RTVSPost2010Prop51ColorIndex
 90
      256
102
RTVSPost2010Prop51ColorRGB
 90
-16777216
102
RTVSPost2010PropOp51
 70
     0
102
RTVSPost2010Prop52
140
1.0
102
RTVSPost2010PropOp52
 70
     0
102
RTVSPost2010Prop53
 90
        2
102
RTVSPost2010PropOp53
 70
     1
102
RTVSPost2010Prop54
  1
strokes_ogs.tif
102
RTVSPost2010PropOp54
 70
     1
102
RTVSPost2010Prop55
280
     0
102
RTVSPost2010PropOp55
 70
     1
102
RTVSPost2010Prop56
140
1.0
102
RTVSPost2010PropOp56
 70
     1
102
RTVSPost2010Prop57
140
1.0
102
RTVSPost2010PropOp57
 70
     1
  0
XRECORD
  5
5D78
102
{ACAD_REACTORS
330
5D77
102
}
330
5D77
100
AcDbXrecord
280
     1
102
RTVSPost2010Prop28
280
     0
102
RTVSPost2010PropOp28
 70
     1
102
RTVSPost2010Prop29
280
     1
102
RTVSPost2010PropOp29
 70
     1
102
RTVSPost2010Prop30
280
     1
102
RTVSPost2010PropOp30
 70
     1
102
RTVSPost2010Prop31
280
     0
102
RTVSPost2010PropOp31
 70
     1
102
RTVSPost2010Prop32
280
     0
102
RTVSPost2010PropOp32
 70
     1
102
RTVSPost2010Prop33
280
     0
102
RTVSPost2010PropOp33
 70
     1
102
RTVSPost2010Prop34
280
     0
102
RTVSPost2010PropOp34
 70
     1
102
RTVSPost2010Prop35
280
     0
102
RTVSPost2010PropOp35
 70
     1
102
RTVSPost2010Prop36
280
     0
102
RTVSPost2010PropOp36
 70
     1
102
RTVSPost2010Prop37
 90
       50
102
RTVSPost2010PropOp37
 70
     0
102
RTVSPost2010Prop38
140
0.0
102
RTVSPost2010PropOp38
 70
     0
102
RTVSPost2010Prop39
140
1.0
102
RTVSPost2010PropOp39
 70
     0
102
RTVSPost2010Prop40
 90
        0
102
RTVSPost2010PropOp40
 70
     0
102
RTVSPost2010Prop41ColorIndex
 90
       18
102
RTVSPost2010Prop41ColorRGB
 90
        0
102
RTVSPost2010PropOp41
 70
     0
102
RTVSPost2010Prop42
 90
       50
102
RTVSPost2010PropOp42
 70
     0
102
RTVSPost2010Prop43
 90
        3
102
RTVSPost2010PropOp43
 70
     0
102
RTVSPost2010Prop44ColorIndex
 90
        5
102
RTVSPost2010Prop44ColorRGB
 90
      255
102
RTVSPost2010PropOp44
 70
     0
102
RTVSPost2010Prop45
280
     0
102
RTVSPost2010PropOp45
 70
     1
102
RTVSPost2010Prop46
 90
       50
102
RTVSPost2010PropOp46
 70
     0
102
RTVSPost2010Prop47
 90
       50
102
RTVSPost2010PropOp47
 70
     0
102
RTVSPost2010Prop48
 90
       50
102
RTVSPost2010PropOp48
 70
     0
102
RTVSPost2010Prop49
280
     0
102
RTVSPost2010PropOp49
 70
     1
102
RTVSPost2010Prop50
 90
       50
102
RTVSPost2010PropOp50
 70
     0
102
RTVSPost2010Prop51ColorIndex
 90
      256
102
RTVSPost2010Prop51ColorRGB
 90
-16777216
102
RTVSPost2010PropOp51
 70
     0
102
RTVSPost2010Prop52
140
1.0
102
RTVSPost2010PropOp52
 70
     0
102
RTVSPost2010Prop53
 90
        2
102
RTVSPost2010PropOp53
 70
     0
102
RTVSPost2010Prop54
  1
strokes_ogs.tif
102
RTVSPost2010PropOp54
 70
     0
102
RTVSPost2010Prop55
280
     0
102
RTVSPost2010PropOp55
 70
     1
102
RTVSPost2010Prop56
140
1.0
102
RTVSPost2010PropOp56
 70
     0
102
RTVSPost2010Prop57
140
1.0
102
RTVSPost2010PropOp57
 70
     0
  0
XRECORD
  5
5D5E
102
{ACAD_REACTORS
330
5D5D
102
}
330
5D5D
100
AcDbXrecord
280
     1
102
RTVSPost2010Prop28
280
     0
102
RTVSPost2010PropOp28
 70
     1
102
RTVSPost2010Prop29
280
     1
102
RTVSPost2010PropOp29
 70
     1
102
RTVSPost2010Prop30
280
     1
102
RTVSPost2010PropOp30
 70
     1
102
RTVSPost2010Prop31
280
     0
102
RTVSPost2010PropOp31
 70
     1
102
RTVSPost2010Prop32
280
     0
102
RTVSPost2010PropOp32
 70
     1
102
RTVSPost2010Prop33
280
     0
102
RTVSPost2010PropOp33
 70
     1
102
RTVSPost2010Prop34
280
     0
102
RTVSPost2010PropOp34
 70
     1
102
RTVSPost2010Prop35
280
     0
102
RTVSPost2010PropOp35
 70
     1
102
RTVSPost2010Prop36
280
     0
102
RTVSPost2010PropOp36
 70
     1
102
RTVSPost2010Prop37
 90
       50
102
RTVSPost2010PropOp37
 70
     1
102
RTVSPost2010Prop38
140
0.0
102
RTVSPost2010PropOp38
 70
     1
102
RTVSPost2010Prop39
140
1.0
102
RTVSPost2010PropOp39
 70
     1
102
RTVSPost2010Prop40
 90
        0
102
RTVSPost2010PropOp40
 70
     1
102
RTVSPost2010Prop41ColorIndex
 90
       18
102
RTVSPost2010Prop41ColorRGB
 90
        0
102
RTVSPost2010PropOp41
 70
     1
102
RTVSPost2010Prop42
 90
       50
102
RTVSPost2010PropOp42
 70
     1
102
RTVSPost2010Prop43
 90
        3
102
RTVSPost2010PropOp43
 70
     1
102
RTVSPost2010Prop44ColorIndex
 90
        5
102
RTVSPost2010Prop44ColorRGB
 90
      255
102
RTVSPost2010PropOp44
 70
     1
102
RTVSPost2010Prop45
280
     0
102
RTVSPost2010PropOp45
 70
     1
102
RTVSPost2010Prop46
 90
       50
102
RTVSPost2010PropOp46
 70
     1
102
RTVSPost2010Prop47
 90
       50
102
RTVSPost2010PropOp47
 70
     1
102
RTVSPost2010Prop48
 90
       50
102
RTVSPost2010PropOp48
 70
     1
102
RTVSPost2010Prop49
280
     0
102
RTVSPost2010PropOp49
 70
     1
102
RTVSPost2010Prop50
 90
       50
102
RTVSPost2010PropOp50
 70
     1
102
RTVSPost2010Prop51ColorIndex
 90
      256
102
RTVSPost2010Prop51ColorRGB
 90
-16777216
102
RTVSPost2010PropOp51
 70
     0
102
RTVSPost2010Prop52
140
1.0
102
RTVSPost2010PropOp52
 70
     0
102
RTVSPost2010Prop53
 90
        2
102
RTVSPost2010PropOp53
 70
     1
102
RTVSPost2010Prop54
  1
strokes_ogs.tif
102
RTVSPost2010PropOp54
 70
     1
102
RTVSPost2010Prop55
280
     0
102
RTVSPost2010PropOp55
 70
     1
102
RTVSPost2010Prop56
140
1.0
102
RTVSPost2010PropOp56
 70
     1
102
RTVSPost2010Prop57
140
1.0
102
RTVSPost2010PropOp57
 70
     1
  0
XRECORD
  5
5D74
102
{ACAD_REACTORS
330
5D73
102
}
330
5D73
100
AcDbXrecord
280
     1
102
RTVSPost2010Prop28
280
     0
102
RTVSPost2010PropOp28
 70
     1
102
RTVSPost2010Prop29
280
     1
102
RTVSPost2010PropOp29
 70
     1
102
RTVSPost2010Prop30
280
     1
102
RTVSPost2010PropOp30
 70
     1
102
RTVSPost2010Prop31
280
     0
102
RTVSPost2010PropOp31
 70
     1
102
RTVSPost2010Prop32
280
     0
102
RTVSPost2010PropOp32
 70
     1
102
RTVSPost2010Prop33
280
     0
102
RTVSPost2010PropOp33
 70
     1
102
RTVSPost2010Prop34
280
     0
102
RTVSPost2010PropOp34
 70
     1
102
RTVSPost2010Prop35
280
     0
102
RTVSPost2010PropOp35
 70
     1
102
RTVSPost2010Prop36
280
     0
102
RTVSPost2010PropOp36
 70
     1
102
RTVSPost2010Prop37
 90
       50
102
RTVSPost2010PropOp37
 70
     1
102
RTVSPost2010Prop38
140
0.0
102
RTVSPost2010PropOp38
 70
     1
102
RTVSPost2010Prop39
140
1.0
102
RTVSPost2010PropOp39
 70
     1
102
RTVSPost2010Prop40
 90
        0
102
RTVSPost2010PropOp40
 70
     1
102
RTVSPost2010Prop41ColorIndex
 90
       18
102
RTVSPost2010Prop41ColorRGB
 90
        0
102
RTVSPost2010PropOp41
 70
     1
102
RTVSPost2010Prop42
 90
       50
102
RTVSPost2010PropOp42
 70
     1
102
RTVSPost2010Prop43
 90
        3
102
RTVSPost2010PropOp43
 70
     1
102
RTVSPost2010Prop44ColorIndex
 90
        5
102
RTVSPost2010Prop44ColorRGB
 90
      255
102
RTVSPost2010PropOp44
 70
     1
102
RTVSPost2010Prop45
280
     0
102
RTVSPost2010PropOp45
 70
     1
102
RTVSPost2010Prop46
 90
       50
102
RTVSPost2010PropOp46
 70
     1
102
RTVSPost2010Prop47
 90
       50
102
RTVSPost2010PropOp47
 70
     1
102
RTVSPost2010Prop48
 90
       50
102
RTVSPost2010PropOp48
 70
     1
102
RTVSPost2010Prop49
280
     0
102
RTVSPost2010PropOp49
 70
     1
102
RTVSPost2010Prop50
 90
       50
102
RTVSPost2010PropOp50
 70
     1
102
RTVSPost2010Prop51ColorIndex
 90
      256
102
RTVSPost2010Prop51ColorRGB
 90
-16777216
102
RTVSPost2010PropOp51
 70
     0
102
RTVSPost2010Prop52
140
1.0
102
RTVSPost2010PropOp52
 70
     0
102
RTVSPost2010Prop53
 90
        2
102
RTVSPost2010PropOp53
 70
     1
102
RTVSPost2010Prop54
  1
strokes_ogs.tif
102
RTVSPost2010PropOp54
 70
     1
102
RTVSPost2010Prop55
280
     0
102
RTVSPost2010PropOp55
 70
     1
102
RTVSPost2010Prop56
140
1.0
102
RTVSPost2010PropOp56
 70
     1
102
RTVSPost2010Prop57
140
1.0
102
RTVSPost2010PropOp57
 70
     1
  0
XRECORD
  5
5D72
102
{ACAD_REACTORS
330
5D71
102
}
330
5D71
100
AcDbXrecord
280
     1
102
RTVSPost2010Prop28
280
     0
102
RTVSPost2010PropOp28
 70
     1
102
RTVSPost2010Prop29
280
     1
102
RTVSPost2010PropOp29
 70
     1
102
RTVSPost2010Prop30
280
     1
102
RTVSPost2010PropOp30
 70
     1
102
RTVSPost2010Prop31
280
     0
102
RTVSPost2010PropOp31
 70
     1
102
RTVSPost2010Prop32
280
     0
102
RTVSPost2010PropOp32
 70
     1
102
RTVSPost2010Prop33
280
     0
102
RTVSPost2010PropOp33
 70
     1
102
RTVSPost2010Prop34
280
     0
102
RTVSPost2010PropOp34
 70
     1
102
RTVSPost2010Prop35
280
     0
102
RTVSPost2010PropOp35
 70
     1
102
RTVSPost2010Prop36
280
     0
102
RTVSPost2010PropOp36
 70
     1
102
RTVSPost2010Prop37
 90
       50
102
RTVSPost2010PropOp37
 70
     1
102
RTVSPost2010Prop38
140
0.0
102
RTVSPost2010PropOp38
 70
     1
102
RTVSPost2010Prop39
140
1.0
102
RTVSPost2010PropOp39
 70
     1
102
RTVSPost2010Prop40
 90
        0
102
RTVSPost2010PropOp40
 70
     1
102
RTVSPost2010Prop41ColorIndex
 90
       18
102
RTVSPost2010Prop41ColorRGB
 90
        0
102
RTVSPost2010PropOp41
 70
     1
102
RTVSPost2010Prop42
 90
       50
102
RTVSPost2010PropOp42
 70
     1
102
RTVSPost2010Prop43
 90
        3
102
RTVSPost2010PropOp43
 70
     1
102
RTVSPost2010Prop44ColorIndex
 90
        5
102
RTVSPost2010Prop44ColorRGB
 90
      255
102
RTVSPost2010PropOp44
 70
     1
102
RTVSPost2010Prop45
280
     0
102
RTVSPost2010PropOp45
 70
     1
102
RTVSPost2010Prop46
 90
       50
102
RTVSPost2010PropOp46
 70
     1
102
RTVSPost2010Prop47
 90
       50
102
RTVSPost2010PropOp47
 70
     1
102
RTVSPost2010Prop48
 90
       50
102
RTVSPost2010PropOp48
 70
     1
102
RTVSPost2010Prop49
280
     0
102
RTVSPost2010PropOp49
 70
     1
102
RTVSPost2010Prop50
 90
       50
102
RTVSPost2010PropOp50
 70
     1
102
RTVSPost2010Prop51ColorIndex
 90
      256
102
RTVSPost2010Prop51ColorRGB
 90
-16777216
102
RTVSPost2010PropOp51
 70
     0
102
RTVSPost2010Prop52
140
1.0
102
RTVSPost2010PropOp52
 70
     0
102
RTVSPost2010Prop53
 90
        2
102
RTVSPost2010PropOp53
 70
     1
102
RTVSPost2010Prop54
  1
strokes_ogs.tif
102
RTVSPost2010PropOp54
 70
     1
102
RTVSPost2010Prop55
280
     0
102
RTVSPost2010PropOp55
 70
     1
102
RTVSPost2010Prop56
140
1.0
102
RTVSPost2010PropOp56
 70
     1
102
RTVSPost2010Prop57
140
1.0
102
RTVSPost2010PropOp57
 70
     1
  0
XRECORD
  5
5D6C
102
{ACAD_REACTORS
330
5D6B
102
}
330
5D6B
100
AcDbXrecord
280
     1
102
RTVSPost2010Prop28
280
     0
102
RTVSPost2010PropOp28
 70
     1
102
RTVSPost2010Prop29
280
     1
102
RTVSPost2010PropOp29
 70
     1
102
RTVSPost2010Prop30
280
     1
102
RTVSPost2010PropOp30
 70
     1
102
RTVSPost2010Prop31
280
     0
102
RTVSPost2010PropOp31
 70
     1
102
RTVSPost2010Prop32
280
     0
102
RTVSPost2010PropOp32
 70
     1
102
RTVSPost2010Prop33
280
     0
102
RTVSPost2010PropOp33
 70
     1
102
RTVSPost2010Prop34
280
     0
102
RTVSPost2010PropOp34
 70
     1
102
RTVSPost2010Prop35
280
     0
102
RTVSPost2010PropOp35
 70
     1
102
RTVSPost2010Prop36
280
     0
102
RTVSPost2010PropOp36
 70
     1
102
RTVSPost2010Prop37
 90
       50
102
RTVSPost2010PropOp37
 70
     1
102
RTVSPost2010Prop38
140
0.0
102
RTVSPost2010PropOp38
 70
     1
102
RTVSPost2010Prop39
140
1.0
102
RTVSPost2010PropOp39
 70
     1
102
RTVSPost2010Prop40
 90
        0
102
RTVSPost2010PropOp40
 70
     1
102
RTVSPost2010Prop41ColorIndex
 90
       18
102
RTVSPost2010Prop41ColorRGB
 90
        0
102
RTVSPost2010PropOp41
 70
     1
102
RTVSPost2010Prop42
 90
       50
102
RTVSPost2010PropOp42
 70
     1
102
RTVSPost2010Prop43
 90
        3
102
RTVSPost2010PropOp43
 70
     1
102
RTVSPost2010Prop44ColorIndex
 90
        5
102
RTVSPost2010Prop44ColorRGB
 90
      255
102
RTVSPost2010PropOp44
 70
     1
102
RTVSPost2010Prop45
280
     0
102
RTVSPost2010PropOp45
 70
     1
102
RTVSPost2010Prop46
 90
       50
102
RTVSPost2010PropOp46
 70
     1
102
RTVSPost2010Prop47
 90
       50
102
RTVSPost2010PropOp47
 70
     1
102
RTVSPost2010Prop48
 90
       50
102
RTVSPost2010PropOp48
 70
     1
102
RTVSPost2010Prop49
280
     0
102
RTVSPost2010PropOp49
 70
     1
102
RTVSPost2010Prop50
 90
       50
102
RTVSPost2010PropOp50
 70
     1
102
RTVSPost2010Prop51ColorIndex
 90
      256
102
RTVSPost2010Prop51ColorRGB
 90
-16777216
102
RTVSPost2010PropOp51
 70
     0
102
RTVSPost2010Prop52
140
1.0
102
RTVSPost2010PropOp52
 70
     0
102
RTVSPost2010Prop53
 90
        2
102
RTVSPost2010PropOp53
 70
     1
102
RTVSPost2010Prop54
  1
strokes_ogs.tif
102
RTVSPost2010PropOp54
 70
     1
102
RTVSPost2010Prop55
280
     0
102
RTVSPost2010PropOp55
 70
     1
102
RTVSPost2010Prop56
140
1.0
102
RTVSPost2010PropOp56
 70
     1
102
RTVSPost2010Prop57
140
1.0
102
RTVSPost2010PropOp57
 70
     1
  0
XRECORD
  5
5D6E
102
{ACAD_REACTORS
330
5D6D
102
}
330
5D6D
100
AcDbXrecord
280
     1
102
RTVSPost2010Prop28
280
     0
102
RTVSPost2010PropOp28
 70
     1
102
RTVSPost2010Prop29
280
     1
102
RTVSPost2010PropOp29
 70
     1
102
RTVSPost2010Prop30
280
     1
102
RTVSPost2010PropOp30
 70
     1
102
RTVSPost2010Prop31
280
     0
102
RTVSPost2010PropOp31
 70
     1
102
RTVSPost2010Prop32
280
     0
102
RTVSPost2010PropOp32
 70
     1
102
RTVSPost2010Prop33
280
     0
102
RTVSPost2010PropOp33
 70
     1
102
RTVSPost2010Prop34
280
     0
102
RTVSPost2010PropOp34
 70
     1
102
RTVSPost2010Prop35
280
     0
102
RTVSPost2010PropOp35
 70
     1
102
RTVSPost2010Prop36
280
     0
102
RTVSPost2010PropOp36
 70
     1
102
RTVSPost2010Prop37
 90
       50
102
RTVSPost2010PropOp37
 70
     1
102
RTVSPost2010Prop38
140
0.0
102
RTVSPost2010PropOp38
 70
     1
102
RTVSPost2010Prop39
140
1.0
102
RTVSPost2010PropOp39
 70
     1
102
RTVSPost2010Prop40
 90
        0
102
RTVSPost2010PropOp40
 70
     1
102
RTVSPost2010Prop41ColorIndex
 90
       18
102
RTVSPost2010Prop41ColorRGB
 90
        0
102
RTVSPost2010PropOp41
 70
     1
102
RTVSPost2010Prop42
 90
       50
102
RTVSPost2010PropOp42
 70
     1
102
RTVSPost2010Prop43
 90
        3
102
RTVSPost2010PropOp43
 70
     1
102
RTVSPost2010Prop44ColorIndex
 90
        5
102
RTVSPost2010Prop44ColorRGB
 90
      255
102
RTVSPost2010PropOp44
 70
     1
102
RTVSPost2010Prop45
280
     0
102
RTVSPost2010PropOp45
 70
     1
102
RTVSPost2010Prop46
 90
       50
102
RTVSPost2010PropOp46
 70
     1
102
RTVSPost2010Prop47
 90
       50
102
RTVSPost2010PropOp47
 70
     1
102
RTVSPost2010Prop48
 90
       50
102
RTVSPost2010PropOp48
 70
     1
102
RTVSPost2010Prop49
280
     0
102
RTVSPost2010PropOp49
 70
     1
102
RTVSPost2010Prop50
 90
       50
102
RTVSPost2010PropOp50
 70
     1
102
RTVSPost2010Prop51ColorIndex
 90
      256
102
RTVSPost2010Prop51ColorRGB
 90
-16777216
102
RTVSPost2010PropOp51
 70
     0
102
RTVSPost2010Prop52
140
1.0
102
RTVSPost2010PropOp52
 70
     0
102
RTVSPost2010Prop53
 90
        2
102
RTVSPost2010PropOp53
 70
     1
102
RTVSPost2010Prop54
  1
strokes_ogs.tif
102
RTVSPost2010PropOp54
 70
     1
102
RTVSPost2010Prop55
280
     0
102
RTVSPost2010PropOp55
 70
     1
102
RTVSPost2010Prop56
140
1.0
102
RTVSPost2010PropOp56
 70
     1
102
RTVSPost2010Prop57
140
1.0
102
RTVSPost2010PropOp57
 70
     1
  0
XRECORD
  5
5D64
102
{ACAD_REACTORS
330
5D63
102
}
330
5D63
100
AcDbXrecord
280
     1
102
RTVSPost2010Prop28
280
     0
102
RTVSPost2010PropOp28
 70
     1
102
RTVSPost2010Prop29
280
     1
102
RTVSPost2010PropOp29
 70
     1
102
RTVSPost2010Prop30
280
     1
102
RTVSPost2010PropOp30
 70
     1
102
RTVSPost2010Prop31
280
     0
102
RTVSPost2010PropOp31
 70
     1
102
RTVSPost2010Prop32
280
     0
102
RTVSPost2010PropOp32
 70
     1
102
RTVSPost2010Prop33
280
     0
102
RTVSPost2010PropOp33
 70
     1
102
RTVSPost2010Prop34
280
     0
102
RTVSPost2010PropOp34
 70
     1
102
RTVSPost2010Prop35
280
     0
102
RTVSPost2010PropOp35
 70
     1
102
RTVSPost2010Prop36
280
     0
102
RTVSPost2010PropOp36
 70
     1
102
RTVSPost2010Prop37
 90
       50
102
RTVSPost2010PropOp37
 70
     1
102
RTVSPost2010Prop38
140
0.0
102
RTVSPost2010PropOp38
 70
     1
102
RTVSPost2010Prop39
140
1.0
102
RTVSPost2010PropOp39
 70
     1
102
RTVSPost2010Prop40
 90
        0
102
RTVSPost2010PropOp40
 70
     1
102
RTVSPost2010Prop41ColorIndex
 90
       18
102
RTVSPost2010Prop41ColorRGB
 90
        0
102
RTVSPost2010PropOp41
 70
     1
102
RTVSPost2010Prop42
 90
       50
102
RTVSPost2010PropOp42
 70
     1
102
RTVSPost2010Prop43
 90
        3
102
RTVSPost2010PropOp43
 70
     1
102
RTVSPost2010Prop44ColorIndex
 90
        5
102
RTVSPost2010Prop44ColorRGB
 90
      255
102
RTVSPost2010PropOp44
 70
     1
102
RTVSPost2010Prop45
280
     0
102
RTVSPost2010PropOp45
 70
     1
102
RTVSPost2010Prop46
 90
       50
102
RTVSPost2010PropOp46
 70
     1
102
RTVSPost2010Prop47
 90
       50
102
RTVSPost2010PropOp47
 70
     1
102
RTVSPost2010Prop48
 90
       50
102
RTVSPost2010PropOp48
 70
     1
102
RTVSPost2010Prop49
280
     0
102
RTVSPost2010PropOp49
 70
     1
102
RTVSPost2010Prop50
 90
       50
102
RTVSPost2010PropOp50
 70
     1
102
RTVSPost2010Prop51ColorIndex
 90
      256
102
RTVSPost2010Prop51ColorRGB
 90
-16777216
102
RTVSPost2010PropOp51
 70
     0
102
RTVSPost2010Prop52
140
1.0
102
RTVSPost2010PropOp52
 70
     0
102
RTVSPost2010Prop53
 90
        2
102
RTVSPost2010PropOp53
 70
     1
102
RTVSPost2010Prop54
  1
strokes_ogs.tif
102
RTVSPost2010PropOp54
 70
     1
102
RTVSPost2010Prop55
280
     0
102
RTVSPost2010PropOp55
 70
     1
102
RTVSPost2010Prop56
140
1.0
102
RTVSPost2010PropOp56
 70
     1
102
RTVSPost2010Prop57
140
1.0
102
RTVSPost2010PropOp57
 70
     1
  0
XRECORD
  5
5D58
102
{ACAD_REACTORS
330
5D57
102
}
330
5D57
100
AcDbXrecord
280
     1
102
RTVSPost2010Prop28
280
     0
102
RTVSPost2010PropOp28
 70
     1
102
RTVSPost2010Prop29
280
     1
102
RTVSPost2010PropOp29
 70
     1
102
RTVSPost2010Prop30
280
     1
102
RTVSPost2010PropOp30
 70
     1
102
RTVSPost2010Prop31
280
     0
102
RTVSPost2010PropOp31
 70
     1
102
RTVSPost2010Prop32
280
     0
102
RTVSPost2010PropOp32
 70
     1
102
RTVSPost2010Prop33
280
     0
102
RTVSPost2010PropOp33
 70
     1
102
RTVSPost2010Prop34
280
     0
102
RTVSPost2010PropOp34
 70
     1
102
RTVSPost2010Prop35
280
     0
102
RTVSPost2010PropOp35
 70
     1
102
RTVSPost2010Prop36
280
     0
102
RTVSPost2010PropOp36
 70
     1
102
RTVSPost2010Prop37
 90
       50
102
RTVSPost2010PropOp37
 70
     1
102
RTVSPost2010Prop38
140
0.0
102
RTVSPost2010PropOp38
 70
     1
102
RTVSPost2010Prop39
140
1.0
102
RTVSPost2010PropOp39
 70
     1
102
RTVSPost2010Prop40
 90
        0
102
RTVSPost2010PropOp40
 70
     1
102
RTVSPost2010Prop41ColorIndex
 90
       18
102
RTVSPost2010Prop41ColorRGB
 90
        0
102
RTVSPost2010PropOp41
 70
     1
102
RTVSPost2010Prop42
 90
       50
102
RTVSPost2010PropOp42
 70
     1
102
RTVSPost2010Prop43
 90
        3
102
RTVSPost2010PropOp43
 70
     1
102
RTVSPost2010Prop44ColorIndex
 90
        5
102
RTVSPost2010Prop44ColorRGB
 90
      255
102
RTVSPost2010PropOp44
 70
     1
102
RTVSPost2010Prop45
280
     0
102
RTVSPost2010PropOp45
 70
     1
102
RTVSPost2010Prop46
 90
       50
102
RTVSPost2010PropOp46
 70
     1
102
RTVSPost2010Prop47
 90
       50
102
RTVSPost2010PropOp47
 70
     1
102
RTVSPost2010Prop48
 90
       50
102
RTVSPost2010PropOp48
 70
     1
102
RTVSPost2010Prop49
280
     0
102
RTVSPost2010PropOp49
 70
     1
102
RTVSPost2010Prop50
 90
       50
102
RTVSPost2010PropOp50
 70
     1
102
RTVSPost2010Prop51ColorIndex
 90
      256
102
RTVSPost2010Prop51ColorRGB
 90
-16777216
102
RTVSPost2010PropOp51
 70
     0
102
RTVSPost2010Prop52
140
1.0
102
RTVSPost2010PropOp52
 70
     0
102
RTVSPost2010Prop53
 90
        2
102
RTVSPost2010PropOp53
 70
     1
102
RTVSPost2010Prop54
  1
strokes_ogs.tif
102
RTVSPost2010PropOp54
 70
     1
102
RTVSPost2010Prop55
280
     0
102
RTVSPost2010PropOp55
 70
     1
102
RTVSPost2010Prop56
140
1.0
102
RTVSPost2010PropOp56
 70
     1
102
RTVSPost2010Prop57
140
1.0
102
RTVSPost2010PropOp57
 70
     1
  0
XRECORD
  5
5D70
102
{ACAD_REACTORS
330
5D6F
102
}
330
5D6F
100
AcDbXrecord
280
     1
102
RTVSPost2010Prop28
280
     0
102
RTVSPost2010PropOp28
 70
     1
102
RTVSPost2010Prop29
280
     1
102
RTVSPost2010PropOp29
 70
     1
102
RTVSPost2010Prop30
280
     1
102
RTVSPost2010PropOp30
 70
     1
102
RTVSPost2010Prop31
280
     0
102
RTVSPost2010PropOp31
 70
     1
102
RTVSPost2010Prop32
280
     0
102
RTVSPost2010PropOp32
 70
     1
102
RTVSPost2010Prop33
280
     0
102
RTVSPost2010PropOp33
 70
     1
102
RTVSPost2010Prop34
280
     0
102
RTVSPost2010PropOp34
 70
     1
102
RTVSPost2010Prop35
280
     0
102
RTVSPost2010PropOp35
 70
     1
102
RTVSPost2010Prop36
280
     0
102
RTVSPost2010PropOp36
 70
     1
102
RTVSPost2010Prop37
 90
       50
102
RTVSPost2010PropOp37
 70
     1
102
RTVSPost2010Prop38
140
0.0
102
RTVSPost2010PropOp38
 70
     1
102
RTVSPost2010Prop39
140
1.0
102
RTVSPost2010PropOp39
 70
     1
102
RTVSPost2010Prop40
 90
        0
102
RTVSPost2010PropOp40
 70
     1
102
RTVSPost2010Prop41ColorIndex
 90
       18
102
RTVSPost2010Prop41ColorRGB
 90
        0
102
RTVSPost2010PropOp41
 70
     1
102
RTVSPost2010Prop42
 90
       50
102
RTVSPost2010PropOp42
 70
     1
102
RTVSPost2010Prop43
 90
        3
102
RTVSPost2010PropOp43
 70
     1
102
RTVSPost2010Prop44ColorIndex
 90
        5
102
RTVSPost2010Prop44ColorRGB
 90
      255
102
RTVSPost2010PropOp44
 70
     1
102
RTVSPost2010Prop45
280
     0
102
RTVSPost2010PropOp45
 70
     1
102
RTVSPost2010Prop46
 90
       50
102
RTVSPost2010PropOp46
 70
     1
102
RTVSPost2010Prop47
 90
       50
102
RTVSPost2010PropOp47
 70
     1
102
RTVSPost2010Prop48
 90
       50
102
RTVSPost2010PropOp48
 70
     1
102
RTVSPost2010Prop49
280
     0
102
RTVSPost2010PropOp49
 70
     1
102
RTVSPost2010Prop50
 90
       50
102
RTVSPost2010PropOp50
 70
     1
102
RTVSPost2010Prop51ColorIndex
 90
      256
102
RTVSPost2010Prop51ColorRGB
 90
-16777216
102
RTVSPost2010PropOp51
 70
     0
102
RTVSPost2010Prop52
140
1.0
102
RTVSPost2010PropOp52
 70
     0
102
RTVSPost2010Prop53
 90
        2
102
RTVSPost2010PropOp53
 70
     1
102
RTVSPost2010Prop54
  1
strokes_ogs.tif
102
RTVSPost2010PropOp54
 70
     1
102
RTVSPost2010Prop55
280
     0
102
RTVSPost2010PropOp55
 70
     1
102
RTVSPost2010Prop56
140
1.0
102
RTVSPost2010PropOp56
 70
     1
102
RTVSPost2010Prop57
140
1.0
102
RTVSPost2010PropOp57
 70
     1
  0
ENDSEC
  0
EOF
