  0
SECTION
  2
HEADER
  9
$ACADVER
  1
AC1015
  9
$ACADMAINTVER
 70
    20
  9
$DWGCODEPAGE
  3
ANSI_932
  9
$INSBASE
 10
268.4340021441085
 20
176.78614296069
 30
0.0
  9
$EXTMIN
 10
1503.959753678431
 20
-1555.462803040487
 30
-0.0000000349181948
  9
$EXTMAX
 10
1806.549920198533
 20
-1262.875065471189
 30
0.0000000814935747
  9
$LIMMIN
 10
0.0
 20
0.0
  9
$LIMMAX
 10
554.0
 20
395.0
  9
$ORTHOMODE
 70
     1
  9
$REGENMODE
 70
     1
  9
$FILLMODE
 70
     1
  9
$QTEXTMODE
 70
     0
  9
$MIRRTEXT
 70
     1
  9
$LTSCALE
 40
2.0
  9
$ATTMODE
 70
     1
  9
$TEXTSIZE
 40
3.5
  9
$TRACEWID
 40
0.2
  9
$TEXTSTYLE
  7
KANJI
  9
$CLAYER
  8
2寸法線
  9
$CELTYPE
  6
BYLAYER
  9
$CECOLOR
 62
   256
  9
$CELTSCALE
 40
2.0
  9
$DISPSILH
 70
     0
  9
$DIMSCALE
 40
1.0
  9
$DIMASZ
 40
1.0
  9
$DIMEXO
 40
1.0
  9
$DIMDLI
 40
6.0
  9
$DIMRND
 40
0.0
  9
$DIMDLE
 40
0.0
  9
$DIMEXE
 40
1.0
  9
$DIMTP
 40
0.0
  9
$DIMTM
 40
0.0
  9
$DIMTXT
 40
2.5
  9
$DIMCEN
 40
0.0
  9
$DIMTSZ
 40
0.0
  9
$DIMTOL
 70
     0
  9
$DIMLIM
 70
     0
  9
$DIMTIH
 70
     0
  9
$DIMTOH
 70
     0
  9
$DIMSE1
 70
     0
  9
$DIMSE2
 70
     0
  9
$DIMTAD
 70
     1
  9
$DIMZIN
 70
     8
  9
$DIMBLK
  1

  9
$DIMASO
 70
     1
  9
$DIMSHO
 70
     1
  9
$DIMPOST
  1

  9
$DIMAPOST
  1

  9
$DIMALT
 70
     0
  9
$DIMALTD
 70
     2
  9
$DIMALTF
 40
25.4
  9
$DIMLFAC
 40
1.0
  9
$DIMTOFL
 70
     1
  9
$DIMTVP
 40
0.0
  9
$DIMTIX
 70
     0
  9
$DIMSOXD
 70
     0
  9
$DIMSAH
 70
     1
  9
$DIMBLK1
  1
Y2
  9
$DIMBLK2
  1
Y2
  9
$DIMSTYLE
  2
STANDARD
  9
$DIMCLRD
 70
     0
  9
$DIMCLRE
 70
     0
  9
$DIMCLRT
 70
     0
  9
$DIMTFAC
 40
1.0
  9
$DIMGAP
 40
0.5
  9
$DIMJUST
 70
     0
  9
$DIMSD1
 70
     0
  9
$DIMSD2
 70
     0
  9
$DIMTOLJ
 70
     1
  9
$DIMTZIN
 70
     8
  9
$DIMALTZ
 70
     8
  9
$DIMALTTZ
 70
     8
  9
$DIMUPT
 70
     0
  9
$DIMDEC
 70
     4
  9
$DIMTDEC
 70
     4
  9
$DIMALTU
 70
     2
  9
$DIMALTTD
 70
     2
  9
$DIMTXSTY
  7
KANJI
  9
$DIMAUNIT
 70
     0
  9
$DIMADEC
 70
     0
  9
$DIMALTRND
 40
0.0
  9
$DIMAZIN
 70
     0
  9
$DIMDSEP
 70
    46
  9
$DIMATFIT
 70
     3
  9
$DIMFRAC
 70
     0
  9
$DIMLDRBLK
  1
Y2
  9
$DIMLUNIT
 70
     2
  9
$DIMLWD
 70
    -2
  9
$DIMLWE
 70
    -2
  9
$DIMTMOVE
 70
     0
  9
$LUNITS
 70
     2
  9
$LUPREC
 70
     4
  9
$SKETCHINC
 40
0.1
  9
$FILLETRAD
 40
0.0
  9
$AUNITS
 70
     0
  9
$AUPREC
 70
     0
  9
$MENU
  1
tcad-s
  9
$ELEVATION
 40
0.0
  9
$PELEVATION
 40
0.0
  9
$THICKNESS
 40
0.0
  9
$LIMCHECK
 70
     0
  9
$CHAMFERA
 40
0.0
  9
$CHAMFERB
 40
0.0
  9
$CHAMFERC
 40
0.0
  9
$CHAMFERD
 40
0.0
  9
$SKPOLY
 70
     0
  9
$TDCREATE
 40
2451123.361182072
  9
$TDUCREATE
 40
2451122.986182072
  9
$TDUPDATE
 40
2455859.721947824
  9
$TDUUPDATE
 40
2455859.346947824
  9
$TDINDWG
 40
0.9618200231
  9
$TDUSRTIMER
 40
0.9618118981
  9
$USRTIMER
 70
     1
  9
$ANGBASE
 50
0.0
  9
$ANGDIR
 70
     0
  9
$PDMODE
 70
     0
  9
$PDSIZE
 40
2.399999999999999
  9
$PLINEWID
 40
0.0
  9
$SPLFRAME
 70
     0
  9
$SPLINETYPE
 70
     6
  9
$SPLINESEGS
 70
     8
  9
$HANDSEED
  5
BE5E
  9
$SURFTAB1
 70
     6
  9
$SURFTAB2
 70
     6
  9
$SURFTYPE
 70
     6
  9
$SURFU
 70
     6
  9
$SURFV
 70
     6
  9
$UCSBASE
  2

  9
$UCSNAME
  2

  9
$UCSORG
 10
0.0
 20
0.0
 30
0.0
  9
$UCSXDIR
 10
1.0
 20
0.0
 30
0.0
  9
$UCSYDIR
 10
0.0
 20
1.0
 30
0.0
  9
$UCSORTHOREF
  2

  9
$UCSORTHOVIEW
 70
     0
  9
$UCSORGTOP
 10
0.0
 20
0.0
 30
0.0
  9
$UCSORGBOTTOM
 10
0.0
 20
0.0
 30
0.0
  9
$UCSORGLEFT
 10
0.0
 20
0.0
 30
0.0
  9
$UCSORGRIGHT
 10
0.0
 20
0.0
 30
0.0
  9
$UCSORGFRONT
 10
0.0
 20
0.0
 30
0.0
  9
$UCSORGBACK
 10
0.0
 20
0.0
 30
0.0
  9
$PUCSBASE
  2

  9
$PUCSNAME
  2

  9
$PUCSORG
 10
0.0
 20
0.0
 30
0.0
  9
$PUCSXDIR
 10
1.0
 20
0.0
 30
0.0
  9
$PUCSYDIR
 10
0.0
 20
1.0
 30
0.0
  9
$PUCSORTHOREF
  2

  9
$PUCSORTHOVIEW
 70
     0
  9
$PUCSORGTOP
 10
0.0
 20
0.0
 30
0.0
  9
$PUCSORGBOTTOM
 10
0.0
 20
0.0
 30
0.0
  9
$PUCSORGLEFT
 10
0.0
 20
0.0
 30
0.0
  9
$PUCSORGRIGHT
 10
0.0
 20
0.0
 30
0.0
  9
$PUCSORGFRONT
 10
0.0
 20
0.0
 30
0.0
  9
$PUCSORGBACK
 10
0.0
 20
0.0
 30
0.0
  9
$USERI1
 70
     0
  9
$USERI2
 70
     0
  9
$USERI3
 70
     0
  9
$USERI4
 70
     0
  9
$USERI5
 70
     0
  9
$USERR1
 40
0.0
  9
$USERR2
 40
0.0
  9
$USERR3
 40
0.0
  9
$USERR4
 40
0.0
  9
$USERR5
 40
0.0
  9
$WORLDVIEW
 70
     1
  9
$SHADEDGE
 70
     3
  9
$SHADEDIF
 70
    70
  9
$TILEMODE
 70
     1
  9
$MAXACTVP
 70
    16
  9
$PINSBASE
 10
0.0
 20
0.0
 30
0.0
  9
$PLIMCHECK
 70
     0
  9
$PEXTMIN
 10
1.000000000000000E+20
 20
1.000000000000000E+20
 30
1.000000000000000E+20
  9
$PEXTMAX
 10
-1.000000000000000E+20
 20
-1.000000000000000E+20
 30
-1.000000000000000E+20
  9
$PLIMMIN
 10
0.0
 20
0.0
  9
$PLIMMAX
 10
12.0
 20
9.0
  9
$UNITMODE
 70
     0
  9
$VISRETAIN
 70
     0
  9
$PLINEGEN
 70
     0
  9
$PSLTSCALE
 70
     0
  9
$TREEDEPTH
 70
  3020
  9
$CMLSTYLE
  2
STANDARD
  9
$CMLJUST
 70
     0
  9
$CMLSCALE
 40
1.0
  9
$PROXYGRAPHICS
 70
     1
  9
$MEASUREMENT
 70
     0
  9
$CELWEIGHT
370
    -1
  9
$ENDCAPS
280
     0
  9
$JOINSTYLE
280
     0
  9
$LWDISPLAY
290
     0
  9
$INSUNITS
 70
     0
  9
$HYPERLINKBASE
  1

  9
$STYLESHEET
  1
INABA-CAD-CANON.CTB
  9
$XEDIT
290
     1
  9
$CEPSNTYPE
380
     0
  9
$PSTYLEMODE
290
     1
  9
$FINGERPRINTGUID
  2
{C845D700-0FF8-4D54-8B39-CB42730E90A9}
  9
$VERSIONGUID
  2
{BC4BF612-B089-4C52-A366-AC671119CD1A}
  9
$EXTNAMES
290
     1
  9
$PSVPSCALE
 40
0.0
  9
$OLESTARTUP
290
     0
  0
ENDSEC
  0
SECTION
  2
CLASSES
  0
CLASS
  1
DICTIONARYVAR
  2
AcDbDictionaryVar
  3
ObjectDBX Classes
 90
        0
280
     0
281
     0
  0
CLASS
  1
SORTENTSTABLE
  2
AcDbSortentsTable
  3
ObjectDBX Classes
 90
        0
280
     0
281
     0
  0
CLASS
  1
ACDBDICTIONARYWDFLT
  2
AcDbDictionaryWithDefault
  3
ObjectDBX Classes
 90
        0
280
     0
281
     0
  0
CLASS
  1
ACDBPLACEHOLDER
  2
AcDbPlaceHolder
  3
ObjectDBX Classes
 90
        0
280
     0
281
     0
  0
CLASS
  1
LAYOUT
  2
AcDbLayout
  3
ObjectDBX Classes
 90
        0
280
     0
281
     0
  0
CLASS
  1
TABLESTYLE
  2
AcDbTableStyle
  3
ObjectDBX Classes
 90
     2047
280
     0
281
     0
  0
ENDSEC
  0
SECTION
  2
TABLES
  0
TABLE
  2
VPORT
  5
8
330
0
100
AcDbSymbolTable
 70
     3
  0
VPORT
  5
BE58
330
8
100
AcDbSymbolTableRecord
100
AcDbViewportTableRecord
  2
*Active
 70
     0
 10
0.0
 20
0.0
 11
1.0
 21
1.0
 12
1655.254836938482
 22
-1409.168934255838
 13
0.0
 23
0.0
 14
1.0
 24
1.0
 15
0.0
 25
0.0
 16
0.0
 26
0.0
 36
1.0
 17
0.0
 27
0.0
 37
0.0
 40
294.9067949344439
 41
1.386243386243386
 42
50.0
 43
0.0
 44
0.0
 50
0.0
 51
0.0
 71
     0
 72
  1000
 73
     1
 74
     1
 75
     0
 76
     0
 77
     0
 78
     1
281
     0
 65
     1
110
0.0
120
0.0
130
0.0
111
1.0
121
0.0
131
0.0
112
0.0
122
1.0
132
0.0
 79
     0
146
0.0
  0
ENDTAB
  0
TABLE
  2
LTYPE
  5
5
330
0
100
AcDbSymbolTable
 70
     7
  0
LTYPE
  5
11
330
5
100
AcDbSymbolTableRecord
100
AcDbLinetypeTableRecord
  2
BYBLOCK
 70
     0
  3

 72
    65
 73
     0
 40
0.0
  0
LTYPE
  5
12
330
5
100
AcDbSymbolTableRecord
100
AcDbLinetypeTableRecord
  2
BYLAYER
 70
     0
  3

 72
    65
 73
     0
 40
0.0
  0
LTYPE
  5
13
330
5
100
AcDbSymbolTableRecord
100
AcDbLinetypeTableRecord
  2
CONTINUOUS
 70
     0
  3
Solid line
 72
    65
 73
     0
 40
0.0
  0
ENDTAB
  0
TABLE
  2
LAYER
  5
2
102
{ACAD_XDICTIONARY
360
8B8C
102
}
330
0
100
AcDbSymbolTable
 70
    21
  0
LAYER
  5
E
330
2
100
AcDbSymbolTableRecord
100
AcDbLayerTableRecord
  2
0
 70
     0
 62
     7
  6
CONTINUOUS
370
    -3
390
7DCE
  0
LAYER
  5
E1F
330
2
100
AcDbSymbolTableRecord
100
AcDbLayerTableRecord
  2
DEFPOINTS
 70
     0
 62
     7
  6
CONTINUOUS
290
     0
370
    -3
390
7DCE
  0
LAYER
  5
7595
330
2
100
AcDbSymbolTableRecord
100
AcDbLayerTableRecord
  2
1外形線
 70
     0
 62
     3
  6
CONTINUOUS
370
    -3
390
7DCE
  0
LAYER
  5
7596
330
2
100
AcDbSymbolTableRecord
100
AcDbLayerTableRecord
  2
2寸法線
 70
     0
 62
     2
  6
CONTINUOUS
370
    -3
390
7DCE
  0
ENDTAB
  0
TABLE
  2
STYLE
  5
3
330
0
100
AcDbSymbolTable
 70
     6
  0
STYLE
  5
F
330
3
100
AcDbSymbolTableRecord
100
AcDbTextStyleTableRecord
  2
STANDARD
 70
     0
 40
0.0
 41
1.0
 50
0.0
 71
     0
 42
0.2
  3
txt
  4

  0
STYLE
  5
3B
330
3
100
AcDbSymbolTableRecord
100
AcDbTextStyleTableRecord
  2
KANJI
 70
     0
 40
0.0
 41
1.0
 50
0.0
 71
     0
 42
3.5
  3
simplex
  4
bigfont
  0
ENDTAB
  0
TABLE
  2
VIEW
  5
6
330
0
100
AcDbSymbolTable
 70
     0
  0
ENDTAB
  0
TABLE
  2
UCS
  5
7
330
0
100
AcDbSymbolTable
 70
     0
  0
ENDTAB
  0
TABLE
  2
APPID
  5
9
330
0
100
AcDbSymbolTable
 70
     2
  0
APPID
  5
10
330
9
100
AcDbSymbolTableRecord
100
AcDbRegAppTableRecord
  2
ACAD
 70
     0
  0
APPID
  5
A138
330
9
100
AcDbSymbolTableRecord
100
AcDbRegAppTableRecord
  2
ACAD_PSEXT
 70
     0
  0
ENDTAB
  0
TABLE
  2
DIMSTYLE
  5
A
330
0
100
AcDbSymbolTable
 70
     4
100
AcDbDimStyleTable
 71
     1
340
E11
  0
DIMSTYLE
105
E11
330
A
100
AcDbSymbolTableRecord
100
AcDbDimStyleTableRecord
  2
STANDARD
 70
     0
 41
1.0
 42
1.0
 43
6.0
 44
1.0
 73
     0
 74
     0
 77
     1
 78
     8
140
2.5
141
0.0
147
0.5
172
     1
173
     1
284
     8
285
     8
286
     8
340
3B
341
39F6
343
39F6
344
39F6
  0
ENDTAB
  0
TABLE
  2
BLOCK_RECORD
  5
1
330
0
100
AcDbSymbolTable
 70
   349
  0
BLOCK_RECORD
  5
17
102
{ACAD_XDICTIONARY
360
46FA
102
}
330
1
100
AcDbSymbolTableRecord
100
AcDbBlockTableRecord
  2
*MODEL_SPACE
340
7DD1
  0
BLOCK_RECORD
  5
14
102
{ACAD_XDICTIONARY
360
7F4E
102
}
330
1
100
AcDbSymbolTableRecord
100
AcDbBlockTableRecord
  2
*PAPER_SPACE
340
7DD2
  0
BLOCK_RECORD
  5
39F6
330
1
100
AcDbSymbolTableRecord
100
AcDbBlockTableRecord
  2
Y2
340
0
102
{BLKREFS
331
8647
331
8648
331
8651
331
8652
331
8661
331
8662
331
866A
331
866B
331
8673
331
8674
331
867C
331
867D
331
8686
331
8687
331
87C5
331
87C6
331
87CE
331
87CF
331
87D7
331
87D8
331
87E0
331
87E1
331
87E9
331
87EA
331
87F2
331
87F3
331
B5AF
331
B5B0
331
B736
331
B737
331
BB0C
331
BB0D
331
BB42
331
BB43
331
BB4F
331
BB50
331
BB5B
331
BB5C
331
BB67
331
BB68
331
BB73
331
BB74
331
BB7E
331
BB7F
331
BB8B
331
BB8C
331
BB98
331
BB99
331
BBA5
331
BBA6
331
BD6C
331
BD6D
331
BD75
331
BD76
331
BD7E
331
BD7F
331
BD87
331
BD88
331
BD90
331
BD91
331
BD9B
331
BD9C
331
BDAE
331
BDAF
331
BDBB
331
BDBC
102
}
  0
ENDTAB
  0
ENDSEC
  0
SECTION
  2
BLOCKS
  0
BLOCK
  5
4F
330
17
100
AcDbEntity
  8
0
100
AcDbBlockBegin
  2
*MODEL_SPACE
 70
     0
 10
0.0
 20
0.0
 30
0.0
  3
*MODEL_SPACE
  1

  0
ENDBLK
  5
50
330
17
100
AcDbEntity
  8
0
100
AcDbBlockEnd
  0
BLOCK
  5
4D
330
14
100
AcDbEntity
 67
     1
  8
0
100
AcDbBlockBegin
  2
*PAPER_SPACE
 70
     0
 10
0.0
 20
0.0
 30
0.0
  3
*PAPER_SPACE
  1

  0
ENDBLK
  5
4E
330
14
100
AcDbEntity
 67
     1
  8
0
100
AcDbBlockEnd
  0
BLOCK
  5
39F7
330
39F6
100
AcDbEntity
  8
0
 48
2.0
100
AcDbBlockBegin
  2
Y2
 70
     0
 10
0.0
 20
0.0
 30
0.0
  3
Y2
  1

  0
SOLID
  5
39F8
330
39F6
100
AcDbEntity
  8
0
  6
ByBlock
 62
     0
380
     1
100
AcDbTrace
 10
-1.811110924292108
 20
0.485285709567151
 30
0.0
 11
-1.811110924292108
 21
-0.4852857095673784
 31
0.0
 12
-0.0000000000000568
 22
-0.0000000000000142
 32
0.0
 13
-0.0000000000000568
 23
-0.0000000000000142
 33
0.0
  0
ENDBLK
  5
39F9
330
39F6
100
AcDbEntity
  8
0
 48
2.0
100
AcDbBlockEnd
  0
ENDSEC
  0
SECTION
  2
ENTITIES
  0
LINE
  5
BC4D
330
17
100
AcDbEntity
  8
1外形線
 48
3.0
100
AcDbLine
 10
1644.294548295688
 20
-1357.09498585851
 30
0.0
 11
1644.294548295688
 21
-1310.19498585851
 31
0.0
  0
LINE
  5
BC4E
330
17
100
AcDbEntity
  8
1外形線
 48
3.0
100
AcDbLine
 10
1649.294548295688
 20
-1356.29498585851
 30
0.0
 11
1649.294548295688
 21
-1310.19498585851
 31
0.0
  0
LINE
  5
BC4F
330
17
100
AcDbEntity
  8
1外形線
 48
3.0
100
AcDbLine
 10
1504.294548295688
 20
-1356.29498585851
 30
0.0
 11
1504.294548295688
 21
-1310.19498585851
 31
0.0
  0
LINE
  5
BC50
330
17
100
AcDbEntity
  8
1外形線
 48
3.0
100
AcDbLine
 10
1509.294548295688
 20
-1357.09498585851
 30
0.0
 11
1509.294548295688
 21
-1310.19498585851
 31
0.0
  0
LINE
  5
BC51
330
17
100
AcDbEntity
  8
1外形線
 48
3.0
100
AcDbLine
 10
1509.294548295688
 20
-1357.094985858509
 30
0.0
 11
1644.29454829569
 21
-1357.09498585851
 31
0.0
  0
ARC
  5
BC52
330
17
100
AcDbEntity
  8
1外形線
 48
3.0
100
AcDbCircle
 10
1505.29454829569
 20
-1356.29498585851
 30
0.0
 40
1.0
100
AcDbArc
 50
180.0
 51
270.0
  0
LINE
  5
BC53
330
17
100
AcDbEntity
  8
1外形線
 48
3.0
100
AcDbLine
 10
1505.29454829569
 20
-1357.294985858511
 30
0.0
 11
1509.09454829569
 21
-1357.294985858511
 31
0.0
  0
ARC
  5
BC54
330
17
100
AcDbEntity
  8
1外形線
 48
3.0
100
AcDbCircle
 10
1509.09454829569
 20
-1357.09498585851
 30
0.0
 40
0.2
100
AcDbArc
 50
270.0
 51
0.0
  0
ARC
  5
BC56
330
17
100
AcDbEntity
  8
1外形線
 48
3.0
100
AcDbCircle
 10
1621.794548295688
 20
-1349.69498585851
 30
0.0
 40
4.5
100
AcDbArc
 50
0.0
 51
180.0
  0
ARC
  5
BC57
330
17
100
AcDbEntity
  8
1外形線
100
AcDbCircle
 10
1621.794548295688
 20
-1349.69498585851
 30
0.0
 40
2.0
100
AcDbArc
 50
17.25385311735983
 51
72.74614688264242
  0
ARC
  5
BC58
330
17
100
AcDbEntity
  8
1外形線
100
AcDbCircle
 10
1621.794548295688
 20
-1349.69498585851
 30
0.0
 40
2.0
100
AcDbArc
 50
287.2538531173575
 51
342.7461468826402
  0
ARC
  5
BC59
330
17
100
AcDbEntity
  8
1外形線
100
AcDbCircle
 10
1621.794548295688
 20
-1349.69498585851
 30
0.0
 40
2.0
100
AcDbArc
 50
107.2538531173576
 51
162.7461468826401
  0
ARC
  5
BC5A
330
17
100
AcDbEntity
  8
1外形線
100
AcDbCircle
 10
1621.794548295688
 20
-1349.69498585851
 30
0.0
 40
2.0
100
AcDbArc
 50
197.2538531173598
 51
252.7461468826424
  0
LINE
  5
BC5B
330
17
100
AcDbEntity
  8
1外形線
 48
3.0
100
AcDbLine
 10
1617.294548295688
 20
-1349.69498585851
 30
0.0
 11
1617.294548295688
 21
-1357.09498585851
 31
0.0
  0
ARC
  5
BC5C
330
17
100
AcDbEntity
  8
1外形線
 48
3.0
100
AcDbCircle
 10
1619.794548295688
 20
-1349.69498585851
 30
0.0
 40
0.6
100
AcDbArc
 50
278.6269265586708
 51
81.37307344131608
  0
ARC
  5
BC5D
330
17
100
AcDbEntity
  8
1外形線
 48
3.0
100
AcDbCircle
 10
1623.794548295688
 20
-1349.69498585851
 30
0.0
 40
0.6
100
AcDbArc
 50
98.62692655868393
 51
261.3730734413161
  0
ARC
  5
BC5E
330
17
100
AcDbEntity
  8
1外形線
 48
3.0
100
AcDbCircle
 10
1621.794548295688
 20
-1347.69498585851
 30
0.0
 40
0.6
100
AcDbArc
 50
188.6269265587112
 51
351.3730734412888
  0
ARC
  5
BC5F
330
17
100
AcDbEntity
  8
1外形線
 48
3.0
100
AcDbCircle
 10
1621.794548295688
 20
-1351.69498585851
 30
0.0
 40
0.6
100
AcDbArc
 50
8.626926558656901
 51
171.3730734413431
  0
LINE
  5
BC60
330
17
100
AcDbEntity
  8
1外形線
 48
3.0
100
AcDbLine
 10
1626.294548295688
 20
-1349.69498585851
 30
0.0
 11
1626.294548295688
 21
-1357.09498585851
 31
0.0
  0
ARC
  5
BC61
330
17
100
AcDbEntity
  8
1外形線
 48
3.0
100
AcDbCircle
 10
1531.79454829569
 20
-1349.69498585851
 30
0.0
 40
4.5
100
AcDbArc
 50
0.0
 51
180.0
  0
LINE
  5
BC62
330
17
100
AcDbEntity
  8
1外形線
 48
3.0
100
AcDbLine
 10
1527.294548295688
 20
-1349.69498585851
 30
0.0
 11
1527.294548295688
 21
-1357.09498585851
 31
0.0
  0
LINE
  5
BC63
330
17
100
AcDbEntity
  8
1外形線
 48
3.0
100
AcDbLine
 10
1536.294548295688
 20
-1349.69498585851
 30
0.0
 11
1536.294548295688
 21
-1357.09498585851
 31
0.0
  0
ARC
  5
BC64
330
17
100
AcDbEntity
  8
1外形線
 48
3.0
100
AcDbCircle
 10
1533.794548295688
 20
-1349.69498585851
 30
0.0
 40
0.6
100
AcDbArc
 50
98.62692655868393
 51
261.3730734413161
  0
ARC
  5
BC65
330
17
100
AcDbEntity
  8
1外形線
100
AcDbCircle
 10
1531.79454829569
 20
-1349.69498585851
 30
0.0
 40
2.0
100
AcDbArc
 50
17.25385311735983
 51
72.74614688264242
  0
ARC
  5
BC66
330
17
100
AcDbEntity
  8
1外形線
100
AcDbCircle
 10
1531.79454829569
 20
-1349.69498585851
 30
0.0
 40
2.0
100
AcDbArc
 50
287.2538531173575
 51
342.7461468826402
  0
ARC
  5
BC67
330
17
100
AcDbEntity
  8
1外形線
 48
3.0
100
AcDbCircle
 10
1531.79454829569
 20
-1347.69498585851
 30
0.0
 40
0.6
100
AcDbArc
 50
188.6269265587112
 51
351.3730734412888
  0
ARC
  5
BC68
330
17
100
AcDbEntity
  8
1外形線
 48
3.0
100
AcDbCircle
 10
1531.79454829569
 20
-1351.69498585851
 30
0.0
 40
0.6
100
AcDbArc
 50
8.626926558656901
 51
171.3730734413431
  0
ARC
  5
BC69
330
17
100
AcDbEntity
  8
1外形線
 48
3.0
100
AcDbCircle
 10
1529.794548295688
 20
-1349.69498585851
 30
0.0
 40
0.6
100
AcDbArc
 50
278.6269265586708
 51
81.37307344131608
  0
ARC
  5
BC6A
330
17
100
AcDbEntity
  8
1外形線
100
AcDbCircle
 10
1531.79454829569
 20
-1349.69498585851
 30
0.0
 40
2.0
100
AcDbArc
 50
107.2538531173576
 51
162.7461468826401
  0
ARC
  5
BC6B
330
17
100
AcDbEntity
  8
1外形線
100
AcDbCircle
 10
1531.79454829569
 20
-1349.69498585851
 30
0.0
 40
2.0
100
AcDbArc
 50
197.2538531173598
 51
252.7461468826424
  0
ARC
  5
BC6C
330
17
100
AcDbEntity
  8
1外形線
 48
3.0
100
AcDbCircle
 10
1644.49454829569
 20
-1357.094985858511
 30
0.0
 40
0.2
100
AcDbArc
 50
180.0
 51
270.0
  0
ARC
  5
BC6D
330
17
100
AcDbEntity
  8
1外形線
 48
3.0
100
AcDbCircle
 10
1648.294548295688
 20
-1356.29498585851
 30
0.0
 40
1.0
100
AcDbArc
 50
270.0
 51
0.0
  0
LINE
  5
BC6E
330
17
100
AcDbEntity
  8
1外形線
 48
3.0
100
AcDbLine
 10
1648.294548295688
 20
-1357.294985858511
 30
0.0
 11
1644.49454829569
 21
-1357.294985858511
 31
0.0
  0
LINE
  5
BC6F
330
17
100
AcDbEntity
  8
1外形線
 48
3.0
100
AcDbLine
 10
1509.294548295688
 20
-1263.29498585851
 30
0.0
 11
1644.29454829569
 21
-1263.29498585851
 31
0.0
  0
LINE
  5
BC70
330
17
100
AcDbEntity
  8
2寸法線
100
AcDbLine
 10
1509.294548295688
 20
-1308.19498585851
 30
0.0
 11
1509.294548295688
 21
-1296.463394055318
 31
0.0
  0
ARC
  5
BC71
330
17
100
AcDbEntity
  8
1外形線
 48
3.0
100
AcDbCircle
 10
1505.29454829569
 20
-1264.09498585851
 30
0.0
 40
1.0
100
AcDbArc
 50
90.0
 51
180.0
  0
LINE
  5
BC72
330
17
100
AcDbEntity
  8
1外形線
 48
3.0
100
AcDbLine
 10
1505.29454829569
 20
-1263.09498585851
 30
0.0
 11
1509.09454829569
 21
-1263.09498585851
 31
0.0
  0
ARC
  5
BC73
330
17
100
AcDbEntity
  8
1外形線
 48
3.0
100
AcDbCircle
 10
1509.09454829569
 20
-1263.29498585851
 30
0.0
 40
0.2
100
AcDbArc
 50
0.0
 51
90.0
  0
LINE
  5
BC74
330
17
100
AcDbEntity
  8
1外形線
 48
3.0
100
AcDbLine
 10
1509.294548295688
 20
-1263.29498585851
 30
0.0
 11
1509.294548295688
 21
-1310.19498585851
 31
0.0
  0
LINE
  5
BC75
330
17
100
AcDbEntity
  8
1外形線
 48
3.0
100
AcDbLine
 10
1504.294548295688
 20
-1264.09498585851
 30
0.0
 11
1504.294548295688
 21
-1310.19498585851
 31
0.0
  0
ARC
  5
BC76
330
17
100
AcDbEntity
  8
1外形線
 48
3.0
100
AcDbCircle
 10
1621.794548295688
 20
-1270.69498585851
 30
0.0
 40
4.5
100
AcDbArc
 50
180.0
 51
0.0
  0
ARC
  5
BC77
330
17
100
AcDbEntity
  8
1外形線
100
AcDbCircle
 10
1621.794548295688
 20
-1270.69498585851
 30
0.0
 40
2.0
100
AcDbArc
 50
17.25385311735983
 51
72.74614688264242
  0
ARC
  5
BC78
330
17
100
AcDbEntity
  8
1外形線
100
AcDbCircle
 10
1621.794548295688
 20
-1270.69498585851
 30
0.0
 40
2.0
100
AcDbArc
 50
287.2538531173575
 51
342.7461468826402
  0
ARC
  5
BC79
330
17
100
AcDbEntity
  8
1外形線
100
AcDbCircle
 10
1621.794548295688
 20
-1270.69498585851
 30
0.0
 40
2.0
100
AcDbArc
 50
107.2538531173576
 51
162.7461468826401
  0
ARC
  5
BC7A
330
17
100
AcDbEntity
  8
1外形線
100
AcDbCircle
 10
1621.794548295688
 20
-1270.69498585851
 30
0.0
 40
2.0
100
AcDbArc
 50
197.2538531173598
 51
252.7461468826424
  0
LINE
  5
BC7B
330
17
100
AcDbEntity
  8
1外形線
 48
3.0
100
AcDbLine
 10
1617.294548295688
 20
-1270.69498585851
 30
0.0
 11
1617.294548295688
 21
-1263.29498585851
 31
0.0
  0
ARC
  5
BC7C
330
17
100
AcDbEntity
  8
1外形線
 48
3.0
100
AcDbCircle
 10
1619.794548295688
 20
-1270.69498585851
 30
0.0
 40
0.6
100
AcDbArc
 50
278.6269265586708
 51
81.37307344131608
  0
ARC
  5
BC7D
330
17
100
AcDbEntity
  8
1外形線
 48
3.0
100
AcDbCircle
 10
1623.794548295688
 20
-1270.69498585851
 30
0.0
 40
0.6
100
AcDbArc
 50
98.62692655868393
 51
261.3730734413161
  0
ARC
  5
BC7E
330
17
100
AcDbEntity
  8
1外形線
 48
3.0
100
AcDbCircle
 10
1621.794548295688
 20
-1268.69498585851
 30
0.0
 40
0.6
100
AcDbArc
 50
188.6269265587112
 51
351.3730734412888
  0
ARC
  5
BC7F
330
17
100
AcDbEntity
  8
1外形線
 48
3.0
100
AcDbCircle
 10
1621.794548295688
 20
-1272.69498585851
 30
0.0
 40
0.6
100
AcDbArc
 50
8.626926558656901
 51
171.3730734413431
  0
LINE
  5
BC80
330
17
100
AcDbEntity
  8
1外形線
 48
3.0
100
AcDbLine
 10
1626.294548295688
 20
-1270.69498585851
 30
0.0
 11
1626.294548295688
 21
-1263.29498585851
 31
0.0
  0
ARC
  5
BC81
330
17
100
AcDbEntity
  8
1外形線
 48
3.0
100
AcDbCircle
 10
1531.79454829569
 20
-1270.69498585851
 30
0.0
 40
4.5
100
AcDbArc
 50
180.0
 51
0.0
  0
LINE
  5
BC82
330
17
100
AcDbEntity
  8
1外形線
 48
3.0
100
AcDbLine
 10
1527.294548295688
 20
-1270.69498585851
 30
0.0
 11
1527.294548295688
 21
-1263.29498585851
 31
0.0
  0
LINE
  5
BC83
330
17
100
AcDbEntity
  8
1外形線
 48
3.0
100
AcDbLine
 10
1536.294548295688
 20
-1270..69498585851
 30
0.0
 11
1536.294548295688
 21
-1263.29498585851
 31
0.0
  0
ARC
  5
BC84
330
17
100
AcDbEntity
  8
1外形線
 48
3.0
100
AcDbCircle
 10
1533.794548295688
 20
-1270.69498585851
 30
0.0
 40
0.6
100
AcDbArc
 50
98.62692655868393
 51
261.3730734413161
  0
ARC
  5
BC85
330
17
100
AcDbEntity
  8
1外形線
100
AcDbCircle
 10
1531.79454829569
 20
-1270.69498585851
 30
0.0
 40
2.0
100
AcDbArc
 50
17.25385311735983
 51
72.74614688264242
  0
ARC
  5
BC86
330
17
100
AcDbEntity
  8
1外形線
100
AcDbCircle
 10
1531.79454829569
 20
-1270.69498585851
 30
0.0
 40
2.0
100
AcDbArc
 50
287.2538531173575
 51
342.7461468826402
  0
ARC
  5
BC87
330
17
100
AcDbEntity
  8
1外形線
 48
3.0
100
AcDbCircle
 10
1531.79454829569
 20
-1268.69498585851
 30
0.0
 40
0.6
100
AcDbArc
 50
188.6269265587112
 51
351.3730734412888
  0
ARC
  5
BC88
330
17
100
AcDbEntity
  8
1外形線
 48
3.0
100
AcDbCircle
 10
1531.79454829569
 20
-1272.69498585851
 30
0.0
 40
0.6
100
AcDbArc
 50
8.626926558656901
 51
171.3730734413431
  0
ARC
  5
BC89
330
17
100
AcDbEntity
  8
1外形線
 48
3.0
100
AcDbCircle
 10
1529.794548295688
 20
-1270.69498585851
 30
0.0
 40
0.6
100
AcDbArc
 50
278.6269265586708
 51
81.37307344131608
  0
ARC
  5
BC8A
330
17
100
AcDbEntity
  8
1外形線
100
AcDbCircle
 10
1531.79454829569
 20
-1270.69498585851
 30
0.0
 40
2.0
100
AcDbArc
 50
107.2538531173576
 51
162.7461468826401
  0
ARC
  5
BC8B
330
17
100
AcDbEntity
  8
1外形線
100
AcDbCircle
 10
1531.79454829569
 20
-1270.69498585851
 30
0.0
 40
2.0
100
AcDbArc
 50
197.2538531173598
 51
252.7461468826424
  0
ARC
  5
BC8C
330
17
100
AcDbEntity
  8
1外形線
 48
3.0
100
AcDbCircle
 10
1644.49454829569
 20
-1263.29498585851
 30
0.0
 40
0.2
100
AcDbArc
 50
90.0
 51
180.0
  0
ARC
  5
BC8D
330
17
100
AcDbEntity
  8
1外形線
 48
3.0
100
AcDbCircle
 10
1648.294548295688
 20
-1264.094985858511
 30
0.0
 40
1.0
100
AcDbArc
 50
0.0
 51
90.0
  0
LINE
  5
BC8E
330
17
100
AcDbEntity
  8
1外形線
 48
3.0
100
AcDbLine
 10
1648.294548295688
 20
-1263.09498585851
 30
0.0
 11
1644.49454829569
 21
-1263.09498585851
 31
0.0
  0
LINE
  5
BC8F
330
17
100
AcDbEntity
  8
1外形線
 48
3.0
100
AcDbLine
 10
1644.294548295688
 20
-1263.29498585851
 30
0.0
 11
1644.294548295688
 21
-1310.19498585851
 31
0.0
  0
LINE
  5
BC90
330
17
100
AcDbEntity
  8
1外形線
 48
3.0
100
AcDbLine
 10
1649.294548295688
 20
-1264.09498585851
 30
0.0
 11
1649.294548295688
 21
-1310.19498585851
 31
0.0
  0
LINE
  5
BC92
330
17
100
AcDbEntity
  8
1外形線
 48
3.0
100
AcDbLine
 10
1733.071169914032
 20
-1482.996304416523
 30
0.0
 11
1754.771169914034
 21
-1482.996304416523
 31
0.0
  0
LINE
  5
BC93
330
17
100
AcDbEntity
  8
1外形線
 48
3.0
100
AcDbLine
 10
1732.096943267036
 20
-1484.996304416523
 30
0.0
 11
1754.771169914034
 21
-1484.996304416523
 31
0.0
  0
LINE
  5
BC94
330
17
100
AcDbEntity
  8
1外形線
 48
3.0
100
AcDbLine
 10
1732.096943267036
 20
-1534.996304416523
 30
0.0
 11
1754.771169914034
 21
-1534.996304416523
 31
0.0
  0
LINE
  5
BC95
330
17
100
AcDbEntity
  8
1外形線
 48
3.0
100
AcDbLine
 10
1505.294548295688
 20
-1534.996304416523
 30
0.0
 11
1579.51235210874
 21
-1534.996304416524
 31
0.0
  0
LINE
  5
BC96
330
17
100
AcDbEntity
  8
1外形線
 48
3.0
100
AcDbLine
 10
1504.294548295688
 20
-1490.696304416523
 30
0.0
 11
1504.294548295688
 21
-1533.996304416523
 31
0.0
  0
LINE
  5
BC97
330
17
100
AcDbEntity
  8
1外形線
 48
3.0
100
AcDbLine
 10
1509.294548295688
 20
-1495.696304416523
 30
0.0
 11
1509.294548295688
 21
-1534.996304416523
 31
0.0
  0
ARC
  5
BC98
330
17
100
AcDbEntity
  8
1外形線
 48
3.0
100
AcDbCircle
 10
1505.294548295688
 20
-1533.996304416523
 30
0.0
 40
1.0
100
AcDbArc
 50
180.0
 51
270.0
  0
LINE
  5
BC99
330
17
100
AcDbEntity
  8
1外形線
 48
3.0
100
AcDbLine
 10
1504.29454829569
 20
-1490.696304416523
 30
0.0
 11
1504.294548295688
 21
-1495.696304416523
 31
0.0
  0
ARC
  5
BC9A
330
17
100
AcDbEntity
  8
1外形線
 48
3.0
100
AcDbCircle
 10
1732.09989893206
 20
-1510.996304416523
 30
0.0
 40
24.0
100
AcDbArc
 50
180.846674023848
 51
270.0
  0
ARC
  5
BC9B
330
17
100
AcDbEntity
  8
1外形線
 48
3.0
100
AcDbCircle
 10
1732.096943267036
 20
-1510.796304416523
 30
0.0
 40
24.19999999999998
100
AcDbArc
 50
180.846674023848
 51
270.0
  0
LINE
  5
BC9C
330
17
100
AcDbEntity
  8
1外形線
 48
3.0
100
AcDbLine
 10
1648.294548295688
 20
-1484.996304416523
 30
0.0
 11
1624.294548295688
 21
-1484.996304416523
 31
0.0
  0
LINE
  5
BC9D
330
17
100
AcDbEntity
  8
1外形線
 48
3.0
100
AcDbLine
 10
1707.671148075336
 20
-1445.696304416523
 30
0.0
 11
1707.899585460864
 21
-1461.153900837304
 31
0.0
  0
LINE
  5
BC9E
330
17
100
AcDbEntity
  8
1外形線
 48
3.0
100
AcDbLine
 10
1710.771169914034
 20
-1440.696304416523
 30
0.0
 11
1711.071169914031
 21
-1460.996304416522
 31
0.0
  0
LINE
  5
BC9F
330
17
100
AcDbEntity
  8
1外形線
 48
3.0
100
AcDbLine
 10
1707.871178540946
 20
-1445.696304416523
 30
0.0
 11
1707.67115670225
 21
-1445.696304416523
 31
0.0
  0
LINE
  5
BCA0
330
17
100
AcDbEntity
  8
1外形線
 48
3.0
100
AcDbLine
 10
1709.278851290203
 20
-1445.504485685088
 30
0.0
 11
1709.451977901712
 21
-1441.176320397347
 31
0.0
  0
ARC
  5
BCA1
330
17
100
AcDbEntity
  8
1外形線
 48
3.0
100
AcDbCircle
 10
1709.951578381074
 20
-1441.196304416521
 30
0.0
 40
0.5
100
AcDbArc
 50
90.0
 51
177.7093899573604
  0
LINE
  5
BCA2
330
17
100
AcDbEntity
  8
1外形線
 48
3.0
100
AcDbLine
 10
1709.951578381074
 20
-1440.696304416521
 30
0.0
 11
1710.771178540946
 21
-1440.696304416521
 31
0.0
  0
LINE
  5
BCA3
330
17
100
AcDbEntity
  8
1外形線
 48
3.0
100
AcDbLine
 10
1707.871169914034
 20
-1495.696304416523
 30
0.0
 11
1708.102519289576
 21
-1511.350945494984
 31
0.0
  0
LINE
  5
BCA4
330
17
100
AcDbEntity
  8
1外形線
 48
3.0
100
AcDbLine
 10
1707.671148075336
 20
-1495.696304416523
 30
0.0
 11
1707.899585460864
 21
-1511.153900837304
 31
0.0
  0
ARC
  5
BCA5
330
17
100
AcDbEntity
  8
1外形線
 48
3.0
100
AcDbCircle
 10
1722.036142767868
 20
-1486.367686334762
 30
0.0
 40
14.2
100
AcDbArc
 50
174.8480455790489
 51
178.9999999999982
  0
LINE
  5
BCA6
330
17
100
AcDbEntity
  8
1外形線
 48
3.0
100
AcDbLine
 10
1707.671148075336
 20
-1495.696304416523
 30
0.0
 11
1707.838305496646
 21
-1486.119862163355
 31
0.0
  0
LINE
  5
BCA7
330
17
100
AcDbEntity
  8
1外形線
 48
3.0
100
AcDbLine
 10
1707.871169914034
 20
-1495.696304416523
 30
0.0
 11
1707.871169914034
 21
-1485.370919536487
 31
0.0
  0
ARC
  5
BCA8
330
17
100
AcDbEntity
  8
1外形線
 48
3.0
100
AcDbCircle
 10
1732.096943267036
 20
-1460.796304416523
 30
0.0
 40
24.19999999999998
100
AcDbArc
 50
180.846674023848
 51
270.0
  0
LINE
  5
BCA9
330
17
100
AcDbEntity
  8
1外形線
 48
3.0
100
AcDbLine
 10
1707.899927947138
 20
-1461.17707574174
 30
0.0
 11
1707.893510075766
 21
-1485.092562601033
 31
0.0
  0
ARC
  5
BCAA
330
17
100
AcDbEntity
  8
1外形線
 48
3.0
100
AcDbCircle
 10
1733.071169914032
 20
-1460.996304416522
 30
0.0
 40
22.0
100
AcDbArc
 50
180.0
 51
270.0
  0
LINE
  5
BCAB
330
17
100
AcDbEntity
  8
1外形線
 48
3.0
100
AcDbLine
 10
1649.294548295688
 20
-1440.696304416523
 30
0.0
 11
1649.294548295688
 21
-1445.696304416523
 31
0.0
  0
ARC
  5
BCAC
330
17
100
AcDbEntity
  8
1外形線
 48
3.0
100
AcDbCircle
 10
1648.294548295688
 20
-1483.996304416523
 30
0.0
 40
1.0
100
AcDbArc
 50
270.0
 51
0.0
  0
LINE
  5
BCAD
330
17
100
AcDbEntity
  8
1外形線
 48
3.0
100
AcDbLine
 10
1649.294548295688
 20
-1440.696304416523
 30
0.0
 11
1649.294548295688
 21
-1483.996304416523
 31
0.0
  0
LINE
  5
BCAE
330
17
100
AcDbEntity
  8
1外形線
 48
3.0
100
AcDbLine
 10
1644.294548295688
 20
-1445.696304416523
 30
0.0
 11
1644.294548295688
 21
-1484.996304416523
 31
0.0
  0
ARC
  5
BCB0
330
17
100
AcDbEntity
  8
1外形線
 48
3.0
100
AcDbCircle
 10
1777.445389584586
 20
-1510.79630972476
 30
0.0
 40
24.19999999999998
100
AcDbArc
 50
269.9999865865459
 51
359.1533125626922
  0
ARC
  5
BCB1
330
17
100
AcDbEntity
  8
1外形線
 48
3.0
100
AcDbCircle
 10
1777.44243387274
 20
-1510.996309724068
 30
0.0
 40
24.0
100
AcDbArc
 50
269.9999865865459
 51
359.1533125626922
  0
LINE
  5
BCB2
330
17
100
AcDbEntity
  8
1外形線
 48
3.0
100
AcDbLine
 10
1777.44538391915
 20
-1534.996309724759
 30
0.0
 11
1754.771157272156
 21
-1534.996304416522
 31
0.0
  0
LINE
  5
BCB3
330
17
100
AcDbEntity
  8
1外形線
 48
3.0
100
AcDbLine
 10
1799.59077088158
 20
-1440.696314909187
 30
0.0
 11
1798.771170721708
 21
-1440.696314717311
 31
0.0
  0
ARC
  5
BCB4
330
17
100
AcDbEntity
  8
1外形線
 48
3.0
100
AcDbCircle
 10
1799.590770764524
 20
-1441.196314909187
 30
0.0
 40
0.5
100
AcDbArc
 50
2.29059662920222
 51
89.99998658654588
  0
LINE
  5
BCB5
330
17
100
AcDbEntity
  8
1外形線
 48
3.0
100
AcDbLine
 10
1801.671169551164
 20
-1445.696315396228
 30
0.0
 11
1801.87119138986
 21
-1445.696315443055
 31
0.0
  0
LINE
  5
BCB6
330
17
100
AcDbEntity
  8
1外形線
 48
3.0
100
AcDbLine
 10
1798.77117934862
 20
-1440.696314717314
 30
0.0
 11
1798.47117459621
 21
-1460.996314647081
 31
0.0
  0
LINE
  5
BCB7
330
17
100
AcDbEntity
  8
1外形線
 48
3.0
100
AcDbLine
 10
1801.871200016772
 20
-1445.696315443057
 30
0.0
 11
1801.642759012482
 21
-1461.153911810358
 31
0.0
  0
LINE
  5
BCB8
330
17
100
AcDbEntity
  8
1外形線
 48
3.0
100
AcDbLine
 10
1801.67116647263
 20
-1495.696315396229
 30
0.0
 11
1801.671168889896
 21
-1485.370930516193
 31
0.0
  0
LINE
  5
BCB9
330
17
100
AcDbEntity
  8
1外形線
 48
3.0
100
AcDbLine
 10
1801.87118831133
 20
-1495.696315443055
 30
0.0
 11
1801.704033131948
 21
-1486.119873150754
 31
0.0
  0
ARC
  5
BCBA
330
17
100
AcDbEntity
  8
1外形線
 48
3.0
100
AcDbCircle
 10
1787.506195802709
 20
-1486.367693998324
 30
0.0
 40
14.2
100
AcDbArc
 50
0.9999865865631454
 51
5.151941007502331
  0
LINE
  5
BCBB
330
17
100
AcDbEntity
  8
1外形線
 48
3.0
100
AcDbLine
 10
1801.87118831133
 20
-1495.696315443056
 30
0.0
 11
1801.642747307038
 21
-1511.153911810357
 31
0.0
  0
LINE
  5
BCBC
330
17
100
AcDbEntity
  8
1外形線
 48
3.0
100
AcDbLine
 10
1801.67116647263
 20
-1495.696315396229
 30
0.0
 11
1801.439813432196
 21
-1511.350956420528
 31
0.0
  0
ARC
  5
BCBD
330
17
100
AcDbEntity
  8
1外形線
 48
3.0
100
AcDbCircle
 10
1776.47117459621
 20
-1460.996309496686
 30
0.0
 40
22.0
100
AcDbArc
 50
269.9999865865459
 51
359.9999865865458
  0
LINE
  5
BCBE
330
17
100
AcDbEntity
  8
1外形線
 48
3.0
100
AcDbLine
 10
1801.642416520786
 20
-1461.177086714714
 30
0.0
 11
1801.648828793326
 21
-1485.092573575509
 31
0.0
  0
ARC
  5
BCBF
330
17
100
AcDbEntity
  8
1外形線
 48
3.0
100
AcDbCircle
 10
1777.445401290028
 20
-1460.796309724761
 30
0.0
 40
24.19999999999998
100
AcDbArc
 50
269.9999865865459
 51
359.1533125626922
  0
LINE
  5
BCC0
330
17
100
AcDbEntity
  8
1外形線
 48
3.0
100
AcDbLine
 10
1777.445395624594
 20
-1484.996309724761
 30
0.0
 11
1754.771168977598
 21
-1484.996304416522
 31
0.0
  0
LINE
  5
BCC1
330
17
100
AcDbEntity
  8
1外形線
 48
3.0
100
AcDbLine
 10
1776.471169445815
 20
-1482.996309496685
 30
0.0
 11
1754.771169445814
 21
-1482.996304416522
 31
0.0
  0
ARC
  5
BCC2
330
17
100
AcDbEntity
  8
1外形線
 48
3.0
100
AcDbCircle
 10
1579.51235210874
 20
-1529.996304416523
 30
0.0
 40
5.0
100
AcDbArc
 50
270.0
 51
355.011458024451
  0
ARC
  5
BCC3
330
17
100
AcDbEntity
  8
1外形線
 48
3.0
100
AcDbCircle
 10
1636.794548295688
 20
-1534.996304416523
 30
0.0
 40
52.49999999999989
100
AcDbArc
 50
112.6198649480454
 51
175.0114580244509
  0
ARC
  5
BCC4
330
17
100
AcDbEntity
  8
1外形線
 48
3.0
100
AcDbCircle
 10
1624.294548295688
 20
-1504.996304416523
 30
0.0
 40
20.0
100
AcDbArc
 50
90.0
 51
112.6198649480454
  0
LINE
  5
BCC5
330
17
100
AcDbEntity
  8
1外形線
 48
3.0
100
AcDbLine
 10
1504.294548295688
 20
-1495.696304416522
 30
0.0
 11
1527.747540083636
 21
-1495.696304416522
 31
0.0
  0
LINE
  5
BCC6
330
17
100
AcDbEntity
  8
1外形線
 48
3.0
100
AcDbLine
 10
1504.294548295688
 20
-1495.696304416522
 30
0.0
 11
1527.747540083634
 21
-1495.696304416522
 31
0.0
  0
ARC
  5
BCC7
330
17
100
AcDbEntity
  8
1外形線
 48
3.0
100
AcDbCircle
 10
1527.747540083634
 20
-1447.996304416521
 30
0.0
 40
47.70000000000074
100
AcDbArc
 50
270.0
 51
321.4163970276796
  0
LINE
  5
BCC8
330
17
100
AcDbEntity
  8
1外形線
 48
3.0
100
AcDbLine
 10
1649.294548295688
 20
-1445.696304416522
 30
0.0
 11
1624.294548295688
 21
-1445.696304416522
 31
0.0
  0
LINE
  5
BCC9
330
17
100
AcDbEntity
  8
1外形線
 48
3.0
100
AcDbLine
 10
1649.294548295688
 20
-1445.696304416522
 30
0.0
 11
1624.294548295688
 21
-1445.696304416522
 31
0.0
  0
ARC
  5
BCCA
330
17
100
AcDbEntity
  8
1外形線
 48
3.0
100
AcDbCircle
 10
1624.294548295688
 20
-1504.996304416523
 30
0.0
 40
59.30000000000018
100
AcDbArc
 50
90.0
 51
112.6198649480454
  0
ARC
  5
BCCB
330
17
100
AcDbEntity
  8
1外形線
 48
3.0
100
AcDbCircle
 10
1636.794548295688
 20
-1534.996304416523
 30
0.0
 40
91.80000000000005
100
AcDbArc
 50
112.6198649480454
 51
141.4163970276796
  0
LINE
  5
BCCC
330
17
100
AcDbEntity
  8
1外形線
 48
3.0
100
AcDbLine
 10
1779.017372175486
 20
-1412.796315443053
 30
0.0
 11
1754.771160924249
 21
-1412.796315443053
 31
0.0
  0
LINE
  5
BCCD
330
17
100
AcDbEntity
  8
1外形線
 48
3.0
100
AcDbLine
 10
1779.017372175486
 20
-1414.996315443053
 30
0.0
 11
1754.771160924249
 21
-1414.996315443053
 31
0.0
  0
LINE
  5
BCCE
330
17
100
AcDbEntity
  8
1外形線
 48
3.0
100
AcDbLine
 10
1730.524966926838
 20
-1412.796315443053
 30
0.0
 11
1754.771178178076
 21
-1412.796315443053
 31
0.0
  0
LINE
  5
BCCF
330
17
100
AcDbEntity
  8
1外形線
 48
3.0
100
AcDbLine
 10
1730.524966926838
 20
-1414.996315443053
 30
0.0
 11
1754.771178178076
 21
-1414.996315443053
 31
0.0
  0
ARC
  5
BCD0
330
17
100
AcDbEntity
  8
1外形線
 48
3.0
100
AcDbCircle
 10
1738.771178178076
 20
-1442.996315443053
 30
0.0
 40
32.20000000000001
100
AcDbArc
 50
117.26604445074
 51
158.3918650553581
  0
ARC
  5
BCD1
330
17
100
AcDbEntity
  8
1外形線
 48
3.0
100
AcDbCircle
 10
1738.771178178076
 20
-1442.996315443053
 30
0.0
 40
30.0
100
AcDbArc
 50
117.26604445074
 51
151.9842886717291
  0
ARC
  5
BCD2
330
17
100
AcDbEntity
  8
1外形線
 48
3.0
100
AcDbCircle
 10
1722.880439349712
 20
-1434.541469525542
 30
0.0
 40
12.0
100
AcDbArc
 50
151.9842886717291
 51
178.9999999999982
  0
ARC
  5
BCD3
330
17
100
AcDbEntity
  8
1外形線
 48
3.0
100
AcDbCircle
 10
1722.036142404996
 20
-1436.367697361296
 30
0.0
 40
14.2
100
AcDbArc
 50
158.3918650553581
 51
178.9999999999982
  0
LINE
  5
BCD4
330
17
100
AcDbEntity
  8
1外形線
 48
3.0
100
AcDbLine
 10
1710.771178178075
 20
-1440.696315443053
 30
0.0
 11
1710.771178178075
 21
-1442.696315443054
 31
0.0
  0
LINE
  5
BCD5
330
17
100
AcDbEntity
  8
1外形線
 48
3.0
100
AcDbLine
 10
1710.771178178075
 20
-1440.696315443053
 30
0.0
 11
1710.882267007838
 21
-1434.332040648294
 31
0.0
  0
LINE
  5
BCD6
330
17
100
AcDbEntity
  8
1外形線
 48
3.0
100
AcDbLine
 10
1707.871178178075
 20
-1445.696315443054
 30
0.0
 11
1709.079018242022
 21
-1445.696315443053
 31
0.0
  0
LINE
  5
BCD7
330
17
100
AcDbEntity
  8
1外形線
 48
3.0
100
AcDbLine
 10
1707.871178178075
 20
-1445.696315443055
 30
0.0
 11
1707.671156339376
 21
-1445.696315443055
 31
0.0
  0
ARC
  5
BCD8
330
17
100
AcDbEntity
  8
1外形線
 48
3.0
100
AcDbCircle
 10
1709.079018242022
 20
-1445.496315443053
 30
0.0
 40
0.2
100
AcDbArc
 50
270.0
 51
357.7093899573605
  0
LINE
  5
BCD9
330
17
100
AcDbEntity
  8
1外形線
 48
3.0
100
AcDbLine
 10
1707.671147712464
 20
-1445.696315443055
 30
0.0
 11
1707.838305133776
 21
-1436.119873189886
 31
0.0
  0
ARC
  5
BCDA
330
17
100
AcDbEntity
  8
1外形線
 48
3.0
100
AcDbCircle
 10
1730.524966926838
 20
-1426.996315443053
 30
0.0
 40
14.19999999999999
100
AcDbArc
 50
90.0
 51
117.26604445074
  0
ARC
  5
BCDB
330
17
100
AcDbEntity
  8
1外形線
 48
3.0
100
AcDbCircle
 10
1730.524966926838
 20
-1426.996315443053
 30
0.0
 40
12.0
100
AcDbArc
 50
90.0
 51
117.26604445074
  0
ARC
  5
BCDD
330
17
100
AcDbEntity
  8
1外形線
 48
3.0
100
AcDbCircle
 10
1770.771160924249
 20
-1442.996315443053
 30
0.0
 40
32.20000000000001
100
AcDbArc
 50
21.60813494464189
 51
62.73395554925993
  0
ARC
  5
BCDE
330
17
100
AcDbEntity
  8
1外形線
 48
3.0
100
AcDbCircle
 10
1787.506196697328
 20
-1436.367697361296
 30
0.0
 40
14.2
100
AcDbArc
 50
1.000000000001761
 51
21.60813494464189
  0
LINE
  5
BCDF
330
17
100
AcDbEntity
  8
1外形線
 48
3.0
100
AcDbLine
 10
1798.77116092425
 20
-1440.696315443053
 30
0.0
 11
1798.77116092425
 21
-1442.696315443054
 31
0.0
  0
LINE
  5
BCE0
330
17
100
AcDbEntity
  8
1外形線
 48
3.0
100
AcDbLine
 10
1798.77116092425
 20
-1440.696315443053
 30
0.0
 11
1798.660072094488
 21
-1434.332040648294
 31
0.0
  0
ARC
  5
BCE1
330
17
100
AcDbEntity
  8
1外形線
 48
3.0
100
AcDbCircle
 10
1786.661899752612
 20
-1434.541469525542
 30
0.0
 40
12.0
100
AcDbArc
 50
1.000000000001761
 51
28.01571132827085
  0
ARC
  5
BCE2
330
17
100
AcDbEntity
  8
1外形線
 48
3.0
100
AcDbCircle
 10
1770.771160924249
 20
-1442.996315443053
 30
0.0
 40
30.0
100
AcDbArc
 50
28.01571132827085
 51
62.73395554925993
  0
ARC
  5
BCE3
330
17
100
AcDbEntity
  8
1外形線
 48
3.0
100
AcDbCircle
 10
1779.017372175486
 20
-1426.996315443053
 30
0.0
 40
14.19999999999999
100
AcDbArc
 50
62.73395554925993
 51
90.0
  0
ARC
  5
BCE4
330
17
100
AcDbEntity
  8
1外形線
 48
3.0
100
AcDbCircle
 10
1779.017372175486
 20
-1426.996315443053
 30
0.0
 40
12.0
100
AcDbArc
 50
62.73395554925993
 51
90.0
  0
LINE
  5
BCE5
330
17
100
AcDbEntity
  8
1外形線
 48
3.0
100
AcDbLine
 10
1801.67116092425
 20
-1445.696315443054
 30
0.0
 11
1800.4633208603
 21
-1445.696315443053
 31
0.0
  0
LINE
  5
BCE6
330
17
100
AcDbEntity
  8
1外形線
 48
3.0
100
AcDbLine
 10
1801.67116092425
 20
-1445.696315443055
 30
0.0
 11
1801.871182762948
 21
-1445.696315443055
 31
0.0
  0
ARC
  5
BCE7
330
17
100
AcDbEntity
  8
1外形線
 48
3.0
100
AcDbCircle
 10
1800.4633208603
 20
-1445.496315443053
 30
0.0
 40
0.2
100
AcDbArc
 50
182.2906100426395
 51
270.0
  0
LINE
  5
BCE8
330
17
100
AcDbEntity
  8
1外形線
 48
3.0
100
AcDbLine
 10
1801.87119138986
 20
-1445.696315443055
 30
0.0
 11
1801.704033968548
 21
-1436.119873189886
 31
0.0
  0
LINE
  5
BCE9
330
17
100
AcDbEntity
  8
1外形線
 48
3.0
100
AcDbLine
 10
1800.263480668556
 20
-1445.504309050723
 30
0.0
 11
1800.090237116959
 21
-1441.173220260788
 31
0.0
  0
LINE
  5
BCEA
330
17
100
AcDbEntity
  8
1外形線
 48
3.0
100
AcDbLine
 10
1509.294548295688
 20
-1462.996304416521
 30
0.0
 11
1527.747540083634
 21
-1462.996304416521
 31
0.0
  0
ARC
  5
BCEB
330
17
100
AcDbEntity
  8
1外形線
 48
3.0
100
AcDbCircle
 10
1505.29454829569
 20
-1463.79630441652
 30
0.0
 40
1.0
100
AcDbArc
 50
90.0
 51
180.0
  0
LINE
  5
BCEC
330
17
100
AcDbEntity
  8
1外形線
 48
3.0
100
AcDbLine
 10
1505.29454829569
 20
-1462.796304416521
 30
0.0
 11
1509.094548295688
 21
-1462.796304416521
 31
0.0
  0
ARC
  5
BCED
330
17
100
AcDbEntity
  8
1外形線
 48
3.0
100
AcDbCircle
 10
1509.094548295688
 20
-1462.996304416521
 30
0.0
 40
0.2
100
AcDbArc
 50
0.0
 51
90.0
  0
LINE
  5
BCEE
330
17
100
AcDbEntity
  8
1外形線
 48
3.0
100
AcDbLine
 10
1504.294548295688
 20
-1463.79630441652
 30
0.0
 11
1504.294548295688
 21
-1495.696304416522
 31
0.0
  0
LINE
  5
BCEF
330
17
100
AcDbEntity
  8
1外形線
 48
3.0
100
AcDbLine
 10
1509.294548295688
 20
-1462.996304416521
 30
0.0
 11
1509.294548295688
 21
-1495.696304416522
 31
0.0
  0
LINE
  5
BCF0
330
17
100
AcDbEntity
  8
1外形線
 48
3.0
100
AcDbLine
 10
1644.294548295688
 20
-1412.996304416521
 30
0.0
 11
1624.294548295688
 21
-1412.996304416521
 31
0.0
  0
LINE
  5
BCF1
330
17
100
AcDbEntity
  8
1外形線
 48
3.0
100
AcDbLine
 10
1648.294548295688
 20
-1412.796304416521
 30
0.0
 11
1644.49454829569
 21
-1412.796304416521
 31
0.0
  0
ARC
  5
BCF2
330
17
100
AcDbEntity
  8
1外形線
 48
3.0
100
AcDbCircle
 10
1648.294548295688
 20
-1413.796304416521
 30
0.0
 40
1.0
100
AcDbArc
 50
0.0
 51
90.0
  0
ARC
  5
BCF3
330
17
100
AcDbEntity
  8
1外形線
 48
3.0
100
AcDbCircle
 10
1644.49454829569
 20
-1412.996304416521
 30
0.0
 40
0.2
100
AcDbArc
 50
90.0
 51
180.0
  0
LINE
  5
BCF4
330
17
100
AcDbEntity
  8
1外形線
 48
3.0
100
AcDbLine
 10
1649.294548295688
 20
-1440.696304416522
 30
0.0
 11
1649.294548295688
 21
-1445.696304416522
 31
0.0
  0
LINE
  5
BCF5
330
17
100
AcDbEntity
  8
1外形線
 48
3.0
100
AcDbLine
 10
1649.294548295688
 20
-1413.796304416521
 30
0.0
 11
1649.294548295688
 21
-1445.696304416522
 31
0.0
  0
LINE
  5
BCF6
330
17
100
AcDbEntity
  8
1外形線
 48
3.0
100
AcDbLine
 10
1644.294548295688
 20
-1412.996304416521
 30
0.0
 11
1644.29454829569
 21
-1445.696304416522
 31
0.0
  0
LINE
  5
BCF7
330
17
100
AcDbEntity
  8
1外形線
 48
3.0
100
AcDbLine
 10
1504.294548295688
 20
-1495.696304416522
 30
0.0
 11
1527.747540083636
 21
-1495.696304416522
 31
0.0
  0
LINE
  5
BCF8
330
17
100
AcDbEntity
  8
1外形線
 48
3.0
100
AcDbLine
 10
1649.294548295688
 20
-1445.696304416522
 30
0.0
 11
1624.294548295688
 21
-1445.696304416522
 31
0.0
  0
ARC
  5
BCF9
330
17
100
AcDbEntity
  8
1外形線
 48
3.0
100
AcDbCircle
 10
1527.747540083634
 20
-1447.99630441652
 30
0.0
 40
15.0
100
AcDbArc
 50
270.0
 51
321.4163970276806
  0
ARC
  5
BCFA
330
17
100
AcDbEntity
  8
1外形線
 48
3.0
100
AcDbCircle
 10
1636.794548295688
 20
-1534.996304416522
 30
0.0
 40
124.5000000000012
100
AcDbArc
 50
112.6198649480451
 51
141.4163970276806
  0
ARC
  5
BCFB
330
17
100
AcDbEntity
  8
1外形線
 48
3.0
100
AcDbCircle
 10
1624.294548295688
 20
-1504.996304416522
 30
0.0
 40
92.00000000000136
100
AcDbArc
 50
90.0
 51
112.6198649480451
  0
ELLIPSE
  5
BDE4
330
17
100
AcDbEntity
  8
1外形線
100
AcDbEllipse
 10
1531.794548295688
 20
-1471.163379704622
 30
0.0
 11
0.0
 21
7.093012195123262
 31
0.0
210
0.0
220
0.0
230
1.0
 40
0.6344272188188164
 41
4.712388980384688
 42
7.853981633974482
  0
LINE
  5
BDE5
330
17
100
AcDbEntity
  8
1外形線
100
AcDbLine
 10
1527.294548295689
 20
-1483.19630441652
 30
0.0
 11
1536.294548295688
 21
-1483.19630441652
 31
0.0
  0
LINE
  5
BDE6
330
17
100
AcDbEntity
  8
1外形線
100
AcDbLine
 10
1527.294548295689
 20
-1483.19630441652
 30
0.0
 11
1527.294548295689
 21
-1471.163379704622
 31
0.0
  0
LINE
  5
BDE7
330
17
100
AcDbEntity
  8
1外形線
100
AcDbLine
 10
1536.294548295688
 20
-1483.19630441652
 30
0.0
 11
1536.294548295688
 21
-1471.163379704622
 31
0.0
  0
LINE
  5
BDE8
330
17
100
AcDbEntity
  8
1外形線
100
AcDbLine
 10
1627.294548295688
 20
-1433.19630441652
 30
0.0
 11
1627.294548295688
 21
-1421.163379704622
 31
0.0
  0
LINE
  5
BDE9
330
17
100
AcDbEntity
  8
1外形線
100
AcDbLine
 10
1618.294548295688
 20
-1433.19630441652
 30
0.0
 11
1618.294548295688
 21
-1421.163379704622
 31
0.0
  0
LINE
  5
BDEA
330
17
100
AcDbEntity
  8
1外形線
100
AcDbLine
 10
1618.294548295688
 20
-1433.19630441652
 30
0.0
 11
1627.294548295688
 21
-1433.19630441652
 31
0.0
  0
ELLIPSE
  5
BDEB
330
17
100
AcDbEntity
  8
1外形線
100
AcDbEllipse
 10
1622.794548295688
 20
-1421.163379704622
 30
0.0
 11
0.0
 21
7.093012195123262
 31
0.0
210
0.0
220
0.0
230
1.0
 40
0.6344272188188164
 41
4.712388980384688
 42
7.853981633974482
  0
LINE
  5
BDF3
330
17
100
AcDbEntity
  8
2寸法線
 48
2.0
100
AcDbLine
 10
1754.771160924249
 20
-1393.851205157181
 30
0.0
 11
1754.771160924249
 21
-1555.383526713736
 31
0.0
  0
ENDSEC
  0
SECTION
  2
OBJECTS
  0
DICTIONARY
  5
C
330
0
100
AcDbDictionary
281
     1
  3
ACAD_COLOR
350
869D
  3
ACAD_GROUP
350
D
  3
ACAD_LAYOUT
350
7DCF
  3
ACAD_MATERIAL
350
869C
  3
ACAD_MLINESTYLE
350
1A
  3
ACAD_PLOTSETTINGS
350
7DD0
  3
ACAD_PLOTSTYLENAME
350
7DCD
  3
ACAD_TABLESTYLE
350
869E
  3
ACDBHEADERROUNDTRIPXREC
350
BE59
  3
ACDBVARIABLEDICTIONARY
350
51
  0
DICTIONARY
  5
8B8C
330
2
100
AcDbDictionary
280
     1
281
     1
  3
ACAD_LAYERSTATES
360
8B8D
  0
DICTIONARY
  5
46FA
330
17
100
AcDbDictionary
280
     1
281
     1
  3
ACAD_LAYOUTSELFREF
360
7FBB
  3
ACAD_SORTENTS
360
46FB
  0
DICTIONARY
  5
7F4E
330
14
100
AcDbDictionary
280
     1
281
     1
  3
ACAD_LAYOUTSELFREF
360
7FBA
  0
DICTIONARY
  5
869D
102
{ACAD_REACTORS
330
C
102
}
330
C
100
AcDbDictionary
281
     1
  0
DICTIONARY
  5
D
102
{ACAD_REACTORS
330
C
102
}
330
C
100
AcDbDictionary
281
     1
  3
*A1
350
B6DB
  3
*A2
350
BACC
  0
DICTIONARY
  5
7DCF
102
{ACAD_REACTORS
330
C
102
}
330
C
100
AcDbDictionary
281
     1
  3
Model
350
7DD1
  3
ﾚｲｱｳﾄ1
350
7DD2
  0
DICTIONARY
  5
869C
102
{ACAD_REACTORS
330
C
102
}
330
C
100
AcDbDictionary
281
     1
  0
DICTIONARY
  5
1A
102
{ACAD_REACTORS
330
C
102
}
330
C
100
AcDbDictionary
281
     1
  3
STANDARD
350
1B
  0
DICTIONARY
  5
7DD0
102
{ACAD_REACTORS
330
C
102
}
330
C
100
AcDbDictionary
281
     1
  0
ACDBDICTIONARYWDFLT
  5
7DCD
102
{ACAD_REACTORS
330
C
102
}
330
C
100
AcDbDictionary
281
     1
  3
Normal
350
7DCE
100
AcDbDictionaryWithDefault
340
7DCE
  0
DICTIONARY
  5
869E
102
{ACAD_REACTORS
330
C
102
}
330
C
100
AcDbDictionary
281
     1
  3
Standard
350
869F
  0
DICTIONARY
  5
BE59
102
{ACAD_REACTORS
330
C
102
}
330
C
100
AcDbDictionary
281
     1
  0
DICTIONARY
  5
51
102
{ACAD_REACTORS
330
C
102
}
330
C
100
AcDbDictionary
281
     1
  3
CTABLESTYLE
350
86BC
  3
DIMADEC
350
52
  3
DIMASSOC
350
7DDA
  3
PROJECTNAME
350
86BD
  3
SORTENTS
350
457F
  0
DICTIONARY
  5
8B8D
102
{ACAD_REACTORS
330
8B8C
102
}
330
8B8C
100
AcDbDictionary
281
     1
  0
XRECORD
  5
7FBB
102
{ACAD_REACTORS
330
46FA
102
}
330
46FA
100
AcDbXrecord
280
     1
340
17
  0
SORTENTSTABLE
  5
46FB
102
{ACAD_REACTORS
330
46FA
102
}
330
46FA
100
AcDbSortentsTable
330
17
  0
XRECORD
  5
7FBA
102
{ACAD_REACTORS
330
7F4E
102
}
330
7F4E
100
AcDbXrecord
280
     1
340
14
  0
GROUP
  5
B6DB
102
{ACAD_REACTORS
330
D
102
}
330
D
100
AcDbGroup
300

 70
     1
 71
     1
  0
GROUP
  5
BACC
102
{ACAD_REACTORS
330
D
102
}
330
D
100
AcDbGroup
300

 70
     1
 71
     1
  0
LAYOUT
  5
7DD1
102
{ACAD_XDICTIONARY
360
BE5A
102
}
102
{ACAD_REACTORS
330
7DCF
102
}
330
7DCF
100
AcDbPlotSettings
  1

  2
PrimoPDF
  4
A3
  6

 40
3.174999952316281
 41
3.174999952316281
 42
3.17498779296875
 43
3.17498779296875
 44
297.0530090332031
 45
420.1583251953125
 46
-3.149999999999999
 47
-3.1
 48
452.103531874829
 49
161.7459580894186
140
872.103531874829
141
458.7459580894186
142
1.0
143
1.0
 70
 11956
 72
     1
 73
     1
 74
     4
  7
INABA-CAD-Canon.ctb
 75
    16
147
1.0
148
-452.103531874829
149
-161.7459580894186
100
AcDbLayout
  1
Model
 70
     1
 71
     0
 10
0.0
 20
0.0
 11
12.0
 21
9.0
 12
0.0
 22
0.0
 32
0.0
 14
0.0
 24
0.0
 34
0.0
 15
0.0
 25
0.0
 35
0.0
146
0.0
 13
0.0
 23
0.0
 33
0.0
 16
1.0
 26
0.0
 36
0.0
 17
0.0
 27
1.0
 37
0.0
 76
     0
330
17
  0
LAYOUT
  5
7DD2
102
{ACAD_XDICTIONARY
360
BE5C
102
}
102
{ACAD_REACTORS
330
7DCF
102
}
330
7DCF
100
AcDbPlotSettings
  1

  2
Canon LASER SHOT LBP-1710
  4

  6

 40
0.0
 41
0.0
 42
0.0
 43
0.0
 44
0.0
 45
0.0
 46
0.0
 47
0.0
 48
0.0
 49
0.0
140
0.0
141
0.0
142
1.0
143
1.0
 70
   688
 72
     0
 73
     0
 74
     5
  7
INABA-CAD-Canon.ctb
 75
    16
147
1.0
148
0.0
149
0.0
100
AcDbLayout
  1
ﾚｲｱｳﾄ1
 70
     0
 71
     1
 10
0.0
 20
0.0
 11
12.0
 21
9.0
 12
0.0
 22
0.0
 32
0.0
 14
1.000000000000000E+20
 24
1.000000000000000E+20
 34
1.000000000000000E+20
 15
-1.000000000000000E+20
 25
-1.000000000000000E+20
 35
-1.000000000000000E+20
146
0.0
 13
0.0
 23
0.0
 33
0.0
 16
1.0
 26
0.0
 36
0.0
 17
0.0
 27
1.0
 37
0.0
 76
     0
330
14
  0
MLINESTYLE
  5
1B
102
{ACAD_REACTORS
330
1A
102
}
330
1A
100
AcDbMlineStyle
  2
STANDARD
 70
     0
  3

 62
   256
 51
90.0
 52
90.0
 71
     2
 49
0.5
 62
   256
  6
BYLAYER
 49
-0.5
 62
   256
  6
BYLAYER
  0
ACDBPLACEHOLDER
  5
7DCE
102
{ACAD_REACTORS
330
7DCD
102
}
330
7DCD
  0
TABLESTYLE
  5
869F
102
{ACAD_REACTORS
330
869E
102
}
330
869E
100
AcDbTableStyle
  3
Standard
 70
     0
 71
     0
 40
0.06
 41
0.06
280
     0
281
     0
  7
STANDARD
140
0.18
170
     2
 62
     0
 63
     7
283
     0
274
    -2
284
     1
 64
     0
275
    -2
285
     1
 65
     0
276
    -2
286
     1
 66
     0
277
    -2
287
     1
 67
     0
278
    -2
288
     1
 68
     0
279
    -2
289
     1
 69
     0
  7
STANDARD
140
0.25
170
     5
 62
     0
 63
     7
283
     0
274
    -2
284
     1
 64
     0
275
    -2
285
     1
 65
     0
276
    -2
286
     1
 66
     0
277
    -2
287
     1
 67
     0
278
    -2
288
     1
 68
     0
279
    -2
289
     1
 69
     0
  7
STANDARD
140
0.18
170
     5
 62
     0
 63
     7
283
     0
274
    -2
284
     1
 64
     0
275
    -2
285
     1
 65
     0
276
    -2
286
     1
 66
     0
277
    -2
287
     1
 67
     0
278
    -2
288
     1
 68
     0
279
    -2
289
     1
 69
     0
  0
DICTIONARYVAR
  5
86BC
102
{ACAD_REACTORS
330
51
102
}
330
51
100
DictionaryVariables
280
     0
  1
STANDARD
  0
DICTIONARYVAR
  5
52
102
{ACAD_REACTORS
330
51
102
}
330
51
100
DictionaryVariables
280
     0
  1
0
  0
DICTIONARYVAR
  5
7DDA
102
{ACAD_REACTORS
330
51
102
}
330
51
100
DictionaryVariables
280
     0
  1
1
  0
DICTIONARYVAR
  5
86BD
102
{ACAD_REACTORS
330
51
102
}
330
51
100
DictionaryVariables
280
     0
  1

  0
DICTIONARYVAR
  5
457F
102
{ACAD_REACTORS
330
51
102
}
330
51
100
DictionaryVariables
280
     0
  1
127
  0
DICTIONARY
  5
BE5A
330
7DD1
100
AcDbDictionary
280
     1
281
     1
  3
ACAD_XREC_ROUNDTRIP
360
BE5B
  0
DICTIONARY
  5
BE5C
330
7DD2
100
AcDbDictionary
280
     1
281
     1
  3
ACAD_XREC_ROUNDTRIP
360
BE5D
  0
XRECORD
  5
BE5B
102
{ACAD_REACTORS
330
BE5A
102
}
330
BE5A
100
AcDbXrecord
280
     1
102
SHADEPLOT
 70
     0
102
SHADEPLOTRESLEVEL
 70
     2
102
SHADEPLOTCUSTOMDPI
 70
   300
  0
XRECORD
  5
BE5D
102
{ACAD_REACTORS
330
BE5C
102
}
330
BE5C
100
AcDbXrecord
280
     1
102
SHADEPLOT
 70
     0
102
SHADEPLOTRESLEVEL
 70
     2
102
SHADEPLOTCUSTOMDPI
 70
   300
  0
ENDSEC
  0
EOF
