  0
SECTION
  2
HEADER
  9
$ACADVER
  1
AC1009
  9
$INSBASE
 10
0.0
 20
0.0
 30
0.0
  9
$EXTMIN
 10
185.73046132513161
 20
-3915.776725090403
 30
0.0
  9
$EXTMAX
 10
486.64201581674348
 20
-3686.569849495404
 30
0.0
  9
$LIMMIN
 10
0.0
 20
0.0
  9
$LIMMAX
 10
420.0
 20
297.0
  9
$ORTHOMODE
 70
     1
  9
$REGENMODE
 70
     1
  9
$FILLMODE
 70
     1
  9
$QTEXTMODE
 70
     0
  9
$MIRRTEXT
 70
     1
  9
$DRAGMODE
 70
     2
  9
$LTSCALE
 40
1.0
  9
$OSMODE
 70
    37
  9
$ATTMODE
 70
     1
  9
$TEXTSIZE
 40
2.5
  9
$TRACEWID
 40
1.0
  9
$TEXTSTYLE
  7
KANJI
  9
$CLAYER
  8
2寸法線
  9
$CELTYPE
  6
BYLAYER
  9
$CECOLOR
 62
   256
  9
$DIMSCALE
 40
0.0
  9
$DIMASZ
 40
1.8
  9
$DIMEXO
 40
1.0
  9
$DIMDLI
 40
0.0
  9
$DIMRND
 40
0.0
  9
$DIMDLE
 40
0.0
  9
$DIMEXE
 40
1.0
  9
$DIMTP
 40
0.0
  9
$DIMTM
 40
0.0
  9
$DIMTXT
 40
2.5
  9
$DIMCEN
 40
0.0
  9
$DIMTSZ
 40
0.0
  9
$DIMTOL
 70
     0
  9
$DIMLIM
 70
     0
  9
$DIMTIH
 70
     0
  9
$DIMTOH
 70
     0
  9
$DIMSE1
 70
     0
  9
$DIMSE2
 70
     0
  9
$DIMTAD
 70
     1
  9
$DIMZIN
 70
     8
  9
$DIMBLK
  1

  9
$DIMASO
 70
     1
  9
$DIMSHO
 70
     1
  9
$DIMPOST
  1

  9
$DIMAPOST
  1

  9
$DIMALT
 70
     0
  9
$DIMALTD
 70
     2
  9
$DIMALTF
 40
25.399999999999999
  9
$DIMLFAC
 40
1.0
  9
$DIMTOFL
 70
     1
  9
$DIMTVP
 40
0.0
  9
$DIMTIX
 70
     0
  9
$DIMSOXD
 70
     0
  9
$DIMSAH
 70
     1
  9
$DIMBLK1
  1
2
  9
$DIMBLK2
  1
2
  9
$DIMSTYLE
  2
M
  9
$DIMCLRD
 70
     0
  9
$DIMCLRE
 70
     0
  9
$DIMCLRT
 70
     0
  9
$DIMTFAC
 40
1.0
  9
$DIMGAP
 40
0.5
  9
$LUNITS
 70
     2
  9
$LUPREC
 70
     3
  9
$SKETCHINC
 40
1.0
  9
$FILLETRAD
 40
0.0
  9
$AUNITS
 70
     0
  9
$AUPREC
 70
     1
  9
$MENU
  1
.
  9
$ELEVATION
 40
0.0
  9
$PELEVATION
 40
0.0
  9
$THICKNESS
 40
0.0
  9
$LIMCHECK
 70
     0
  9
$BLIPMODE
 70
     0
  9
$CHAMFERA
 40
10.0
  9
$CHAMFERB
 40
10.0
  9
$SKPOLY
 70
     0
  9
$TDCREATE
 40
2454393.806994895
  9
$TDUPDATE
 40
2454396.502583541
  9
$TDINDWG
 40
0.0747777431
  9
$TDUSRTIMER
 40
0.0747775579
  9
$USRTIMER
 70
     1
  9
$ANGBASE
 50
0.0
  9
$ANGDIR
 70
     0
  9
$PDMODE
 70
     0
  9
$PDSIZE
 40
0.0
  9
$PLINEWID
 40
0.0
  9
$COORDS
 70
     0
  9
$SPLFRAME
 70
     0
  9
$SPLINETYPE
 70
     6
  9
$SPLINESEGS
 70
     8
  9
$ATTDIA
 70
     1
  9
$ATTREQ
 70
     1
  9
$HANDLING
 70
     1
  9
$HANDSEED
  5
A2D6
  9
$SURFTAB1
 70
     6
  9
$SURFTAB2
 70
     6
  9
$SURFTYPE
 70
     6
  9
$SURFU
 70
     6
  9
$SURFV
 70
     6
  9
$UCSNAME
  2

  9
$UCSORG
 10
0.0
 20
0.0
 30
0.0
  9
$UCSXDIR
 10
1.0
 20
0.0
 30
0.0
  9
$UCSYDIR
 10
0.0
 20
1.0
 30
0.0
  9
$PUCSNAME
  2

  9
$PUCSORG
 10
0.0
 20
0.0
 30
0.0
  9
$PUCSXDIR
 10
1.0
 20
0.0
 30
0.0
  9
$PUCSYDIR
 10
0.0
 20
1.0
 30
0.0
  9
$USERI1
 70
     0
  9
$USERI2
 70
     0
  9
$USERI3
 70
     0
  9
$USERI4
 70
     0
  9
$USERI5
 70
     0
  9
$USERR1
 40
0.0
  9
$USERR2
 40
0.0
  9
$USERR3
 40
0.0
  9
$USERR4
 40
0.0
  9
$USERR5
 40
0.0
  9
$WORLDVIEW
 70
     1
  9
$SHADEDGE
 70
     3
  9
$SHADEDIF
 70
    70
  9
$TILEMODE
 70
     1
  9
$MAXACTVP
 70
    48
  9
$PLIMCHECK
 70
     0
  9
$PEXTMIN
 10
1.0000000000000000E+020
 20
1.0000000000000000E+020
 30
1.0000000000000000E+020
  9
$PEXTMAX
 10
-1.0000000000000000E+020
 20
-1.0000000000000000E+020
 30
-1.0000000000000000E+020
  9
$PLIMMIN
 10
0.0
 20
0.0
  9
$PLIMMAX
 10
420.0
 20
297.0
  9
$UNITMODE
 70
     0
  9
$VISRETAIN
 70
     1
  9
$PLINEGEN
 70
     0
  9
$PSLTSCALE
 70
     1
  0
ENDSEC
  0
SECTION
  2
TABLES
  0
TABLE
  2
VPORT
 70
     3
  0
VPORT
  2
*ACTIVE
 70
     0
 10
0.0
 20
0.0
 11
1.0
 21
1.0
 12
354.16242031762482
 22
-3790.2281307594249
 13
0.0
 23
0.0
 14
10.0
 24
10.0
 15
10.0
 25
10.0
 16
0.0
 26
0.0
 36
1.0
 17
0.0
 27
0.0
 37
0.0
 40
248.61396932796239
 41
1.5937904269081491
 42
50.0
 43
0.0
 44
0.0
 50
0.0
 51
0.0
 71
     0
 72
   100
 73
     1
 74
     1
 75
     0
 76
     0
 77
     0
 78
     0
  0
ENDTAB
  0
TABLE
  2
LTYPE
 70
     4
  0
LTYPE
  2
CONTINUOUS
 70
     0
  3
Solid line
 72
    65
 73
     0
 40
0.0
  0
ENDTAB
  0
TABLE
  2
LAYER
 70
    11
  0
LAYER
  2
0
 70
     0
 62
     7
  6
CONTINUOUS
  0
LAYER
  2
2寸法線
 70
     0
 62
     2
  6
CONTINUOUS
  0
LAYER
  2
1外形線
 70
     0
 62
     3
  6
CONTINUOUS
  0
LAYER
  2
DEFPOINTS
 70
     0
 62
     7
  6
CONTINUOUS
  0
ENDTAB
  0
TABLE
  2
STYLE
 70
     4
  0
STYLE
  2
STANDARD
 70
     0
 40
0.0
 41
1.0
 50
0.0
 71
     0
 42
2.5
  3
txt
  4

  0
STYLE
  2
KANJI
 70
     0
 40
0.0
 41
1.0
 50
0.0
 71
     0
 42
2.5
  3
simplex.shx
  4
bigfont.shx
  0
ENDTAB
  0
TABLE
  2
VIEW
 70
     0
  0
ENDTAB
  0
TABLE
  2
UCS
 70
     0
  0
ENDTAB
  0
TABLE
  2
APPID
 70
     1
  0
APPID
  2
ACAD
 70
     0
  0
ENDTAB
  0
TABLE
  2
DIMSTYLE
 70
     5
  0
DIMSTYLE
  2
STANDARD
 70
     0
  3

  4

  5

  6

  7

 40
1.0
 41
0.18
 42
0.0625
 43
0.38
 44
0.18
 45
0.0
 46
0.0
 47
0.0
 48
0.0
140
0.18
141
0.09
142
0.0
143
25.399999999999999
144
1.0
145
0.0
146
1.0
147
0.09
 71
     0
 72
     0
 73
     0
 74
     0
 75
     0
 76
     0
 77
     0
 78
     0
170
     0
171
     2
172
     1
173
     0
174
     0
175
     0
176
     0
177
     0
178
     0
  0
DIMSTYLE
  2
M
 70
     0
  3

  4

  5

  6

  7

 40
0.0
 41
2.0
 42
1.0
 43
0.0
 44
1.0
 45
0.0
 46
0.0
 47
0.0
 48
0.0
140
2.5
141
0.0
142
0.0
143
25.399999999999999
144
1.0
145
0.0
146
1.0
147
0.5
 71
     0
 72
     0
 73
     0
 74
     0
 75
     0
 76
     0
 77
     1
 78
     8
170
     0
171
     2
172
     1
173
     1
174
     0
175
     0
176
     0
177
     0
178
     0
  0
ENDTAB
  0
ENDSEC
  0
SECTION
  2
BLOCKS
  0
BLOCK
  8
0
  2
$MODEL_SPACE
 70
     0
 10
0.0
 20
0.0
 30
0.0
  3
$MODEL_SPACE
  1

  0
ENDBLK
  5
9CDB
  8
0
  0
BLOCK
 67
     1
  8
0
  2
$PAPER_SPACE
 70
     0
 10
0.0
 20
0.0
 30
0.0
  3
$PAPER_SPACE
  1

  0
ENDBLK
  5
9CD7
 67
     1
  8
0
  0
BLOCK
  8
0
  2
2
 70
     0
 10
0.0
 20
0.0
 30
0.0
  3
2
  1

  0
INSERT
  5
131
  8
0
  6
CONTINUOUS
 62
     0
  2
*U3
 10
0.0
 20
0.0
 30
0.0
1001
ACAD
1002
{
1000
R14_HATCH_DATA
1000
131
1011
1.0
1021
4.0917382627877661E+149
1031
0.0
1021
0.0
1031
0.0
1011
0.0
1021
4.0917382627877661E+149
1031
0.0
1021
1.0
1031
0.0
1011
0.0
1021
4.0917382627877661E+149
1031
0.0
1021
0.0
1031
1.0
1040
0.0
1010
0.0
1020
0.0
1030
1.0
1000
SOLID
1070
     1
1070
     0
1071
        1
1071
        1
1071
        3
1070
     1
1040
-0.9999999999983517
1040
0.2679491924306774
1040
0.0
1040
0.0
1070
     1
1040
0.0
1040
0.0
1040
-0.9999999999983517
1040
-0.2679491924306765
1070
     1
1040
-0.9999999999983524
1040
-0.267949192430676
1040
-0.9999999999983524
1040
0.2679491924306774
1071
        0
1070
     0
1070
     1
1071
        1
1040
2.9957451172313361
1040
-4.1249460962632014
1040
0.0
1002
}
  0
ENDBLK
  5
132
  8
0
  0
BLOCK
  8
0
  2
*U3
 70
     1
 10
0.0
 20
0.0
 30
0.0
  3
*U3
  1

  0
SOLID
  5
9B2D
  8
0
  6
CONTINUOUS
 62
     0
 10
0.666666666665568
 20
0.0000000000000004
 30
0.0
 11
0.9999999999983517
 21
0.2679491924306774
 31
0.0
 12
0.0
 22
0.0
 32
0.0
 13
0.0
 23
0.0
 33
0.0
210
0.0
220
0.0
230
-1.0
  0
SOLID
  5
9B2E
  8
0
  6
CONTINUOUS
 62
     0
 10
0.666666666665568
 20
0.0000000000000004
 30
0.0
 11
0.0
 21
0.0
 31
0.0
 12
0.9999999999983524
 22
-0.267949192430676
 32
0.0
 13
0.9999999999983524
 23
-0.267949192430676
 33
0.0
210
0.0
220
0.0
230
-1.0
  0
SOLID
  5
9B2F
  8
0
  6
CONTINUOUS
 62
     0
 10
0.666666666665568
 20
0.0000000000000004
 30
0.0
 11
0.9999999999983524
 21
-0.267949192430676
 31
0.0
 12
0.9999999999983517
 22
0.2679491924306774
 32
0.0
 13
0.9999999999983517
 23
0.2679491924306774
 33
0.0
210
0.0
220
0.0
230
-1.0
  0
ENDBLK
  5
9B31
  8
0
  0
ENDSEC
  0
SECTION
  2
ENTITIES
  0
LINE
  5
9718
  8
1外形線
 10
239.85770764100519
 20
-3751.2566308379451
 30
0.0
 11
286.85770764100522
 21
-3751.2566308379442
 31
0.0
  0
LINE
  5
9719
  8
1外形線
 10
239.85770764100519
 20
-3756.2566308379442
 30
0.0
 11
286.85770764100522
 21
-3756.2566308379442
 31
0.0
  0
LINE
  5
975D
  8
1外形線
 10
239.85770764100519
 20
-3701.2566308379442
 30
0.0
 11
286.85770764100522
 21
-3701.2566308379442
 31
0.0
  0
LINE
  5
975E
  8
1外形線
 10
239.85770764100519
 20
-3696.2566308379442
 30
0.0
 11
286.85770764100522
 21
-3696.2566308379451
 31
0.0
  0
LINE
  5
A2A5
  8
2寸法線
 10
286.85770764100522
 20
-3806.709985685919
 30
0.0
 11
286.85770764100522
 21
-3902.6796770574979
 31
0.0
  0
LINE
  5
A2A6
  8
2寸法線
 10
286.85770764100522
 20
-3765.2947143099441
 30
0.0
 11
286.85770764100522
 21
-3686.569849495404
 31
0.0
  0
LINE
  5
A2A7
  8
1外形線
 10
286.85771626791728
 20
-3891.6824572228838
 30
0.0
 11
263.85770764100522
 21
-3891.6824572228838
 31
0.0
  0
LINE
  5
A2A8
  8
1外形線
 10
239.85770764100519
 20
-3844.6824572228838
 30
0.0
 11
239.85770764100519
 21
-3867.6824572228829
 31
0.0
  0
LINE
  5
A2A9
  8
1外形線
 10
286.85771626791728
 20
-3818.6824572228829
 30
0.0
 11
265.85770764100522
 21
-3818.6824572228838
 31
0.0
  0
ARC
  5
A2AA
  8
1外形線
 10
265.85770764100522
 20
-3844.6824572228838
 30
0.0
 40
26.0
 50
90.0
 51
180.0
  0
ARC
  5
A2AB
  8
1外形線
 10
263.85770764100522
 20
-3867.6824572228829
 30
0.0
 40
24.0
 50
180.0
 51
270.0
  0
LINE
  5
A2AC
  8
1外形線
 10
286.85771626791728
 20
-3891.6824572228838
 30
0.0
 11
309.8577248948294
 21
-3891.6824572228838
 31
0.0
  0
LINE
  5
A2AD
  8
1外形線
 10
286.85771626791728
 20
-3818.6824572228829
 30
0.0
 11
307.8577248948294
 21
-3818.6824572228838
 31
0.0
  0
ARC
  5
A2AE
  8
1外形線
 10
309.8577248948294
 20
-3867.6824572228829
 30
0.0
 40
24.0
 50
270.0
 51
0.000000000000007
  0
ARC
  5
A2AF
  8
1外形線
 10
307.8577248948294
 20
-3844.6824572228838
 30
0.0
 40
26.0
 50
0.000000000000007
 51
90.0
  0
LINE
  5
A2B0
  8
1外形線
 10
333.85772489482929
 20
-3844.6824572228838
 30
0.0
 11
333.85772489482929
 21
-3867.6824572228829
 31
0.0
  0
LINE
  5
A2B1
  8
1外形線
 10
239.85770764100519
 20
-3696.2566308379442
 30
0.0
 11
239.85770764100519
 21
-3756.2566308379442
 31
0.0
  0
LINE
  5
A2B2
  8
1外形線
 10
333.85770764100522
 20
-3756.2566308379442
 30
0.0
 11
286.85770764100522
 21
-3756.2566308379442
 31
0.0
  0
LINE
  5
A2B3
  8
1外形線
 10
333.85770764100522
 20
-3751.2566308379451
 30
0.0
 11
286.85770764100522
 21
-3751.2566308379442
 31
0.0
  0
LINE
  5
A2B4
  8
1外形線
 10
333.85770764100522
 20
-3696.2566308379442
 30
0.0
 11
286.85770764100522
 21
-3696.2566308379451
 31
0.0
  0
LINE
  5
A2B5
  8
1外形線
 10
333.85770764100522
 20
-3701.2566308379442
 30
0.0
 11
286.85770764100522
 21
-3701.2566308379442
 31
0.0
  0
LINE
  5
A2B6
  8
1外形線
 10
333.85770764100522
 20
-3696.2566308379442
 30
0.0
 11
333.85770764100522
 21
-3756.2566308379442
 31
0.0
  0
LINE
  5
A2C4
  8
1外形線
 10
398.3753970518045
 20
-3818.6824572228838
 30
0.0
 11
458.3753970518045
 21
-3818.6824572228829
 31
0.0
  0
LINE
  5
A2C5
  8
1外形線
 10
398.3753970518045
 20
-3891.6824572228838
 30
0.0
 11
458.37539705180438
 21
-3891.6824572228829
 31
0.0
  0
LINE
  5
A2C6
  8
1外形線
 10
398.3753970518045
 20
-3818.6824572228838
 30
0.0
 11
398.3753970518045
 21
-3891.6824572228838
 31
0.0
  0
LINE
  5
A2C7
  8
1外形線
 10
458.3753970518045
 20
-3818.6824572228829
 30
0.0
 11
458.37539705180438
 21
-3891.6824572228829
 31
0.0
  0
LINE
  5
A2C8
  8
1外形線
 10
403.3753970518045
 20
-3818.6824572228838
 30
0.0
 11
403.3753970518045
 21
-3891.6824572228838
 31
0.0
  0
LINE
  5
A2C9
  8
1外形線
 10
453.3753970518045
 20
-3818.6824572228829
 30
0.0
 11
453.37539705180438
 21
-3891.6824572228829
 31
0.0
  0
ENDSEC
  0
EOF
