  0
SECTION
  2
HEADER
  9
$ACADVER
  1
AC1015
  9
$ACADMAINTVER
 70
    14
  9
$DWGCODEPAGE
  3
ANSI_932
  9
$INSBASE
 10
0.0
 20
0.0
 30
0.0
  9
$EXTMIN
 10
11.35068772440024
 20
22.54169022222389
 30
0.0
  9
$EXTMAX
 10
507.0359101835501
 20
288.955403402947
 30
0.0
  9
$LIMMIN
 10
0.0
 20
0.0
  9
$LIMMAX
 10
420.0
 20
297.0
  9
$ORTHOMODE
 70
     1
  9
$REGENMODE
 70
     1
  9
$FILLMODE
 70
     1
  9
$QTEXTMODE
 70
     0
  9
$MIRRTEXT
 70
     1
  9
$LTSCALE
 40
1.0
  9
$ATTMODE
 70
     1
  9
$TEXTSIZE
 40
2.5
  9
$TRACEWID
 40
1.0
  9
$TEXTSTYLE
  7
KANJI
  9
$CLAYER
  8
2寸法線
  9
$CELTYPE
  6
ByLayer
  9
$CECOLOR
 62
   256
  9
$CELTSCALE
 40
1.0
  9
$DISPSILH
 70
     0
  9
$DIMSCALE
 40
0.0
  9
$DIMASZ
 40
1.8
  9
$DIMEXO
 40
1.0
  9
$DIMDLI
 40
0.0
  9
$DIMRND
 40
0.0
  9
$DIMDLE
 40
0.0
  9
$DIMEXE
 40
1.0
  9
$DIMTP
 40
0.0
  9
$DIMTM
 40
0.0
  9
$DIMTXT
 40
2.5
  9
$DIMCEN
 40
0.0
  9
$DIMTSZ
 40
0.0
  9
$DIMTOL
 70
     0
  9
$DIMLIM
 70
     0
  9
$DIMTIH
 70
     0
  9
$DIMTOH
 70
     0
  9
$DIMSE1
 70
     0
  9
$DIMSE2
 70
     0
  9
$DIMTAD
 70
     1
  9
$DIMZIN
 70
     8
  9
$DIMBLK
  1

  9
$DIMASO
 70
     1
  9
$DIMSHO
 70
     1
  9
$DIMPOST
  1

  9
$DIMAPOST
  1

  9
$DIMALT
 70
     0
  9
$DIMALTD
 70
     2
  9
$DIMALTF
 40
25.4
  9
$DIMLFAC
 40
1.0
  9
$DIMTOFL
 70
     1
  9
$DIMTVP
 40
0.0
  9
$DIMTIX
 70
     0
  9
$DIMSOXD
 70
     0
  9
$DIMSAH
 70
     1
  9
$DIMBLK1
  1
2
  9
$DIMBLK2
  1
2
  9
$DIMSTYLE
  2
M
  9
$DIMCLRD
 70
     0
  9
$DIMCLRE
 70
     0
  9
$DIMCLRT
 70
     0
  9
$DIMTFAC
 40
1.0
  9
$DIMGAP
 40
0.5
  9
$DIMJUST
 70
     0
  9
$DIMSD1
 70
     0
  9
$DIMSD2
 70
     0
  9
$DIMTOLJ
 70
     1
  9
$DIMTZIN
 70
     0
  9
$DIMALTZ
 70
     0
  9
$DIMALTTZ
 70
     0
  9
$DIMUPT
 70
     0
  9
$DIMDEC
 70
     4
  9
$DIMTDEC
 70
     4
  9
$DIMALTU
 70
     2
  9
$DIMALTTD
 70
     2
  9
$DIMTXSTY
  7
STANDARD
  9
$DIMAUNIT
 70
     0
  9
$DIMADEC
 70
     0
  9
$DIMALTRND
 40
0.0
  9
$DIMAZIN
 70
     0
  9
$DIMDSEP
 70
    46
  9
$DIMATFIT
 70
     3
  9
$DIMFRAC
 70
     0
  9
$DIMLDRBLK
  1
2
  9
$DIMLUNIT
 70
     2
  9
$DIMLWD
 70
    -2
  9
$DIMLWE
 70
    -2
  9
$DIMTMOVE
 70
     0
  9
$LUNITS
 70
     2
  9
$LUPREC
 70
     3
  9
$SKETCHINC
 40
1.0
  9
$FILLETRAD
 40
0.0
  9
$AUNITS
 70
     0
  9
$AUPREC
 70
     1
  9
$MENU
  1
.
  9
$ELEVATION
 40
0.0
  9
$PELEVATION
 40
0.0
  9
$THICKNESS
 40
0.0
  9
$LIMCHECK
 70
     0
  9
$CHAMFERA
 40
10.0
  9
$CHAMFERB
 40
10.0
  9
$CHAMFERC
 40
0.0
  9
$CHAMFERD
 40
0.0
  9
$SKPOLY
 70
     0
  9
$TDCREATE
 40
2454393.806994895
  9
$TDUCREATE
 40
2454393.431994895
  9
$TDUPDATE
 40
2456465.362010451
  9
$TDUUPDATE
 40
2456464.987010452
  9
$TDINDWG
 40
0.0617208681
  9
$TDUSRTIMER
 40
0.0617206829
  9
$USRTIMER
 70
     1
  9
$ANGBASE
 50
0.0
  9
$ANGDIR
 70
     0
  9
$PDMODE
 70
     0
  9
$PDSIZE
 40
0.0
  9
$PLINEWID
 40
0.0
  9
$SPLFRAME
 70
     0
  9
$SPLINETYPE
 70
     6
  9
$SPLINESEGS
 70
     8
  9
$HANDSEED
  5
6DC4
  9
$SURFTAB1
 70
     6
  9
$SURFTAB2
 70
     6
  9
$SURFTYPE
 70
     6
  9
$SURFU
 70
     6
  9
$SURFV
 70
     6
  9
$UCSBASE
  2

  9
$UCSNAME
  2

  9
$UCSORG
 10
0.0
 20
0.0
 30
0.0
  9
$UCSXDIR
 10
1.0
 20
0.0
 30
0.0
  9
$UCSYDIR
 10
0.0
 20
1.0
 30
0.0
  9
$UCSORTHOREF
  2

  9
$UCSORTHOVIEW
 70
     0
  9
$UCSORGTOP
 10
0.0
 20
0.0
 30
0.0
  9
$UCSORGBOTTOM
 10
0.0
 20
0.0
 30
0.0
  9
$UCSORGLEFT
 10
0.0
 20
0.0
 30
0.0
  9
$UCSORGRIGHT
 10
0.0
 20
0.0
 30
0.0
  9
$UCSORGFRONT
 10
0.0
 20
0.0
 30
0.0
  9
$UCSORGBACK
 10
0.0
 20
0.0
 30
0.0
  9
$PUCSBASE
  2

  9
$PUCSNAME
  2

  9
$PUCSORG
 10
0.0
 20
0.0
 30
0.0
  9
$PUCSXDIR
 10
1.0
 20
0.0
 30
0.0
  9
$PUCSYDIR
 10
0.0
 20
1.0
 30
0.0
  9
$PUCSORTHOREF
  2

  9
$PUCSORTHOVIEW
 70
     0
  9
$PUCSORGTOP
 10
0.0
 20
0.0
 30
0.0
  9
$PUCSORGBOTTOM
 10
0.0
 20
0.0
 30
0.0
  9
$PUCSORGLEFT
 10
0.0
 20
0.0
 30
0.0
  9
$PUCSORGRIGHT
 10
0.0
 20
0.0
 30
0.0
  9
$PUCSORGFRONT
 10
0.0
 20
0.0
 30
0.0
  9
$PUCSORGBACK
 10
0.0
 20
0.0
 30
0.0
  9
$USERI1
 70
     0
  9
$USERI2
 70
     0
  9
$USERI3
 70
     0
  9
$USERI4
 70
     0
  9
$USERI5
 70
     0
  9
$USERR1
 40
0.0
  9
$USERR2
 40
0.0
  9
$USERR3
 40
0.0
  9
$USERR4
 40
0.0
  9
$USERR5
 40
0.0
  9
$WORLDVIEW
 70
     1
  9
$SHADEDGE
 70
     3
  9
$SHADEDIF
 70
    70
  9
$TILEMODE
 70
     1
  9
$MAXACTVP
 70
    48
  9
$PINSBASE
 10
0.0
 20
0.0
 30
0.0
  9
$PLIMCHECK
 70
     0
  9
$PEXTMIN
 10
1.000000000000000E+20
 20
1.000000000000000E+20
 30
1.000000000000000E+20
  9
$PEXTMAX
 10
-1.000000000000000E+20
 20
-1.000000000000000E+20
 30
-1.000000000000000E+20
  9
$PLIMMIN
 10
0.0
 20
0.0
  9
$PLIMMAX
 10
420.0
 20
297.0
  9
$UNITMODE
 70
     0
  9
$VISRETAIN
 70
     1
  9
$PLINEGEN
 70
     0
  9
$PSLTSCALE
 70
     1
  9
$TREEDEPTH
 70
  3020
  9
$CMLSTYLE
  2
Standard
  9
$CMLJUST
 70
     0
  9
$CMLSCALE
 40
1.0
  9
$PROXYGRAPHICS
 70
     1
  9
$MEASUREMENT
 70
     0
  9
$CELWEIGHT
370
    -1
  9
$ENDCAPS
280
     0
  9
$JOINSTYLE
280
     0
  9
$LWDISPLAY
290
     0
  9
$INSUNITS
 70
     0
  9
$HYPERLINKBASE
  1

  9
$STYLESHEET
  1

  9
$XEDIT
290
     1
  9
$CEPSNTYPE
380
     0
  9
$PSTYLEMODE
290
     1
  9
$FINGERPRINTGUID
  2
{2DBC91D2-DBE3-4960-859F-1979B2B43592}
  9
$VERSIONGUID
  2
{126F4A4D-30EC-4C5D-B45A-53AD0F3958F6}
  9
$EXTNAMES
290
     1
  9
$PSVPSCALE
 40
0.0
  9
$OLESTARTUP
290
     0
  0
ENDSEC
  0
SECTION
  2
CLASSES
  0
CLASS
  1
ACDBDICTIONARYWDFLT
  2
AcDbDictionaryWithDefault
  3
AutoCAD 2000
 90
        0
280
     0
281
     0
  0
CLASS
  1
ACDBPLACEHOLDER
  2
AcDbPlaceHolder
  3
AutoCAD 2000
 90
        0
280
     0
281
     0
  0
CLASS
  1
LAYOUT
  2
AcDbLayout
  3
AutoCAD 2000
 90
        0
280
     0
281
     0
  0
CLASS
  1
DICTIONARYVAR
  2
AcDbDictionaryVar
  3
AutoCAD 2000
 90
        0
280
     0
281
     0
  0
ENDSEC
  0
SECTION
  2
TABLES
  0
TABLE
  2
VPORT
  5
6D25
330
0
100
AcDbSymbolTable
 70
     2
  0
VPORT
  5
6DC3
330
6D25
100
AcDbSymbolTableRecord
100
AcDbViewportTableRecord
  2
*Active
 70
     0
 10
0.0
 20
0.0
 11
1.0
 21
1.0
 12
268.0914321844492
 22
168.0362156143518
 13
0.0
 23
0.0
 14
10.0
 24
10.0
 15
10.0
 25
10.0
 16
0.0
 26
0.0
 36
1.0
 17
0.0
 27
0.0
 37
0.0
 40
379.331155908926
 41
2.340320591861898
 42
50.0
 43
0.0
 44
0.0
 50
0.0
 51
0.0
 71
     0
 72
   100
 73
     1
 74
     1
 75
     0
 76
     0
 77
     0
 78
     0
281
     0
 65
     1
110
0.0
120
0.0
130
0.0
111
1.0
121
0.0
131
0.0
112
0.0
122
1.0
132
0.0
 79
     0
146
0.0
  0
ENDTAB
  0
TABLE
  2
LTYPE
  5
6D22
330
0
100
AcDbSymbolTable
 70
     1
  0
LTYPE
  5
6D30
330
6D22
100
AcDbSymbolTableRecord
100
AcDbLinetypeTableRecord
  2
ByBlock
 70
     0
  3

 72
    65
 73
     0
 40
0.0
  0
LTYPE
  5
6D31
330
6D22
100
AcDbSymbolTableRecord
100
AcDbLinetypeTableRecord
  2
ByLayer
 70
     0
  3

 72
    65
 73
     0
 40
0.0
  0
LTYPE
  5
6D32
330
6D22
100
AcDbSymbolTableRecord
100
AcDbLinetypeTableRecord
  2
CONTINUOUS
 70
     0
  3
Solid line
 72
    65
 73
     0
 40
0.0
  0
ENDTAB
  0
TABLE
  2
LAYER
  5
6D1F
330
0
100
AcDbSymbolTable
 70
     4
  0
LAYER
  5
6D2D
330
6D1F
100
AcDbSymbolTableRecord
100
AcDbLayerTableRecord
  2
0
 70
     0
 62
     7
  6
CONTINUOUS
370
    -3
390
6D2C
  0
LAYER
  5
6D3F
330
6D1F
100
AcDbSymbolTableRecord
100
AcDbLayerTableRecord
  2
2寸法線
 70
     0
 62
     2
  6
CONTINUOUS
370
    -3
390
6D2C
  0
LAYER
  5
6D42
330
6D1F
100
AcDbSymbolTableRecord
100
AcDbLayerTableRecord
  2
1外形線
 70
     0
 62
     3
  6
CONTINUOUS
370
    -3
390
6D2C
  0
LAYER
  5
6D43
330
6D1F
100
AcDbSymbolTableRecord
100
AcDbLayerTableRecord
  2
DEFPOINTS
 70
     0
 62
     7
  6
CONTINUOUS
290
     0
370
    -3
390
6D2C
  0
ENDTAB
  0
TABLE
  2
STYLE
  5
6D20
330
0
100
AcDbSymbolTable
 70
     2
  0
STYLE
  5
6D2E
330
6D20
100
AcDbSymbolTableRecord
100
AcDbTextStyleTableRecord
  2
STANDARD
 70
     0
 40
0.0
 41
1.0
 50
0.0
 71
     0
 42
2.5
  3
txt
  4

  0
STYLE
  5
6D40
330
6D20
100
AcDbSymbolTableRecord
100
AcDbTextStyleTableRecord
  2
KANJI
 70
     0
 40
0.0
 41
1.0
 50
0.0
 71
     0
 42
2.5
  3
simplex.shx
  4
bigfont.shx
  0
ENDTAB
  0
TABLE
  2
VIEW
  5
6D23
330
0
100
AcDbSymbolTable
 70
     0
  0
ENDTAB
  0
TABLE
  2
UCS
  5
6D24
330
0
100
AcDbSymbolTable
 70
     0
  0
ENDTAB
  0
TABLE
  2
APPID
  5
6D26
330
0
100
AcDbSymbolTable
 70
     1
  0
APPID
  5
6D2F
330
6D26
100
AcDbSymbolTableRecord
100
AcDbRegAppTableRecord
  2
ACAD
 70
     0
  0
ENDTAB
  0
TABLE
  2
DIMSTYLE
  5
6D27
330
0
100
AcDbSymbolTable
 70
     2
100
AcDbDimStyleTable
 71
     1
340
6D45
  0
DIMSTYLE
105
6D44
330
6D27
100
AcDbSymbolTableRecord
100
AcDbDimStyleTableRecord
  2
STANDARD
 70
     0
 73
     0
 74
     0
172
     1
271
     3
272
     3
279
     2
284
     8
285
     8
286
     8
340
6D40
  0
DIMSTYLE
105
6D45
330
6D27
100
AcDbSymbolTableRecord
100
AcDbDimStyleTableRecord
  2
M
 70
     0
 40
0.0
 41
2.0
 42
1.0
 43
0.0
 44
1.0
 73
     0
 74
     0
 77
     1
 78
     8
140
2.5
141
0.0
147
0.5
172
     1
173
     1
271
     3
272
     3
279
     2
284
     8
285
     8
286
     8
340
6D40
  0
ENDTAB
  0
TABLE
  2
BLOCK_RECORD
  5
6D1E
330
0
100
AcDbSymbolTable
 70
     7
  0
BLOCK_RECORD
  5
6D3B
330
6D1E
100
AcDbSymbolTableRecord
100
AcDbBlockTableRecord
  2
*Model_Space
340
6D3E
  0
BLOCK_RECORD
  5
6D37
330
6D1E
100
AcDbSymbolTableRecord
100
AcDbBlockTableRecord
  2
*Paper_Space
340
6D3A
  0
BLOCK_RECORD
  5
6D49
330
6D1E
100
AcDbSymbolTableRecord
100
AcDbBlockTableRecord
  2
$MODEL_SPACE
340
0
  0
BLOCK_RECORD
  5
6D4B
330
6D1E
100
AcDbSymbolTableRecord
100
AcDbBlockTableRecord
  2
$PAPER_SPACE
340
0
  0
BLOCK_RECORD
  5
6D4D
330
6D1E
100
AcDbSymbolTableRecord
100
AcDbBlockTableRecord
  2
2
340
0
102
{BLKREFS
331
6D68
331
6D69
331
6D99
331
6D9A
331
6DAA
331
6DAB
102
}
  0
BLOCK_RECORD
  5
6D4F
330
6D1E
100
AcDbSymbolTableRecord
100
AcDbBlockTableRecord
  2
*U3
340
0
102
{BLKREFS
331
131
102
}
  0
BLOCK_RECORD
  5
6D64
330
6D1E
100
AcDbSymbolTableRecord
100
AcDbBlockTableRecord
  2
*D4
340
0
  0
BLOCK_RECORD
  5
6D95
330
6D1E
100
AcDbSymbolTableRecord
100
AcDbBlockTableRecord
  2
*D5
340
0
  0
BLOCK_RECORD
  5
6DA6
330
6D1E
100
AcDbSymbolTableRecord
100
AcDbBlockTableRecord
  2
*D6
340
0
  0
ENDTAB
  0
ENDSEC
  0
SECTION
  2
BLOCKS
  0
BLOCK
  5
6D3C
330
6D3B
100
AcDbEntity
  8
0
100
AcDbBlockBegin
  2
*Model_Space
 70
     0
 10
0.0
 20
0.0
 30
0.0
  3
*Model_Space
  1

  0
ENDBLK
  5
6D3D
330
6D3B
100
AcDbEntity
  8
0
100
AcDbBlockEnd
  0
BLOCK
  5
6D38
330
6D37
100
AcDbEntity
 67
     1
  8
0
100
AcDbBlockBegin
  2
*Paper_Space
 70
     0
 10
0.0
 20
0.0
 30
0.0
  3
*Paper_Space
  1

  0
ENDBLK
  5
6D39
330
6D37
100
AcDbEntity
 67
     1
  8
0
100
AcDbBlockEnd
  0
BLOCK
  5
6D4A
330
6D49
100
AcDbEntity
  8
0
100
AcDbBlockBegin
  2
$MODEL_SPACE
 70
     0
 10
0.0
 20
0.0
 30
0.0
  3
$MODEL_SPACE
  1

  0
ENDBLK
  5
685F
330
6D49
100
AcDbEntity
  8
0
100
AcDbBlockEnd
  0
BLOCK
  5
6D4C
330
6D4B
100
AcDbEntity
  8
0
100
AcDbBlockBegin
  2
$PAPER_SPACE
 70
     0
 10
0.0
 20
0.0
 30
0.0
  3
$PAPER_SPACE
  1

  0
ENDBLK
  5
685B
330
6D4B
100
AcDbEntity
  8
0
100
AcDbBlockEnd
  0
BLOCK
  5
6D4E
330
6D4D
100
AcDbEntity
  8
0
100
AcDbBlockBegin
  2
2
 70
     0
 10
0.0
 20
0.0
 30
0.0
  3
2
  1

  0
INSERT
  5
131
330
6D4D
100
AcDbEntity
  8
0
  6
Continuous
 62
     0
100
AcDbBlockReference
  2
*U3
 10
0.0
 20
0.0
 30
0.0
1001
ACAD
1002
{
1000
R14_HATCH_DATA
1000
131
1011
1.0
1021
0.0
1031
0.0
1011
0.0
1021
1.0
1031
0.0
1011
0.0
1021
0.0
1031
1.0
1040
0.0
1010
0.0
1020
0.0
1030
1.0
1000
SOLID
1070
     1
1070
     0
1071
        1
1071
        1
1071
        3
1070
     1
1040
-0.9999999999983517
1040
0.2679491924306774
1040
0.0
1040
0.0
1070
     1
1040
0.0
1040
0.0
1040
-0.9999999999983517
1040
-0.2679491924306765
1070
     1
1040
-0.9999999999983524
1040
-0.267949192430676
1040
-0.9999999999983524
1040
0.2679491924306774
1071
        0
1070
     0
1070
     1
1071
        1
1040
2.995745117231336
1040
-4.124946096263201
1040
0.0
1002
}
  0
ENDBLK
  5
132
330
6D4D
100
AcDbEntity
  8
0
100
AcDbBlockEnd
  0
BLOCK
  5
6D50
330
6D4F
100
AcDbEntity
  8
0
100
AcDbBlockBegin
  2
*U3
 70
     1
 10
0.0
 20
0.0
 30
0.0
  3
*U3
  1

  0
SOLID
  5
6721
330
6D4F
100
AcDbEntity
  8
0
  6
Continuous
 62
     0
100
AcDbTrace
 10
0.666666666665568
 20
0.0000000000000004
 30
0.0
 11
0.9999999999983517
 21
0.2679491924306774
 31
0.0
 12
0.0
 22
0.0
 32
0.0
 13
0.0
 23
0.0
 33
0.0
210
0.0
220
0.0
230
-1.0
  0
SOLID
  5
6722
330
6D4F
100
AcDbEntity
  8
0
  6
Continuous
 62
     0
100
AcDbTrace
 10
0.666666666665568
 20
0.0000000000000004
 30
0.0
 11
0.0
 21
0.0
 31
0.0
 12
0.9999999999983524
 22
-0.267949192430676
 32
0.0
 13
0.9999999999983524
 23
-0.267949192430676
 33
0.0
210
0.0
220
0.0
230
-1.0
  0
SOLID
  5
6723
330
6D4F
100
AcDbEntity
  8
0
  6
Continuous
 62
     0
100
AcDbTrace
 10
0.666666666665568
 20
0.0000000000000004
 30
0.0
 11
0.9999999999983524
 21
-0.267949192430676
 31
0.0
 12
0.9999999999983517
 22
0.2679491924306774
 32
0.0
 13
0.9999999999983517
 23
0.2679491924306774
 33
0.0
210
0.0
220
0.0
230
-1.0
  0
ENDBLK
  5
6725
330
6D4F
100
AcDbEntity
  8
0
100
AcDbBlockEnd
  0
BLOCK
  5
6D6E
330
6D64
100
AcDbEntity
  8
0
100
AcDbBlockBegin
  2
*D4
 70
     1
 10
0.0
 20
0.0
 30
0.0
  3
*D4
  1

  0
LINE
  5
6D65
330
6D64
100
AcDbEntity
  8
2寸法線
 62
     0
370
    -2
100
AcDbLine
 10
775.9219089286347
 20
324.1452040045679
 30
0.0
 11
822.5256528365703
 21
324.1452040045679
 31
0.0
  0
LINE
  5
6D66
330
6D64
100
AcDbEntity
  8
2寸法線
 62
     0
370
    -2
100
AcDbLine
 10
775.9219089286347
 20
230.1452040045679
 30
0.0
 11
822.5256528365701
 21
230.1452040045679
 31
0.0
  0
LINE
  5
6D67
330
6D64
100
AcDbEntity
  8
2寸法線
 62
     0
370
    -2
100
AcDbLine
 10
821.5256528365703
 20
322.3452040045679
 30
0.0
 11
821.5256528365701
 21
231.9452040045681
 31
0.0
  0
INSERT
  5
6D68
330
6D64
100
AcDbEntity
  8
2寸法線
 62
     0
370
    -2
100
AcDbBlockReference
  2
2
 10
821.5256528365703
 20
324.1452040045679
 30
0.0
 41
1.8
 42
1.8
 43
1.8
 50
90.0
  0
INSERT
  5
6D69
330
6D64
100
AcDbEntity
  8
2寸法線
 62
     0
370
    -2
100
AcDbBlockReference
  2
2
 10
821.5256528365701
 20
230.1452040045679
 30
0.0
 41
1.8
 42
1.8
 43
1.8
 50
270.0
  0
MTEXT
  5
6D6A
330
6D64
100
AcDbEntity
  8
2寸法線
 62
     0
100
AcDbMText
 10
819.7756528365701
 20
277.1452040045681
 30
0.0
 40
2.5
 41
0.0
 71
     5
 72
     1
  1
\A1;94
 11
0.0000000000000001
 21
1.0
 31
0.0
 73
     1
 44
1.0
  0
POINT
  5
6D6B
330
6D64
100
AcDbEntity
  8
DEFPOINTS
 62
     0
100
AcDbPoint
 10
774.9219089286348
 20
324.1452040045679
 30
0.0
  0
POINT
  5
6D6C
330
6D64
100
AcDbEntity
  8
DEFPOINTS
 62
     0
100
AcDbPoint
 10
774.9219089286348
 20
230.1452040045679
 30
0.0
  0
POINT
  5
6D6D
330
6D64
100
AcDbEntity
  8
DEFPOINTS
 62
     0
100
AcDbPoint
 10
821.5256528365701
 20
230.1452040045679
 30
0.0
  0
ENDBLK
  5
6D6F
330
6D64
100
AcDbEntity
  8
0
100
AcDbBlockEnd
  0
BLOCK
  5
6D9F
330
6D95
100
AcDbEntity
  8
0
100
AcDbBlockBegin
  2
*D5
 70
     1
 10
0.0
 20
0.0
 30
0.0
  3
*D5
  1

  0
LINE
  5
6D96
330
6D95
100
AcDbEntity
  8
2寸法線
 62
     0
370
    -2
100
AcDbLine
 10
775.9219089286347
 20
145.7314908238449
 30
0.0
 11
816.1031853571866
 21
145.7314908238449
 31
0.0
  0
LINE
  5
6D97
330
6D95
100
AcDbEntity
  8
2寸法線
 62
     0
370
    -2
100
AcDbLine
 10
775.9219089286347
 20
72.73149082384498
 30
0.0
 11
816.1031853571866
 21
72.73149082384495
 31
0.0
  0
LINE
  5
6D98
330
6D95
100
AcDbEntity
  8
2寸法線
 62
     0
370
    -2
100
AcDbLine
 10
815.1031853571867
 20
143.9314908238449
 30
0.0
 11
815.1031853571867
 21
74.53149082384496
 31
0.0
  0
INSERT
  5
6D99
330
6D95
100
AcDbEntity
  8
2寸法線
 62
     0
370
    -2
100
AcDbBlockReference
  2
2
 10
815.1031853571867
 20
145.7314908238449
 30
0.0
 41
1.8
 42
1.8
 43
1.8
 50
90.0
  0
INSERT
  5
6D9A
330
6D95
100
AcDbEntity
  8
2寸法線
 62
     0
370
    -2
100
AcDbBlockReference
  2
2
 10
815.1031853571867
 20
72.73149082384495
 30
0.0
 41
1.8
 42
1.8
 43
1.8
 50
270.0
  0
MTEXT
  5
6D9B
330
6D95
100
AcDbEntity
  8
2寸法線
 62
     0
100
AcDbMText
 10
813.3531853571867
 20
109.231490823845
 30
0.0
 40
2.5
 41
0.0
 71
     5
 72
     1
  1
\A1;73
 11
0.0000000000000001
 21
1.0
 31
0.0
 73
     1
 44
1.0
  0
POINT
  5
6D9C
330
6D95
100
AcDbEntity
  8
DEFPOINTS
 62
     0
100
AcDbPoint
 10
774.9219089286348
 20
145.7314908238449
 30
0.0
  0
POINT
  5
6D9D
330
6D95
100
AcDbEntity
  8
DEFPOINTS
 62
     0
100
AcDbPoint
 10
774.9219089286348
 20
72.73149082384498
 30
0.0
  0
POINT
  5
6D9E
330
6D95
100
AcDbEntity
  8
DEFPOINTS
 62
     0
100
AcDbPoint
 10
815.1031853571867
 20
72.73149082384495
 30
0.0
  0
ENDBLK
  5
6DA0
330
6D95
100
AcDbEntity
  8
0
100
AcDbBlockEnd
  0
BLOCK
  5
6DB0
330
6DA6
100
AcDbEntity
  8
0
100
AcDbBlockBegin
  2
*D6
 70
     1
 10
0.0
 20
0.0
 30
0.0
  3
*D6
  1

  0
LINE
  5
6DA7
330
6DA6
100
AcDbEntity
  8
2寸法線
 62
     0
370
    -2
100
AcDbLine
 10
206.214740608449
 20
278.1452040045679
 30
0.0
 11
206.214740608449
 21
297.3081659247416
 31
0.0
  0
LINE
  5
6DA8
330
6DA6
100
AcDbEntity
  8
2寸法線
 62
     0
370
    -2
100
AcDbLine
 10
187.6869321014724
 20
278.1452040045679
 30
0.0
 11
187.6869321014724
 21
297.3081659247416
 31
0.0
  0
LINE
  5
6DA9
330
6DA6
100
AcDbEntity
  8
2寸法線
 62
     0
370
    -2
100
AcDbLine
 10
204.4147406084491
 20
296.3081659247416
 30
0.0
 11
189.4869321014724
 21
296.3081659247416
 31
0.0
  0
INSERT
  5
6DAA
330
6DA6
100
AcDbEntity
  8
2寸法線
 62
     0
370
    -2
100
AcDbBlockReference
  2
2
 10
206.214740608449
 20
296.3081659247416
 30
0.0
 41
1.8
 42
1.8
 43
1.8
  0
INSERT
  5
6DAB
330
6DA6
100
AcDbEntity
  8
2寸法線
 62
     0
370
    -2
100
AcDbBlockReference
  2
2
 10
187.6869321014724
 20
296.3081659247416
 30
0.0
 41
1.8
 42
1.8
 43
1.8
 50
180.0
  0
MTEXT
  5
6DAC
330
6DA6
100
AcDbEntity
  8
2寸法線
 62
     0
100
AcDbMText
 10
196.9508363549606
 20
298.0581659247416
 30
0.0
 40
2.5
 41
0.0
 71
     5
 72
     1
  1
\A1;18.5278
 73
     1
 44
1.0
  0
POINT
  5
6DAD
330
6DA6
100
AcDbEntity
  8
DEFPOINTS
 62
     0
100
AcDbPoint
 10
206.214740608449
 20
277.1452040045681
 30
0.0
  0
POINT
  5
6DAE
330
6DA6
100
AcDbEntity
  8
DEFPOINTS
 62
     0
100
AcDbPoint
 10
187.6869321014724
 20
277.1452040045681
 30
0.0
  0
POINT
  5
6DAF
330
6DA6
100
AcDbEntity
  8
DEFPOINTS
 62
     0
100
AcDbPoint
 10
187.6869321014724
 20
296.3081659247416
 30
0.0
  0
ENDBLK
  5
6DB1
330
6DA6
100
AcDbEntity
  8
0
100
AcDbBlockEnd
  0
ENDSEC
  0
SECTION
  2
ENTITIES
  0
LINE
  5
6D5B
330
6D3B
100
AcDbEntity
  8
1外形線
100
AcDbLine
 10
26.35068772440035
 20
273.955403402947
 30
0.0
 11
166.3506877244003
 21
273.955403402947
 31
0.0
  0
LINE
  5
6D5E
330
6D3B
100
AcDbEntity
  8
1外形線
100
AcDbLine
 10
161.3506877244009
 20
273.955403402947
 30
0.0
 11
161.3506877244009
 21
179.955403402947
 31
0.0
  0
LINE
  5
6D5F
330
6D3B
100
AcDbEntity
  8
1外形線
100
AcDbLine
 10
166.3506877244003
 20
273.955403402947
 30
0.0
 11
166.3506877244003
 21
179.955403402947
 31
0.0
  0
LINE
  5
6D60
330
6D3B
100
AcDbEntity
  8
1外形線
100
AcDbLine
 10
166.3506877244003
 20
179.955403402947
 30
0.0
 11
26.35068772440035
 21
179.955403402947
 31
0.0
  0
LINE
  5
6D61
330
6D3B
100
AcDbEntity
  8
1外形線
100
AcDbLine
 10
26.35068772440035
 20
273.955403402947
 30
0.0
 11
26.35068772440035
 21
179.955403402947
 31
0.0
  0
LINE
  5
6D62
330
6D3B
100
AcDbEntity
  8
1外形線
100
AcDbLine
 10
31.35068772440035
 20
273.955403402947
 30
0.0
 11
31.35068772440035
 21
179.955403402947
 31
0.0
  0
ARC
  5
6D70
330
6D3B
100
AcDbEntity
  8
1外形線
100
AcDbCircle
 10
248.5139465057973
 20
247.9554034029481
 30
0.0
 40
26.0
100
AcDbArc
 50
90.0
 51
180.0
  0
ARC
  5
6D71
330
6D3B
100
AcDbEntity
  8
1外形線
100
AcDbCircle
 10
248.5139465057973
 20
205.955403402947
 30
0.0
 40
26.0
100
AcDbArc
 50
180.0
 51
270.0
  0
LINE
  5
6D72
330
6D3B
100
AcDbEntity
  8
1外形線
 62
     2
100
AcDbLine
 10
207.5139465057973
 20
226.955403402947
 30
0.0
 11
310.5139465057973
 21
226.955403402947
 31
0.0
  0
LINE
  5
6D75
330
6D3B
100
AcDbEntity
  8
1外形線
100
AcDbLine
 10
222.5139465057973
 20
247.9554034029481
 30
0.0
 11
222.5139465057973
 21
205.955403402947
 31
0.0
  0
LINE
  5
6D76
330
6D3B
100
AcDbEntity
  8
1外形線
100
AcDbLine
 10
295.5139465057973
 20
268.955403402947
 30
0.0
 11
295.5139465057973
 21
184.955403402947
 31
0.0
  0
ARC
  5
6D77
330
6D3B
100
AcDbEntity
  8
1外形線
100
AcDbCircle
 10
271.5139465057972
 20
203.955403402947
 30
0.0
 40
24.0
100
AcDbArc
 50
270.0
 51
0.0
  0
LINE
  5
6D78
330
6D3B
100
AcDbEntity
  8
1外形線
100
AcDbLine
 10
248.5139465057973
 20
179.955403402947
 30
0.0
 11
271.5139465057972
 21
179.955403402947
 31
0.0
  0
ARC
  5
6D79
330
6D3B
100
AcDbEntity
  8
1外形線
100
AcDbCircle
 10
271.5139465057972
 20
249.9554034029481
 30
0.0
 40
24.0
100
AcDbArc
 50
0.0
 51
90.0
  0
LINE
  5
6D7A
330
6D3B
100
AcDbEntity
  8
1外形線
100
AcDbLine
 10
248.5139465057973
 20
273.955403402947
 30
0.0
 11
271.5139465057972
 21
273.955403402947
 31
0.0
  0
LINE
  5
6D7B
330
6D3B
100
AcDbEntity
  8
1外形線
100
AcDbLine
 10
492.0359101835502
 20
179.955403402947
 30
0.0
 11
352.0359101835501
 21
179.955403402947
 31
0.0
  0
LINE
  5
6D7C
330
6D3B
100
AcDbEntity
  8
1外形線
100
AcDbLine
 10
352.0359101835501
 20
273.955403402947
 30
0.0
 11
492.0359101835502
 21
273.955403402947
 31
0.0
  0
LINE
  5
6D7E
330
6D3B
100
AcDbEntity
  8
1外形線
100
AcDbLine
 10
352.0359101835501
 20
273.955403402947
 30
0.0
 11
352.0359101835501
 21
179.955403402947
 31
0.0
  0
LINE
  5
6D7F
330
6D3B
100
AcDbEntity
  8
1外形線
100
AcDbLine
 10
492.0359101835502
 20
273.955403402947
 30
0.0
 11
492.0359101835502
 21
179.955403402947
 31
0.0
  0
LINE
  5
6D81
330
6D3B
100
AcDbEntity
  8
1外形線
100
AcDbLine
 10
357.0359101835493
 20
203.955403402947
 30
0.0
 11
357.0359101835493
 21
179.955403402947
 31
0.0
  0
LINE
  5
6D82
330
6D3B
100
AcDbEntity
  8
1外形線
100
AcDbLine
 10
357.0359101835493
 20
273.955403402947
 30
0.0
 11
357.0359101835493
 21
249.9554034029481
 31
0.0
  0
LINE
  5
6D83
330
6D3B
100
AcDbEntity
  8
2寸法線
100
AcDbLine
 10
422.0359101835502
 20
288.955403402947
 30
0.0
 11
422.0359101835502
 21
164.955403402947
 31
0.0
  0
LINE
  5
6D84
330
6D3B
100
AcDbEntity
  8
1外形線
100
AcDbLine
 10
487.0359101835508
 20
203.955403402947
 30
0.0
 11
487.0359101835508
 21
179.955403402947
 31
0.0
  0
LINE
  5
6D85
330
6D3B
100
AcDbEntity
  8
1外形線
100
AcDbLine
 10
487.0359101835508
 20
273.955403402947
 30
0.0
 11
487.0359101835508
 21
249.9554034029481
 31
0.0
  0
LINE
  5
6D86
330
6D3B
100
AcDbEntity
  8
2寸法線
100
AcDbLine
 10
337.0359101835501
 20
226.955403402947
 30
0.0
 11
507.0359101835501
 21
226.9554034029468
 31
0.0
  0
CIRCLE
  5
6D87
330
6D3B
100
AcDbEntity
  8
1外形線
100
AcDbCircle
 10
422.0359101835502
 20
226.955403402947
 30
0.0
 40
34.0
  0
LINE
  5
6D88
330
6D3B
100
AcDbEntity
  8
1外形線
100
AcDbLine
 10
26.35068772440035
 20
95.5416902222239
 30
0.0
 11
166.3506877244003
 21
95.5416902222239
 31
0.0
  0
LINE
  5
6D89
330
6D3B
100
AcDbEntity
  8
1外形線
100
AcDbLine
 10
26.35068772440047
 20
22.54169022222389
 30
0.0
 11
166.3506877244003
 21
22.54169022222389
 31
0.0
  0
LINE
  5
6D91
330
6D3B
100
AcDbEntity
  8
1外形線
100
AcDbLine
 10
166.3506877244003
 20
95.5416902222239
 30
0.0
 11
166.3506877244003
 21
22.54169022222389
 31
0.0
  0
LINE
  5
6D92
330
6D3B
100
AcDbEntity
  8
1外形線
100
AcDbLine
 10
161.3506877244009
 20
95.5416902222239
 30
0.0
 11
161.3506877244003
 21
22.54169022222389
 31
0.0
  0
LINE
  5
6DA2
330
6D3B
100
AcDbEntity
  8
1外形線
100
AcDbLine
 10
31.35068772439967
 20
95.5416902222239
 30
0.0
 11
31.35068772440035
 21
22.54169022222389
 31
0.0
  0
LINE
  5
6DA3
330
6D3B
100
AcDbEntity
  8
1外形線
100
AcDbLine
 10
26.35068772440035
 20
95.5416902222239
 30
0.0
 11
26.35068772440035
 21
22.54169022222389
 31
0.0
  0
LINE
  5
6DA4
330
6D3B
100
AcDbEntity
  8
1外形線
 62
     2
100
AcDbLine
 10
11.35068772440024
 20
226.9554034029468
 30
0.0
 11
181.3506877244003
 21
226.955403402947
 31
0.0
  0
LINE
  5
6DBA
330
6D3B
100
AcDbEntity
  8
2寸法線
100
AcDbLine
 10
96.35068772440037
 20
288.9554034029469
 30
0.0
 11
96.35068772440037
 21
164.9554034029469
 31
0.0
  0
LINE
  5
6DC1
330
6D3B
100
AcDbEntity
  8
1外形線
100
AcDbLine
 10
286.1768248044138
 20
268.955403402947
 30
0.0
 11
295.5139465057973
 21
268.955403402947
 31
0.0
  0
LINE
  5
6DC2
330
6D3B
100
AcDbEntity
  8
1外形線
100
AcDbLine
 10
286.1768248044123
 20
184.955403402947
 30
0.0
 11
295.5139465057973
 21
184.955403402947
 31
0.0
  0
ENDSEC
  0
SECTION
  2
OBJECTS
  0
DICTIONARY
  5
6D29
330
0
100
AcDbDictionary
281
     1
  3
ACAD_GROUP
350
6D2A
  3
ACAD_LAYOUT
350
6D36
  3
ACAD_MLINESTYLE
350
6D33
  3
ACAD_PLOTSETTINGS
350
6D35
  3
ACAD_PLOTSTYLENAME
350
6D2B
  3
AcDbVariableDictionary
350
6D51
  0
DICTIONARY
  5
6D2A
102
{ACAD_REACTORS
330
6D29
102
}
330
6D29
100
AcDbDictionary
281
     1
  0
DICTIONARY
  5
6D36
102
{ACAD_REACTORS
330
6D29
102
}
330
6D29
100
AcDbDictionary
281
     1
  3
Model
350
6D3E
  3
ﾚｲｱｳﾄ1
350
6D3A
  0
DICTIONARY
  5
6D33
102
{ACAD_REACTORS
330
6D29
102
}
330
6D29
100
AcDbDictionary
281
     1
  3
Standard
350
6D34
  0
DICTIONARY
  5
6D35
102
{ACAD_REACTORS
330
6D29
102
}
330
6D29
100
AcDbDictionary
281
     1
  0
ACDBDICTIONARYWDFLT
  5
6D2B
102
{ACAD_REACTORS
330
6D29
102
}
330
6D29
100
AcDbDictionary
281
     1
  3
Normal
350
6D2C
100
AcDbDictionaryWithDefault
340
6D2C
  0
DICTIONARY
  5
6D51
102
{ACAD_REACTORS
330
6D29
102
}
330
6D29
100
AcDbDictionary
281
     1
  3
DIMASSOC
350
6D52
  0
LAYOUT
  5
6D3E
102
{ACAD_REACTORS
330
6D36
102
}
330
6D36
100
AcDbPlotSettings
  1

  2
RICOH IPSiO SP C710e (モノクロ)
  4

  6

 40
0.0
 41
0.0
 42
0.0
 43
0.0
 44
0.0
 45
0.0
 46
0.0
 47
0.0
 48
0.0
 49
0.0
140
0.0
141
0.0
142
1.0
143
1.0
 70
  1712
 72
     0
 73
     0
 74
     0
  7
INABA-CAD(IKEBE).ctb
 75
     0
147
1.0
148
0.0
149
0.0
100
AcDbLayout
  1
Model
 70
     1
 71
     0
 10
0.0
 20
0.0
 11
12.0
 21
9.0
 12
0.0
 22
0.0
 32
0.0
 14
0.0
 24
0.0
 34
0.0
 15
0.0
 25
0.0
 35
0.0
146
0.0
 13
0.0
 23
0.0
 33
0.0
 16
1.0
 26
0.0
 36
0.0
 17
0.0
 27
1.0
 37
0.0
 76
     0
330
6D3B
  0
LAYOUT
  5
6D3A
102
{ACAD_REACTORS
330
6D36
102
}
330
6D36
100
AcDbPlotSettings
  1

  2
RICOH IPSiO SP C710e (モノクロ)
  4

  6

 40
0.0
 41
0.0
 42
0.0
 43
0.0
 44
0.0
 45
0.0
 46
0.0
 47
0.0
 48
0.0
 49
0.0
140
0.0
141
0.0
142
1.0
143
1.0
 70
   688
 72
     0
 73
     0
 74
     5
  7
INABA-CAD(IKEBE).ctb
 75
    16
147
1.0
148
0.0
149
0.0
100
AcDbLayout
  1
ﾚｲｱｳﾄ1
 70
     1
 71
     1
 10
0.0
 20
0.0
 11
420.0
 21
297.0
 12
0.0
 22
0.0
 32
0.0
 14
1.000000000000000E+20
 24
1.000000000000000E+20
 34
1.000000000000000E+20
 15
-1.000000000000000E+20
 25
-1.000000000000000E+20
 35
-1.000000000000000E+20
146
0.0
 13
0.0
 23
0.0
 33
0.0
 16
1.0
 26
0.0
 36
0.0
 17
0.0
 27
1.0
 37
0.0
 76
     0
330
6D37
  0
MLINESTYLE
  5
6D34
102
{ACAD_REACTORS
330
6D33
102
}
330
6D33
100
AcDbMlineStyle
  2
STANDARD
 70
     0
  3

 62
   256
 51
90.0
 52
90.0
 71
     2
 49
0.5
 62
   256
  6
BYLAYER
 49
-0.5
 62
   256
  6
BYLAYER
  0
ACDBPLACEHOLDER
  5
6D2C
102
{ACAD_REACTORS
330
6D2B
102
}
330
6D2B
  0
DICTIONARYVAR
  5
6D52
102
{ACAD_REACTORS
330
6D51
102
}
330
6D51
100
DictionaryVariables
280
     0
  1
1
  0
ENDSEC
  0
EOF
