  0
SECTION
  2
HEADER
  9
$ACADVER
  1
AC1009
  9
$INSBASE
 10
0.0
 20
0.0
 30
0.0
  9
$EXTMIN
 10
25.653936834629562
 20
-1613.4568455193819
 30
0.0
  9
$EXTMAX
 10
454.94239824740828
 20
-1363.6758590209561
 30
0.0
  9
$LIMMIN
 10
0.0
 20
0.0
  9
$LIMMAX
 10
420.0
 20
297.0
  9
$ORTHOMODE
 70
     1
  9
$REGENMODE
 70
     1
  9
$FILLMODE
 70
     1
  9
$QTEXTMODE
 70
     0
  9
$MIRRTEXT
 70
     1
  9
$DRAGMODE
 70
     2
  9
$LTSCALE
 40
1.0
  9
$OSMODE
 70
    37
  9
$ATTMODE
 70
     1
  9
$TEXTSIZE
 40
2.5
  9
$TRACEWID
 40
1.0
  9
$TEXTSTYLE
  7
KANJI
  9
$CLAYER
  8
2寸法線
  9
$CELTYPE
  6
BYLAYER
  9
$CECOLOR
 62
   256
  9
$DIMSCALE
 40
0.0
  9
$DIMASZ
 40
1.8
  9
$DIMEXO
 40
1.0
  9
$DIMDLI
 40
0.0
  9
$DIMRND
 40
0.0
  9
$DIMDLE
 40
0.0
  9
$DIMEXE
 40
1.0
  9
$DIMTP
 40
0.0
  9
$DIMTM
 40
0.0
  9
$DIMTXT
 40
2.5
  9
$DIMCEN
 40
0.0
  9
$DIMTSZ
 40
0.0
  9
$DIMTOL
 70
     0
  9
$DIMLIM
 70
     0
  9
$DIMTIH
 70
     0
  9
$DIMTOH
 70
     0
  9
$DIMSE1
 70
     0
  9
$DIMSE2
 70
     0
  9
$DIMTAD
 70
     1
  9
$DIMZIN
 70
     8
  9
$DIMBLK
  1

  9
$DIMASO
 70
     1
  9
$DIMSHO
 70
     1
  9
$DIMPOST
  1

  9
$DIMAPOST
  1

  9
$DIMALT
 70
     0
  9
$DIMALTD
 70
     2
  9
$DIMALTF
 40
25.399999999999999
  9
$DIMLFAC
 40
1.0
  9
$DIMTOFL
 70
     1
  9
$DIMTVP
 40
0.0
  9
$DIMTIX
 70
     0
  9
$DIMSOXD
 70
     0
  9
$DIMSAH
 70
     1
  9
$DIMBLK1
  1
2
  9
$DIMBLK2
  1
2
  9
$DIMSTYLE
  2
M
  9
$DIMCLRD
 70
     0
  9
$DIMCLRE
 70
     0
  9
$DIMCLRT
 70
     0
  9
$DIMTFAC
 40
1.0
  9
$DIMGAP
 40
0.5
  9
$LUNITS
 70
     2
  9
$LUPREC
 70
     3
  9
$SKETCHINC
 40
1.0
  9
$FILLETRAD
 40
0.0
  9
$AUNITS
 70
     0
  9
$AUPREC
 70
     1
  9
$MENU
  1
.
  9
$ELEVATION
 40
0.0
  9
$PELEVATION
 40
0.0
  9
$THICKNESS
 40
0.0
  9
$LIMCHECK
 70
     0
  9
$BLIPMODE
 70
     0
  9
$CHAMFERA
 40
10.0
  9
$CHAMFERB
 40
10.0
  9
$SKPOLY
 70
     0
  9
$TDCREATE
 40
2454393.806994895
  9
$TDUPDATE
 40
2454396.4739881712
  9
$TDINDWG
 40
0.0561179861
  9
$TDUSRTIMER
 40
0.0561178009
  9
$USRTIMER
 70
     1
  9
$ANGBASE
 50
0.0
  9
$ANGDIR
 70
     0
  9
$PDMODE
 70
     0
  9
$PDSIZE
 40
0.0
  9
$PLINEWID
 40
0.0
  9
$COORDS
 70
     0
  9
$SPLFRAME
 70
     0
  9
$SPLINETYPE
 70
     6
  9
$SPLINESEGS
 70
     8
  9
$ATTDIA
 70
     1
  9
$ATTREQ
 70
     1
  9
$HANDLING
 70
     1
  9
$HANDSEED
  5
6603
  9
$SURFTAB1
 70
     6
  9
$SURFTAB2
 70
     6
  9
$SURFTYPE
 70
     6
  9
$SURFU
 70
     6
  9
$SURFV
 70
     6
  9
$UCSNAME
  2

  9
$UCSORG
 10
0.0
 20
0.0
 30
0.0
  9
$UCSXDIR
 10
1.0
 20
0.0
 30
0.0
  9
$UCSYDIR
 10
0.0
 20
1.0
 30
0.0
  9
$PUCSNAME
  2

  9
$PUCSORG
 10
0.0
 20
0.0
 30
0.0
  9
$PUCSXDIR
 10
1.0
 20
0.0
 30
0.0
  9
$PUCSYDIR
 10
0.0
 20
1.0
 30
0.0
  9
$USERI1
 70
     0
  9
$USERI2
 70
     0
  9
$USERI3
 70
     0
  9
$USERI4
 70
     0
  9
$USERI5
 70
     0
  9
$USERR1
 40
0.0
  9
$USERR2
 40
0.0
  9
$USERR3
 40
0.0
  9
$USERR4
 40
0.0
  9
$USERR5
 40
0.0
  9
$WORLDVIEW
 70
     1
  9
$SHADEDGE
 70
     3
  9
$SHADEDIF
 70
    70
  9
$TILEMODE
 70
     1
  9
$MAXACTVP
 70
    48
  9
$PLIMCHECK
 70
     0
  9
$PEXTMIN
 10
1.0000000000000000E+020
 20
1.0000000000000000E+020
 30
1.0000000000000000E+020
  9
$PEXTMAX
 10
-1.0000000000000000E+020
 20
-1.0000000000000000E+020
 30
-1.0000000000000000E+020
  9
$PLIMMIN
 10
0.0
 20
0.0
  9
$PLIMMAX
 10
420.0
 20
297.0
  9
$UNITMODE
 70
     0
  9
$VISRETAIN
 70
     1
  9
$PLINEGEN
 70
     0
  9
$PSLTSCALE
 70
     1
  0
ENDSEC
  0
SECTION
  2
TABLES
  0
TABLE
  2
VPORT
 70
     4
  0
VPORT
  2
*ACTIVE
 70
     0
 10
0.0
 20
0.0
 11
1.0
 21
1.0
 12
238.5693094449999
 22
-1480.6585522223299
 13
0.0
 23
0.0
 14
10.0
 24
10.0
 15
10.0
 25
10.0
 16
0.0
 26
0.0
 36
1.0
 17
0.0
 27
0.0
 37
0.0
 40
292.9443865501259
 41
1.5937904269081491
 42
50.0
 43
0.0
 44
0.0
 50
0.0
 51
0.0
 71
     0
 72
   100
 73
     1
 74
     1
 75
     0
 76
     0
 77
     0
 78
     0
  0
ENDTAB
  0
TABLE
  2
LTYPE
 70
     1
  0
LTYPE
  2
CONTINUOUS
 70
     0
  3
Solid line
 72
    65
 73
     0
 40
0.0
  0
ENDTAB
  0
TABLE
  2
LAYER
 70
     4
  0
LAYER
  2
0
 70
     0
 62
     7
  6
CONTINUOUS
  0
LAYER
  2
2寸法線
 70
     0
 62
     2
  6
CONTINUOUS
  0
LAYER
  2
1外形線
 70
     0
 62
     3
  6
CONTINUOUS
  0
LAYER
  2
DEFPOINTS
 70
     0
 62
     7
  6
CONTINUOUS
  0
ENDTAB
  0
TABLE
  2
STYLE
 70
     2
  0
STYLE
  2
STANDARD
 70
     0
 40
0.0
 41
1.0
 50
0.0
 71
     0
 42
2.5
  3
txt
  4

  0
STYLE
  2
KANJI
 70
     0
 40
0.0
 41
1.0
 50
0.0
 71
     0
 42
2.5
  3
simplex.shx
  4
bigfont.shx
  0
ENDTAB
  0
TABLE
  2
VIEW
 70
     0
  0
ENDTAB
  0
TABLE
  2
UCS
 70
     0
  0
ENDTAB
  0
TABLE
  2
APPID
 70
     1
  0
APPID
  2
ACAD
 70
     0
  0
ENDTAB
  0
TABLE
  2
DIMSTYLE
 70
     2
  0
DIMSTYLE
  2
STANDARD
 70
     0
  3

  4

  5

  6

  7

 40
1.0
 41
0.18
 42
0.0625
 43
0.38
 44
0.18
 45
0.0
 46
0.0
 47
0.0
 48
0.0
140
0.18
141
0.09
142
0.0
143
25.399999999999999
144
1.0
145
0.0
146
1.0
147
0.09
 71
     0
 72
     0
 73
     0
 74
     0
 75
     0
 76
     0
 77
     0
 78
     0
170
     0
171
     2
172
     1
173
     0
174
     0
175
     0
176
     0
177
     0
178
     0
  0
DIMSTYLE
  2
M
 70
     0
  3

  4

  5

  6

  7

 40
0.0
 41
2.0
 42
1.0
 43
0.0
 44
1.0
 45
0.0
 46
0.0
 47
0.0
 48
0.0
140
2.5
141
0.0
142
0.0
143
25.399999999999999
144
1.0
145
0.0
146
1.0
147
0.5
 71
     0
 72
     0
 73
     0
 74
     0
 75
     0
 76
     0
 77
     1
 78
     8
170
     0
171
     2
172
     1
173
     1
174
     0
175
     0
176
     0
177
     0
178
     0
  0
ENDTAB
  0
ENDSEC
  0
SECTION
  2
BLOCKS
  0
BLOCK
  8
0
  2
$MODEL_SPACE
 70
     0
 10
0.0
 20
0.0
 30
0.0
  3
$MODEL_SPACE
  1

  0
ENDBLK
  5
65DB
  8
0
  0
BLOCK
 67
     1
  8
0
  2
$PAPER_SPACE
 70
     0
 10
0.0
 20
0.0
 30
0.0
  3
$PAPER_SPACE
  1

  0
ENDBLK
  5
65D7
 67
     1
  8
0
  0
BLOCK
  8
0
  2
2
 70
     0
 10
0.0
 20
0.0
 30
0.0
  3
2
  1

  0
INSERT
  5
131
  8
0
  6
CONTINUOUS
 62
     0
  2
*U3
 10
0.0
 20
0.0
 30
0.0
1001
ACAD
1002
{
1000
R14_HATCH_DATA
1000
131
1011
1.0
1021
0.0
1031
0.0
1021
0.0
1031
0.0
1011
0.0
1021
0.0
1031
0.0
1021
1.0
1031
0.0
1011
0.0
1021
0.0
1031
0.0
1021
0.0
1031
1.0
1040
0.0
1010
0.0
1020
0.0
1030
1.0
1000
SOLID
1070
     1
1070
     0
1071
        1
1071
        1
1071
        3
1070
     1
1040
-0.9999999999983517
1040
0.2679491924306774
1040
0.0
1040
0.0
1070
     1
1040
0.0
1040
0.0
1040
-0.9999999999983517
1040
-0.2679491924306765
1070
     1
1040
-0.9999999999983524
1040
-0.267949192430676
1040
-0.9999999999983524
1040
0.2679491924306774
1071
        0
1070
     0
1070
     1
1071
        1
1040
2.9957451172313361
1040
-4.1249460962632014
1040
0.0
1002
}
  0
ENDBLK
  5
132
  8
0
  0
BLOCK
  8
0
  2
*U3
 70
     1
 10
0.0
 20
0.0
 30
0.0
  3
*U3
  1

  0
SOLID
  5
6012
  8
0
  6
CONTINUOUS
 62
     0
 10
0.666666666665568
 20
0.0000000000000004
 30
0.0
 11
0.9999999999983517
 21
0.2679491924306774
 31
0.0
 12
0.0
 22
0.0
 32
0.0
 13
0.0
 23
0.0
 33
0.0
210
0.0
220
0.0
230
-1.0
  0
SOLID
  5
6013
  8
0
  6
CONTINUOUS
 62
     0
 10
0.666666666665568
 20
0.0000000000000004
 30
0.0
 11
0.0
 21
0.0
 31
0.0
 12
0.9999999999983524
 22
-0.267949192430676
 32
0.0
 13
0.9999999999983524
 23
-0.267949192430676
 33
0.0
210
0.0
220
0.0
230
-1.0
  0
SOLID
  5
6014
  8
0
  6
CONTINUOUS
 62
     0
 10
0.666666666665568
 20
0.0000000000000004
 30
0.0
 11
0.9999999999983524
 21
-0.267949192430676
 31
0.0
 12
0.9999999999983517
 22
0.2679491924306774
 32
0.0
 13
0.9999999999983517
 23
0.2679491924306774
 33
0.0
210
0.0
220
0.0
230
-1.0
  0
ENDBLK
  5
6016
  8
0
  0
ENDSEC
  0
SECTION
  2
ENTITIES
  0
LINE
  5
5C88
  8
1外形線
 10
279.5045351707638
 20
-1396.9956641743511
 30
0.0
 11
279.5045351707634
 21
-1474.995664174349
 31
0.0
  0
LINE
  5
5C8E
  8
1外形線
  6
CONTINUOUS
 10
38.108028526755071
 20
-1474.995664174349
 30
0.0
 11
38.108028526755319
 21
-1417.9956641743511
 31
0.0
  0
ARC
  5
5C95
  8
1外形線
  6
CONTINUOUS
 10
124.10802852675511
 20
-1459.245664174349
 30
0.0
 40
12.0
 50
135.00000000000941
 51
180.0
  0
LINE
  5
5C9D
  8
1外形線
  6
CONTINUOUS
 10
112.108028526756
 20
-1474.9956641743479
 30
0.0
 11
112.10802852675521
 21
-1459.245664174349
 31
0.0
  0
LINE
  5
5C9E
  8
1外形線
 10
279.50453517076318
 20
-1469.995664174349
 30
0.0
 11
217.50453517076301
 21
-1469.995664174349
 31
0.0
  0
LINE
  5
5C9F
  8
1外形線
 10
279.5045351707634
 20
-1474.995664174349
 30
0.0
 11
217.5045351707634
 21
-1474.9956641743479
 31
0.0
  0
LINE
  5
5CA6
  8
1外形線
 10
217.5045351707634
 20
-1474.9956641743479
 30
0.0
 11
217.5045351707634
 21
-1398.9956641743511
 31
0.0
  0
LINE
  5
5CD1
  8
1外形線
  6
CONTINUOUS
 10
140.10802852675511
 20
-1447.245664174349
 30
0.0
 11
124.10802852675459
 21
-1447.245664174349
 31
0.0
  0
ARC
  5
5CD4
  8
1外形線
  6
CONTINUOUS
 10
124.10802852675459
 20
-1459.245664174349
 30
0.0
 40
12.0
 50
90.0
 51
135.00000000000921
  0
LINE
  5
6554
  8
2寸法線
 10
205.8050308976535
 20
-1410.2456641743511
 30
0.0
 11
291.96668130951861
 21
-1410.2456641743511
 31
0.0
  0
LINE
  5
6555
  8
1外形線
 10
243.5045351707634
 20
-1372.9956641743511
 30
0.0
 11
255.5045351707638
 21
-1372.9956641743511
 31
0.0
  0
ARC
  5
6556
  8
1外形線
 10
255.5045351707638
 20
-1396.9956641743511
 30
0.0
 40
24.0
 50
359.9999999999996
 51
90.0
  0
ARC
  5
6557
  8
1外形線
 10
243.5045351707634
 20
-1398.9956641743511
 30
0.0
 40
26.0
 50
90.0
 51
180.0
  0
ARC
  5
6558
  8
1外形線
 10
243.5045351707634
 20
-1421.4956641743511
 30
0.0
 40
26.0
 50
180.0
 51
270.0
  0
ARC
  5
6559
  8
1外形線
 10
255.5045351707638
 20
-1423.4956641743511
 30
0.0
 40
24.0
 50
270.0
 51
0.0000000000004211
  0
LINE
  5
655A
  8
1外形線
 10
243.5045351707634
 20
-1447.4956641743511
 30
0.0
 11
255.5045351707638
 21
-1447.4956641743511
 31
0.0
  0
LINE
  5
6582
  8
1外形線
  6
CONTINUOUS
 10
112.108028526756
 20
-1474.9956641743479
 30
0.0
 11
38.108028526755071
 21
-1474.995664174349
 31
0.0
  0
LINE
  5
6583
  8
1外形線
  6
CONTINUOUS
 10
112.1080285267556
 20
-1469.995664174349
 30
0.0
 11
38.108028526755092
 21
-1469.995664174349
 31
0.0
  0
LINE
  5
6584
  8
1外形線
  6
CONTINUOUS
 10
83.108028526755319
 20
-1372.9956641743511
 30
0.0
 11
140.10802852675539
 21
-1372.9956641743511
 31
0.0
  0
ARC
  5
658E
  8
1外形線
  6
CONTINUOUS
 10
83.108028526755064
 20
-1417.9956641743511
 30
0.0
 40
45.0
 50
89.999999999999687
 51
179.9999999999996
  0
LINE
  5
658F
  8
1外形線
  6
CONTINUOUS
 10
140.10802852675511
 20
-1447.245664174349
 30
0.0
 11
140.10802852675539
 21
-1372.9956641743511
 31
0.0
  0
LINE
  5
6590
  8
1外形線
  6
CONTINUOUS
 10
135.10802852675511
 20
-1447.245664174349
 30
0.0
 11
135.10802852675539
 21
-1372.9956641743511
 31
0.0
  0
LINE
  5
6591
  8
2寸法線
 10
40.681621655562232
 20
-1375.569257303157
 30
0.0
 11
131.10732667464649
 21
-1465.9949623222431
 31
0.0
  0
LINE
  5
6595
  8
2寸法線
 10
443.04899996520652
 20
-1375.569257303157
 30
0.0
 11
352.62329494612209
 21
-1465.9949623222431
 31
0.0
  0
ARC
  5
6596
  8
1外形線
  6
CONTINUOUS
 10
400.62259309401372
 20
-1417.9956641743511
 30
0.0
 40
45.0
 50
0.0000000000002869
 51
90.000000000000298
  0
LINE
  5
6598
  8
1外形線
  6
CONTINUOUS
 10
371.62259309401293
 20
-1474.9956641743479
 30
0.0
 11
445.62259309401372
 21
-1474.995664174349
 31
0.0
  0
LINE
  5
6599
  8
1外形線
  6
CONTINUOUS
 10
445.62259309401372
 20
-1474.995664174349
 30
0.0
 11
445.62259309401361
 21
-1417.9956641743511
 31
0.0
  0
LINE
  5
659A
  8
1外形線
  6
CONTINUOUS
 10
343.62259309401361
 20
-1447.245664174349
 30
0.0
 11
343.62259309401333
 21
-1372.9956641743511
 31
0.0
  0
LINE
  5
659B
  8
1外形線
  6
CONTINUOUS
 10
348.62259309401361
 20
-1447.245664174349
 30
0.0
 11
348.62259309401361
 21
-1423.4956641743511
 31
0.0
  0
LINE
  5
659C
  8
1外形線
  6
CONTINUOUS
 10
343.62259309401361
 20
-1447.245664174349
 30
0.0
 11
359.62259309401401
 21
-1447.245664174349
 31
0.0
  0
ARC
  5
659D
  8
1外形線
  6
CONTINUOUS
 10
359.62259309401401
 20
-1459.245664174349
 30
0.0
 40
12.0
 50
44.999999999990777
 51
90.0
  0
LINE
  5
659E
  8
1外形線
  6
CONTINUOUS
 10
371.62259309401293
 20
-1474.9956641743479
 30
0.0
 11
371.62259309401361
 21
-1459.245664174349
 31
0.0
  0
ARC
  5
659F
  8
1外形線
  6
CONTINUOUS
 10
359.62259309401361
 20
-1459.245664174349
 30
0.0
 40
12.0
 50
0.000000000000007
 51
44.999999999990607
  0
LINE
  5
65A0
  8
1外形線
  6
CONTINUOUS
 10
400.62259309401361
 20
-1372.9956641743511
 30
0.0
 11
343.62259309401333
 21
-1372.9956641743511
 31
0.0
  0
LINE
  5
65A3
  8
1外形線
  6
CONTINUOUS
 10
348.62259309401338
 20
-1396.9956641743511
 30
0.0
 11
348.62259309401333
 21
-1372.9956641743511
 31
0.0
  0
ARC
  5
65A4
  8
1外形線
 10
86.608028526755049
 20
-1558.70376461929
 30
0.0
 40
26.0
 50
0.000000000000007
 51
90.000000000000028
  0
LINE
  5
65A5
  8
1外形線
 10
140.10802852675249
 20
-1594.70376461929
 30
0.0
 11
140.10802852675221
 21
-1532.70376461929
 31
0.0
  0
LINE
  5
65A6
  8
1外形線
 10
135.10802852675249
 20
-1594.7037646192889
 30
0.0
 11
135.10802852675249
 21
-1532.7037646192889
 31
0.0
  0
ARC
  5
65A7
  8
1外形線
 10
64.108028526755049
 20
-1558.70376461929
 30
0.0
 40
26.0
 50
90.000000000000028
 51
180.0
  0
LINE
  5
65A8
  8
2寸法線
 10
75.358028526755049
 20
-1521.00426034618
 30
0.0
 11
75.358028526755049
 21
-1607.1659107580449
 31
0.0
  0
LINE
  5
65A9
  8
1外形線
 10
140.10802852675221
 20
-1532.70376461929
 30
0.0
 11
64.108028526755049
 21
-1532.70376461929
 31
0.0
  0
ARC
  5
65AA
  8
1外形線
 10
88.608028526755035
 20
-1570.70376461929
 30
0.0
 40
24.0
 50
269.9999999999996
 51
0.000000000000007
  0
LINE
  5
65AB
  8
1外形線
 10
62.108028526755312
 20
-1594.70376461929
 30
0.0
 11
140.10802852675249
 21
-1594.70376461929
 31
0.0
  0
LINE
  5
65AC
  8
1外形線
 10
112.60802852675501
 20
-1558.70376461929
 30
0.0
 11
112.60802852675501
 21
-1570.70376461929
 31
0.0
  0
ARC
  5
65AD
  8
1外形線
 10
62.108028526755049
 20
-1570.70376461929
 30
0.0
 40
24.0
 50
180.0
 51
270.0000000000004
  0
LINE
  5
65AE
  8
1外形線
 10
38.108028526755071
 20
-1558.70376461929
 30
0.0
 11
38.108028526755071
 21
-1570.70376461929
 31
0.0
  0
LINE
  5
65EF
  8
1外形線
  6
CONTINUOUS
 10
371.69813814630868
 20
-1470.231886182584
 30
0.0
 11
395.4479595231262
 21
-1470.1397744615531
 31
0.0
  0
LINE
  5
65F0
  8
1外形線
  6
CONTINUOUS
 10
421.9477602172621
 20
-1470.0369971728239
 30
0.0
 11
445.94757971383791
 21
-1469.94391585473
 31
0.0
  0
ENDSEC
  0
EOF
