  0
SECTION
  2
HEADER
  9
$ACADVER
  1
AC1009
  9
$INSBASE
 10
0.0
 20
0.0
 30
0.0
  9
$EXTMIN
 10
-200.1609769144498
 20
-1988.945278807874
 30
0.0
  9
$EXTMAX
 10
485.16797880337469
 20
-1618.466660550609
 30
0.0
  9
$LIMMIN
 10
0.0
 20
0.0
  9
$LIMMAX
 10
420.0
 20
297.0
  9
$ORTHOMODE
 70
     1
  9
$REGENMODE
 70
     1
  9
$FILLMODE
 70
     1
  9
$QTEXTMODE
 70
     0
  9
$MIRRTEXT
 70
     1
  9
$DRAGMODE
 70
     2
  9
$LTSCALE
 40
1.0
  9
$OSMODE
 70
    37
  9
$ATTMODE
 70
     1
  9
$TEXTSIZE
 40
2.5
  9
$TRACEWID
 40
1.0
  9
$TEXTSTYLE
  7
KANJI
  9
$CLAYER
  8
2寸法線
  9
$CELTYPE
  6
BYLAYER
  9
$CECOLOR
 62
   256
  9
$DIMSCALE
 40
0.0
  9
$DIMASZ
 40
1.8
  9
$DIMEXO
 40
1.0
  9
$DIMDLI
 40
0.0
  9
$DIMRND
 40
0.0
  9
$DIMDLE
 40
0.0
  9
$DIMEXE
 40
1.0
  9
$DIMTP
 40
0.0
  9
$DIMTM
 40
0.0
  9
$DIMTXT
 40
2.5
  9
$DIMCEN
 40
0.0
  9
$DIMTSZ
 40
0.0
  9
$DIMTOL
 70
     0
  9
$DIMLIM
 70
     0
  9
$DIMTIH
 70
     0
  9
$DIMTOH
 70
     0
  9
$DIMSE1
 70
     0
  9
$DIMSE2
 70
     0
  9
$DIMTAD
 70
     1
  9
$DIMZIN
 70
     8
  9
$DIMBLK
  1

  9
$DIMASO
 70
     1
  9
$DIMSHO
 70
     1
  9
$DIMPOST
  1

  9
$DIMAPOST
  1

  9
$DIMALT
 70
     0
  9
$DIMALTD
 70
     2
  9
$DIMALTF
 40
25.399999999999999
  9
$DIMLFAC
 40
1.0
  9
$DIMTOFL
 70
     1
  9
$DIMTVP
 40
0.0
  9
$DIMTIX
 70
     0
  9
$DIMSOXD
 70
     0
  9
$DIMSAH
 70
     1
  9
$DIMBLK1
  1
2
  9
$DIMBLK2
  1
2
  9
$DIMSTYLE
  2
M
  9
$DIMCLRD
 70
     0
  9
$DIMCLRE
 70
     0
  9
$DIMCLRT
 70
     0
  9
$DIMTFAC
 40
1.0
  9
$DIMGAP
 40
0.5
  9
$LUNITS
 70
     2
  9
$LUPREC
 70
     3
  9
$SKETCHINC
 40
1.0
  9
$FILLETRAD
 40
0.0
  9
$AUNITS
 70
     0
  9
$AUPREC
 70
     1
  9
$MENU
  1
.
  9
$ELEVATION
 40
0.0
  9
$PELEVATION
 40
0.0
  9
$THICKNESS
 40
0.0
  9
$LIMCHECK
 70
     0
  9
$BLIPMODE
 70
     0
  9
$CHAMFERA
 40
10.0
  9
$CHAMFERB
 40
10.0
  9
$SKPOLY
 70
     0
  9
$TDCREATE
 40
2454393.806994895
  9
$TDUPDATE
 40
2454396.471535543
  9
$TDINDWG
 40
0.0559096528
  9
$TDUSRTIMER
 40
0.0559094676
  9
$USRTIMER
 70
     1
  9
$ANGBASE
 50
0.0
  9
$ANGDIR
 70
     0
  9
$PDMODE
 70
     0
  9
$PDSIZE
 40
0.0
  9
$PLINEWID
 40
0.0
  9
$COORDS
 70
     0
  9
$SPLFRAME
 70
     0
  9
$SPLINETYPE
 70
     6
  9
$SPLINESEGS
 70
     8
  9
$ATTDIA
 70
     1
  9
$ATTREQ
 70
     1
  9
$HANDLING
 70
     1
  9
$HANDSEED
  5
6D1E
  9
$SURFTAB1
 70
     6
  9
$SURFTAB2
 70
     6
  9
$SURFTYPE
 70
     6
  9
$SURFU
 70
     6
  9
$SURFV
 70
     6
  9
$UCSNAME
  2

  9
$UCSORG
 10
0.0
 20
0.0
 30
0.0
  9
$UCSXDIR
 10
1.0
 20
0.0
 30
0.0
  9
$UCSYDIR
 10
0.0
 20
1.0
 30
0.0
  9
$PUCSNAME
  2

  9
$PUCSORG
 10
0.0
 20
0.0
 30
0.0
  9
$PUCSXDIR
 10
1.0
 20
0.0
 30
0.0
  9
$PUCSYDIR
 10
0.0
 20
1.0
 30
0.0
  9
$USERI1
 70
     0
  9
$USERI2
 70
     0
  9
$USERI3
 70
     0
  9
$USERI4
 70
     0
  9
$USERI5
 70
     0
  9
$USERR1
 40
0.0
  9
$USERR2
 40
0.0
  9
$USERR3
 40
0.0
  9
$USERR4
 40
0.0
  9
$USERR5
 40
0.0
  9
$WORLDVIEW
 70
     1
  9
$SHADEDGE
 70
     3
  9
$SHADEDIF
 70
    70
  9
$TILEMODE
 70
     1
  9
$MAXACTVP
 70
    48
  9
$PLIMCHECK
 70
     0
  9
$PEXTMIN
 10
1.0000000000000000E+020
 20
1.0000000000000000E+020
 30
1.0000000000000000E+020
  9
$PEXTMAX
 10
-1.0000000000000000E+020
 20
-1.0000000000000000E+020
 30
-1.0000000000000000E+020
  9
$PLIMMIN
 10
0.0
 20
0.0
  9
$PLIMMAX
 10
420.0
 20
297.0
  9
$UNITMODE
 70
     0
  9
$VISRETAIN
 70
     1
  9
$PLINEGEN
 70
     0
  9
$PSLTSCALE
 70
     1
  0
ENDSEC
  0
SECTION
  2
TABLES
  0
TABLE
  2
VPORT
 70
     3
  0
VPORT
  2
*ACTIVE
 70
     0
 10
0.0
 20
0.0
 11
1.0
 21
1.0
 12
184.63163129564239
 22
-1772.3761538021829
 13
0.0
 23
0.0
 14
10.0
 24
10.0
 15
10.0
 25
10.0
 16
0.0
 26
0.0
 36
1.0
 17
0.0
 27
0.0
 37
0.0
 40
382.08586191337758
 41
1.5937904269081491
 42
50.0
 43
0.0
 44
0.0
 50
0.0
 51
0.0
 71
     0
 72
   100
 73
     1
 74
     1
 75
     0
 76
     0
 77
     0
 78
     0
  0
ENDTAB
  0
TABLE
  2
LTYPE
 70
     4
  0
LTYPE
  2
CONTINUOUS
 70
     0
  3
Solid line
 72
    65
 73
     0
 40
0.0
  0
ENDTAB
  0
TABLE
  2
LAYER
 70
    10
  0
LAYER
  2
0
 70
     0
 62
     7
  6
CONTINUOUS
  0
LAYER
  2
2寸法線
 70
     0
 62
     2
  6
CONTINUOUS
  0
LAYER
  2
1外形線
 70
     0
 62
     3
  6
CONTINUOUS
  0
LAYER
  2
DEFPOINTS
 70
     0
 62
     7
  6
CONTINUOUS
  0
ENDTAB
  0
TABLE
  2
STYLE
 70
     3
  0
STYLE
  2
STANDARD
 70
     0
 40
0.0
 41
1.0
 50
0.0
 71
     0
 42
2.5
  3
txt
  4

  0
STYLE
  2
KANJI
 70
     0
 40
0.0
 41
1.0
 50
0.0
 71
     0
 42
2.5
  3
simplex.shx
  4
bigfont.shx
  0
ENDTAB
  0
TABLE
  2
VIEW
 70
     0
  0
ENDTAB
  0
TABLE
  2
UCS
 70
     0
  0
ENDTAB
  0
TABLE
  2
APPID
 70
     1
  0
APPID
  2
ACAD
 70
     0
  0
ENDTAB
  0
TABLE
  2
DIMSTYLE
 70
     5
  0
DIMSTYLE
  2
STANDARD
 70
     0
  3

  4

  5

  6

  7

 40
1.0
 41
0.18
 42
0.0625
 43
0.38
 44
0.18
 45
0.0
 46
0.0
 47
0.0
 48
0.0
140
0.18
141
0.09
142
0.0
143
25.399999999999999
144
1.0
145
0.0
146
1.0
147
0.09
 71
     0
 72
     0
 73
     0
 74
     0
 75
     0
 76
     0
 77
     0
 78
     0
170
     0
171
     2
172
     1
173
     0
174
     0
175
     0
176
     0
177
     0
178
     0
  0
DIMSTYLE
  2
M
 70
     0
  3

  4

  5

  6

  7

 40
0.0
 41
2.0
 42
1.0
 43
0.0
 44
1.0
 45
0.0
 46
0.0
 47
0.0
 48
0.0
140
2.5
141
0.0
142
0.0
143
25.399999999999999
144
1.0
145
0.0
146
1.0
147
0.5
 71
     0
 72
     0
 73
     0
 74
     0
 75
     0
 76
     0
 77
     1
 78
     8
170
     0
171
     2
172
     1
173
     1
174
     0
175
     0
176
     0
177
     0
178
     0
  0
ENDTAB
  0
ENDSEC
  0
SECTION
  2
BLOCKS
  0
BLOCK
  8
0
  2
$MODEL_SPACE
 70
     0
 10
0.0
 20
0.0
 30
0.0
  3
$MODEL_SPACE
  1

  0
ENDBLK
  5
685F
  8
0
  0
BLOCK
 67
     1
  8
0
  2
$PAPER_SPACE
 70
     0
 10
0.0
 20
0.0
 30
0.0
  3
$PAPER_SPACE
  1

  0
ENDBLK
  5
685B
 67
     1
  8
0
  0
BLOCK
  8
0
  2
2
 70
     0
 10
0.0
 20
0.0
 30
0.0
  3
2
  1

  0
INSERT
  5
131
  8
0
  6
CONTINUOUS
 62
     0
  2
*U3
 10
0.0
 20
0.0
 30
0.0
1001
ACAD
1002
{
1000
R14_HATCH_DATA
1000
131
1011
1.0
1021
-0.0
1031
0.0
1021
0.0
1031
0.0
1011
0.0
1021
-0.0
1031
0.0
1021
1.0
1031
0.0
1011
0.0
1021
-0.0
1031
0.0
1021
0.0
1031
1.0
1040
0.0
1010
0.0
1020
0.0
1030
1.0
1000
SOLID
1070
     1
1070
     0
1071
        1
1071
        1
1071
        3
1070
     1
1040
-0.9999999999983517
1040
0.2679491924306774
1040
0.0
1040
0.0
1070
     1
1040
0.0
1040
0.0
1040
-0.9999999999983517
1040
-0.2679491924306765
1070
     1
1040
-0.9999999999983524
1040
-0.267949192430676
1040
-0.9999999999983524
1040
0.2679491924306774
1071
        0
1070
     0
1070
     1
1071
        1
1040
2.9957451172313361
1040
-4.1249460962632014
1040
0.0
1002
}
  0
ENDBLK
  5
132
  8
0
  0
BLOCK
  8
0
  2
*U3
 70
     1
 10
0.0
 20
0.0
 30
0.0
  3
*U3
  1

  0
SOLID
  5
6721
  8
0
  6
CONTINUOUS
 62
     0
 10
0.666666666665568
 20
0.0000000000000004
 30
0.0
 11
0.9999999999983517
 21
0.2679491924306774
 31
0.0
 12
0.0
 22
0.0
 32
0.0
 13
0.0
 23
0.0
 33
0.0
210
0.0
220
0.0
230
-1.0
  0
SOLID
  5
6722
  8
0
  6
CONTINUOUS
 62
     0
 10
0.666666666665568
 20
0.0000000000000004
 30
0.0
 11
0.0
 21
0.0
 31
0.0
 12
0.9999999999983524
 22
-0.267949192430676
 32
0.0
 13
0.9999999999983524
 23
-0.267949192430676
 33
0.0
210
0.0
220
0.0
230
-1.0
  0
SOLID
  5
6723
  8
0
  6
CONTINUOUS
 62
     0
 10
0.666666666665568
 20
0.0000000000000004
 30
0.0
 11
0.9999999999983524
 21
-0.267949192430676
 31
0.0
 12
0.9999999999983517
 22
0.2679491924306774
 32
0.0
 13
0.9999999999983517
 23
0.2679491924306774
 33
0.0
210
0.0
220
0.0
230
-1.0
  0
ENDBLK
  5
6725
  8
0
  0
ENDSEC
  0
SECTION
  2
ENTITIES
  0
LINE
  5
6537
  8
1外形線
 10
209.97731739663411
 20
-1661.6427830328089
 30
0.0
 11
209.97731739663399
 21
-1773.6427830328089
 31
0.0
  0
LINE
  5
6CB3
  8
1外形線
 62
     2
 10
118.44950888965739
 20
-1684.64278303281
 30
0.0
 11
222.1772683289409
 21
-1684.64278303281
 31
0.0
  0
LINE
  5
6CB4
  8
1外形線
 10
162.97731739663411
 20
-1637.64278303281
 30
0.0
 11
185.97731739663399
 21
-1637.64278303281
 31
0.0
  0
ARC
  5
6CB5
  8
1外形線
 10
185.97731739663399
 20
-1661.6427830328089
 30
0.0
 40
24.0
 50
0.0
 51
90.0
  0
LINE
  5
6CC3
  8
1外形線
 10
136.97731739663411
 20
-1663.6427830328089
 30
0.0
 11
136.97731739663411
 21
-1773.6427830328089
 31
0.0
  0
ARC
  5
6CC4
  8
1外形線
 10
162.97731739663411
 20
-1663.6427830328089
 30
0.0
 40
26.0
 50
90.0
 51
180.0
  0
ARC
  5
6CC5
  8
1外形線
 10
185.97731739663399
 20
-1707.64278303281
 30
0.0
 40
24.0
 50
270.0
 51
0.0
  0
ARC
  5
6CC6
  8
1外形線
 10
162.97731739663411
 20
-1705.64278303281
 30
0.0
 40
26.0
 50
180.0
 51
270.0
  0
LINE
  5
6CC7
  8
1外形線
 10
162.97731739663411
 20
-1731.64278303281
 30
0.0
 11
185.97731739663399
 21
-1731.64278303281
 31
0.0
  0
LINE
  5
6CC8
  8
1外形線
 10
136.97731739663411
 20
-1773.6427830328089
 30
0.0
 11
209.97731739663399
 21
-1773.6427830328089
 31
0.0
  0
LINE
  5
6CC9
  8
1外形線
 10
136.97731739663411
 20
-1768.64278303281
 30
0.0
 11
209.97731739663399
 21
-1768.6427830328089
 31
0.0
  0
LINE
  5
6CE3
  8
1外形線
 10
-5.1859413847621729
 20
-1637.64278303281
 30
0.0
 11
80.814058615237187
 21
-1637.64278303281
 31
0.0
  0
LINE
  5
6CE5
  8
1外形線
 10
80.814058615237187
 20
-1731.64278303281
 30
0.0
 11
63.81405861523784
 21
-1731.64278303281
 31
0.0
  0
LINE
  5
6CE6
  8
1外形線
 10
75.814058615237855
 20
-1637.64278303281
 30
0.0
 11
75.814058615237855
 21
-1731.64278303281
 31
0.0
  0
LINE
  5
6CE7
  8
1外形線
 10
80.814058615237187
 20
-1637.64278303281
 30
0.0
 11
80.814058615237187
 21
-1731.64278303281
 31
0.0
  0
ARC
  5
6CE8
  8
1外形線
 10
-5.1859413847621996
 20
-1687.64278303281
 30
0.0
 40
50.0
 50
89.999999999999957
 51
135.00000000000429
  0
ARC
  5
6CE9
  8
1外形線
 10
63.814058615237819
 20
-1756.64278303281
 30
0.0
 40
25.0
 50
89.999999999999943
 51
134.99999999998681
  0
LINE
  5
6CEA
  8
1外形線
 10
-55.185941384761691
 20
-1687.6427830328171
 30
0.0
 11
-55.185941384749178
 21
-1773.6427830328159
 31
0.0
  0
ARC
  5
6CEB
  8
1外形線
 10
-5.1859413847616898
 20
-1687.64278303281
 30
0.0
 40
50.0
 50
135.00000000000401
 51
180.00000000000841
  0
LINE
  5
6CEC
  8
1外形線
 10
-55.185941384749178
 20
-1773.6427830328159
 30
0.0
 11
38.814058615250808
 21
-1773.6427830328021
 31
0.0
  0
LINE
  5
6CED
  8
1外形線
 10
-55.185941384749867
 20
-1768.6427830328171
 30
0.0
 11
38.814058615250133
 21
-1768.642783032803
 31
0.0
  0
LINE
  5
6CEE
  8
1外形線
 10
38.814058615250808
 20
-1773.6427830328021
 30
0.0
 11
38.814058615248307
 21
-1756.6427830328039
 31
0.0
  0
ARC
  5
6CEF
  8
1外形線
 10
63.814058615248541
 20
-1756.6427830327989
 30
0.0
 40
25.0
 50
135.0000000000214
 51
180.00000000000841
  0
LINE
  5
6CF0
  8
1外形線
 62
     2
 10
65.540544938939433
 20
-1758.3692693564899
 30
0.0
 11
-61.849251141500112
 21
-1630.9794732760511
 31
0.0
  0
LINE
  5
6CF3
  8
1外形線
 62
     2
 10
290.54846019341318
 20
-1758.3692693564899
 30
0.0
 11
417.9382562738528
 21
-1630.9794732760511
 31
0.0
  0
LINE
  5
6CF5
  8
1外形線
 10
411.27494651710191
 20
-1773.6427830328159
 30
0.0
 11
317.2749465171018
 21
-1773.6427830328021
 31
0.0
  0
LINE
  5
6CF6
  8
1外形線
 10
361.27494651711481
 20
-1637.64278303281
 30
0.0
 11
275.2749465171155
 21
-1637.64278303281
 31
0.0
  0
LINE
  5
6CF7
  8
1外形線
 10
411.2749465171143
 20
-1687.6427830328171
 30
0.0
 11
411.27494651710191
 21
-1773.6427830328159
 31
0.0
  0
ARC
  5
6CF8
  8
1外形線
 10
361.27494651711481
 20
-1687.64278303281
 30
0.0
 40
50.0
 50
44.999999999995651
 51
90.000000000000057
  0
ARC
  5
6CF9
  8
1外形線
 10
361.2749465171143
 20
-1687.64278303281
 30
0.0
 40
50.0
 50
359.99999999999159
 51
44.999999999996007
  0
LINE
  5
6CFA
  8
1外形線
 10
275.2749465171155
 20
-1637.64278303281
 30
0.0
 11
275.2749465171155
 21
-1731.64278303281
 31
0.0
  0
LINE
  5
6CFB
  8
1外形線
 10
280.27494651711481
 20
-1637.64278303281
 30
0.0
 11
280.27494651711481
 21
-1661.6427830328089
 31
0.0
  0
LINE
  5
6CFC
  8
1外形線
 10
275.2749465171155
 20
-1731.64278303281
 30
0.0
 11
292.27494651711481
 21
-1731.64278303281
 31
0.0
  0
ARC
  5
6CFD
  8
1外形線
 10
292.27494651710413
 20
-1756.6427830327989
 30
0.0
 40
25.0
 50
359.99999999999159
 51
44.999999999978499
  0
LINE
  5
6CFE
  8
1外形線
 10
317.2749465171018
 20
-1773.6427830328021
 30
0.0
 11
317.2749465171043
 21
-1756.6427830328039
 31
0.0
  0
ARC
  5
6CFF
  8
1外形線
 10
292.27494651711481
 20
-1756.64278303281
 30
0.0
 40
25.0
 50
45.000000000013159
 51
90.000000000000057
  0
LINE
  5
6D02
  8
1外形線
 10
280.27494651711481
 20
-1707.64278303281
 30
0.0
 11
280.27494651711481
 21
-1731.64278303281
 31
0.0
  0
LINE
  5
6D03
  8
1外形線
 10
341.2749465170852
 20
-1768.642783032798
 30
0.0
 11
317.2749465170848
 21
-1768.6427830327909
 31
0.0
  0
LINE
  5
6D04
  8
1外形線
 10
411.2749465170848
 20
-1768.64278303282
 30
0.0
 11
387.2749465170852
 21
-1768.6427830328121
 31
0.0
  0
LINE
  5
6D05
  8
1外形線
 10
80.814058615250588
 20
-1858.056496213539
 30
0.0
 11
80.814058615250588
 21
-1931.056496213539
 31
0.0
  0
LINE
  5
6D06
  8
1外形線
 10
75.814058615251255
 20
-1858.056496213539
 30
0.0
 11
75.814058615250588
 21
-1931.056496213539
 31
0.0
  0
ARC
  5
6D07
  8
1外形線
 10
14.814058615250699
 20
-1907.0564962135379
 30
0.0
 40
24.0
 50
270.0
 51
0.000000000000007
  0
ARC
  5
6D08
  8
1外形線
 10
-31.185941384749299
 20
-1907.0564962135379
 30
0.0
 40
24.0
 50
180.0
 51
270.0
  0
LINE
  5
6D09
  8
1外形線
 62
     2
 10
-8.1859413847491851
 20
-1839.5286877065621
 30
0.0
 11
-8.1859413847491851
 21
-1943.256447145845
 31
0.0
  0
LINE
  5
6D0A
  8
1外形線
 10
-29.185941384749182
 20
-1858.056496213539
 30
0.0
 11
80.814058615250588
 21
-1858.056496213539
 31
0.0
  0
ARC
  5
6D0B
  8
1外形線
 10
12.814058615250699
 20
-1884.056496213539
 30
0.0
 40
26.0
 50
0.000000000000007
 51
90.000000000000028
  0
LINE
  5
6D0C
  8
1外形線
 10
38.814058615250808
 20
-1884.056496213539
 30
0.0
 11
38.814058615250808
 21
-1907.0564962135379
 31
0.0
  0
ARC
  5
6D0D
  8
1外形線
 10
-29.185941384749292
 20
-1884.056496213539
 30
0.0
 40
26.0
 50
90.000000000000028
 51
180.0
  0
LINE
  5
6D0E
  8
1外形線
 10
-55.185941384749178
 20
-1884.056496213539
 30
0.0
 11
-55.185941384749178
 21
-1907.0564962135379
 31
0.0
  0
LINE
  5
6D0F
  8
1外形線
 10
-31.185941384749182
 20
-1931.056496213539
 30
0.0
 11
80.814058615250588
 21
-1931.056496213539
 31
0.0
  0
ENDSEC
  0
EOF
