  0
SECTION
  2
HEADER
  9
$ACADVER
  1
AC1009
  9
$INSBASE
 10
0.0
 20
0.0
 30
0.0
  9
$EXTMIN
 10
-176.15672666694661
 20
-2352.8023266316859
 30
0.0
  9
$EXTMAX
 10
300.9939315429944
 20
-1923.7330730622391
 30
0.0
  9
$LIMMIN
 10
0.0
 20
0.0
  9
$LIMMAX
 10
420.0
 20
297.0
  9
$ORTHOMODE
 70
     1
  9
$REGENMODE
 70
     1
  9
$FILLMODE
 70
     1
  9
$QTEXTMODE
 70
     0
  9
$MIRRTEXT
 70
     1
  9
$DRAGMODE
 70
     2
  9
$LTSCALE
 40
1.0
  9
$OSMODE
 70
    37
  9
$ATTMODE
 70
     1
  9
$TEXTSIZE
 40
2.5
  9
$TRACEWID
 40
1.0
  9
$TEXTSTYLE
  7
KANJI
  9
$CLAYER
  8
2寸法線
  9
$CELTYPE
  6
BYLAYER
  9
$CECOLOR
 62
   256
  9
$DIMSCALE
 40
0.0
  9
$DIMASZ
 40
1.8
  9
$DIMEXO
 40
1.0
  9
$DIMDLI
 40
0.0
  9
$DIMRND
 40
0.0
  9
$DIMDLE
 40
0.0
  9
$DIMEXE
 40
1.0
  9
$DIMTP
 40
0.0
  9
$DIMTM
 40
0.0
  9
$DIMTXT
 40
2.5
  9
$DIMCEN
 40
0.0
  9
$DIMTSZ
 40
0.0
  9
$DIMTOL
 70
     0
  9
$DIMLIM
 70
     0
  9
$DIMTIH
 70
     0
  9
$DIMTOH
 70
     0
  9
$DIMSE1
 70
     0
  9
$DIMSE2
 70
     0
  9
$DIMTAD
 70
     1
  9
$DIMZIN
 70
     8
  9
$DIMBLK
  1

  9
$DIMASO
 70
     1
  9
$DIMSHO
 70
     1
  9
$DIMPOST
  1

  9
$DIMAPOST
  1

  9
$DIMALT
 70
     0
  9
$DIMALTD
 70
     2
  9
$DIMALTF
 40
25.399999999999999
  9
$DIMLFAC
 40
1.0
  9
$DIMTOFL
 70
     1
  9
$DIMTVP
 40
0.0
  9
$DIMTIX
 70
     0
  9
$DIMSOXD
 70
     0
  9
$DIMSAH
 70
     1
  9
$DIMBLK1
  1
2
  9
$DIMBLK2
  1
2
  9
$DIMSTYLE
  2
M
  9
$DIMCLRD
 70
     0
  9
$DIMCLRE
 70
     0
  9
$DIMCLRT
 70
     0
  9
$DIMTFAC
 40
1.0
  9
$DIMGAP
 40
0.5
  9
$LUNITS
 70
     2
  9
$LUPREC
 70
     3
  9
$SKETCHINC
 40
1.0
  9
$FILLETRAD
 40
26.0
  9
$AUNITS
 70
     0
  9
$AUPREC
 70
     1
  9
$MENU
  1
.
  9
$ELEVATION
 40
0.0
  9
$PELEVATION
 40
0.0
  9
$THICKNESS
 40
0.0
  9
$LIMCHECK
 70
     0
  9
$BLIPMODE
 70
     0
  9
$CHAMFERA
 40
10.0
  9
$CHAMFERB
 40
10.0
  9
$SKPOLY
 70
     0
  9
$TDCREATE
 40
2454393.806994895
  9
$TDUPDATE
 40
2454396.478681088
  9
$TDINDWG
 40
0.0581834144
  9
$TDUSRTIMER
 40
0.0581832292
  9
$USRTIMER
 70
     1
  9
$ANGBASE
 50
0.0
  9
$ANGDIR
 70
     0
  9
$PDMODE
 70
     0
  9
$PDSIZE
 40
0.0
  9
$PLINEWID
 40
0.0
  9
$COORDS
 70
     0
  9
$SPLFRAME
 70
     0
  9
$SPLINETYPE
 70
     6
  9
$SPLINESEGS
 70
     8
  9
$ATTDIA
 70
     1
  9
$ATTREQ
 70
     1
  9
$HANDLING
 70
     1
  9
$HANDSEED
  5
71B0
  9
$SURFTAB1
 70
     6
  9
$SURFTAB2
 70
     6
  9
$SURFTYPE
 70
     6
  9
$SURFU
 70
     6
  9
$SURFV
 70
     6
  9
$UCSNAME
  2

  9
$UCSORG
 10
0.0
 20
0.0
 30
0.0
  9
$UCSXDIR
 10
1.0
 20
0.0
 30
0.0
  9
$UCSYDIR
 10
0.0
 20
1.0
 30
0.0
  9
$PUCSNAME
  2

  9
$PUCSORG
 10
0.0
 20
0.0
 30
0.0
  9
$PUCSXDIR
 10
1.0
 20
0.0
 30
0.0
  9
$PUCSYDIR
 10
0.0
 20
1.0
 30
0.0
  9
$USERI1
 70
     0
  9
$USERI2
 70
     0
  9
$USERI3
 70
     0
  9
$USERI4
 70
     0
  9
$USERI5
 70
     0
  9
$USERR1
 40
0.0
  9
$USERR2
 40
0.0
  9
$USERR3
 40
0.0
  9
$USERR4
 40
0.0
  9
$USERR5
 40
0.0
  9
$WORLDVIEW
 70
     1
  9
$SHADEDGE
 70
     3
  9
$SHADEDIF
 70
    70
  9
$TILEMODE
 70
     1
  9
$MAXACTVP
 70
    48
  9
$PLIMCHECK
 70
     0
  9
$PEXTMIN
 10
1.0000000000000000E+020
 20
1.0000000000000000E+020
 30
1.0000000000000000E+020
  9
$PEXTMAX
 10
-1.0000000000000000E+020
 20
-1.0000000000000000E+020
 30
-1.0000000000000000E+020
  9
$PLIMMIN
 10
0.0
 20
0.0
  9
$PLIMMAX
 10
420.0
 20
297.0
  9
$UNITMODE
 70
     0
  9
$VISRETAIN
 70
     1
  9
$PLINEGEN
 70
     0
  9
$PSLTSCALE
 70
     1
  0
ENDSEC
  0
SECTION
  2
TABLES
  0
TABLE
  2
VPORT
 70
     3
  0
VPORT
  2
*ACTIVE
 70
     0
 10
0.0
 20
0.0
 11
1.0
 21
1.0
 12
59.09525653311195
 22
-2084.166413013606
 13
0.0
 23
0.0
 14
10.0
 24
10.0
 15
10.0
 25
10.0
 16
0.0
 26
0.0
 36
1.0
 17
0.0
 27
0.0
 37
0.0
 40
282.88869047157669
 41
1.5937904269081491
 42
50.0
 43
0.0
 44
0.0
 50
0.0
 51
0.0
 71
     0
 72
   100
 73
     1
 74
     1
 75
     0
 76
     0
 77
     0
 78
     0
  0
ENDTAB
  0
TABLE
  2
LTYPE
 70
     4
  0
LTYPE
  2
CONTINUOUS
 70
     0
  3
Solid line
 72
    65
 73
     0
 40
0.0
  0
ENDTAB
  0
TABLE
  2
LAYER
 70
    10
  0
LAYER
  2
0
 70
     0
 62
     7
  6
CONTINUOUS
  0
LAYER
  2
2寸法線
 70
     0
 62
     2
  6
CONTINUOUS
  0
LAYER
  2
1外形線
 70
     0
 62
     3
  6
CONTINUOUS
  0
LAYER
  2
DEFPOINTS
 70
     0
 62
     7
  6
CONTINUOUS
  0
ENDTAB
  0
TABLE
  2
STYLE
 70
     3
  0
STYLE
  2
STANDARD
 70
     0
 40
0.0
 41
1.0
 50
0.0
 71
     0
 42
2.5
  3
txt
  4

  0
STYLE
  2
KANJI
 70
     0
 40
0.0
 41
1.0
 50
0.0
 71
     0
 42
2.5
  3
simplex.shx
  4
bigfont.shx
  0
ENDTAB
  0
TABLE
  2
VIEW
 70
     0
  0
ENDTAB
  0
TABLE
  2
UCS
 70
     0
  0
ENDTAB
  0
TABLE
  2
APPID
 70
     1
  0
APPID
  2
ACAD
 70
     0
  0
ENDTAB
  0
TABLE
  2
DIMSTYLE
 70
     5
  0
DIMSTYLE
  2
STANDARD
 70
     0
  3

  4

  5

  6

  7

 40
1.0
 41
0.18
 42
0.0625
 43
0.38
 44
0.18
 45
0.0
 46
0.0
 47
0.0
 48
0.0
140
0.18
141
0.09
142
0.0
143
25.399999999999999
144
1.0
145
0.0
146
1.0
147
0.09
 71
     0
 72
     0
 73
     0
 74
     0
 75
     0
 76
     0
 77
     0
 78
     0
170
     0
171
     2
172
     1
173
     0
174
     0
175
     0
176
     0
177
     0
178
     0
  0
DIMSTYLE
  2
M
 70
     0
  3

  4

  5

  6

  7

 40
0.0
 41
2.0
 42
1.0
 43
0.0
 44
1.0
 45
0.0
 46
0.0
 47
0.0
 48
0.0
140
2.5
141
0.0
142
0.0
143
25.399999999999999
144
1.0
145
0.0
146
1.0
147
0.5
 71
     0
 72
     0
 73
     0
 74
     0
 75
     0
 76
     0
 77
     1
 78
     8
170
     0
171
     2
172
     1
173
     1
174
     0
175
     0
176
     0
177
     0
178
     0
  0
ENDTAB
  0
ENDSEC
  0
SECTION
  2
BLOCKS
  0
BLOCK
  8
0
  2
$MODEL_SPACE
 70
     0
 10
0.0
 20
0.0
 30
0.0
  3
$MODEL_SPACE
  1

  0
ENDBLK
  5
6CDC
  8
0
  0
BLOCK
 67
     1
  8
0
  2
$PAPER_SPACE
 70
     0
 10
0.0
 20
0.0
 30
0.0
  3
$PAPER_SPACE
  1

  0
ENDBLK
  5
6CD8
 67
     1
  8
0
  0
BLOCK
  8
0
  2
2
 70
     0
 10
0.0
 20
0.0
 30
0.0
  3
2
  1

  0
INSERT
  5
131
  8
0
  6
CONTINUOUS
 62
     0
  2
*U3
 10
0.0
 20
0.0
 30
0.0
1001
ACAD
1002
{
1000
R14_HATCH_DATA
1000
131
1011
1.0
1021
0.0
1031
-2.3714219875802803E+081
1021
0.0
1031
0.0
1011
0.0
1021
0.0
1031
-2.3714219875802803E+081
1021
1.0
1031
0.0
1011
0.0
1021
0.0
1031
-2.3714219875802803E+081
1021
0.0
1031
1.0
1040
0.0
1010
0.0
1020
0.0
1030
1.0
1000
SOLID
1070
     1
1070
     0
1071
        1
1071
        1
1071
        3
1070
     1
1040
-0.9999999999983517
1040
0.2679491924306774
1040
0.0
1040
0.0
1070
     1
1040
0.0
1040
0.0
1040
-0.9999999999983517
1040
-0.2679491924306765
1070
     1
1040
-0.9999999999983524
1040
-0.267949192430676
1040
-0.9999999999983524
1040
0.2679491924306774
1071
        0
1070
     0
1070
     1
1071
        1
1040
2.9957451172313361
1040
-4.1249460962632014
1040
0.0
1002
}
  0
ENDBLK
  5
132
  8
0
  0
BLOCK
  8
0
  2
*U3
 70
     1
 10
0.0
 20
0.0
 30
0.0
  3
*U3
  1

  0
SOLID
  5
6B94
  8
0
  6
CONTINUOUS
 62
     0
 10
0.666666666665568
 20
0.0000000000000004
 30
0.0
 11
0.9999999999983517
 21
0.2679491924306774
 31
0.0
 12
0.0
 22
0.0
 32
0.0
 13
0.0
 23
0.0
 33
0.0
210
0.0
220
0.0
230
-1.0
  0
SOLID
  5
6B95
  8
0
  6
CONTINUOUS
 62
     0
 10
0.666666666665568
 20
0.0000000000000004
 30
0.0
 11
0.0
 21
0.0
 31
0.0
 12
0.9999999999983524
 22
-0.267949192430676
 32
0.0
 13
0.9999999999983524
 23
-0.267949192430676
 33
0.0
210
0.0
220
0.0
230
-1.0
  0
SOLID
  5
6B96
  8
0
  6
CONTINUOUS
 62
     0
 10
0.666666666665568
 20
0.0000000000000004
 30
0.0
 11
0.9999999999983524
 21
-0.267949192430676
 31
0.0
 12
0.9999999999983517
 22
0.2679491924306774
 32
0.0
 13
0.9999999999983517
 23
0.2679491924306774
 33
0.0
210
0.0
220
0.0
230
-1.0
  0
ENDBLK
  5
6B98
  8
0
  0
ENDSEC
  0
SECTION
  2
ENTITIES
  0
LINE
  5
714D
  8
1外形線
 62
     2
 10
-89.394960609344324
 20
-1977.7058223963941
 30
0.0
 11
-45.922886616176299
 21
-2082.6566930151871
 31
0.0
  0
LINE
  5
7162
  8
1外形線
 10
-24.573564974228201
 20
-1988.1385943470709
 30
0.0
 11
-66.433954667438513
 21
-1988.1385943470709
 31
0.0
  0
LINE
  5
7163
  8
1外形線
 10
-24.573564974228201
 20
-2062.6385943470709
 30
0.0
 11
-50.072518953701803
 21
-2062.6385943470709
 31
0.0
  0
LINE
  5
7164
  8
1外形線
 10
-24.573564974228201
 20
-2062.6385943470709
 30
0.0
 11
-24.573564974228201
 21
-1988.1385943470709
 31
0.0
  0
LINE
  5
7165
  8
1外形線
 10
-29.573564974228201
 20
-2062.6385943470709
 30
0.0
 11
-29.573564974228209
 21
-1988.1385943470709
 31
0.0
  0
LINE
  5
7166
  8
1外形線
 10
-127.85352523601431
 20
-2030.918554608857
 30
0.0
 11
-98.253759820833153
 21
-2001.3187891936759
 31
0.0
  0
LINE
  5
7167
  8
1外形線
 10
-71.638536131683622
 20
-2080.0624759013231
 30
0.0
 11
-124.3179913300814
 21
-2027.383020702925
 31
0.0
  0
LINE
  5
7168
  8
1外形線
 10
-75.174070037616502
 20
-2083.598009807255
 30
0.0
 11
-127.85352523601431
 21
-2030.918554608857
 31
0.0
  0
LINE
  5
7169
  8
1外形線
 10
-75.174070037616502
 20
-2083.598009807255
 30
0.0
 11
-57.143586765567271
 21
-2065.5675265352061
 31
0.0
  0
ARC
  5
716A
  8
1外形線
 10
-66.433954667438513
 20
-2033.1385943470709
 30
0.0
 40
45.0
 50
90.0
 51
135.0
  0
ARC
  5
716B
  8
1外形線
 10
-50.072518953701803
 20
-2072.6385943470709
 30
0.0
 40
10.0
 50
90.0
 51
134.99999999999989
  0
LINE
  5
716E
  8
1外形線
 62
     2
 10
20.912839499448861
 20
-2025.3885943470709
 30
0.0
 11
112.2632096769793
 21
-2025.3885943470709
 31
0.0
  0
LINE
  5
716F
  8
1外形線
 10
96.126673811777607
 20
-2059.598009807255
 30
0.0
 11
96.126673811777593
 21
-2012.1385943470709
 31
0.0
  0
LINE
  5
7170
  8
1外形線
 10
60.126673811777522
 20
-1988.1385943470709
 30
0.0
 11
72.126673811777593
 21
-1988.1385943470709
 31
0.0
  0
ARC
  5
7171
  8
1外形線
 10
72.126673811777593
 20
-2012.1385943470709
 30
0.0
 40
24.0
 50
0.0
 51
90.0
  0
LINE
  5
7172
  8
1外形線
 10
34.1266738117776
 20
-2057.598009807255
 30
0.0
 11
34.126673811777593
 21
-2014.1385943470709
 31
0.0
  0
ARC
  5
7173
  8
1外形線
 10
60.1266738117776
 20
-2014.1385943470709
 30
0.0
 40
26.0
 50
90.000000000000142
 51
180.0
  0
LINE
  5
7174
  8
1外形線
 10
60.126673811777522
 20
-2062.6385943470709
 30
0.0
 11
72.126673811777593
 21
-2062.6385943470709
 31
0.0
  0
ARC
  5
7175
  8
1外形線
 10
60.1266738117776
 20
-2036.6385943470709
 30
0.0
 40
26.0
 50
180.0
 51
269.99999999999977
  0
ARC
  5
7176
  8
1外形線
 10
72.126673811777593
 20
-2038.6385943470709
 30
0.0
 40
24.0
 50
270.0
 51
0.0
  0
LINE
  5
7179
  8
1外形線
 10
60.126673811777522
 20
-2083.598009807255
 30
0.0
 11
72.126673811777593
 21
-2083.598009807255
 31
0.0
  0
ARC
  5
717A
  8
1外形線
 10
72.126673811777593
 20
-2059.598009807255
 30
0.0
 40
24.0
 50
270.0
 51
0.0
  0
ARC
  5
717B
  8
1外形線
 10
60.1266738117776
 20
-2057.598009807255
 30
0.0
 40
26.0
 50
180.0
 51
269.99999999999977
  0
LINE
  5
717C
  8
1外形線
 10
159.32587953974769
 20
-2062.6385943470709
 30
0.0
 11
184.8248335192213
 21
-2062.6385943470709
 31
0.0
  0
LINE
  5
717D
  8
1外形線
 10
159.32587953974769
 20
-1988.1385943470709
 30
0.0
 11
201.18626923295801
 21
-1988.1385943470709
 31
0.0
  0
LINE
  5
717F
  8
1外形線
 10
262.60583980153382
 20
-2030.918554608857
 30
0.0
 11
233.00607438635259
 21
-2001.3187891936759
 31
0.0
  0
LINE
  5
7180
  8
1外形線
 10
209.926384603136
 20
-2083.598009807255
 30
0.0
 11
262.60583980153382
 21
-2030.918554608857
 31
0.0
  0
LINE
  5
7181
  8
1外形線
 62
     2
 10
224.14727517486381
 20
-1977.7058223963941
 30
0.0
 11
180.6752011816958
 21
-2082.6566930151871
 31
0.0
  0
LINE
  5
7182
  8
1外形線
 10
164.32587953974769
 20
-2062.6385943470709
 30
0.0
 11
164.32587953974769
 21
-2038.6385943470709
 31
0.0
  0
LINE
  5
7183
  8
1外形線
 10
209.926384603136
 20
-2083.598009807255
 30
0.0
 11
191.8959013310868
 21
-2065.5675265352061
 31
0.0
  0
ARC
  5
7184
  8
1外形線
 10
184.8248335192213
 20
-2072.6385943470709
 30
0.0
 40
10.0
 50
45.000000000000057
 51
90.0
  0
ARC
  5
7185
  8
1外形線
 10
201.18626923295801
 20
-2033.1385943470709
 30
0.0
 40
45.0
 50
45.000000000000007
 51
90.0
  0
LINE
  5
7186
  8
1外形線
 10
159.32587953974769
 20
-2062.6385943470709
 30
0.0
 11
159.32587953974769
 21
-1988.1385943470709
 31
0.0
  0
LINE
  5
7189
  8
1外形線
 10
164.32587953974769
 20
-2012.1385943470709
 30
0.0
 11
164.32587953974769
 21
-1988.1385943470709
 31
0.0
  0
LINE
  5
718A
  8
1外形線
 10
242.09974314712429
 20
-2044.3535834514009
 30
0.0
 11
259.07030589560122
 21
-2027.383020702925
 31
0.0
  0
LINE
  5
718B
  8
1外形線
 10
206.3908506972036
 20
-2080.0624759013231
 30
0.0
 11
223.3614134456804
 21
-2063.0919131528449
 31
0.0
  0
LINE
  5
718C
  8
1外形線
 10
-24.573564974228201
 20
-2131.111719599262
 30
0.0
 11
-24.573564974228209
 21
-2193.1117195992611
 31
0.0
  0
LINE
  5
718D
  8
1外形線
 10
-29.573564974228209
 20
-2131.111719599262
 30
0.0
 11
-29.573564974228209
 21
-2193.1117195992611
 31
0.0
  0
LINE
  5
718E
  8
1外形線
 10
-24.573564974228209
 20
-2193.1117195992611
 30
0.0
 11
-103.85352523601431
 21
-2193.1117195992611
 31
0.0
  0
LINE
  5
718F
  8
1外形線
 10
-24.573564974228201
 20
-2131.111719599262
 30
0.0
 11
-101.85352523601431
 21
-2131.111719599262
 31
0.0
  0
LINE
  5
7190
  8
1外形線
 10
-127.85352523601431
 20
-2157.1117195992611
 30
0.0
 11
-127.85352523601431
 21
-2169.111719599262
 31
0.0
  0
ARC
  5
719D
  8
1外形線
 10
-103.85352523601431
 20
-2169.111719599262
 30
0.0
 40
24.0
 50
180.0
 51
270.0
  0
ARC
  5
719E
  8
1外形線
 10
-101.85352523601431
 20
-2157.1117195992611
 30
0.0
 40
26.0
 50
90.0
 51
180.0
  0
ARC
  5
719F
  8
1外形線
 10
-101.1740700376164
 20
-2157.1117195992611
 30
0.0
 40
26.0
 50
0.000000000000007
 51
90.0
  0
ARC
  5
71A0
  8
1外形線
 10
-99.174070037616531
 20
-2169.111719599262
 30
0.0
 40
24.0
 50
270.0
 51
0.000000000000007
  0
LINE
  5
71A1
  8
1外形線
 10
-75.174070037616488
 20
-2157.1117195992611
 30
0.0
 11
-75.174070037616517
 21
-2169.111719599262
 31
0.0
  0
ENDSEC
  0
EOF
