  0
SECTION
  2
HEADER
  9
$ACADVER
  1
AC1009
  9
$INSBASE
 10
0.0
 20
0.0
 30
0.0
  9
$EXTMIN
 10
146.07833673315869
 20
-3320.4729454727099
 30
0.0
  9
$EXTMAX
 10
594.35690247863295
 20
-2959.2585321952438
 30
0.0
  9
$LIMMIN
 10
0.0
 20
0.0
  9
$LIMMAX
 10
420.0
 20
297.0
  9
$ORTHOMODE
 70
     1
  9
$REGENMODE
 70
     1
  9
$FILLMODE
 70
     1
  9
$QTEXTMODE
 70
     0
  9
$MIRRTEXT
 70
     1
  9
$DRAGMODE
 70
     2
  9
$LTSCALE
 40
1.0
  9
$OSMODE
 70
    37
  9
$ATTMODE
 70
     1
  9
$TEXTSIZE
 40
2.5
  9
$TRACEWID
 40
1.0
  9
$TEXTSTYLE
  7
KANJI
  9
$CLAYER
  8
2寸法線
  9
$CELTYPE
  6
BYLAYER
  9
$CECOLOR
 62
   256
  9
$DIMSCALE
 40
0.0
  9
$DIMASZ
 40
1.8
  9
$DIMEXO
 40
1.0
  9
$DIMDLI
 40
0.0
  9
$DIMRND
 40
0.0
  9
$DIMDLE
 40
0.0
  9
$DIMEXE
 40
1.0
  9
$DIMTP
 40
0.0
  9
$DIMTM
 40
0.0
  9
$DIMTXT
 40
2.5
  9
$DIMCEN
 40
0.0
  9
$DIMTSZ
 40
0.0
  9
$DIMTOL
 70
     0
  9
$DIMLIM
 70
     0
  9
$DIMTIH
 70
     0
  9
$DIMTOH
 70
     0
  9
$DIMSE1
 70
     0
  9
$DIMSE2
 70
     0
  9
$DIMTAD
 70
     1
  9
$DIMZIN
 70
     8
  9
$DIMBLK
  1

  9
$DIMASO
 70
     1
  9
$DIMSHO
 70
     1
  9
$DIMPOST
  1

  9
$DIMAPOST
  1

  9
$DIMALT
 70
     0
  9
$DIMALTD
 70
     2
  9
$DIMALTF
 40
25.399999999999999
  9
$DIMLFAC
 40
1.0
  9
$DIMTOFL
 70
     1
  9
$DIMTVP
 40
0.0
  9
$DIMTIX
 70
     0
  9
$DIMSOXD
 70
     0
  9
$DIMSAH
 70
     1
  9
$DIMBLK1
  1
2
  9
$DIMBLK2
  1
2
  9
$DIMSTYLE
  2
M
  9
$DIMCLRD
 70
     0
  9
$DIMCLRE
 70
     0
  9
$DIMCLRT
 70
     0
  9
$DIMTFAC
 40
1.0
  9
$DIMGAP
 40
0.5
  9
$LUNITS
 70
     2
  9
$LUPREC
 70
     3
  9
$SKETCHINC
 40
1.0
  9
$FILLETRAD
 40
0.0
  9
$AUNITS
 70
     0
  9
$AUPREC
 70
     1
  9
$MENU
  1
.
  9
$ELEVATION
 40
0.0
  9
$PELEVATION
 40
0.0
  9
$THICKNESS
 40
0.0
  9
$LIMCHECK
 70
     0
  9
$BLIPMODE
 70
     0
  9
$CHAMFERA
 40
10.0
  9
$CHAMFERB
 40
10.0
  9
$SKPOLY
 70
     0
  9
$TDCREATE
 40
2454393.806994895
  9
$TDUPDATE
 40
2454396.4974638312
  9
$TDINDWG
 40
0.0739268634
  9
$TDUSRTIMER
 40
0.0739266782
  9
$USRTIMER
 70
     1
  9
$ANGBASE
 50
0.0
  9
$ANGDIR
 70
     0
  9
$PDMODE
 70
     0
  9
$PDSIZE
 40
0.0
  9
$PLINEWID
 40
0.0
  9
$COORDS
 70
     0
  9
$SPLFRAME
 70
     0
  9
$SPLINETYPE
 70
     6
  9
$SPLINESEGS
 70
     8
  9
$ATTDIA
 70
     1
  9
$ATTREQ
 70
     1
  9
$HANDLING
 70
     1
  9
$HANDSEED
  5
9B7C
  9
$SURFTAB1
 70
     6
  9
$SURFTAB2
 70
     6
  9
$SURFTYPE
 70
     6
  9
$SURFU
 70
     6
  9
$SURFV
 70
     6
  9
$UCSNAME
  2

  9
$UCSORG
 10
0.0
 20
0.0
 30
0.0
  9
$UCSXDIR
 10
1.0
 20
0.0
 30
0.0
  9
$UCSYDIR
 10
0.0
 20
1.0
 30
0.0
  9
$PUCSNAME
  2

  9
$PUCSORG
 10
0.0
 20
0.0
 30
0.0
  9
$PUCSXDIR
 10
1.0
 20
0.0
 30
0.0
  9
$PUCSYDIR
 10
0.0
 20
1.0
 30
0.0
  9
$USERI1
 70
     0
  9
$USERI2
 70
     0
  9
$USERI3
 70
     0
  9
$USERI4
 70
     0
  9
$USERI5
 70
     0
  9
$USERR1
 40
0.0
  9
$USERR2
 40
0.0
  9
$USERR3
 40
0.0
  9
$USERR4
 40
0.0
  9
$USERR5
 40
0.0
  9
$WORLDVIEW
 70
     1
  9
$SHADEDGE
 70
     3
  9
$SHADEDIF
 70
    70
  9
$TILEMODE
 70
     1
  9
$MAXACTVP
 70
    48
  9
$PLIMCHECK
 70
     0
  9
$PEXTMIN
 10
1.0000000000000000E+020
 20
1.0000000000000000E+020
 30
1.0000000000000000E+020
  9
$PEXTMAX
 10
-1.0000000000000000E+020
 20
-1.0000000000000000E+020
 30
-1.0000000000000000E+020
  9
$PLIMMIN
 10
0.0
 20
0.0
  9
$PLIMMAX
 10
420.0
 20
297.0
  9
$UNITMODE
 70
     0
  9
$VISRETAIN
 70
     1
  9
$PLINEGEN
 70
     0
  9
$PSLTSCALE
 70
     1
  0
ENDSEC
  0
SECTION
  2
TABLES
  0
TABLE
  2
VPORT
 70
     3
  0
VPORT
  2
*ACTIVE
 70
     0
 10
0.0
 20
0.0
 11
1.0
 21
1.0
 12
361.98988788850932
 22
-3120.0035777573821
 13
0.0
 23
0.0
 14
10.0
 24
10.0
 15
10.0
 25
10.0
 16
0.0
 26
0.0
 36
1.0
 17
0.0
 27
0.0
 37
0.0
 40
385.82655932046691
 41
1.5937904269081491
 42
50.0
 43
0.0
 44
0.0
 50
0.0
 51
0.0
 71
     0
 72
   100
 73
     1
 74
     1
 75
     0
 76
     0
 77
     0
 78
     0
  0
ENDTAB
  0
TABLE
  2
LTYPE
 70
     4
  0
LTYPE
  2
CONTINUOUS
 70
     0
  3
Solid line
 72
    65
 73
     0
 40
0.0
  0
ENDTAB
  0
TABLE
  2
LAYER
 70
    11
  0
LAYER
  2
0
 70
     0
 62
     7
  6
CONTINUOUS
  0
LAYER
  2
2寸法線
 70
     0
 62
     2
  6
CONTINUOUS
  0
LAYER
  2
1外形線
 70
     0
 62
     3
  6
CONTINUOUS
  0
LAYER
  2
DEFPOINTS
 70
     0
 62
     7
  6
CONTINUOUS
  0
ENDTAB
  0
TABLE
  2
STYLE
 70
     4
  0
STYLE
  2
STANDARD
 70
     0
 40
0.0
 41
1.0
 50
0.0
 71
     0
 42
2.5
  3
txt
  4

  0
STYLE
  2
KANJI
 70
     0
 40
0.0
 41
1.0
 50
0.0
 71
     0
 42
2.5
  3
simplex.shx
  4
bigfont.shx
  0
ENDTAB
  0
TABLE
  2
VIEW
 70
     0
  0
ENDTAB
  0
TABLE
  2
UCS
 70
     0
  0
ENDTAB
  0
TABLE
  2
APPID
 70
     1
  0
APPID
  2
ACAD
 70
     0
  0
ENDTAB
  0
TABLE
  2
DIMSTYLE
 70
     5
  0
DIMSTYLE
  2
STANDARD
 70
     0
  3

  4

  5

  6

  7

 40
1.0
 41
0.18
 42
0.0625
 43
0.38
 44
0.18
 45
0.0
 46
0.0
 47
0.0
 48
0.0
140
0.18
141
0.09
142
0.0
143
25.399999999999999
144
1.0
145
0.0
146
1.0
147
0.09
 71
     0
 72
     0
 73
     0
 74
     0
 75
     0
 76
     0
 77
     0
 78
     0
170
     0
171
     2
172
     1
173
     0
174
     0
175
     0
176
     0
177
     0
178
     0
  0
DIMSTYLE
  2
M
 70
     0
  3

  4

  5

  6

  7

 40
0.0
 41
2.0
 42
1.0
 43
0.0
 44
1.0
 45
0.0
 46
0.0
 47
0.0
 48
0.0
140
2.5
141
0.0
142
0.0
143
25.399999999999999
144
1.0
145
0.0
146
1.0
147
0.5
 71
     0
 72
     0
 73
     0
 74
     0
 75
     0
 76
     0
 77
     1
 78
     8
170
     0
171
     2
172
     1
173
     1
174
     0
175
     0
176
     0
177
     0
178
     0
  0
ENDTAB
  0
ENDSEC
  0
SECTION
  2
BLOCKS
  0
BLOCK
  8
0
  2
$MODEL_SPACE
 70
     0
 10
0.0
 20
0.0
 30
0.0
  3
$MODEL_SPACE
  1

  0
ENDBLK
  5
95A0
  8
0
  0
BLOCK
 67
     1
  8
0
  2
$PAPER_SPACE
 70
     0
 10
0.0
 20
0.0
 30
0.0
  3
$PAPER_SPACE
  1

  0
ENDBLK
  5
959C
 67
     1
  8
0
  0
BLOCK
  8
0
  2
2
 70
     0
 10
0.0
 20
0.0
 30
0.0
  3
2
  1

  0
INSERT
  5
131
  8
0
  6
CONTINUOUS
 62
     0
  2
*U3
 10
0.0
 20
0.0
 30
0.0
1001
ACAD
1002
{
1000
R14_HATCH_DATA
1000
131
1011
1.0
1021
0.0
1031
0.0
1021
0.0
1031
0.0
1011
0.0
1021
0.0
1031
0.0
1021
1.0
1031
0.0
1011
0.0
1021
0.0
1031
0.0
1021
0.0
1031
1.0
1040
0.0
1010
0.0
1020
0.0
1030
1.0
1000
SOLID
1070
     1
1070
     0
1071
        1
1071
        1
1071
        3
1070
     1
1040
-0.9999999999983517
1040
0.2679491924306774
1040
0.0
1040
0.0
1070
     1
1040
0.0
1040
0.0
1040
-0.9999999999983517
1040
-0.2679491924306765
1070
     1
1040
-0.9999999999983524
1040
-0.267949192430676
1040
-0.9999999999983524
1040
0.2679491924306774
1071
        0
1070
     0
1070
     1
1071
        1
1040
2.9957451172313361
1040
-4.1249460962632014
1040
0.0
1002
}
  0
ENDBLK
  5
132
  8
0
  0
BLOCK
  8
0
  2
*U3
 70
     1
 10
0.0
 20
0.0
 30
0.0
  3
*U3
  1

  0
SOLID
  5
8E33
  8
0
  6
CONTINUOUS
 62
     0
 10
0.666666666665568
 20
0.0000000000000004
 30
0.0
 11
0.9999999999983517
 21
0.2679491924306774
 31
0.0
 12
0.0
 22
0.0
 32
0.0
 13
0.0
 23
0.0
 33
0.0
210
0.0
220
0.0
230
-1.0
  0
SOLID
  5
8E34
  8
0
  6
CONTINUOUS
 62
     0
 10
0.666666666665568
 20
0.0000000000000004
 30
0.0
 11
0.0
 21
0.0
 31
0.0
 12
0.9999999999983524
 22
-0.267949192430676
 32
0.0
 13
0.9999999999983524
 23
-0.267949192430676
 33
0.0
210
0.0
220
0.0
230
-1.0
  0
SOLID
  5
8E35
  8
0
  6
CONTINUOUS
 62
     0
 10
0.666666666665568
 20
0.0000000000000004
 30
0.0
 11
0.9999999999983524
 21
-0.267949192430676
 31
0.0
 12
0.9999999999983517
 22
0.2679491924306774
 32
0.0
 13
0.9999999999983517
 23
0.2679491924306774
 33
0.0
210
0.0
220
0.0
230
-1.0
  0
ENDBLK
  5
8E37
  8
0
  0
ENDSEC
  0
SECTION
  2
ENTITIES
  0
LINE
  5
89EF
  8
1外形線
 10
152.01900583199429
 20
-2982.108954530665
 30
0.0
 11
152.01900583199429
 21
-3019.108954530665
 31
0.0
  0
LINE
  5
89F0
  8
1外形線
 10
147.01900583199429
 20
-2982.908954530667
 30
0.0
 11
147.01900583199429
 21
-3019.108954530665
 31
0.0
  0
LINE
  5
89F1
  8
1外形線
 10
184.01900583199421
 20
-2973.208954530669
 30
0.0
 11
184.01900583199421
 21
-3019.108954530665
 31
0.0
  0
LINE
  5
89F3
  8
1外形線
 10
189.01900583199421
 20
-3066.0089545306669
 30
0.0
 11
189.01900583199421
 21
-2972.2089545306649
 31
0.0
  0
LINE
  5
89F4
  8
1外形線
 10
184.01900583199421
 20
-3065.2089545306649
 30
0.0
 11
184.01900583199421
 21
-2973.0089545306669
 31
0.0
  0
LINE
  5
8A03
  8
1外形線
 10
146.2854435143453
 20
-3277.6710575324992
 30
0.0
 11
272.28544351434527
 21
-3277.6710575324969
 31
0.0
  0
LINE
  5
8A05
  8
1外形線
 10
179.31319989166531
 20
-3205.6710575324978
 30
0.0
 11
272.28544351434527
 21
-3205.6710575324969
 31
0.0
  0
LINE
  5
8A06
  8
1外形線
 10
183.2854435143453
 20
-3205.6710575324969
 30
0.0
 11
183.2854435143453
 21
-3238.3710575324958
 31
0.0
  0
LINE
  5
8A07
  8
1外形線
 10
163.80468909927779
 20
-3213.9915604758748
 30
0.0
 11
173.76619792941341
 21
-3207.350554589118
 31
0.0
  0
LINE
  5
8A0D
  8
1外形線
 10
146.2854435143453
 20
-3242.8710575324949
 30
0.0
 11
146.2854435143453
 21
-3277.6710575324992
 31
0.0
  0
LINE
  5
8A0E
  8
1外形線
 10
151.2854435143455
 20
-3242.8710575324949
 30
0.0
 11
151.2854435143453
 21
-3277.6710575324969
 31
0.0
  0
LINE
  5
8A13
  8
1外形線
 10
146.2854435143453
 20
-3215.6710575324969
 30
0.0
 11
146.2854435143453
 21
-3242.8710575324949
 31
0.0
  0
LINE
  5
8A15
  8
1外形線
 10
151.2854435143453
 20
-3215.6710575324969
 30
0.0
 11
151.2854435143453
 21
-3242.8710575324949
 31
0.0
  0
ARC
  5
8A18
  8
1外形線
 10
158.2576871370255
 20
-3205.6710575324969
 30
0.0
 40
10.0
 50
270.0
 51
303.69006752597483
  0
LINE
  5
8A1A
  8
1外形線
 10
158.25768713702601
 20
-3215.6710575324969
 30
0.0
 11
146.2854435143453
 21
-3215.6710575324969
 31
0.0
  0
LINE
  5
8A1B
  8
1外形線
 10
183.2854435143455
 20
-3238.3710575324958
 30
0.0
 11
183.2854435143451
 21
-3276.6710575324969
 31
0.0
  0
LINE
  5
8A1C
  8
1外形線
 10
183.2854435143451
 20
-3233.3710575324972
 30
0.0
 11
183.2854435143451
 21
-3277.6710575324969
 31
0.0
  0
LINE
  5
8A1D
  8
1外形線
 10
188.2854435143453
 20
-3205.6710575324978
 30
0.0
 11
188.2854435143453
 21
-3277.6710575324978
 31
0.0
  0
ARC
  5
8A27
  8
1外形線
 10
179.31319989166539
 20
-3215.6710575324969
 30
0.0
 40
10.0
 50
90.000000000001151
 51
123.6900675259748
  0
LINE
  5
8A4E
  8
1外形線
 10
174.51308774959659
 20
-3064.355048596281
 30
0.0
 11
164.52492391439219
 21
-3057.7628604650472
 31
0.0
  0
LINE
  5
8A4F
  8
1外形線
 10
147.01900583199429
 20
-3055.3089545306661
 30
0.0
 11
147.01900583199429
 21
-3019.108954530665
 31
0.0
  0
LINE
  5
8A50
  8
1外形線
 10
152.01900583199429
 20
-3056.108954530665
 30
0.0
 11
152.01900583199429
 21
-3019.108954530665
 31
0.0
  0
ARC
  5
8A51
  8
1外形線
 10
148.01900583199421
 20
-3055.3089545306661
 30
0.0
 40
1.0
 50
180.0
 51
270.0
  0
LINE
  5
8A52
  8
1外形線
 10
152.01900583199429
 20
-3056.108954530665
 30
0.0
 11
159.01650183108561
 21
-3056.108954530665
 31
0.0
  0
LINE
  5
8A53
  8
1外形線
 10
148.01900583199421
 20
-3056.3089545306648
 30
0.0
 11
151.8190058319943
 21
-3056.3089545306648
 31
0.0
  0
ARC
  5
8A54
  8
1外形線
 10
151.8190058319941
 20
-3056.108954530665
 30
0.0
 40
0.2
 50
270.0
 51
0.0
  0
ARC
  5
8A55
  8
1外形線
 10
159.01650183108541
 20
-3066.108954530665
 30
0.0
 40
10.0
 50
56.575188817411039
 51
90.0
  0
LINE
  5
8A56
  8
1外形線
 10
184.01900583199421
 20
-3065.0089545306628
 30
0.0
 11
184.01900583199421
 21
-3019.108954530665
 31
0.0
  0
LINE
  5
8A57
  8
1外形線
 10
189.01900583199421
 20
-3066.0089545306669
 30
0.0
 11
200.2854435143453
 21
-3066.0089545306669
 31
0.0
  0
LINE
  5
8A58
  8
1外形線
 10
183.01900583199421
 20
-3066.008954530666
 30
0.0
 11
180.02150983290289
 21
-3066.008954530666
 31
0.0
  0
ARC
  5
8A59
  8
1外形線
 10
180.0215098329023
 20
-3056.008954530666
 30
0.0
 40
10.0
 50
236.57518881740279
 51
270.0
  0
ARC
  5
8A5A
  8
1外形線
 10
183.01900583199421
 20
-3065.0089545306628
 30
0.0
 40
1.0
 50
269.99999999998693
 51
0.0
  0
ARC
  5
8A5B
  8
1外形線
 10
188.8190058319945
 20
-3066.0089545306669
 30
0.0
 40
0.2
 50
270.0
 51
0.0
  0
ARC
  5
8A5C
  8
1外形線
 10
185.01900583199421
 20
-3065.2089545306649
 30
0.0
 40
1.0
 50
180.0
 51
270.0
  0
LINE
  5
8A5D
  8
1外形線
 10
185.01900583199421
 20
-3066.2089545306649
 30
0.0
 11
188.8190058319945
 21
-3066.2089545306649
 31
0.0
  0
LINE
  5
8A5F
  8
1外形線
 10
225.2854435143453
 20
-3103.108954530665
 30
0.0
 11
273.01900583199432
 21
-3103.108954530665
 31
0.0
  0
LINE
  5
8A60
  8
1外形線
 10
225.2854435143453
 20
-3108.1089545306659
 30
0.0
 11
273.01900583199432
 21
-3108.108954530665
 31
0.0
  0
LINE
  5
8AF7
  8
1外形線
 10
189.01900583199421
 20
-2972.2089545306649
 30
0.0
 11
273.01900583199432
 21
-2972.2089545306649
 31
0.0
  0
LINE
  5
8AFA
  8
1外形線
 10
174.51308774959659
 20
-2973.8628604650489
 30
0.0
 11
164.52492391439219
 21
-2980.4550485962809
 31
0.0
  0
ARC
  5
8AFB
  8
1外形線
 10
148.01900583199421
 20
-2982.908954530667
 30
0.0
 40
1.0
 50
90.0
 51
180.0
  0
LINE
  5
8AFC
  8
1外形線
 10
152.01900583199429
 20
-2982.108954530665
 30
0.0
 11
159.01650183108561
 21
-2982.108954530665
 31
0.0
  0
ARC
  5
8AFD
  8
1外形線
 10
151.8190058319941
 20
-2982.108954530665
 30
0.0
 40
0.2
 50
0.0
 51
90.0
  0
LINE
  5
8AFE
  8
1外形線
 10
148.01900583199421
 20
-2981.9089545306651
 30
0.0
 11
151.8190058319943
 21
-2981.9089545306651
 31
0.0
  0
ARC
  5
8AFF
  8
1外形線
 10
159.01650183108541
 20
-2972.108954530665
 30
0.0
 40
10.0
 50
270.0
 51
303.42481118258883
  0
ARC
  5
8B00
  8
1外形線
 10
180.0215098329023
 20
-2982.2089545306649
 30
0.0
 40
10.0
 50
90.0
 51
123.424811182597
  0
LINE
  5
8B02
  8
1外形線
 10
183.01900583199421
 20
-2972.2089545306649
 30
0.0
 11
180.02150983290289
 21
-2972.2089545306649
 31
0.0
  0
ARC
  5
8B03
  8
1外形線
 10
183.01900583199421
 20
-2973.208954530669
 30
0.0
 40
1.0
 50
0.0
 51
90.000000000013017
  0
ARC
  5
8B04
  8
1外形線
 10
188.8190058319945
 20
-2972.2089545306649
 30
0.0
 40
0.2
 50
0.0
 51
90.0
  0
ARC
  5
8B05
  8
1外形線
 10
185.01900583199421
 20
-2973.0089545306669
 30
0.0
 40
1.0
 50
90.0
 51
180.0
  0
LINE
  5
8B06
  8
1外形線
 10
185.01900583199421
 20
-2972.008954530666
 30
0.0
 11
188.8190058319945
 21
-2972.008954530666
 31
0.0
  0
LINE
  5
8B39
  8
1外形線
 10
577.74197305164978
 20
-2999.0037877837722
 30
0.0
 11
577.74197305164978
 21
-3022.0037877837722
 31
0.0
  0
ARC
  5
8B3C
  8
1外形線
 10
553.74197305164967
 20
-3008.8037877837719
 30
0.0
 40
24.0
 50
0.0
 51
90.0
  0
LINE
  5
8B3D
  8
1外形線
 10
515.54197305164985
 20
-3007.7575765325359
 30
0.0
 11
515.54197305164985
 21
-3022.0037877837722
 31
0.0
  0
LINE
  5
8B3E
  8
1外形線
 10
505.74197305164978
 20
-2997.757576532535
 30
0.0
 11
505.74197305164978
 21
-3022.0037877837722
 31
0.0
  0
LINE
  5
8B41
  8
1外形線
 10
505.74197305164989
 20
-3111.0037877837722
 30
0.0
 11
577.74197305164978
 21
-3111.0037877837722
 31
0.0
  0
LINE
  5
8B42
  8
1外形線
 10
505.74197305164989
 20
-3106.0037877837699
 30
0.0
 11
577.74197305164978
 21
-3106.0037877837699
 31
0.0
  0
ARC
  5
8B44
  8
1外形線
 10
553.74197305164967
 20
-3045.0037877837708
 30
0.0
 40
24.0
 50
270.0
 51
0.0
  0
ARC
  5
8B45
  8
1外形線
 10
553.74197305164967
 20
-3035.2037877837702
 30
0.0
 40
24.0
 50
270.0
 51
0.0
  0
LINE
  5
8B47
  8
1外形線
 10
505.74197305164989
 20
-3111.0037877837722
 30
0.0
 11
505.74197305164978
 21
-3022.0037877837722
 31
0.0
  0
ARC
  5
8B4D
  8
1外形線
 10
535.74197305164978
 20
-3038.0037877837722
 30
0.0
 40
32.0
 50
207.26604445072701
 51
250.8118635462782
  0
ARC
  5
8B4F
  8
1外形線
 10
545.74197305164967
 20
-3028.0037877837708
 30
0.0
 40
32.200000000000003
 50
207.26604445072701
 51
250.8118635462782
  0
ARC
  5
8B50
  8
1外形線
 10
529.74197305165035
 20
-3036.2499990350052
 30
0.0
 40
14.19999999999999
 50
180.0
 51
207.26604445072701
  0
LINE
  5
8B51
  8
1外形線
 10
505.74197305164978
 20
-3046.2499990350038
 30
0.0
 11
505.74197305164978
 21
-3022.0037877837722
 31
0.0
  0
ARC
  5
8B53
  8
1外形線
 10
519.74197305164967
 20
-3046.2499990350038
 30
0.0
 40
14.0
 50
180.0
 51
207.26604445072701
  0
LINE
  5
8B55
  8
1外形線
 10
515.54197305164985
 20
-3036.2499990350052
 30
0.0
 11
515.54197305164985
 21
-3022.0037877837722
 31
0.0
  0
LINE
  5
8B59
  8
1外形線
 10
542.94197305164994
 20
-3059.2037877837702
 30
0.0
 11
553.74197305164967
 21
-3059.2037877837702
 31
0.0
  0
LINE
  5
8B5A
  8
1外形線
 10
538.44197305164994
 20
-3069.0037877837708
 30
0.0
 11
553.74197305164967
 21
-3069.0037877837708
 31
0.0
  0
LINE
  5
8B5C
  8
1外形線
 10
529.82589326855054
 20
-3069.0037877837708
 30
0.0
 11
538.44197305164926
 21
-3069.0037877837708
 31
0.0
  0
ARC
  5
8B5D
  8
1外形線
 10
529.82589326855054
 20
-3055.0037877837708
 30
0.0
 40
14.0
 50
250.8118635462782
 51
270.0
  0
ARC
  5
8B5F
  8
1外形線
 10
539.82589326855054
 20
-3045.0037877837708
 30
0.0
 40
14.19999999999999
 50
250.8118635462782
 51
270.0
  0
LINE
  5
8B6D
  8
1外形線
 10
539.82589326855054
 20
-3059.2037877837702
 30
0.0
 11
542.94197305164994
 21
-3059.2037877837702
 31
0.0
  0
LINE
  5
8B6E
  8
1外形線
 10
577.74197305164978
 20
-3111.0037877837722
 30
0.0
 11
577.74197305164978
 21
-3022.0037877837722
 31
0.0
  0
LINE
  5
8B71
  8
1外形線
 10
577.74197305164978
 20
-3045.0037877837708
 30
0.0
 11
577.74197305164978
 21
-3022.0037877837722
 31
0.0
  0
ARC
  5
8B75
  8
1外形線
 10
553.74197305164967
 20
-2999.0037877837722
 30
0.0
 40
24.0
 50
0.0
 51
90.0
  0
ARC
  5
8B76
  8
1外形線
 10
535.74197305164978
 20
-3006.0037877837722
 30
0.0
 40
32.0
 50
109.18813645372011
 51
152.73395554927271
  0
ARC
  5
8B77
  8
1外形線
 10
545.74197305164967
 20
-3016.0037877837708
 30
0.0
 40
32.200000000000003
 50
109.18813645372011
 51
152.73395554927271
  0
ARC
  5
8B79
  8
1外形線
 10
519.74197305164967
 20
-2997.757576532535
 30
0.0
 40
14.0
 50
152.73395554927271
 51
180.0
  0
ARC
  5
8B7A
  8
1外形線
 10
529.74197305165035
 20
-3007.7575765325359
 30
0.0
 40
14.19999999999999
 50
152.73395554927271
 51
180.0
  0
LINE
  5
8B7C
  8
1外形線
 10
538.44197305164994
 20
-2975.0037877837708
 30
0.0
 11
553.74197305164967
 21
-2975.0037877837708
 31
0.0
  0
LINE
  5
8B7D
  8
1外形線
 10
542.94197305164994
 20
-2984.8037877837728
 30
0.0
 11
553.74197305164967
 21
-2984.8037877837728
 31
0.0
  0
ARC
  5
8B85
  8
1外形線
 10
539.82589326855032
 20
-2999.0037877837722
 30
0.0
 40
14.19999999999999
 50
90.0
 51
109.18813645372011
  0
LINE
  5
8B87
  8
1外形線
 10
529.82589326854998
 20
-2975.0037877837708
 30
0.0
 11
538.44197305164892
 21
-2975.0037877837708
 31
0.0
  0
ARC
  5
8B88
  8
1外形線
 10
529.82589326855032
 20
-2989.0037877837699
 30
0.0
 40
14.0
 50
90.0
 51
109.18813645372011
  0
LINE
  5
8B8F
  8
1外形線
 10
539.82589326855032
 20
-2984.8037877837728
 30
0.0
 11
542.94197305164926
 21
-2984.8037877837728
 31
0.0
  0
LINE
  5
8DFE
  8
1外形線
 10
357.01900583199432
 20
-2972.2089545306649
 30
0.0
 11
273.01900583199432
 21
-2972.2089545306649
 31
0.0
  0
LINE
  5
8DFF
  8
1外形線
 10
357.01900583199432
 20
-3066.0089545306669
 30
0.0
 11
344.28544351434527
 21
-3066.0089545306669
 31
0.0
  0
LINE
  5
8E00
  8
1外形線
 10
362.01900583199438
 20
-3065.2089545306649
 30
0.0
 11
362.01900583199438
 21
-2973.0089545306669
 31
0.0
  0
LINE
  5
8E01
  8
1外形線
 10
357.01900583199432
 20
-3066.0089545306669
 30
0.0
 11
357.01900583199432
 21
-2972.2089545306649
 31
0.0
  0
LINE
  5
8E02
  8
1外形線
 10
362.01900583199438
 20
-3065.0089545306628
 30
0.0
 11
362.01900583199438
 21
-3019.108954530665
 31
0.0
  0
ARC
  5
8E03
  8
1外形線
 10
387.02150983290312
 20
-3066.108954530665
 30
0.0
 40
10.0
 50
90.0
 51
123.4248111825889
  0
ARC
  5
8E04
  8
1外形線
 10
366.01650183108632
 20
-3056.008954530666
 30
0.0
 40
10.0
 50
270.0
 51
303.42481118259701
  0
LINE
  5
8E05
  8
1外形線
 10
371.5249239143921
 20
-3064.355048596281
 30
0.0
 11
381.51308774959648
 21
-3057.7628604650472
 31
0.0
  0
ARC
  5
8E06
  8
1外形線
 10
363.0190058319946
 20
-3065.0089545306628
 30
0.0
 40
1.0
 50
180.0
 51
270.00000000001302
  0
LINE
  5
8E07
  8
1外形線
 10
363.01900583199432
 20
-3066.008954530666
 30
0.0
 11
366.0165018310858
 21
-3066.008954530666
 31
0.0
  0
LINE
  5
8E08
  8
1外形線
 10
361.01900583199432
 20
-3066.2089545306649
 30
0.0
 11
357.2190058319942
 21
-3066.2089545306649
 31
0.0
  0
ARC
  5
8E09
  8
1外形線
 10
361.01900583199432
 20
-3065.2089545306649
 30
0.0
 40
1.0
 50
270.0
 51
0.000000000000007
  0
ARC
  5
8E0A
  8
1外形線
 10
357.2190058319942
 20
-3066.0089545306669
 30
0.0
 40
0.2
 50
180.0
 51
270.0
  0
LINE
  5
8E0B
  8
1外形線
 10
394.01900583199432
 20
-2982.108954530665
 30
0.0
 11
387.02150983290312
 21
-2982.108954530665
 31
0.0
  0
LINE
  5
8E0C
  8
1外形線
 10
394.01900583199432
 20
-3056.108954530665
 30
0.0
 11
387.02150983290312
 21
-3056.108954530665
 31
0.0
  0
LINE
  5
8E0D
  8
1外形線
 10
398.01900583199432
 20
-2981.9089545306651
 30
0.0
 11
394.21900583199431
 21
-2981.9089545306651
 31
0.0
  0
LINE
  5
8E0E
  8
1外形線
 10
398.01900583199432
 20
-3056.3089545306648
 30
0.0
 11
394.21900583199431
 21
-3056.3089545306648
 31
0.0
  0
LINE
  5
8E0F
  8
1外形線
 10
399.01900583199432
 20
-2982.908954530667
 30
0.0
 11
399.01900583199432
 21
-3019.108954530665
 31
0.0
  0
ARC
  5
8E10
  8
1外形線
 10
398.0190058319946
 20
-2982.908954530667
 30
0.0
 40
1.0
 50
0.000000000000007
 51
90.0
  0
ARC
  5
8E11
  8
1外形線
 10
398.0190058319946
 20
-3055.3089545306661
 30
0.0
 40
1.0
 50
270.0
 51
0.000000000000007
  0
LINE
  5
8E12
  8
1外形線
 10
399.01900583199432
 20
-3055.3089545306661
 30
0.0
 11
399.01900583199432
 21
-3019.108954530665
 31
0.0
  0
LINE
  5
8E13
  8
1外形線
 10
394.01900583199432
 20
-2982.108954530665
 30
0.0
 11
394.01900583199432
 21
-3019.108954530665
 31
0.0
  0
ARC
  5
8E14
  8
1外形線
 10
394.21900583199442
 20
-2982.108954530665
 30
0.0
 40
0.2
 50
90.0
 51
180.0
  0
ARC
  5
8E15
  8
1外形線
 10
394.21900583199442
 20
-3056.108954530665
 30
0.0
 40
0.2
 50
180.0
 51
270.0
  0
LINE
  5
8E16
  8
1外形線
 10
394.01900583199432
 20
-3056.108954530665
 30
0.0
 11
394.01900583199432
 21
-3019.108954530665
 31
0.0
  0
ARC
  5
8E17
  8
1外形線
 10
366.01650183108632
 20
-2982.2089545306649
 30
0.0
 40
10.0
 50
56.575188817402882
 51
90.0
  0
LINE
  5
8E18
  8
1外形線
 10
371.5249239143921
 20
-2973.8628604650489
 30
0.0
 11
381.51308774959648
 21
-2980.4550485962809
 31
0.0
  0
ARC
  5
8E19
  8
1外形線
 10
387.02150983290312
 20
-2972.108954530665
 30
0.0
 40
10.0
 50
236.575188817411
 51
270.0
  0
ARC
  5
8E1A
  8
1外形線
 10
363.0190058319946
 20
-2973.208954530669
 30
0.0
 40
1.0
 50
89.999999999986997
 51
180.0
  0
LINE
  5
8E1B
  8
1外形線
 10
363.01900583199432
 20
-2972.2089545306649
 30
0.0
 11
366.0165018310858
 21
-2972.2089545306649
 31
0.0
  0
LINE
  5
8E1C
  8
1外形線
 10
362.01900583199438
 20
-2973.208954530669
 30
0.0
 11
362.01900583199438
 21
-3019.108954530665
 31
0.0
  0
LINE
  5
8E1D
  8
1外形線
 10
361.01900583199432
 20
-2972.008954530666
 30
0.0
 11
357.2190058319942
 21
-2972.008954530666
 31
0.0
  0
ARC
  5
8E1E
  8
1外形線
 10
361.01900583199432
 20
-2973.0089545306669
 30
0.0
 40
1.0
 50
0.000000000000007
 51
90.0
  0
ARC
  5
8E1F
  8
1外形線
 10
357.2190058319942
 20
-2972.2089545306649
 30
0.0
 40
0.2
 50
90.0
 51
180.0
  0
LINE
  5
8E20
  8
1外形線
 10
319.28544351434522
 20
-3108.108954530665
 30
0.0
 11
273.01900583199432
 21
-3108.108954530665
 31
0.0
  0
LINE
  5
8E21
  8
1外形線
 10
319.28544351434522
 20
-3103.108954530665
 30
0.0
 11
273.01900583199432
 21
-3103.108954530665
 31
0.0
  0
LINE
  5
9B48
  8
1外形線
 62
     2
 10
272.28544351434527
 20
-3184.7581280681338
 30
0.0
 11
272.28544351434527
 21
-3291.739259404435
 31
0.0
  0
LINE
  5
9B49
  8
1外形線
 10
225.2854435143453
 20
-3231.6710575324969
 30
0.0
 11
225.2854435143453
 21
-3253.6710575324969
 31
0.0
  0
ARC
  5
9B4A
  8
1外形線
 10
251.2854435143453
 20
-3231.6710575324969
 30
0.0
 40
26.0
 50
90.0
 51
180.0
  0
ARC
  5
9B4B
  8
1外形線
 10
249.2854435143453
 20
-3253.6710575324969
 30
0.0
 40
24.0
 50
180.0
 51
270.0
  0
LINE
  5
9B4F
  8
1外形線
 10
365.2576871370253
 20
-3205.6710575324978
 30
0.0
 11
272.28544351434527
 21
-3205.6710575324969
 31
0.0
  0
LINE
  5
9B50
  8
1外形線
 10
398.28544351434527
 20
-3277.6710575324992
 30
0.0
 11
272.28544351434527
 21
-3277.6710575324969
 31
0.0
  0
LINE
  5
9B51
  8
1外形線
 10
398.28544351434527
 20
-3215.6710575324969
 30
0.0
 11
398.28544351434527
 21
-3242.8710575324949
 31
0.0
  0
LINE
  5
9B52
  8
1外形線
 10
361.28544351434527
 20
-3205.6710575324969
 30
0.0
 11
361.28544351434527
 21
-3238.3710575324958
 31
0.0
  0
LINE
  5
9B53
  8
1外形線
 10
356.28544351434527
 20
-3205.6710575324978
 30
0.0
 11
356.28544351434527
 21
-3277.6710575324978
 31
0.0
  0
LINE
  5
9B54
  8
1外形線
 10
393.28544351434527
 20
-3215.6710575324969
 30
0.0
 11
393.28544351434527
 21
-3242.8710575324949
 31
0.0
  0
LINE
  5
9B55
  8
1外形線
 10
398.28544351434527
 20
-3242.8710575324949
 30
0.0
 11
398.28544351434527
 21
-3277.6710575324992
 31
0.0
  0
LINE
  5
9B56
  8
1外形線
 10
393.28544351434499
 20
-3242.8710575324949
 30
0.0
 11
393.28544351434527
 21
-3277.6710575324969
 31
0.0
  0
LINE
  5
9B57
  8
1外形線
 10
361.2854435143455
 20
-3233.3710575324972
 30
0.0
 11
361.2854435143455
 21
-3277.6710575324969
 31
0.0
  0
LINE
  5
9B58
  8
1外形線
 10
361.28544351434499
 20
-3238.3710575324958
 30
0.0
 11
361.2854435143455
 21
-3276.6710575324969
 31
0.0
  0
LINE
  5
9B59
  8
1外形線
 10
386.31319989166462
 20
-3215.6710575324969
 30
0.0
 11
398.28544351434527
 21
-3215.6710575324969
 31
0.0
  0
ARC
  5
9B5A
  8
1外形線
 10
365.25768713702507
 20
-3215.6710575324969
 30
0.0
 40
10.0
 50
56.30993247402521
 51
89.999999999998863
  0
LINE
  5
9B5B
  8
1外形線
 10
380.76619792941278
 20
-3213.9915604758748
 30
0.0
 11
370.80468909927708
 21
-3207.350554589118
 31
0.0
  0
ARC
  5
9B5C
  8
1外形線
 10
386.31319989166508
 20
-3205.6710575324969
 30
0.0
 40
10.0
 50
236.3099324740252
 51
270.0
  0
ARC
  5
9B5D
  8
1外形線
 10
293.28544351434527
 20
-3231.6710575324969
 30
0.0
 40
26.0
 50
0.000000000000007
 51
90.0
  0
ARC
  5
9B5E
  8
1外形線
 10
295.28544351434527
 20
-3253.6710575324969
 30
0.0
 40
24.0
 50
270.0
 51
0.000000000000007
  0
LINE
  5
9B5F
  8
1外形線
 10
319.28544351434527
 20
-3231.6710575324969
 30
0.0
 11
319.28544351434527
 21
-3253.6710575324969
 31
0.0
  0
LINE
  5
9B60
  8
1外形線
 62
     2
 10
272.28544351434527
 20
-3122.674730329798
 30
0.0
 11
272.28544351434527
 21
-2959.2585321952438
 31
0.0
  0
LINE
  5
9B61
  8
1外形線
 10
225.2854435143453
 20
-3091.0089545306678
 30
0.0
 11
225.2854435143453
 21
-3108.1089545306659
 31
0.0
  0
ARC
  5
9B6C
  8
1外形線
 10
200.2854435143453
 20
-3091.008954530666
 30
0.0
 40
25.0
 50
359.9999999999979
 51
90.0
  0
ARC
  5
9B6D
  8
1外形線
 10
344.28544351434527
 20
-3091.008954530666
 30
0.0
 40
25.0
 50
90.0
 51
180.0000000000021
  0
LINE
  5
9B6E
  8
1外形線
 10
319.28544351434527
 20
-3091.0089545306678
 30
0.0
 11
319.28544351434522
 21
-3108.108954530665
 31
0.0
  0
LINE
  5
9B6F
  8
1外形線
 62
     2
 10
488.01360402623089
 20
-3022.0037877837722
 30
0.0
 11
594.35690247863295
 21
-3022.0037877837722
 31
0.0
  0
ENDSEC
  0
EOF
