  0
SECTION
  2
HEADER
  9
$ACADVER
  1
AC1015
  9
$ACADMAINTVER
 70
    20
  9
$DWGCODEPAGE
  3
ANSI_932
  9
$INSBASE
 10
0.0
 20
0.0
 30
0.0
  9
$EXTMIN
 10
1757.615084968279
 20
-1953.553816230881
 30
0.0
  9
$EXTMAX
 10
2042.956412889965
 20
-1709.797224199924
 30
0.0
  9
$LIMMIN
 10
0.0
 20
0.0
  9
$LIMMAX
 10
420.0
 20
297.0
  9
$ORTHOMODE
 70
     1
  9
$REGENMODE
 70
     1
  9
$FILLMODE
 70
     1
  9
$QTEXTMODE
 70
     0
  9
$MIRRTEXT
 70
     1
  9
$LTSCALE
 40
1.0
  9
$ATTMODE
 70
     1
  9
$TEXTSIZE
 40
2.5
  9
$TRACEWID
 40
1.0
  9
$TEXTSTYLE
  7
KANJI
  9
$CLAYER
  8
1外形線
  9
$CELTYPE
  6
ByLayer
  9
$CECOLOR
 62
   256
  9
$CELTSCALE
 40
1.0
  9
$DISPSILH
 70
     0
  9
$DIMSCALE
 40
0.0
  9
$DIMASZ
 40
1.8
  9
$DIMEXO
 40
1.0
  9
$DIMDLI
 40
0.0
  9
$DIMRND
 40
0.0
  9
$DIMDLE
 40
0.0
  9
$DIMEXE
 40
1.0
  9
$DIMTP
 40
0.0
  9
$DIMTM
 40
0.0
  9
$DIMTXT
 40
2.5
  9
$DIMCEN
 40
0.0
  9
$DIMTSZ
 40
0.0
  9
$DIMTOL
 70
     0
  9
$DIMLIM
 70
     0
  9
$DIMTIH
 70
     0
  9
$DIMTOH
 70
     0
  9
$DIMSE1
 70
     0
  9
$DIMSE2
 70
     0
  9
$DIMTAD
 70
     1
  9
$DIMZIN
 70
     8
  9
$DIMBLK
  1

  9
$DIMASO
 70
     1
  9
$DIMSHO
 70
     1
  9
$DIMPOST
  1

  9
$DIMAPOST
  1

  9
$DIMALT
 70
     0
  9
$DIMALTD
 70
     2
  9
$DIMALTF
 40
25.4
  9
$DIMLFAC
 40
1.0
  9
$DIMTOFL
 70
     1
  9
$DIMTVP
 40
0.0
  9
$DIMTIX
 70
     0
  9
$DIMSOXD
 70
     0
  9
$DIMSAH
 70
     1
  9
$DIMBLK1
  1
2
  9
$DIMBLK2
  1
2
  9
$DIMSTYLE
  2
M
  9
$DIMCLRD
 70
     0
  9
$DIMCLRE
 70
     0
  9
$DIMCLRT
 70
     0
  9
$DIMTFAC
 40
1.0
  9
$DIMGAP
 40
0.5
  9
$DIMJUST
 70
     0
  9
$DIMSD1
 70
     0
  9
$DIMSD2
 70
     0
  9
$DIMTOLJ
 70
     1
  9
$DIMTZIN
 70
     0
  9
$DIMALTZ
 70
     0
  9
$DIMALTTZ
 70
     0
  9
$DIMUPT
 70
     0
  9
$DIMDEC
 70
     4
  9
$DIMTDEC
 70
     4
  9
$DIMALTU
 70
     2
  9
$DIMALTTD
 70
     2
  9
$DIMTXSTY
  7
STANDARD
  9
$DIMAUNIT
 70
     0
  9
$DIMADEC
 70
     0
  9
$DIMALTRND
 40
0.0
  9
$DIMAZIN
 70
     0
  9
$DIMDSEP
 70
    46
  9
$DIMATFIT
 70
     3
  9
$DIMFRAC
 70
     0
  9
$DIMLDRBLK
  1
2
  9
$DIMLUNIT
 70
     2
  9
$DIMLWD
 70
    -2
  9
$DIMLWE
 70
    -2
  9
$DIMTMOVE
 70
     0
  9
$LUNITS
 70
     2
  9
$LUPREC
 70
     3
  9
$SKETCHINC
 40
1.0
  9
$FILLETRAD
 40
0.0
  9
$AUNITS
 70
     0
  9
$AUPREC
 70
     1
  9
$MENU
  1
.
  9
$ELEVATION
 40
0.0
  9
$PELEVATION
 40
0.0
  9
$THICKNESS
 40
0.0
  9
$LIMCHECK
 70
     0
  9
$CHAMFERA
 40
10.0
  9
$CHAMFERB
 40
10.0
  9
$CHAMFERC
 40
0.0
  9
$CHAMFERD
 40
0.0
  9
$SKPOLY
 70
     0
  9
$TDCREATE
 40
2454393.806994896
  9
$TDUCREATE
 40
2454393.431994896
  9
$TDUPDATE
 40
2456127.493851436
  9
$TDUUPDATE
 40
2456127.118851435
  9
$TDINDWG
 40
0.4340318171
  9
$TDUSRTIMER
 40
0.4339370486
  9
$USRTIMER
 70
     1
  9
$ANGBASE
 50
0.0
  9
$ANGDIR
 70
     0
  9
$PDMODE
 70
     0
  9
$PDSIZE
 40
0.0
  9
$PLINEWID
 40
0.0
  9
$SPLFRAME
 70
     0
  9
$SPLINETYPE
 70
     6
  9
$SPLINESEGS
 70
     8
  9
$HANDSEED
  5
94FB
  9
$SURFTAB1
 70
     6
  9
$SURFTAB2
 70
     6
  9
$SURFTYPE
 70
     6
  9
$SURFU
 70
     6
  9
$SURFV
 70
     6
  9
$UCSBASE
  2

  9
$UCSNAME
  2

  9
$UCSORG
 10
0.0
 20
0.0
 30
0.0
  9
$UCSXDIR
 10
1.0
 20
0.0
 30
0.0
  9
$UCSYDIR
 10
0.0
 20
1.0
 30
0.0
  9
$UCSORTHOREF
  2

  9
$UCSORTHOVIEW
 70
     0
  9
$UCSORGTOP
 10
0.0
 20
0.0
 30
0.0
  9
$UCSORGBOTTOM
 10
0.0
 20
0.0
 30
0.0
  9
$UCSORGLEFT
 10
0.0
 20
0.0
 30
0.0
  9
$UCSORGRIGHT
 10
0.0
 20
0.0
 30
0.0
  9
$UCSORGFRONT
 10
0.0
 20
0.0
 30
0.0
  9
$UCSORGBACK
 10
0.0
 20
0.0
 30
0.0
  9
$PUCSBASE
  2

  9
$PUCSNAME
  2

  9
$PUCSORG
 10
0.0
 20
0.0
 30
0.0
  9
$PUCSXDIR
 10
1.0
 20
0.0
 30
0.0
  9
$PUCSYDIR
 10
0.0
 20
1.0
 30
0.0
  9
$PUCSORTHOREF
  2

  9
$PUCSORTHOVIEW
 70
     0
  9
$PUCSORGTOP
 10
0.0
 20
0.0
 30
0.0
  9
$PUCSORGBOTTOM
 10
0.0
 20
0.0
 30
0.0
  9
$PUCSORGLEFT
 10
0.0
 20
0.0
 30
0.0
  9
$PUCSORGRIGHT
 10
0.0
 20
0.0
 30
0.0
  9
$PUCSORGFRONT
 10
0.0
 20
0.0
 30
0.0
  9
$PUCSORGBACK
 10
0.0
 20
0.0
 30
0.0
  9
$USERI1
 70
     0
  9
$USERI2
 70
     0
  9
$USERI3
 70
     0
  9
$USERI4
 70
     0
  9
$USERI5
 70
     0
  9
$USERR1
 40
0.0
  9
$USERR2
 40
0.0
  9
$USERR3
 40
0.0
  9
$USERR4
 40
0.0
  9
$USERR5
 40
0.0
  9
$WORLDVIEW
 70
     1
  9
$SHADEDGE
 70
     3
  9
$SHADEDIF
 70
    70
  9
$TILEMODE
 70
     1
  9
$MAXACTVP
 70
    48
  9
$PINSBASE
 10
0.0
 20
0.0
 30
0.0
  9
$PLIMCHECK
 70
     0
  9
$PEXTMIN
 10
1.000000000000000E+20
 20
1.000000000000000E+20
 30
1.000000000000000E+20
  9
$PEXTMAX
 10
-1.000000000000000E+20
 20
-1.000000000000000E+20
 30
-1.000000000000000E+20
  9
$PLIMMIN
 10
0.0
 20
0.0
  9
$PLIMMAX
 10
420.0
 20
297.0
  9
$UNITMODE
 70
     0
  9
$VISRETAIN
 70
     1
  9
$PLINEGEN
 70
     0
  9
$PSLTSCALE
 70
     1
  9
$TREEDEPTH
 70
  3020
  9
$CMLSTYLE
  2
Standard
  9
$CMLJUST
 70
     0
  9
$CMLSCALE
 40
1.0
  9
$PROXYGRAPHICS
 70
     1
  9
$MEASUREMENT
 70
     0
  9
$CELWEIGHT
370
    -1
  9
$ENDCAPS
280
     0
  9
$JOINSTYLE
280
     0
  9
$LWDISPLAY
290
     0
  9
$INSUNITS
 70
     0
  9
$HYPERLINKBASE
  1

  9
$STYLESHEET
  1
INABA-CAD-CANON.CTB
  9
$XEDIT
290
     1
  9
$CEPSNTYPE
380
     0
  9
$PSTYLEMODE
290
     1
  9
$FINGERPRINTGUID
  2
{ABD16786-EB4E-47CC-B686-D8806544398D}
  9
$VERSIONGUID
  2
{7F209B14-17A5-42F0-86E2-08094625893F}
  9
$EXTNAMES
290
     1
  9
$PSVPSCALE
 40
0.0
  9
$OLESTARTUP
290
     0
  0
ENDSEC
  0
SECTION
  2
CLASSES
  0
CLASS
  1
ACDBDICTIONARYWDFLT
  2
AcDbDictionaryWithDefault
  3
ObjectDBX Classes
 90
        0
280
     0
281
     0
  0
CLASS
  1
TABLESTYLE
  2
AcDbTableStyle
  3
ObjectDBX Classes
 90
     2047
280
     0
281
     0
  0
CLASS
  1
MATERIAL
  2
AcDbMaterial
  3
ObjectDBX Classes
 90
        0
280
     0
281
     0
  0
CLASS
  1
DICTIONARYVAR
  2
AcDbDictionaryVar
  3
ObjectDBX Classes
 90
        0
280
     0
281
     0
  0
CLASS
  1
SORTENTSTABLE
  2
AcDbSortentsTable
  3
ObjectDBX Classes
 90
        0
280
     0
281
     0
  0
CLASS
  1
ACDBPLACEHOLDER
  2
AcDbPlaceHolder
  3
ObjectDBX Classes
 90
        0
280
     0
281
     0
  0
CLASS
  1
LAYOUT
  2
AcDbLayout
  3
ObjectDBX Classes
 90
        0
280
     0
281
     0
  0
ENDSEC
  0
SECTION
  2
TABLES
  0
TABLE
  2
VPORT
  5
1D58
330
0
100
AcDbSymbolTable
 70
     2
  0
VPORT
  5
94F5
330
1D58
100
AcDbSymbolTableRecord
100
AcDbViewportTableRecord
  2
*Active
 70
     0
 10
0.0
 20
0.0
 11
1.0
 21
1.0
 12
1969.058288319487
 22
-1856.381155302912
 13
0.0
 23
0.0
 14
10.0
 24
10.0
 15
10.0
 25
10.0
 16
0.0
 26
0.0
 36
1.0
 17
0.0
 27
0.0
 37
0.0
 40
435.5495189916628
 41
1.386243386243386
 42
50.0
 43
0.0
 44
0.0
 50
0.0
 51
0.0
 71
     0
 72
   100
 73
     1
 74
     1
 75
     0
 76
     0
 77
     0
 78
     0
281
     0
 65
     0
110
0.0
120
0.0
130
0.0
111
1.0
121
0.0
131
0.0
112
0.0
122
1.0
132
0.0
 79
     0
146
0.0
  0
ENDTAB
  0
TABLE
  2
LTYPE
  5
1D55
330
0
100
AcDbSymbolTable
 70
     1
  0
LTYPE
  5
1D63
330
1D55
100
AcDbSymbolTableRecord
100
AcDbLinetypeTableRecord
  2
ByBlock
 70
     0
  3

 72
    65
 73
     0
 40
0.0
  0
LTYPE
  5
1D64
330
1D55
100
AcDbSymbolTableRecord
100
AcDbLinetypeTableRecord
  2
ByLayer
 70
     0
  3

 72
    65
 73
     0
 40
0.0
  0
LTYPE
  5
1D65
330
1D55
100
AcDbSymbolTableRecord
100
AcDbLinetypeTableRecord
  2
CONTINUOUS
 70
     0
  3
Solid line
 72
    65
 73
     0
 40
0.0
  0
ENDTAB
  0
TABLE
  2
LAYER
  5
1D52
102
{ACAD_XDICTIONARY
360
20C2
102
}
330
0
100
AcDbSymbolTable
 70
     4
  0
LAYER
  5
1D60
330
1D52
100
AcDbSymbolTableRecord
100
AcDbLayerTableRecord
  2
0
 70
     0
 62
     7
  6
CONTINUOUS
370
    -3
390
1D5F
  0
LAYER
  5
1D76
330
1D52
100
AcDbSymbolTableRecord
100
AcDbLayerTableRecord
  2
1外形線
 70
     0
 62
     3
  6
CONTINUOUS
370
    -3
390
1D5F
  0
LAYER
  5
1D79
330
1D52
100
AcDbSymbolTableRecord
100
AcDbLayerTableRecord
  2
DEFPOINTS
 70
     0
 62
     7
  6
CONTINUOUS
290
     0
370
    -3
390
1D5F
  0
ENDTAB
  0
TABLE
  2
STYLE
  5
1D53
330
0
100
AcDbSymbolTable
 70
     2
  0
STYLE
  5
1D61
330
1D53
100
AcDbSymbolTableRecord
100
AcDbTextStyleTableRecord
  2
STANDARD
 70
     0
 40
0.0
 41
1.0
 50
0.0
 71
     0
 42
2.5
  3
txt
  4

  0
STYLE
  5
1D77
330
1D53
100
AcDbSymbolTableRecord
100
AcDbTextStyleTableRecord
  2
KANJI
 70
     0
 40
0.0
 41
1.0
 50
0.0
 71
     0
 42
2.5
  3
simplex.shx
  4
bigfont.shx
  0
ENDTAB
  0
TABLE
  2
VIEW
  5
1D56
330
0
100
AcDbSymbolTable
 70
     0
  0
ENDTAB
  0
TABLE
  2
UCS
  5
1D57
330
0
100
AcDbSymbolTable
 70
     0
  0
ENDTAB
  0
TABLE
  2
APPID
  5
1D59
330
0
100
AcDbSymbolTable
 70
     2
  0
APPID
  5
1D62
330
1D59
100
AcDbSymbolTableRecord
100
AcDbRegAppTableRecord
  2
ACAD
 70
     0
  0
APPID
  5
20BE
330
1D59
100
AcDbSymbolTableRecord
100
AcDbRegAppTableRecord
  2
ACAD_PSEXT
 70
     0
  0
ENDTAB
  0
TABLE
  2
DIMSTYLE
  5
1D5A
330
0
100
AcDbSymbolTable
 70
     2
100
AcDbDimStyleTable
 71
     1
340
1D7B
  0
DIMSTYLE
105
1D7A
330
1D5A
100
AcDbSymbolTableRecord
100
AcDbDimStyleTableRecord
  2
STANDARD
 70
     0
 73
     0
 74
     0
172
     1
271
     3
272
     3
279
     2
284
     8
285
     8
286
     8
340
1D77
  0
DIMSTYLE
105
1D7B
330
1D5A
100
AcDbSymbolTableRecord
100
AcDbDimStyleTableRecord
  2
M
 70
     0
 40
0.0
 41
2.0
 42
1.0
 43
0.0
 44
1.0
 73
     0
 74
     0
 77
     1
 78
     8
140
2.5
141
0.0
147
0.5
172
     1
173
     1
271
     3
272
     3
279
     2
284
     8
285
     8
286
     8
340
1D77
  0
ENDTAB
  0
TABLE
  2
BLOCK_RECORD
  5
1D51
330
0
100
AcDbSymbolTable
 70
     2
  0
BLOCK_RECORD
  5
1D72
102
{ACAD_XDICTIONARY
360
4C2B
102
}
330
1D51
100
AcDbSymbolTableRecord
100
AcDbBlockTableRecord
  2
*Model_Space
340
1D75
  0
BLOCK_RECORD
  5
1D6E
330
1D51
100
AcDbSymbolTableRecord
100
AcDbBlockTableRecord
  2
*Paper_Space
340
1D71
  0
BLOCK_RECORD
  5
1D83
330
1D51
100
AcDbSymbolTableRecord
100
AcDbBlockTableRecord
  2
2
340
0
  0
BLOCK_RECORD
  5
1D85
330
1D51
100
AcDbSymbolTableRecord
100
AcDbBlockTableRecord
  2
*U1
340
0
102
{BLKREFS
331
131
102
}
  0
ENDTAB
  0
ENDSEC
  0
SECTION
  2
BLOCKS
  0
BLOCK
  5
1D73
330
1D72
100
AcDbEntity
  8
0
100
AcDbBlockBegin
  2
*Model_Space
 70
     0
 10
0.0
 20
0.0
 30
0.0
  3
*Model_Space
  1

  0
ENDBLK
  5
1D74
330
1D72
100
AcDbEntity
  8
0
100
AcDbBlockEnd
  0
BLOCK
  5
1D6F
330
1D6E
100
AcDbEntity
 67
     1
  8
0
100
AcDbBlockBegin
  2
*Paper_Space
 70
     0
 10
0.0
 20
0.0
 30
0.0
  3
*Paper_Space
  1

  0
ENDBLK
  5
1D70
330
1D6E
100
AcDbEntity
 67
     1
  8
0
100
AcDbBlockEnd
  0
BLOCK
  5
1D84
330
1D83
100
AcDbEntity
  8
0
100
AcDbBlockBegin
  2
2
 70
     0
 10
0.0
 20
0.0
 30
0.0
  3
2
  1

  0
INSERT
  5
131
330
1D83
100
AcDbEntity
  8
0
  6
Continuous
 62
     0
100
AcDbBlockReference
  2
*U1
 10
0.0
 20
0.0
 30
0.0
1001
ACAD
1002
{
1000
R14_HATCH_DATA
1000
131
1011
1.0
1021
0.0
1031
0.0
1011
0.0
1021
1.0
1031
0.0
1011
0.0
1021
0.0
1031
1.0
1040
0.0
1010
0.0
1020
0.0
1030
1.0
1000
SOLID
1070
     1
1070
     0
1071
        1
1071
        1
1071
        3
1070
     1
1040
-0.9999999999983517
1040
0.2679491924306774
1040
0.0
1040
0.0
1070
     1
1040
0.0
1040
0.0
1040
-0.9999999999983517
1040
-0.2679491924306765
1070
     1
1040
-0.9999999999983524
1040
-0.267949192430676
1040
-0.9999999999983524
1040
0.2679491924306774
1071
        0
1070
     0
1070
     1
1071
        1
1040
2.995745117231336
1040
-4.124946096263201
1040
0.0
1002
}
  0
ENDBLK
  5
132
330
1D83
100
AcDbEntity
  8
0
100
AcDbBlockEnd
  0
BLOCK
  5
1D86
330
1D85
100
AcDbEntity
  8
0
100
AcDbBlockBegin
  2
*U1
 70
     1
 10
0.0
 20
0.0
 30
0.0
  3
*U1
  1

  0
SOLID
  5
46F
330
1D85
100
AcDbEntity
  8
0
  6
Continuous
 62
     0
100
AcDbTrace
 10
0.666666666665568
 20
0.0000000000000004
 30
0.0
 11
0.9999999999983517
 21
0.2679491924306774
 31
0.0
 12
0.0
 22
0.0
 32
0.0
 13
0.0
 23
0.0
 33
0.0
210
0.0
220
0.0
230
-1.0
  0
SOLID
  5
470
330
1D85
100
AcDbEntity
  8
0
  6
Continuous
 62
     0
100
AcDbTrace
 10
0.666666666665568
 20
0.0000000000000004
 30
0.0
 11
0.0
 21
0.0
 31
0.0
 12
0.9999999999983524
 22
-0.267949192430676
 32
0.0
 13
0.9999999999983524
 23
-0.267949192430676
 33
0.0
210
0.0
220
0.0
230
-1.0
  0
SOLID
  5
471
330
1D85
100
AcDbEntity
  8
0
  6
Continuous
 62
     0
100
AcDbTrace
 10
0.666666666665568
 20
0.0000000000000004
 30
0.0
 11
0.9999999999983524
 21
-0.267949192430676
 31
0.0
 12
0.9999999999983517
 22
0.2679491924306774
 32
0.0
 13
0.9999999999983517
 23
0.2679491924306774
 33
0.0
210
0.0
220
0.0
230
-1.0
  0
ENDBLK
  5
473
330
1D85
100
AcDbEntity
  8
0
100
AcDbBlockEnd
  0
ENDSEC
  0
SECTION
  2
ENTITIES
  0
LINE
  5
488D
330
1D72
100
AcDbEntity
  8
1外形線
 62
     2
 48
0.2
100
AcDbLine
 10
1869.822622052627
 20
-1726.962057524533
 30
0.0
 11
1869.822622052627
 21
-1854.042021550559
 31
0.0
  0
LINE
  5
488E
330
1D72
100
AcDbEntity
  8
1外形線
 48
3.0
100
AcDbLine
 10
1857.822622052627
 20
-1733.962057524532
 30
0.0
 11
1869.822622052627
 21
-1733.962057524532
 31
0.0
  0
LINE
  5
4890
330
1D72
100
AcDbEntity
  8
1外形線
 48
3.0
100
AcDbLine
 10
1857.822622052627
 20
-1755.462057524533
 30
0.0
 11
1869.822622052627
 21
-1755.462057524533
 31
0.0
  0
LINE
  5
4891
330
1D72
100
AcDbEntity
  8
1外形線
 48
3.0
100
AcDbLine
 10
1857.822622052627
 20
-1759.962057524532
 30
0.0
 11
1869.822622052627
 21
-1759.962057524532
 31
0.0
  0
ARC
  5
4892
330
1D72
100
AcDbEntity
  8
1外形線
 48
3.0
100
AcDbCircle
 10
1857.822622052627
 20
-1781.962057524532
 30
0.0
 40
48.0
100
AcDbArc
 50
90.0
 51
180.0
  0
LINE
  5
4893
330
1D72
100
AcDbEntity
  8
1外形線
 48
3.0
100
AcDbLine
 10
1809.822622052626
 20
-1781.962057524532
 30
0.0
 11
1809.822622052626
 21
-1788.962057524533
 31
0.0
  0
LINE
  5
4894
330
1D72
100
AcDbEntity
  8
1外形線
 48
3.0
100
AcDbLine
 10
1835.822622052628
 20
-1781.962057524532
 30
0.0
 11
1835.822622052628
 21
-1788.962057524533
 31
0.0
  0
LINE
  5
4895
330
1D72
100
AcDbEntity
  8
1外形線
 48
3.0
100
AcDbLine
 10
1831.322622052627
 20
-1781.962057524532
 30
0.0
 11
1831.322622052627
 21
-1788.962057524533
 31
0.0
  0
ARC
  5
489A
330
1D72
100
AcDbEntity
  8
1外形線
 48
3.0
100
AcDbCircle
 10
1857.822622052627
 20
-1781.962057524532
 30
0.0
 40
26.5
100
AcDbArc
 50
90.0
 51
180.0
  0
ARC
  5
489B
330
1D72
100
AcDbEntity
  8
1外形線
 48
3.0
100
AcDbCircle
 10
1857.822622052627
 20
-1781.962057524532
 30
0.0
 40
22.0
100
AcDbArc
 50
90.0
 51
180.0
  0
ARC
  5
489C
330
1D72
100
AcDbEntity
  8
1外形線
 48
3.0
100
AcDbCircle
 10
1881.822622052627
 20
-1781.962057524532
 30
0.0
 40
48.0
100
AcDbArc
 50
0.0
 51
90.0
  0
LINE
  5
489E
330
1D72
100
AcDbEntity
  8
1外形線
 48
3.0
100
AcDbLine
 10
1908.322622052628
 20
-1781.962057524532
 30
0.0
 11
1908.322622052628
 21
-1788.962057524533
 31
0.0
  0
LINE
  5
489F
330
1D72
100
AcDbEntity
  8
1外形線
 48
3.0
100
AcDbLine
 10
1903.822622052627
 20
-1781.962057524532
 30
0.0
 11
1903.822622052627
 21
-1788.962057524533
 31
0.0
  0
ARC
  5
48A3
330
1D72
100
AcDbEntity
  8
1外形線
 48
3.0
100
AcDbCircle
 10
1881.822622052627
 20
-1781.962057524532
 30
0.0
 40
22.0
100
AcDbArc
 50
0.0
 51
90.0
  0
ARC
  5
48A4
330
1D72
100
AcDbEntity
  8
1外形線
 48
3.0
100
AcDbCircle
 10
1881.822622052627
 20
-1781.962057524532
 30
0.0
 40
26.5
100
AcDbArc
 50
0.0
 51
90.0
  0
LINE
  5
48A5
330
1D72
100
AcDbEntity
  8
1外形線
 48
3.0
100
AcDbLine
 10
1881.822622052627
 20
-1759.962057524532
 30
0.0
 11
1869.822622052627
 21
-1759.962057524532
 31
0.0
  0
LINE
  5
48A6
330
1D72
100
AcDbEntity
  8
1外形線
 48
3.0
100
AcDbLine
 10
1881.822622052627
 20
-1733.962057524532
 30
0.0
 11
1869.822622052627
 21
-1733.962057524532
 31
0.0
  0
LINE
  5
48A7
330
1D72
100
AcDbEntity
  8
1外形線
 48
3.0
100
AcDbLine
 10
1881.822622052627
 20
-1755.462057524533
 30
0.0
 11
1869.822622052627
 21
-1755.462057524533
 31
0.0
  0
LINE
  5
48A8
330
1D72
100
AcDbEntity
  8
1外形線
 48
3.0
100
AcDbLine
 10
1929.822622052627
 20
-1781.962057524532
 30
0.0
 11
1929.822622052627
 21
-1788.962057524533
 31
0.0
  0
LINE
  5
48C3
330
1D72
100
AcDbEntity
  8
1外形線
 62
     2
 48
0.2
100
AcDbLine
 10
1869.822622052627
 20
-1953.553816230881
 30
0.0
 11
1869.822622052627
 21
-1898.757207600823
 31
0.0
  0
LINE
  5
48C4
330
1D72
100
AcDbEntity
  8
1外形線
 48
3.0
100
AcDbLine
 10
1929.822622052627
 20
-1921.876215349901
 30
0.0
 11
1893.121980748101
 21
-1921.876215349901
 31
0.0
  0
LINE
  5
48C5
330
1D72
100
AcDbEntity
  8
1外形線
 48
3.0
100
AcDbLine
 10
1929.822622052627
 20
-1921.876215349901
 30
0.0
 11
1929.822622052627
 21
-1918.876215349901
 31
0.0
  0
LINE
  5
48C6
330
1D72
100
AcDbEntity
  8
1外形線
 48
3.0
100
AcDbLine
 10
1926.822622052627
 20
-1915.876215349901
 30
0.0
 11
1908.322622052628
 21
-1915.876215349901
 31
0.0
  0
ARC
  5
48C7
330
1D72
100
AcDbEntity
  8
1外形線
 48
3.0
100
AcDbCircle
 10
1926.822622052627
 20
-1918.876215349901
 30
0.0
 40
3.0
100
AcDbArc
 50
0.0
 51
90.0
  0
LINE
  5
48C9
330
1D72
100
AcDbEntity
  8
1外形線
 48
3.0
100
AcDbLine
 10
1904.822622052628
 20
-1945.876215349901
 30
0.0
 11
1869.822622052628
 21
-1945.876215349901
 31
0.0
  0
LINE
  5
48CA
330
1D72
100
AcDbEntity
  8
1外形線
 48
3.0
100
AcDbLine
 10
1905.822622052627
 20
-1942.876215349901
 30
0.0
 11
1904.822622052628
 21
-1945.876215349901
 31
0.0
  0
LINE
  5
48CB
330
1D72
100
AcDbEntity
  8
1外形線
 48
3.0
100
AcDbLine
 10
1905.822622052627
 20
-1924.876215349901
 30
0.0
 11
1893.121980748101
 21
-1924.876215349901
 31
0.0
  0
LINE
  5
48CC
330
1D72
100
AcDbEntity
  8
1外形線
 48
3.0
100
AcDbLine
 10
1905.822622052627
 20
-1942.876215349901
 30
0.0
 11
1905.822622052627
 21
-1924.876215349901
 31
0.0
  0
LINE
  5
48CD
330
1D72
100
AcDbEntity
  8
1外形線
 48
3.0
100
AcDbLine
 10
1872.322622052626
 20
-1924.876215349901
 30
0.0
 11
1872.322622052628
 21
-1921.876215349901
 31
0.0
  0
LINE
  5
48D0
330
1D72
100
AcDbEntity
  8
1外形線
 48
3.0
100
AcDbLine
 10
1908.322622052628
 20
-1915.876215349901
 30
0.0
 11
1906.804952371545
 21
-1908.287866944487
 31
0.0
  0
LINE
  5
48D2
330
1D72
100
AcDbEntity
  8
1外形線
 48
3.0
100
AcDbLine
 10
1903.863210344472
 20
-1905.876215349901
 30
0.0
 11
1869.822622052628
 21
-1905.876215349901
 31
0.0
  0
ARC
  5
48D3
330
1D72
100
AcDbEntity
  8
1外形線
 48
3.0
100
AcDbCircle
 10
1903.863210344472
 20
-1908.876215349901
 30
0.0
 40
3.0
100
AcDbArc
 50
11.30993247402532
 51
90.0
  0
LINE
  5
48D7
330
1D72
100
AcDbEntity
  8
1外形線
 48
3.0
100
AcDbLine
 10
1908.322622052628
 20
-1915.876215349902
 30
0.0
 11
1869.822622052627
 21
-1915.876215349904
 31
0.0
  0
LINE
  5
48DD
330
1D72
100
AcDbEntity
  8
1外形線
 48
3.0
100
AcDbLine
 10
1889.827228855622
 20
-1921.876215349901
 30
0.0
 11
1889.827228855622
 21
-1924.876215349901
 31
0.0
  0
LINE
  5
48DE
330
1D72
100
AcDbEntity
  8
1外形線
 48
3.0
100
AcDbLine
 10
1893.121980748101
 20
-1921.876215349901
 30
0.0
 11
1893.121980748101
 21
-1924.876215349901
 31
0.0
  0
LINE
  5
48E0
330
1D72
100
AcDbEntity
  8
1外形線
 48
3.0
100
AcDbLine
 10
1889.827228855622
 20
-1924.876215349901
 30
0.0
 11
1872.322622052626
 21
-1924.876215349901
 31
0.0
  0
LINE
  5
48E1
330
1D72
100
AcDbEntity
  8
1外形線
 48
3.0
100
AcDbLine
 10
1893.121980748101
 20
-1921.876215349901
 30
0.0
 11
1872.322622052628
 21
-1921.876215349901
 31
0.0
  0
LINE
  5
48E2
330
1D72
100
AcDbEntity
  8
1外形線
 48
3.0
100
AcDbLine
 10
1809.822622052626
 20
-1921.876215349901
 30
0.0
 11
1846.523263357154
 21
-1921.876215349901
 31
0.0
  0
LINE
  5
48E3
330
1D72
100
AcDbEntity
  8
1外形線
 48
3.0
100
AcDbLine
 10
1833.822622052627
 20
-1924.876215349901
 30
0.0
 11
1846.523263357154
 21
-1924.876215349901
 31
0.0
  0
LINE
  5
48E4
330
1D72
100
AcDbEntity
  8
1外形線
 48
3.0
100
AcDbLine
 10
1834.822622052627
 20
-1945.876215349901
 30
0.0
 11
1869.822622052627
 21
-1945.876215349901
 31
0.0
  0
LINE
  5
48E6
330
1D72
100
AcDbEntity
  8
1外形線
 48
3.0
100
AcDbLine
 10
1835.782033760783
 20
-1905.876215349901
 30
0.0
 11
1869.822622052627
 21
-1905.876215349901
 31
0.0
  0
LINE
  5
48E7
330
1D72
100
AcDbEntity
  8
1外形線
 48
3.0
100
AcDbLine
 10
1831.322622052627
 20
-1915.876215349901
 30
0.0
 11
1869.822622052627
 21
-1915.876215349904
 31
0.0
  0
LINE
  5
48E9
330
1D72
100
AcDbEntity
  8
1外形線
 48
3.0
100
AcDbLine
 10
1833.822622052627
 20
-1942.876215349901
 30
0.0
 11
1833.822622052627
 21
-1924.876215349901
 31
0.0
  0
LINE
  5
48EA
330
1D72
100
AcDbEntity
  8
1外形線
 48
3.0
100
AcDbLine
 10
1812.822622052628
 20
-1915.876215349901
 30
0.0
 11
1831.322622052627
 21
-1915.876215349901
 31
0.0
  0
ARC
  5
48EB
330
1D72
100
AcDbEntity
  8
1外形線
 48
3.0
100
AcDbCircle
 10
1812.822622052628
 20
-1918.876215349901
 30
0.0
 40
3.0
100
AcDbArc
 50
90.0
 51
180.0
  0
LINE
  5
48EC
330
1D72
100
AcDbEntity
  8
1外形線
 48
3.0
100
AcDbLine
 10
1809.822622052626
 20
-1921.876215349901
 30
0.0
 11
1809.822622052628
 21
-1918.876215349901
 31
0.0
  0
LINE
  5
48F2
330
1D72
100
AcDbEntity
  8
1外形線
 48
3.0
100
AcDbLine
 10
1831.322622052627
 20
-1915.876215349901
 30
0.0
 11
1832.840291733711
 21
-1908.287866944487
 31
0.0
  0
ARC
  5
48F5
330
1D72
100
AcDbEntity
  8
1外形線
 48
3.0
100
AcDbCircle
 10
1835.782033760783
 20
-1908.876215349901
 30
0.0
 40
3.0
100
AcDbArc
 50
90.0
 51
168.6900675259746
  0
LINE
  5
48F6
330
1D72
100
AcDbEntity
  8
1外形線
 48
3.0
100
AcDbLine
 10
1833.822622052627
 20
-1942.876215349901
 30
0.0
 11
1834.822622052627
 21
-1945.876215349901
 31
0.0
  0
LINE
  5
48F8
330
1D72
100
AcDbEntity
  8
1外形線
 48
3.0
100
AcDbLine
 10
1846.523263357154
 20
-1921.876215349901
 30
0.0
 11
1872.322622052628
 21
-1921.876215349901
 31
0.0
  0
LINE
  5
48F9
330
1D72
100
AcDbEntity
  8
1外形線
 48
3.0
100
AcDbLine
 10
1849.818015249632
 20
-1924.876215349901
 30
0.0
 11
1867.322622052627
 21
-1924.876215349901
 31
0.0
  0
LINE
  5
48FC
330
1D72
100
AcDbEntity
  8
1外形線
 48
3.0
100
AcDbLine
 10
1846.523263357154
 20
-1921.876215349901
 30
0.0
 11
1846.523263357154
 21
-1924.876215349901
 31
0.0
  0
LINE
  5
48FD
330
1D72
100
AcDbEntity
  8
1外形線
 48
3.0
100
AcDbLine
 10
1849.818015249632
 20
-1921.876215349901
 30
0.0
 11
1849.818015249632
 21
-1924.876215349901
 31
0.0
  0
LINE
  5
48FF
330
1D72
100
AcDbEntity
  8
1外形線
 48
3.0
100
AcDbLine
 10
1867.322622052627
 20
-1924.876215349901
 30
0.0
 11
1867.322622052627
 21
-1921.876215349901
 31
0.0
  0
LINE
  5
4B8E
330
1D72
100
AcDbEntity
  8
1外形線
 48
3.0
100
AcDbLine
 10
1857.822622052627
 20
-1843.962057524532
 30
0.0
 11
1869.822622052627
 21
-1843.962057524532
 31
0.0
  0
LINE
  5
4B90
330
1D72
100
AcDbEntity
  8
1外形線
 48
3.0
100
AcDbLine
 10
1857.822622052627
 20
-1822.462057524532
 30
0.0
 11
1869.822622052627
 21
-1822.462057524532
 31
0.0
  0
LINE
  5
4B91
330
1D72
100
AcDbEntity
  8
1外形線
 48
3.0
100
AcDbLine
 10
1857.822622052627
 20
-1817.962057524533
 30
0.0
 11
1869.822622052627
 21
-1817.962057524533
 31
0.0
  0
ARC
  5
4B92
330
1D72
100
AcDbEntity
  8
1外形線
 48
3.0
100
AcDbCircle
 10
1857.822622052627
 20
-1795.962057524533
 30
0.0
 40
48.0
100
AcDbArc
 50
180.0
 51
270.0
  0
LINE
  5
4B93
330
1D72
100
AcDbEntity
  8
1外形線
 48
3.0
100
AcDbLine
 10
1809.822622052626
 20
-1795.962057524533
 30
0.0
 11
1809.822622052626
 21
-1788.962057524533
 31
0.0
  0
LINE
  5
4B94
330
1D72
100
AcDbEntity
  8
1外形線
 48
3.0
100
AcDbLine
 10
1835.822622052628
 20
-1795.962057524533
 30
0.0
 11
1835.822622052628
 21
-1788.962057524533
 31
0.0
  0
LINE
  5
4B95
330
1D72
100
AcDbEntity
  8
1外形線
 48
3.0
100
AcDbLine
 10
1831.322622052627
 20
-1795.962057524533
 30
0.0
 11
1831.322622052627
 21
-1788.962057524533
 31
0.0
  0
ARC
  5
4B9A
330
1D72
100
AcDbEntity
  8
1外形線
 48
3.0
100
AcDbCircle
 10
1857.822622052627
 20
-1795.962057524533
 30
0.0
 40
26.5
100
AcDbArc
 50
180.0
 51
270.0
  0
ARC
  5
4B9B
330
1D72
100
AcDbEntity
  8
1外形線
 48
3.0
100
AcDbCircle
 10
1857.822622052627
 20
-1795.962057524533
 30
0.0
 40
22.0
100
AcDbArc
 50
180.0
 51
270.0
  0
ARC
  5
4B9C
330
1D72
100
AcDbEntity
  8
1外形線
 48
3.0
100
AcDbCircle
 10
1881.822622052627
 20
-1795.962057524533
 30
0.0
 40
48.0
100
AcDbArc
 50
270.0
 51
0.0
  0
LINE
  5
4B9E
330
1D72
100
AcDbEntity
  8
1外形線
 48
3.0
100
AcDbLine
 10
1908.322622052628
 20
-1795.962057524533
 30
0.0
 11
1908.322622052628
 21
-1788.962057524533
 31
0.0
  0
LINE
  5
4B9F
330
1D72
100
AcDbEntity
  8
1外形線
 48
3.0
100
AcDbLine
 10
1903.822622052627
 20
-1795.962057524533
 30
0.0
 11
1903.822622052627
 21
-1788.962057524533
 31
0.0
  0
ARC
  5
4BA3
330
1D72
100
AcDbEntity
  8
1外形線
 48
3.0
100
AcDbCircle
 10
1881.822622052627
 20
-1795.962057524533
 30
0.0
 40
22.0
100
AcDbArc
 50
270.0
 51
0.0
  0
ARC
  5
4BA4
330
1D72
100
AcDbEntity
  8
1外形線
 48
3.0
100
AcDbCircle
 10
1881.822622052627
 20
-1795.962057524533
 30
0.0
 40
26.5
100
AcDbArc
 50
270.0
 51
0.0
  0
LINE
  5
4BA5
330
1D72
100
AcDbEntity
  8
1外形線
 48
3.0
100
AcDbLine
 10
1881.822622052627
 20
-1817.962057524533
 30
0.0
 11
1869.822622052627
 21
-1817.962057524533
 31
0.0
  0
LINE
  5
4BA6
330
1D72
100
AcDbEntity
  8
1外形線
 48
3.0
100
AcDbLine
 10
1881.822622052627
 20
-1843.962057524532
 30
0.0
 11
1869.822622052627
 21
-1843.962057524532
 31
0.0
  0
LINE
  5
4BA7
330
1D72
100
AcDbEntity
  8
1外形線
 48
3.0
100
AcDbLine
 10
1881.822622052627
 20
-1822.462057524532
 30
0.0
 11
1869.822622052627
 21
-1822.462057524532
 31
0.0
  0
LINE
  5
4BA8
330
1D72
100
AcDbEntity
  8
1外形線
 48
3.0
100
AcDbLine
 10
1929.822622052627
 20
-1795.962057524533
 30
0.0
 11
1929.822622052627
 21
-1788.962057524533
 31
0.0
  0
LINE
  5
4BD1
330
1D72
100
AcDbEntity
  8
1外形線
 62
     2
 48
0.2
100
AcDbLine
 10
1794.812007404205
 20
-1788.962057524533
 30
0.0
 11
1943.45061890474
 21
-1788.962057524533
 31
0.0
  0
LINE
  5
4C2A
330
1D72
100
AcDbEntity
  8
1外形線
 62
     2
 48
0.2
100
AcDbLine
 10
1973.002603496128
 20
-1788.962057524533
 30
0.0
 11
2042.956412889965
 21
-1788.962057524533
 31
0.0
  0
LINE
  5
747F
330
1D72
100
AcDbEntity
  8
1外形線
 48
3.0
100
AcDbLine
 10
2000.956412889965
 20
-1752.962057524533
 30
0.0
 11
2000.956412889965
 21
-1764.298892221789
 31
0.0
  0
LINE
  5
7480
330
1D72
100
AcDbEntity
  8
1外形線
 48
3.0
100
AcDbLine
 10
1991.956412889965
 20
-1736.962057524533
 30
0.0
 11
1991.956412889965
 21
-1788.962057524533
 31
0.0
  0
LINE
  5
7481
330
1D72
100
AcDbEntity
  8
1外形線
 48
3.0
100
AcDbLine
 10
1997.956412889965
 20
-1733.962057524533
 30
0.0
 11
1997.956412889965
 21
-1788.962057524533
 31
0.0
  0
LINE
  5
7482
330
1D72
100
AcDbEntity
  8
1外形線
 48
3.0
100
AcDbLine
 10
1981.956412889965
 20
-1759.921469232689
 30
0.0
 11
1981.956412889965
 21
-1788.962057524533
 31
0.0
  0
LINE
  5
7483
330
1D72
100
AcDbEntity
  8
1外形線
 48
3.0
100
AcDbLine
 10
2000.956412889965
 20
-1769.962057524533
 30
0.0
 11
2000.956412889965
 21
-1788.962057524533
 31
0.0
  0
LINE
  5
7484
330
1D72
100
AcDbEntity
  8
1外形線
 48
3.0
100
AcDbLine
 10
1997.956412889965
 20
-1764.298892221789
 30
0.0
 11
2000.956412889965
 21
-1764.298892221789
 31
0.0
  0
LINE
  5
7485
330
1D72
100
AcDbEntity
  8
1外形線
 48
3.0
100
AcDbLine
 10
1997.956412889965
 20
-1769.962057524533
 30
0.0
 11
2000.956412889965
 21
-1769.962057524533
 31
0.0
  0
ARC
  5
7486
330
1D72
100
AcDbEntity
  8
1外形線
 48
3.0
100
AcDbCircle
 10
1994.956412889965
 20
-1736.962057524533
 30
0.0
 40
3.0
100
AcDbArc
 50
90.0
 51
180.0
  0
LINE
  5
7487
330
1D72
100
AcDbEntity
  8
1外形線
 48
3.0
100
AcDbLine
 10
1984.36806448455
 20
-1756.979727205616
 30
0.0
 11
1991.956412889965
 21
-1755.462057524533
 31
0.0
  0
ARC
  5
7488
330
1D72
100
AcDbEntity
  8
1外形線
 48
3.0
100
AcDbCircle
 10
1984.956412889965
 20
-1759.921469232689
 30
0.0
 40
3.0
100
AcDbArc
 50
101.3099324740253
 51
180.0
  0
LINE
  5
748A
330
1D72
100
AcDbEntity
  8
1外形線
 48
3.0
100
AcDbLine
 10
1997.956412889965
 20
-1733.962057524533
 30
0.0
 11
1994.956412889965
 21
-1733.962057524533
 31
0.0
  0
LINE
  5
748B
330
1D72
100
AcDbEntity
  8
1外形線
 48
3.0
100
AcDbLine
 10
2021.956412889965
 20
-1753.962057524533
 30
0.0
 11
2021.956412889965
 21
-1788.962057524533
 31
0.0
  0
LINE
  5
91AB
330
1D72
100
AcDbEntity
  8
1外形線
 48
3.0
100
AcDbLine
 10
2018.956412889965
 20
-1752.962057524533
 30
0.0
 11
2000.956412889965
 21
-1752.962057524533
 31
0.0
  0
LINE
  5
91B8
330
1D72
100
AcDbEntity
  8
1外形線
 48
3.0
100
AcDbLine
 10
2021.956412889965
 20
-1753.962057524533
 30
0.0
 11
2018.956412889965
 21
-1752.962057524533
 31
0.0
  0
LINE
  5
91CB
330
1D72
100
AcDbEntity
  8
1外形線
 48
3.0
100
AcDbLine
 10
2000.956412889965
 20
-1824.962057524532
 30
0.0
 11
2000.956412889965
 21
-1813.625222827276
 31
0.0
  0
LINE
  5
91CC
330
1D72
100
AcDbEntity
  8
1外形線
 48
3.0
100
AcDbLine
 10
1991.956412889965
 20
-1840.962057524532
 30
0.0
 11
1991.956412889965
 21
-1788.962057524532
 31
0.0
  0
LINE
  5
91CD
330
1D72
100
AcDbEntity
  8
1外形線
 48
3.0
100
AcDbLine
 10
1997.956412889965
 20
-1843.962057524532
 30
0.0
 11
1997.956412889965
 21
-1788.962057524532
 31
0.0
  0
LINE
  5
91CE
330
1D72
100
AcDbEntity
  8
1外形線
 48
3.0
100
AcDbLine
 10
1981.956412889965
 20
-1818.002645816376
 30
0.0
 11
1981.956412889965
 21
-1788.962057524532
 31
0.0
  0
LINE
  5
91CF
330
1D72
100
AcDbEntity
  8
1外形線
 48
3.0
100
AcDbLine
 10
2000.956412889965
 20
-1807.962057524532
 30
0.0
 11
2000.956412889965
 21
-1788.962057524532
 31
0.0
  0
LINE
  5
91D0
330
1D72
100
AcDbEntity
  8
1外形線
 48
3.0
100
AcDbLine
 10
1997.956412889965
 20
-1813.625222827276
 30
0.0
 11
2000.956412889965
 21
-1813.625222827276
 31
0.0
  0
LINE
  5
91D1
330
1D72
100
AcDbEntity
  8
1外形線
 48
3.0
100
AcDbLine
 10
1997.956412889965
 20
-1807.962057524532
 30
0.0
 11
2000.956412889965
 21
-1807.962057524532
 31
0.0
  0
ARC
  5
91D2
330
1D72
100
AcDbEntity
  8
1外形線
 48
3.0
100
AcDbCircle
 10
1994.956412889965
 20
-1840.962057524532
 30
0.0
 40
3.0
100
AcDbArc
 50
180.0
 51
270.0
  0
LINE
  5
91D3
330
1D72
100
AcDbEntity
  8
1外形線
 48
3.0
100
AcDbLine
 10
1984.36806448455
 20
-1820.944387843448
 30
0.0
 11
1991.956412889965
 21
-1822.462057524532
 31
0.0
  0
ARC
  5
91D4
330
1D72
100
AcDbEntity
  8
1外形線
 48
3.0
100
AcDbCircle
 10
1984.956412889965
 20
-1818.002645816376
 30
0.0
 40
3.0
100
AcDbArc
 50
180.0
 51
258.6900675259747
  0
LINE
  5
91D5
330
1D72
100
AcDbEntity
  8
1外形線
 48
3.0
100
AcDbLine
 10
1997.956412889965
 20
-1843.962057524532
 30
0.0
 11
1994.956412889965
 21
-1843.962057524532
 31
0.0
  0
LINE
  5
91D6
330
1D72
100
AcDbEntity
  8
1外形線
 48
3.0
100
AcDbLine
 10
2021.956412889965
 20
-1823.962057524532
 30
0.0
 11
2021.956412889965
 21
-1788.962057524532
 31
0.0
  0
LINE
  5
91D9
330
1D72
100
AcDbEntity
  8
1外形線
 48
3.0
100
AcDbLine
 10
2018.956412889965
 20
-1824.962057524532
 30
0.0
 11
2000.956412889965
 21
-1824.962057524532
 31
0.0
  0
LINE
  5
91DA
330
1D72
100
AcDbEntity
  8
1外形線
 48
3.0
100
AcDbLine
 10
2021.956412889965
 20
-1823.962057524532
 30
0.0
 11
2018.956412889965
 21
-1824.962057524532
 31
0.0
  0
ENDSEC
  0
SECTION
  2
OBJECTS
  0
DICTIONARY
  5
1D5C
330
0
100
AcDbDictionary
281
     1
  3
ACAD_COLOR
350
1D6B
  3
ACAD_GROUP
350
1D5D
  3
ACAD_LAYOUT
350
1D69
  3
ACAD_MATERIAL
350
1D6A
  3
ACAD_MLINESTYLE
350
1D66
  3
ACAD_PLOTSETTINGS
350
1D68
  3
ACAD_PLOTSTYLENAME
350
1D5E
  3
ACAD_TABLESTYLE
350
1D6C
  3
ACDBHEADERROUNDTRIPXREC
350
94F6
  3
AcDbVariableDictionary
350
318A
  0
DICTIONARY
  5
20C2
330
1D52
100
AcDbDictionary
280
     1
281
     1
  3
ACAD_LAYERSTATES
360
20C3
  0
DICTIONARY
  5
4C2B
330
1D72
100
AcDbDictionary
280
     1
281
     1
  3
ACAD_SORTENTS
360
4C2C
  0
DICTIONARY
  5
1D6B
102
{ACAD_REACTORS
330
1D5C
102
}
330
1D5C
100
AcDbDictionary
281
     1
  0
DICTIONARY
  5
1D5D
102
{ACAD_REACTORS
330
1D5C
102
}
330
1D5C
100
AcDbDictionary
281
     1
  0
DICTIONARY
  5
1D69
102
{ACAD_REACTORS
330
1D5C
102
}
330
1D5C
100
AcDbDictionary
281
     1
  3
Model
350
1D75
  3
レイアウト1
350
1D71
  0
DICTIONARY
  5
1D6A
102
{ACAD_REACTORS
330
1D5C
102
}
330
1D5C
100
AcDbDictionary
281
     1
  3
Global
350
20BF
  0
DICTIONARY
  5
1D66
102
{ACAD_REACTORS
330
1D5C
102
}
330
1D5C
100
AcDbDictionary
281
     1
  3
Standard
350
1D67
  0
DICTIONARY
  5
1D68
102
{ACAD_REACTORS
330
1D5C
102
}
330
1D5C
100
AcDbDictionary
281
     1
  0
ACDBDICTIONARYWDFLT
  5
1D5E
102
{ACAD_REACTORS
330
1D5C
102
}
330
1D5C
100
AcDbDictionary
281
     1
  3
Normal
350
1D5F
100
AcDbDictionaryWithDefault
340
1D5F
  0
DICTIONARY
  5
1D6C
102
{ACAD_REACTORS
330
1D5C
102
}
330
1D5C
100
AcDbDictionary
281
     1
  3
Standard
350
1D6D
  0
DICTIONARY
  5
94F6
102
{ACAD_REACTORS
330
1D5C
102
}
330
1D5C
100
AcDbDictionary
281
     1
  0
DICTIONARY
  5
318A
102
{ACAD_REACTORS
330
1D5C
102
}
330
1D5C
100
AcDbDictionary
281
     1
  3
CTABLESTYLE
350
318B
  3
DIMASSOC
350
628C
  3
PROJECTNAME
350
628D
  0
DICTIONARY
  5
20C3
102
{ACAD_REACTORS
330
20C2
102
}
330
20C2
100
AcDbDictionary
281
     1
  0
SORTENTSTABLE
  5
4C2C
102
{ACAD_REACTORS
330
4C2B
102
}
330
4C2B
100
AcDbSortentsTable
330
1D72
331
48D3
  5
48D3
331
48A7
  5
48A7
331
48F9
  5
48F9
331
48CC
  5
48CC
331
4B92
  5
4B92
331
48DD
  5
48DD
331
48E1
  5
48E1
331
4BA7
  5
4BA7
331
48F2
  5
48F2
331
48C5
  5
48C5
331
488E
  5
488E
331
48EB
  5
48EB
331
48FC
  5
48FC
331
4892
  5
4892
331
4BD1
  5
4BD1
331
4B95
  5
4B95
331
48A3
  5
48A3
331
48E4
  5
48E4
331
48F5
  5
48F5
331
4B8E
  5
4B8E
331
489C
  5
489C
331
4BA3
  5
4BA3
331
4895
  5
4895
331
48FF
  5
48FF
331
48D2
  5
48D2
331
48A6
  5
48A6
331
4B9C
  5
4B9C
331
48E7
  5
48E7
331
48CB
  5
48CB
331
48F8
  5
48F8
331
489F
  5
489F
331
4B91
  5
4B91
331
48E0
  5
48E0
331
4BA6
  5
4BA6
331
48C4
  5
48C4
331
4C2A
  5
4C22
331
488D
  5
488D
331
4B9F
  5
4B9F
331
48EA
  5
48EA
331
4891
  5
4891
331
4B94
  5
4B94
331
48E3
  5
48E3
331
48C7
  5
48C7
331
489B
  5
489B
331
4894
  5
4894
331
48A5
  5
48A5
331
4B9B
  5
4B9B
331
48E6
  5
48E6
331
48CA
  5
48CA
331
4B90
  5
4B90
331
489E
  5
489E
331
4BA5
  5
4BA5
331
48C3
  5
48C3
331
48A8
  5
48A8
331
48E9
  5
48E9
331
4B9E
  5
4B9E
331
48CD
  5
48CD
331
4890
  5
4890
331
48DE
  5
48DE
331
4B93
  5
4B93
331
48E2
  5
48E2
331
4BA8
  5
4BA8
331
48C6
  5
48C6
331
48D7
  5
48D7
331
489A
  5
489A
331
48EC
  5
48EC
331
48FD
  5
48FD
331
48D0
  5
48D0
331
4893
  5
4893
331
48A4
  5
48A4
331
4B9A
  5
4B9A
331
48C9
  5
48C9
331
48F6
  5
48F6
331
4BA4
  5
4BA4
  0
LAYOUT
  5
1D75
102
{ACAD_XDICTIONARY
360
94F9
102
}
102
{ACAD_REACTORS
330
1D69
102
}
330
1D69
100
AcDbPlotSettings
  1

  2
RICOH IPSiO SP 6310 RPCS
  4
A4
  6

 40
5.873749732971191
 41
5.873747825622557
 42
5.873748779296875
 43
5.873748779296875
 44
209.9733276367186
 45
296.9259948730469
 46
0.0
 47
0.0
 48
0.0
 49
0.0
140
0.0
141
0.0
142
1.0
143
1.779320817970987
 70
 11952
 72
     1
 73
     1
 74
     0
  7
INABA-CAD-Canon.ctb
 75
     0
147
0.5620121958334245
148
-1671.427162896301
149
2004.315007072786
100
AcDbLayout
  1
Model
 70
     1
 71
     0
 10
0.0
 20
0.0
 11
12.0
 21
9.0
 12
0.0
 22
0.0
 32
0.0
 14
0.0
 24
0.0
 34
0.0
 15
0.0
 25
0.0
 35
0.0
146
0.0
 13
0.0
 23
0.0
 33
0.0
 16
1.0
 26
0.0
 36
0.0
 17
0.0
 27
1.0
 37
0.0
 76
     0
330
1D72
1001
ACAD_PSEXT
1000
RICOH IPSiO SP 6310 RPCS
1000
RICOH IPSiO SP 6310 RPCS
1000
192.168.210.201@
1000
RPCS Driver (Windows 2000/XP/Server 2003/2008/Vista/7)
1070
     0
  0
LAYOUT
  5
1D71
102
{ACAD_XDICTIONARY
360
94F7
102
}
102
{ACAD_REACTORS
330
1D69
102
}
330
1D69
100
AcDbPlotSettings
  1

  2
Canon LBP3920/3970 LIPSLX
  4

  6

 40
0.0
 41
0.0
 42
0.0
 43
0.0
 44
0.0
 45
0.0
 46
0.0
 47
0.0
 48
0.0
 49
0.0
140
0.0
141
0.0
142
1.0
143
1.0
 70
   688
 72
     0
 73
     0
 74
     5
  7
INABA-CAD-Canon.ctb
 75
    16
147
1.0
148
0.0
149
0.0
100
AcDbLayout
  1
レイアウト1
 70
     1
 71
     1
 10
0.0
 20
0.0
 11
420.0
 21
297.0
 12
0.0
 22
0.0
 32
0.0
 14
1.000000000000000E+20
 24
1.000000000000000E+20
 34
1.000000000000000E+20
 15
-1.000000000000000E+20
 25
-1.000000000000000E+20
 35
-1.000000000000000E+20
146
0.0
 13
0.0
 23
0.0
 33
0.0
 16
1.0
 26
0.0
 36
0.0
 17
0.0
 27
1.0
 37
0.0
 76
     0
330
1D6E
  0
MATERIAL
  5
20BF
102
{ACAD_XDICTIONARY
360
20C0
102
}
102
{ACAD_REACTORS
330
1D6A
102
}
330
1D6A
100
AcDbMaterial
  1
Global
  0
MLINESTYLE
  5
1D67
102
{ACAD_REACTORS
330
1D66
102
}
330
1D66
100
AcDbMlineStyle
  2
STANDARD
 70
     0
  3

 62
   256
 51
90.0
 52
90.0
 71
     2
 49
0.5
 62
   256
  6
BYLAYER
 49
-0.5
 62
   256
  6
BYLAYER
  0
ACDBPLACEHOLDER
  5
1D5F
102
{ACAD_REACTORS
330
1D5E
102
}
330
1D5E
  0
TABLESTYLE
  5
1D6D
102
{ACAD_REACTORS
330
1D6C
102
}
330
1D6C
100
AcDbTableStyle
  3
Standard
 70
     0
 71
     0
 40
0.06
 41
0.06
280
     0
281
     0
  7
STANDARD
140
0.18
170
     2
 62
     0
 63
     7
283
     0
274
    -2
284
     1
 64
     0
275
    -2
285
     1
 65
     0
276
    -2
286
     1
 66
     0
277
    -2
287
     1
 67
     0
278
    -2
288
     1
 68
     0
279
    -2
289
     1
 69
     0
  7
STANDARD
140
0.25
170
     5
 62
     0
 63
     7
283
     0
274
    -2
284
     1
 64
     0
275
    -2
285
     1
 65
     0
276
    -2
286
     1
 66
     0
277
    -2
287
     1
 67
     0
278
    -2
288
     1
 68
     0
279
    -2
289
     1
 69
     0
  7
STANDARD
140
0.18
170
     5
 62
     0
 63
     7
283
     0
274
    -2
284
     1
 64
     0
275
    -2
285
     1
 65
     0
276
    -2
286
     1
 66
     0
277
    -2
287
     1
 67
     0
278
    -2
288
     1
 68
     0
279
    -2
289
     1
 69
     0
  0
DICTIONARYVAR
  5
318B
102
{ACAD_REACTORS
330
318A
102
}
330
318A
100
DictionaryVariables
280
     0
  1
STANDARD
  0
DICTIONARYVAR
  5
628C
102
{ACAD_REACTORS
330
318A
102
}
330
318A
100
DictionaryVariables
280
     0
  1
1
  0
DICTIONARYVAR
  5
628D
102
{ACAD_REACTORS
330
318A
102
}
330
318A
100
DictionaryVariables
280
     0
  1

  0
DICTIONARY
  5
94F9
330
1D75
100
AcDbDictionary
280
     1
281
     1
  3
ACAD_XREC_ROUNDTRIP
360
94FA
  0
DICTIONARY
  5
94F7
330
1D71
100
AcDbDictionary
280
     1
281
     1
  3
ACAD_XREC_ROUNDTRIP
360
94F8
  0
DICTIONARY
  5
20C0
330
20BF
100
AcDbDictionary
280
     1
281
     1
  3
ACAD_XREC_ROUNDTRIP
360
20C1
  0
XRECORD
  5
94FA
102
{ACAD_REACTORS
330
94F9
102
}
330
94F9
100
AcDbXrecord
280
     1
102
SHADEPLOT
 70
     0
102
SHADEPLOTRESLEVEL
 70
     2
102
SHADEPLOTCUSTOMDPI
 70
   300
  0
XRECORD
  5
94F8
102
{ACAD_REACTORS
330
94F7
102
}
330
94F7
100
AcDbXrecord
280
     1
102
SHADEPLOT
 70
     0
102
SHADEPLOTRESLEVEL
 70
     2
102
SHADEPLOTCUSTOMDPI
 70
   300
  0
XRECORD
  5
20C1
102
{ACAD_REACTORS
330
20C0
102
}
330
20C0
100
AcDbXrecord
280
     1
102
MATERIAL
148
0.0
149
0.0
149
0.0
 93
        0
 94
       63
282
     0
 72
     1
 77
     1
171
     1
175
     1
179
     1
273
     0
  0
ENDSEC
  0
EOF
