  0
SECTION
  2
HEADER
  9
$ACADVER
  1
AC1015
  9
$ACADMAINTVER
 70
    20
  9
$DWGCODEPAGE
  3
ANSI_932
  9
$INSBASE
 10
0.0
 20
0.0
 30
0.0
  9
$EXTMIN
 10
1229.076868869255
 20
-1957.654366845598
 30
0.0
  9
$EXTMAX
 10
1570.002724756951
 20
-1709.797224199923
 30
0.0
  9
$LIMMIN
 10
0.0
 20
0.0
  9
$LIMMAX
 10
420.0
 20
297.0
  9
$ORTHOMODE
 70
     1
  9
$REGENMODE
 70
     1
  9
$FILLMODE
 70
     1
  9
$QTEXTMODE
 70
     0
  9
$MIRRTEXT
 70
     1
  9
$LTSCALE
 40
1.0
  9
$ATTMODE
 70
     1
  9
$TEXTSIZE
 40
2.5
  9
$TRACEWID
 40
1.0
  9
$TEXTSTYLE
  7
KANJI
  9
$CLAYER
  8
1外形線
  9
$CELTYPE
  6
ByLayer
  9
$CECOLOR
 62
   256
  9
$CELTSCALE
 40
1.0
  9
$DISPSILH
 70
     0
  9
$DIMSCALE
 40
0.0
  9
$DIMASZ
 40
1.8
  9
$DIMEXO
 40
1.0
  9
$DIMDLI
 40
0.0
  9
$DIMRND
 40
0.0
  9
$DIMDLE
 40
0.0
  9
$DIMEXE
 40
1.0
  9
$DIMTP
 40
0.0
  9
$DIMTM
 40
0.0
  9
$DIMTXT
 40
2.5
  9
$DIMCEN
 40
0.0
  9
$DIMTSZ
 40
0.0
  9
$DIMTOL
 70
     0
  9
$DIMLIM
 70
     0
  9
$DIMTIH
 70
     0
  9
$DIMTOH
 70
     0
  9
$DIMSE1
 70
     0
  9
$DIMSE2
 70
     0
  9
$DIMTAD
 70
     1
  9
$DIMZIN
 70
     8
  9
$DIMBLK
  1

  9
$DIMASO
 70
     1
  9
$DIMSHO
 70
     1
  9
$DIMPOST
  1

  9
$DIMAPOST
  1

  9
$DIMALT
 70
     0
  9
$DIMALTD
 70
     2
  9
$DIMALTF
 40
25.4
  9
$DIMLFAC
 40
1.0
  9
$DIMTOFL
 70
     1
  9
$DIMTVP
 40
0.0
  9
$DIMTIX
 70
     0
  9
$DIMSOXD
 70
     0
  9
$DIMSAH
 70
     1
  9
$DIMBLK1
  1
2
  9
$DIMBLK2
  1
2
  9
$DIMSTYLE
  2
M
  9
$DIMCLRD
 70
     0
  9
$DIMCLRE
 70
     0
  9
$DIMCLRT
 70
     0
  9
$DIMTFAC
 40
1.0
  9
$DIMGAP
 40
0.5
  9
$DIMJUST
 70
     0
  9
$DIMSD1
 70
     0
  9
$DIMSD2
 70
     0
  9
$DIMTOLJ
 70
     1
  9
$DIMTZIN
 70
     0
  9
$DIMALTZ
 70
     0
  9
$DIMALTTZ
 70
     0
  9
$DIMUPT
 70
     0
  9
$DIMDEC
 70
     4
  9
$DIMTDEC
 70
     4
  9
$DIMALTU
 70
     2
  9
$DIMALTTD
 70
     2
  9
$DIMTXSTY
  7
STANDARD
  9
$DIMAUNIT
 70
     0
  9
$DIMADEC
 70
     0
  9
$DIMALTRND
 40
0.0
  9
$DIMAZIN
 70
     0
  9
$DIMDSEP
 70
    46
  9
$DIMATFIT
 70
     3
  9
$DIMFRAC
 70
     0
  9
$DIMLDRBLK
  1
2
  9
$DIMLUNIT
 70
     2
  9
$DIMLWD
 70
    -2
  9
$DIMLWE
 70
    -2
  9
$DIMTMOVE
 70
     0
  9
$LUNITS
 70
     2
  9
$LUPREC
 70
     3
  9
$SKETCHINC
 40
1.0
  9
$FILLETRAD
 40
0.0
  9
$AUNITS
 70
     0
  9
$AUPREC
 70
     1
  9
$MENU
  1
.
  9
$ELEVATION
 40
0.0
  9
$PELEVATION
 40
0.0
  9
$THICKNESS
 40
0.0
  9
$LIMCHECK
 70
     0
  9
$CHAMFERA
 40
10.0
  9
$CHAMFERB
 40
10.0
  9
$CHAMFERC
 40
0.0
  9
$CHAMFERD
 40
0.0
  9
$SKPOLY
 70
     0
  9
$TDCREATE
 40
2454393.806994896
  9
$TDUCREATE
 40
2454393.431994896
  9
$TDUPDATE
 40
2456127.493364873
  9
$TDUUPDATE
 40
2456127.118364873
  9
$TDINDWG
 40
0.4337458218
  9
$TDUSRTIMER
 40
0.4336423727
  9
$USRTIMER
 70
     1
  9
$ANGBASE
 50
0.0
  9
$ANGDIR
 70
     0
  9
$PDMODE
 70
     0
  9
$PDSIZE
 40
0.0
  9
$PLINEWID
 40
0.0
  9
$SPLFRAME
 70
     0
  9
$SPLINETYPE
 70
     6
  9
$SPLINESEGS
 70
     8
  9
$HANDSEED
  5
94D5
  9
$SURFTAB1
 70
     6
  9
$SURFTAB2
 70
     6
  9
$SURFTYPE
 70
     6
  9
$SURFU
 70
     6
  9
$SURFV
 70
     6
  9
$UCSBASE
  2

  9
$UCSNAME
  2

  9
$UCSORG
 10
0.0
 20
0.0
 30
0.0
  9
$UCSXDIR
 10
1.0
 20
0.0
 30
0.0
  9
$UCSYDIR
 10
0.0
 20
1.0
 30
0.0
  9
$UCSORTHOREF
  2

  9
$UCSORTHOVIEW
 70
     0
  9
$UCSORGTOP
 10
0.0
 20
0.0
 30
0.0
  9
$UCSORGBOTTOM
 10
0.0
 20
0.0
 30
0.0
  9
$UCSORGLEFT
 10
0.0
 20
0.0
 30
0.0
  9
$UCSORGRIGHT
 10
0.0
 20
0.0
 30
0.0
  9
$UCSORGFRONT
 10
0.0
 20
0.0
 30
0.0
  9
$UCSORGBACK
 10
0.0
 20
0.0
 30
0.0
  9
$PUCSBASE
  2

  9
$PUCSNAME
  2

  9
$PUCSORG
 10
0.0
 20
0.0
 30
0.0
  9
$PUCSXDIR
 10
1.0
 20
0.0
 30
0.0
  9
$PUCSYDIR
 10
0.0
 20
1.0
 30
0.0
  9
$PUCSORTHOREF
  2

  9
$PUCSORTHOVIEW
 70
     0
  9
$PUCSORGTOP
 10
0.0
 20
0.0
 30
0.0
  9
$PUCSORGBOTTOM
 10
0.0
 20
0.0
 30
0.0
  9
$PUCSORGLEFT
 10
0.0
 20
0.0
 30
0.0
  9
$PUCSORGRIGHT
 10
0.0
 20
0.0
 30
0.0
  9
$PUCSORGFRONT
 10
0.0
 20
0.0
 30
0.0
  9
$PUCSORGBACK
 10
0.0
 20
0.0
 30
0.0
  9
$USERI1
 70
     0
  9
$USERI2
 70
     0
  9
$USERI3
 70
     0
  9
$USERI4
 70
     0
  9
$USERI5
 70
     0
  9
$USERR1
 40
0.0
  9
$USERR2
 40
0.0
  9
$USERR3
 40
0.0
  9
$USERR4
 40
0.0
  9
$USERR5
 40
0.0
  9
$WORLDVIEW
 70
     1
  9
$SHADEDGE
 70
     3
  9
$SHADEDIF
 70
    70
  9
$TILEMODE
 70
     1
  9
$MAXACTVP
 70
    48
  9
$PINSBASE
 10
0.0
 20
0.0
 30
0.0
  9
$PLIMCHECK
 70
     0
  9
$PEXTMIN
 10
1.000000000000000E+20
 20
1.000000000000000E+20
 30
1.000000000000000E+20
  9
$PEXTMAX
 10
-1.000000000000000E+20
 20
-1.000000000000000E+20
 30
-1.000000000000000E+20
  9
$PLIMMIN
 10
0.0
 20
0.0
  9
$PLIMMAX
 10
420.0
 20
297.0
  9
$UNITMODE
 70
     0
  9
$VISRETAIN
 70
     1
  9
$PLINEGEN
 70
     0
  9
$PSLTSCALE
 70
     1
  9
$TREEDEPTH
 70
  3020
  9
$CMLSTYLE
  2
Standard
  9
$CMLJUST
 70
     0
  9
$CMLSCALE
 40
1.0
  9
$PROXYGRAPHICS
 70
     1
  9
$MEASUREMENT
 70
     0
  9
$CELWEIGHT
370
    -1
  9
$ENDCAPS
280
     0
  9
$JOINSTYLE
280
     0
  9
$LWDISPLAY
290
     0
  9
$INSUNITS
 70
     0
  9
$HYPERLINKBASE
  1

  9
$STYLESHEET
  1
INABA-CAD-CANON.CTB
  9
$XEDIT
290
     1
  9
$CEPSNTYPE
380
     0
  9
$PSTYLEMODE
290
     1
  9
$FINGERPRINTGUID
  2
{ABD16786-EB4E-47CC-B686-D8806544398D}
  9
$VERSIONGUID
  2
{3F245207-F713-4DA1-87DE-6A05C4C52FFD}
  9
$EXTNAMES
290
     1
  9
$PSVPSCALE
 40
0.0
  9
$OLESTARTUP
290
     0
  0
ENDSEC
  0
SECTION
  2
CLASSES
  0
CLASS
  1
ACDBDICTIONARYWDFLT
  2
AcDbDictionaryWithDefault
  3
ObjectDBX Classes
 90
        0
280
     0
281
     0
  0
CLASS
  1
TABLESTYLE
  2
AcDbTableStyle
  3
ObjectDBX Classes
 90
     2047
280
     0
281
     0
  0
CLASS
  1
MATERIAL
  2
AcDbMaterial
  3
ObjectDBX Classes
 90
        0
280
     0
281
     0
  0
CLASS
  1
DICTIONARYVAR
  2
AcDbDictionaryVar
  3
ObjectDBX Classes
 90
        0
280
     0
281
     0
  0
CLASS
  1
SORTENTSTABLE
  2
AcDbSortentsTable
  3
ObjectDBX Classes
 90
        0
280
     0
281
     0
  0
CLASS
  1
ACDBPLACEHOLDER
  2
AcDbPlaceHolder
  3
ObjectDBX Classes
 90
        0
280
     0
281
     0
  0
CLASS
  1
LAYOUT
  2
AcDbLayout
  3
ObjectDBX Classes
 90
        0
280
     0
281
     0
  0
ENDSEC
  0
SECTION
  2
TABLES
  0
TABLE
  2
VPORT
  5
1D58
330
0
100
AcDbSymbolTable
 70
     2
  0
VPORT
  5
94CF
330
1D58
100
AcDbSymbolTableRecord
100
AcDbViewportTableRecord
  2
*Active
 70
     0
 10
0.0
 20
0.0
 11
1.0
 21
1.0
 12
1411.108659311283
 22
-1827.875960491244
 13
0.0
 23
0.0
 14
10.0
 24
10.0
 15
10.0
 25
10.0
 16
0.0
 26
0.0
 36
1.0
 17
0.0
 27
0.0
 37
0.0
 40
399.8575294801737
 41
1.386243386243386
 42
50.0
 43
0.0
 44
0.0
 50
0.0
 51
0.0
 71
     0
 72
   100
 73
     1
 74
     1
 75
     0
 76
     0
 77
     0
 78
     0
281
     0
 65
     0
110
0.0
120
0.0
130
0.0
111
1.0
121
0.0
131
0.0
112
0.0
122
1.0
132
0.0
 79
     0
146
0.0
  0
ENDTAB
  0
TABLE
  2
LTYPE
  5
1D55
330
0
100
AcDbSymbolTable
 70
     1
  0
LTYPE
  5
1D63
330
1D55
100
AcDbSymbolTableRecord
100
AcDbLinetypeTableRecord
  2
ByBlock
 70
     0
  3

 72
    65
 73
     0
 40
0.0
  0
LTYPE
  5
1D64
330
1D55
100
AcDbSymbolTableRecord
100
AcDbLinetypeTableRecord
  2
ByLayer
 70
     0
  3

 72
    65
 73
     0
 40
0.0
  0
LTYPE
  5
1D65
330
1D55
100
AcDbSymbolTableRecord
100
AcDbLinetypeTableRecord
  2
CONTINUOUS
 70
     0
  3
Solid line
 72
    65
 73
     0
 40
0.0
  0
ENDTAB
  0
TABLE
  2
LAYER
  5
1D52
102
{ACAD_XDICTIONARY
360
20C2
102
}
330
0
100
AcDbSymbolTable
 70
     5
  0
LAYER
  5
1D60
330
1D52
100
AcDbSymbolTableRecord
100
AcDbLayerTableRecord
  2
0
 70
     0
 62
     7
  6
CONTINUOUS
370
    -3
390
1D5F
  0
LAYER
  5
1D76
330
1D52
100
AcDbSymbolTableRecord
100
AcDbLayerTableRecord
  2
1外形線
 70
     0
 62
     3
  6
CONTINUOUS
370
    -3
390
1D5F
  0
LAYER
  5
1D79
330
1D52
100
AcDbSymbolTableRecord
100
AcDbLayerTableRecord
  2
DEFPOINTS
 70
     0
 62
     7
  6
CONTINUOUS
290
     0
370
    -3
390
1D5F
  0
LAYER
  5
20AD
102
{ACAD_XDICTIONARY
360
20AE
102
}
330
1D52
100
AcDbSymbolTableRecord
100
AcDbLayerTableRecord
  2
2寸法線
 70
     0
 62
     2
  6
CONTINUOUS
370
    -3
390
1D5F
  0
ENDTAB
  0
TABLE
  2
STYLE
  5
1D53
330
0
100
AcDbSymbolTable
 70
     2
  0
STYLE
  5
1D61
330
1D53
100
AcDbSymbolTableRecord
100
AcDbTextStyleTableRecord
  2
STANDARD
 70
     0
 40
0.0
 41
1.0
 50
0.0
 71
     0
 42
2.5
  3
txt
  4

  0
STYLE
  5
1D77
330
1D53
100
AcDbSymbolTableRecord
100
AcDbTextStyleTableRecord
  2
KANJI
 70
     0
 40
0.0
 41
1.0
 50
0.0
 71
     0
 42
2.5
  3
simplex.shx
  4
bigfont.shx
  0
ENDTAB
  0
TABLE
  2
VIEW
  5
1D56
330
0
100
AcDbSymbolTable
 70
     0
  0
ENDTAB
  0
TABLE
  2
UCS
  5
1D57
330
0
100
AcDbSymbolTable
 70
     0
  0
ENDTAB
  0
TABLE
  2
APPID
  5
1D59
330
0
100
AcDbSymbolTable
 70
     2
  0
APPID
  5
1D62
330
1D59
100
AcDbSymbolTableRecord
100
AcDbRegAppTableRecord
  2
ACAD
 70
     0
  0
APPID
  5
20BE
330
1D59
100
AcDbSymbolTableRecord
100
AcDbRegAppTableRecord
  2
ACAD_PSEXT
 70
     0
  0
ENDTAB
  0
TABLE
  2
DIMSTYLE
  5
1D5A
330
0
100
AcDbSymbolTable
 70
     2
100
AcDbDimStyleTable
 71
     1
340
1D7B
  0
DIMSTYLE
105
1D7A
330
1D5A
100
AcDbSymbolTableRecord
100
AcDbDimStyleTableRecord
  2
STANDARD
 70
     0
 73
     0
 74
     0
172
     1
271
     3
272
     3
279
     2
284
     8
285
     8
286
     8
340
1D77
  0
DIMSTYLE
105
1D7B
330
1D5A
100
AcDbSymbolTableRecord
100
AcDbDimStyleTableRecord
  2
M
 70
     0
 40
0.0
 41
2.0
 42
1.0
 43
0.0
 44
1.0
 73
     0
 74
     0
 77
     1
 78
     8
140
2.5
141
0.0
147
0.5
172
     1
173
     1
271
     3
272
     3
279
     2
284
     8
285
     8
286
     8
340
1D77
  0
ENDTAB
  0
TABLE
  2
BLOCK_RECORD
  5
1D51
330
0
100
AcDbSymbolTable
 70
     2
  0
BLOCK_RECORD
  5
1D72
102
{ACAD_XDICTIONARY
360
4C2B
102
}
330
1D51
100
AcDbSymbolTableRecord
100
AcDbBlockTableRecord
  2
*Model_Space
340
1D75
  0
BLOCK_RECORD
  5
1D6E
330
1D51
100
AcDbSymbolTableRecord
100
AcDbBlockTableRecord
  2
*Paper_Space
340
1D71
  0
BLOCK_RECORD
  5
1D83
330
1D51
100
AcDbSymbolTableRecord
100
AcDbBlockTableRecord
  2
2
340
0
  0
BLOCK_RECORD
  5
1D85
330
1D51
100
AcDbSymbolTableRecord
100
AcDbBlockTableRecord
  2
*U1
340
0
102
{BLKREFS
331
131
102
}
  0
ENDTAB
  0
ENDSEC
  0
SECTION
  2
BLOCKS
  0
BLOCK
  5
1D73
330
1D72
100
AcDbEntity
  8
0
100
AcDbBlockBegin
  2
*Model_Space
 70
     0
 10
0.0
 20
0.0
 30
0.0
  3
*Model_Space
  1

  0
ENDBLK
  5
1D74
330
1D72
100
AcDbEntity
  8
0
100
AcDbBlockEnd
  0
BLOCK
  5
1D6F
330
1D6E
100
AcDbEntity
 67
     1
  8
0
100
AcDbBlockBegin
  2
*Paper_Space
 70
     0
 10
0.0
 20
0.0
 30
0.0
  3
*Paper_Space
  1

  0
ENDBLK
  5
1D70
330
1D6E
100
AcDbEntity
 67
     1
  8
0
100
AcDbBlockEnd
  0
BLOCK
  5
1D84
330
1D83
100
AcDbEntity
  8
0
100
AcDbBlockBegin
  2
2
 70
     0
 10
0.0
 20
0.0
 30
0.0
  3
2
  1

  0
INSERT
  5
131
330
1D83
100
AcDbEntity
  8
0
  6
Continuous
 62
     0
100
AcDbBlockReference
  2
*U1
 10
0.0
 20
0.0
 30
0.0
1001
ACAD
1002
{
1000
R14_HATCH_DATA
1000
131
1011
1.0
1021
0.0
1031
0.0
1011
0.0
1021
1.0
1031
0.0
1011
0.0
1021
0.0
1031
1.0
1040
0.0
1010
0.0
1020
0.0
1030
1.0
1000
SOLID
1070
     1
1070
     0
1071
        1
1071
        1
1071
        3
1070
     1
1040
-0.9999999999983517
1040
0.2679491924306774
1040
0.0
1040
0.0
1070
     1
1040
0.0
1040
0.0
1040
-0.9999999999983517
1040
-0.2679491924306765
1070
     1
1040
-0.9999999999983524
1040
-0.267949192430676
1040
-0.9999999999983524
1040
0.2679491924306774
1071
        0
1070
     0
1070
     1
1071
        1
1040
2.995745117231336
1040
-4.124946096263201
1040
0.0
1002
}
  0
ENDBLK
  5
132
330
1D83
100
AcDbEntity
  8
0
100
AcDbBlockEnd
  0
BLOCK
  5
1D86
330
1D85
100
AcDbEntity
  8
0
100
AcDbBlockBegin
  2
*U1
 70
     1
 10
0.0
 20
0.0
 30
0.0
  3
*U1
  1

  0
SOLID
  5
46F
330
1D85
100
AcDbEntity
  8
0
  6
Continuous
 62
     0
100
AcDbTrace
 10
0.666666666665568
 20
0.0000000000000004
 30
0.0
 11
0.9999999999983517
 21
0.2679491924306774
 31
0.0
 12
0.0
 22
0.0
 32
0.0
 13
0.0
 23
0.0
 33
0.0
210
0.0
220
0.0
230
-1.0
  0
SOLID
  5
470
330
1D85
100
AcDbEntity
  8
0
  6
Continuous
 62
     0
100
AcDbTrace
 10
0.666666666665568
 20
0.0000000000000004
 30
0.0
 11
0.0
 21
0.0
 31
0.0
 12
0.9999999999983524
 22
-0.267949192430676
 32
0.0
 13
0.9999999999983524
 23
-0.267949192430676
 33
0.0
210
0.0
220
0.0
230
-1.0
  0
SOLID
  5
471
330
1D85
100
AcDbEntity
  8
0
  6
Continuous
 62
     0
100
AcDbTrace
 10
0.666666666665568
 20
0.0000000000000004
 30
0.0
 11
0.9999999999983524
 21
-0.267949192430676
 31
0.0
 12
0.9999999999983517
 22
0.2679491924306774
 32
0.0
 13
0.9999999999983517
 23
0.2679491924306774
 33
0.0
210
0.0
220
0.0
230
-1.0
  0
ENDBLK
  5
473
330
1D85
100
AcDbEntity
  8
0
100
AcDbBlockEnd
  0
ENDSEC
  0
SECTION
  2
ENTITIES
  0
LINE
  5
4CC3
330
1D72
100
AcDbEntity
  8
1外形線
 48
3.0
100
AcDbLine
 10
1429.537258637998
 20
-1788.962057524533
 30
0.0
 11
1429.537258637998
 21
-1776.962057524533
 31
0.0
  0
LINE
  5
4CC4
330
1D72
100
AcDbEntity
  8
1外形線
 48
3.0
100
AcDbLine
 10
1403.037258637998
 20
-1788.962057524533
 30
0.0
 11
1403.037258637998
 21
-1776.962057524533
 31
0.0
  0
LINE
  5
4CC5
330
1D72
100
AcDbEntity
  8
1外形線
 48
3.0
100
AcDbLine
 10
1398.537258637998
 20
-1788.962057524533
 30
0.0
 11
1398.537258637998
 21
-1776.962057524533
 31
0.0
  0
LINE
  5
4CC6
330
1D72
100
AcDbEntity
  8
1外形線
 48
3.0
100
AcDbLine
 10
1310.537258637998
 20
-1788.962057524533
 30
0.0
 11
1310.537258637998
 21
-1776.962057524533
 31
0.0
  0
LINE
  5
4CC7
330
1D72
100
AcDbEntity
  8
1外形線
 48
3.0
100
AcDbLine
 10
1306.037258637998
 20
-1788.962057524533
 30
0.0
 11
1306.037258637998
 21
-1776.962057524533
 31
0.0
  0
LINE
  5
4CC8
330
1D72
100
AcDbEntity
  8
1外形線
 48
3.0
100
AcDbLine
 10
1279.537258637998
 20
-1788.962057524533
 30
0.0
 11
1279.537258637998
 21
-1776.962057524533
 31
0.0
  0
LINE
  5
4CC9
330
1D72
100
AcDbEntity
  8
2寸法線
 48
0.2
100
AcDbLine
 10
1354.537258637998
 20
-1716.962057524533
 30
0.0
 11
1354.537258637998
 21
-1792.962057524533
 31
0.0
  0
ARC
  5
4CE0
330
1D72
100
AcDbEntity
  8
1外形線
 48
3.0
100
AcDbCircle
 10
1332.537258637998
 20
-1776.962057524533
 30
0.0
 40
22.0
100
AcDbArc
 50
90.0
 51
180.0
  0
ARC
  5
4CE1
330
1D72
100
AcDbEntity
  8
1外形線
 48
3.0
100
AcDbCircle
 10
1332.537258637998
 20
-1776.962057524533
 30
0.0
 40
26.5
100
AcDbArc
 50
90.0
 51
180.0
  0
ARC
  5
4CE2
330
1D72
100
AcDbEntity
  8
1外形線
 48
3.0
100
AcDbCircle
 10
1332.537258637998
 20
-1776.962057524533
 30
0.0
 40
53.0
100
AcDbArc
 50
90.0
 51
180.0
  0
ARC
  5
4CE3
330
1D72
100
AcDbEntity
  8
1外形線
 48
3.0
100
AcDbCircle
 10
1376.537258637998
 20
-1776.962057524533
 30
0.0
 40
26.5
100
AcDbArc
 50
0.0
 51
90.0
  0
ARC
  5
4CE4
330
1D72
100
AcDbEntity
  8
1外形線
 48
3.0
100
AcDbCircle
 10
1376.537258637998
 20
-1776.962057524533
 30
0.0
 40
22.0
100
AcDbArc
 50
0.0
 51
90.0
  0
ARC
  5
4CE5
330
1D72
100
AcDbEntity
  8
1外形線
 48
3.0
100
AcDbCircle
 10
1376.537258637998
 20
-1776.962057524533
 30
0.0
 40
53.0
100
AcDbArc
 50
0.0
 51
90.0
  0
LINE
  5
4CE6
330
1D72
100
AcDbEntity
  8
1外形線
 48
3.0
100
AcDbLine
 10
1376.537258637998
 20
-1750.462057524533
 30
0.0
 11
1354.537258637998
 21
-1750.462057524533
 31
0.0
  0
LINE
  5
4CE7
330
1D72
100
AcDbEntity
  8
1外形線
 48
3.0
100
AcDbLine
 10
1376.537258637998
 20
-1754.962057524533
 30
0.0
 11
1354.537258637998
 21
-1754.962057524533
 31
0.0
  0
LINE
  5
4CE8
330
1D72
100
AcDbEntity
  8
1外形線
 48
3.0
100
AcDbLine
 10
1332.537258637998
 20
-1750.462057524533
 30
0.0
 11
1354.537258637998
 21
-1750.462057524533
 31
0.0
  0
LINE
  5
4CE9
330
1D72
100
AcDbEntity
  8
1外形線
 48
3.0
100
AcDbLine
 10
1332.537258637998
 20
-1754.962057524533
 30
0.0
 11
1354.537258637998
 21
-1754.962057524533
 31
0.0
  0
LINE
  5
4CEA
330
1D72
100
AcDbEntity
  8
1外形線
 48
3.0
100
AcDbLine
 10
1376.537258637998
 20
-1723.962057524533
 30
0.0
 11
1354.537258637998
 21
-1723.962057524533
 31
0.0
  0
LINE
  5
4CEB
330
1D72
100
AcDbEntity
  8
1外形線
 48
3.0
100
AcDbLine
 10
1332.537258637998
 20
-1723.962057524533
 30
0.0
 11
1354.537258637998
 21
-1723.962057524533
 31
0.0
  0
LINE
  5
556B
330
1D72
100
AcDbEntity
  8
1外形線
 48
3.0
100
AcDbLine
 10
1429.537258637998
 20
-1788.962057524533
 30
0.0
 11
1429.537258637998
 21
-1800.962057524532
 31
0.0
  0
LINE
  5
556C
330
1D72
100
AcDbEntity
  8
1外形線
 48
3.0
100
AcDbLine
 10
1403.037258637998
 20
-1788.962057524533
 30
0.0
 11
1403.037258637998
 21
-1800.962057524532
 31
0.0
  0
LINE
  5
556D
330
1D72
100
AcDbEntity
  8
1外形線
 48
3.0
100
AcDbLine
 10
1398.537258637998
 20
-1788.962057524533
 30
0.0
 11
1398.537258637998
 21
-1800.962057524532
 31
0.0
  0
LINE
  5
556E
330
1D72
100
AcDbEntity
  8
1外形線
 48
3.0
100
AcDbLine
 10
1310.537258637998
 20
-1788.962057524532
 30
0.0
 11
1310.537258637998
 21
-1800.962057524532
 31
0.0
  0
LINE
  5
556F
330
1D72
100
AcDbEntity
  8
1外形線
 48
3.0
100
AcDbLine
 10
1306.037258637998
 20
-1788.962057524532
 30
0.0
 11
1306.037258637998
 21
-1800.962057524532
 31
0.0
  0
LINE
  5
5570
330
1D72
100
AcDbEntity
  8
1外形線
 48
3.0
100
AcDbLine
 10
1279.537258637998
 20
-1788.962057524533
 30
0.0
 11
1279.537258637998
 21
-1800.962057524532
 31
0.0
  0
LINE
  5
5571
330
1D72
100
AcDbEntity
  8
2寸法線
 48
0.2
100
AcDbLine
 10
1354.537258637998
 20
-1860.962057524532
 30
0.0
 11
1354.537258637998
 21
-1784.962057524532
 31
0.0
  0
ARC
  5
5580
330
1D72
100
AcDbEntity
  8
1外形線
 48
3.0
100
AcDbCircle
 10
1332.537258637998
 20
-1800.962057524532
 30
0.0
 40
22.0
100
AcDbArc
 50
179.9999999999999
 51
269.9999999999999
  0
ARC
  5
5581
330
1D72
100
AcDbEntity
  8
1外形線
 48
3.0
100
AcDbCircle
 10
1332.537258637998
 20
-1800.962057524532
 30
0.0
 40
26.5
100
AcDbArc
 50
179.9999999999999
 51
269.9999999999999
  0
ARC
  5
5582
330
1D72
100
AcDbEntity
  8
1外形線
 48
3.0
100
AcDbCircle
 10
1332.537258637998
 20
-1800.962057524532
 30
0.0
 40
53.0
100
AcDbArc
 50
179.9999999999999
 51
269.9999999999999
  0
ARC
  5
5583
330
1D72
100
AcDbEntity
  8
1外形線
 48
3.0
100
AcDbCircle
 10
1376.537258637998
 20
-1800.962057524532
 30
0.0
 40
26.5
100
AcDbArc
 50
269.9999999999999
 51
359.9999999999998
  0
ARC
  5
5584
330
1D72
100
AcDbEntity
  8
1外形線
 48
3.0
100
AcDbCircle
 10
1376.537258637998
 20
-1800.962057524532
 30
0.0
 40
22.0
100
AcDbArc
 50
269.9999999999999
 51
359.9999999999998
  0
ARC
  5
5585
330
1D72
100
AcDbEntity
  8
1外形線
 48
3.0
100
AcDbCircle
 10
1376.537258637998
 20
-1800.962057524532
 30
0.0
 40
53.0
100
AcDbArc
 50
269.9999999999999
 51
359.9999999999998
  0
LINE
  5
5586
330
1D72
100
AcDbEntity
  8
1外形線
 48
3.0
100
AcDbLine
 10
1376.537258637998
 20
-1827.462057524532
 30
0.0
 11
1354.537258637998
 21
-1827.462057524532
 31
0.0
  0
LINE
  5
5587
330
1D72
100
AcDbEntity
  8
1外形線
 48
3.0
100
AcDbLine
 10
1376.537258637998
 20
-1822.962057524532
 30
0.0
 11
1354.537258637998
 21
-1822.962057524532
 31
0.0
  0
LINE
  5
5588
330
1D72
100
AcDbEntity
  8
1外形線
 48
3.0
100
AcDbLine
 10
1332.537258637998
 20
-1827.462057524532
 30
0.0
 11
1354.537258637998
 21
-1827.462057524532
 31
0.0
  0
LINE
  5
5589
330
1D72
100
AcDbEntity
  8
1外形線
 48
3.0
100
AcDbLine
 10
1332.537258637998
 20
-1822.962057524532
 30
0.0
 11
1354.537258637998
 21
-1822.962057524532
 31
0.0
  0
LINE
  5
558A
330
1D72
100
AcDbEntity
  8
1外形線
 48
3.0
100
AcDbLine
 10
1376.537258637998
 20
-1853.962057524532
 30
0.0
 11
1354.537258637998
 21
-1853.962057524532
 31
0.0
  0
LINE
  5
558B
330
1D72
100
AcDbEntity
  8
1外形線
 48
3.0
100
AcDbLine
 10
1332.537258637998
 20
-1853.962057524532
 30
0.0
 11
1354.537258637998
 21
-1853.962057524532
 31
0.0
  0
LINE
  5
559D
330
1D72
100
AcDbEntity
  8
1外形線
 62
     2
100
AcDbLine
 10
1259.337184790606
 20
-1788.962057524533
 30
0.0
 11
1449.712950347142
 21
-1788.962057524533
 31
0.0
  0
LINE
  5
55BC
330
1D72
100
AcDbEntity
  8
1外形線
 62
     2
100
AcDbLine
 10
1354.619605315466
 20
-1957.654366845598
 30
0.0
 11
1354.619605315466
 21
-1900.953432430046
 31
0.0
  0
LINE
  5
5603
330
1D72
100
AcDbEntity
  8
1外形線
 62
     2
 48
0.2
100
AcDbLine
 10
1354.619605315466
 20
-1948.631033311025
 30
0.0
 11
1354.619605315466
 21
-1893.834424680967
 31
0.0
  0
LINE
  5
5604
330
1D72
100
AcDbEntity
  8
1外形線
 48
3.0
100
AcDbLine
 10
1429.619605315466
 20
-1916.953432430045
 30
0.0
 11
1377.918964010939
 21
-1916.953432430045
 31
0.0
  0
LINE
  5
5608
330
1D72
100
AcDbEntity
  8
1外形線
 48
3.0
100
AcDbLine
 10
1399.619605315466
 20
-1940.953432430045
 30
0.0
 11
1344.619605315466
 21
-1940.953432430045
 31
0.0
  0
LINE
  5
5609
330
1D72
100
AcDbEntity
  8
1外形線
 48
3.0
100
AcDbLine
 10
1400.619605315466
 20
-1937.953432430045
 30
0.0
 11
1399.619605315466
 21
-1940.953432430045
 31
0.0
  0
LINE
  5
5614
330
1D72
100
AcDbEntity
  8
1外形線
 48
3.0
100
AcDbLine
 10
1377.918964010939
 20
-1916.953432430045
 30
0.0
 11
1357.119605315466
 21
-1916.953432430045
 31
0.0
  0
LINE
  5
5615
330
1D72
100
AcDbEntity
  8
1外形線
 48
3.0
100
AcDbLine
 10
1279.619605315466
 20
-1916.953432430045
 30
0.0
 11
1331.320246619992
 21
-1916.953432430045
 31
0.0
  0
LINE
  5
5617
330
1D72
100
AcDbEntity
  8
1外形線
 48
3.0
100
AcDbLine
 10
1309.619605315466
 20
-1940.953432430045
 30
0.0
 11
1344.619605315466
 21
-1940.953432430045
 31
0.0
  0
LINE
  5
5620
330
1D72
100
AcDbEntity
  8
1外形線
 48
3.0
100
AcDbLine
 10
1308.619605315466
 20
-1937.953432430045
 30
0.0
 11
1309.619605315466
 21
-1940.953432430045
 31
0.0
  0
LINE
  5
5621
330
1D72
100
AcDbEntity
  8
1外形線
 48
3.0
100
AcDbLine
 10
1331.320246619992
 20
-1916.953432430045
 30
0.0
 11
1357.119605315466
 21
-1916.953432430045
 31
0.0
  0
LINE
  5
564E
330
1D72
100
AcDbEntity
  8
1外形線
 48
3.0
100
AcDbLine
 10
1400.619605315466
 20
-1937.953432430045
 30
0.0
 11
1400.619605315466
 21
-1919.953432430045
 31
0.0
  0
LINE
  5
564F
330
1D72
100
AcDbEntity
  8
1外形線
 48
3.0
100
AcDbLine
 10
1308.619605315466
 20
-1937.953432430045
 30
0.0
 11
1308.619605315466
 21
-1919.953432430045
 31
0.0
  0
LINE
  5
6240
330
1D72
100
AcDbEntity
  8
1外形線
 48
3.0
100
AcDbLine
 10
1381.119605315466
 20
-1916.953432430045
 30
0.0
 11
1381.119605315466
 21
-1919.953432430045
 31
0.0
  0
LINE
  5
6242
330
1D72
100
AcDbEntity
  8
1外形線
 48
3.0
100
AcDbLine
 10
1328.119605315466
 20
-1916.953432430045
 30
0.0
 11
1328.119605315466
 21
-1919.953432430045
 31
0.0
  0
LINE
  5
6246
330
1D72
100
AcDbEntity
  8
1外形線
 48
3.0
100
AcDbLine
 10
1387.146505315466
 20
-1916.953432430045
 30
0.0
 11
1387.146505315466
 21
-1919.953432430045
 31
0.0
  0
LINE
  5
6247
330
1D72
100
AcDbEntity
  8
1外形線
 48
3.0
100
AcDbLine
 10
1322.092705315466
 20
-1916.953432430045
 30
0.0
 11
1322.092705315466
 21
-1919.953432430045
 31
0.0
  0
LINE
  5
6249
330
1D72
100
AcDbEntity
  8
1外形線
100
AcDbLine
 10
1308.619605315466
 20
-1919.953432430045
 30
0.0
 11
1322.092705315466
 21
-1919.953432430045
 31
0.0
  0
LINE
  5
624C
330
1D72
100
AcDbEntity
  8
1外形線
100
AcDbLine
 10
1357.619605315466
 20
-1916.953432430045
 30
0.0
 11
1357.619605315466
 21
-1919.953432430045
 31
0.0
  0
LINE
  5
624D
330
1D72
100
AcDbEntity
  8
1外形線
100
AcDbLine
 10
1351.619605315466
 20
-1916.953432430045
 30
0.0
 11
1351.619605315466
 21
-1919.953432430045
 31
0.0
  0
LINE
  5
624E
330
1D72
100
AcDbEntity
  8
1外形線
100
AcDbLine
 10
1387.146505315466
 20
-1919.953432430045
 30
0.0
 11
1400.619605315466
 21
-1919.953432430045
 31
0.0
  0
LINE
  5
6250
330
1D72
100
AcDbEntity
  8
1外形線
100
AcDbLine
 10
1357.619605315466
 20
-1919.953432430045
 30
0.0
 11
1381.119605315466
 21
-1919.953432430046
 31
0.0
  0
LINE
  5
6251
330
1D72
100
AcDbEntity
  8
1外形線
100
AcDbLine
 10
1328.119605315466
 20
-1919.953432430045
 30
0.0
 11
1351.619605315466
 21
-1919.953432430045
 31
0.0
  0
LINE
  5
6254
330
1D72
100
AcDbEntity
  8
1外形線
100
AcDbLine
 10
1282.619605315466
 20
-1910.953432430044
 30
0.0
 11
1354.619605315466
 21
-1910.953432430044
 31
0.0
  0
LINE
  5
6255
330
1D72
100
AcDbEntity
  8
1外形線
100
AcDbLine
 10
1307.637274996549
 20
-1903.365084024631
 30
0.0
 11
1306.119605315466
 21
-1910.953432430044
 31
0.0
  0
LINE
  5
6256
330
1D72
100
AcDbEntity
  8
1外形線
100
AcDbLine
 10
1310.579017023622
 20
-1900.953432430046
 30
0.0
 11
1354.619605315466
 21
-1900.953432430046
 31
0.0
  0
ARC
  5
6257
330
1D72
100
AcDbEntity
  8
1外形線
100
AcDbCircle
 10
1310.579017023622
 20
-1903.953432430045
 30
0.0
 40
3.0
100
AcDbArc
 50
89.99999999999998
 51
168.6900675259809
  0
LINE
  5
6258
330
1D72
100
AcDbEntity
  8
1外形線
100
AcDbLine
 10
1279.619605315466
 20
-1916.953432430045
 30
0.0
 11
1279.619605315466
 21
-1913.953432430045
 31
0.0
  0
ARC
  5
6259
330
1D72
100
AcDbEntity
  8
1外形線
100
AcDbCircle
 10
1282.619605315466
 20
-1913.953432430045
 30
0.0
 40
3.0
100
AcDbArc
 50
89.99999999999998
 51
180.0
  0
ARC
  5
625A
330
1D72
100
AcDbEntity
  8
1外形線
100
AcDbCircle
 10
1398.66019360731
 20
-1903.953432430045
 30
0.0
 40
3.0
100
AcDbArc
 50
11.30993247401891
 51
90.00000000000005
  0
LINE
  5
625B
330
1D72
100
AcDbEntity
  8
1外形線
100
AcDbLine
 10
1426.619605315466
 20
-1910.953432430044
 30
0.0
 11
1354.619605315466
 21
-1910.953432430044
 31
0.0
  0
LINE
  5
625C
330
1D72
100
AcDbEntity
  8
1外形線
100
AcDbLine
 10
1429.619605315466
 20
-1916.953432430045
 30
0.0
 11
1429.619605315466
 21
-1913.953432430045
 31
0.0
  0
ARC
  5
625D
330
1D72
100
AcDbEntity
  8
1外形線
100
AcDbCircle
 10
1426.619605315466
 20
-1913.953432430045
 30
0.0
 40
3.0
100
AcDbArc
 50
0.000000000000007
 51
90.00000000000005
  0
LINE
  5
625E
330
1D72
100
AcDbEntity
  8
1外形線
100
AcDbLine
 10
1401.601935634383
 20
-1903.365084024631
 30
0.0
 11
1403.119605315466
 21
-1910.953432430044
 31
0.0
  0
LINE
  5
625F
330
1D72
100
AcDbEntity
  8
1外形線
100
AcDbLine
 10
1398.66019360731
 20
-1900.953432430046
 30
0.0
 11
1354.619605315466
 21
-1900.953432430046
 31
0.0
  0
LINE
  5
65D1
330
1D72
100
AcDbEntity
  8
1外形線
 62
     2
100
AcDbLine
 10
1485.294313355413
 20
-1788.962057524533
 30
0.0
 11
1570.002724756951
 21
-1788.962057524533
 31
0.0
  0
LINE
  5
9437
330
1D72
100
AcDbEntity
  8
1外形線
 48
3.0
100
AcDbLine
 10
1543.00272475695
 20
-1743.962057524533
 30
0.0
 11
1543.00272475695
 21
-1788.962057524533
 31
0.0
  0
LINE
  5
9438
330
1D72
100
AcDbEntity
  8
1外形線
 48
3.0
100
AcDbLine
 10
1519.00272475695
 20
-1723.962057524532
 30
0.0
 11
1519.00272475695
 21
-1788.962057524533
 31
0.0
  0
LINE
  5
9439
330
1D72
100
AcDbEntity
  8
1外形線
 48
3.0
100
AcDbLine
 10
1513.00272475695
 20
-1726.962057524533
 30
0.0
 11
1513.00272475695
 21
-1788.962057524533
 31
0.0
  0
LINE
  5
943A
330
1D72
100
AcDbEntity
  8
1外形線
 48
3.0
100
AcDbLine
 10
1522.00272475695
 20
-1756.435145589951
 30
0.0
 11
1522.00272475695
 21
-1788.962057524533
 31
0.0
  0
LINE
  5
943B
330
1D72
100
AcDbEntity
  8
1外形線
 48
3.0
100
AcDbLine
 10
1503.002724756951
 20
-1754.962057524533
 30
0.0
 11
1503.002724756951
 21
-1788.962057524533
 31
0.0
  0
ARC
  5
943D
330
1D72
100
AcDbEntity
  8
1外形線
 48
3.0
100
AcDbCircle
 10
1516.00272475695
 20
-1726.962057524533
 30
0.0
 40
3.0
100
AcDbArc
 50
90.0
 51
180.0
  0
LINE
  5
943E
330
1D72
100
AcDbEntity
  8
1外形線
 48
3.0
100
AcDbLine
 10
1522.00272475695
 20
-1742.962057524533
 30
0.0
 11
1522.00272475695
 21
-1751.362190503491
 31
0.0
  0
LINE
  5
943F
330
1D72
100
AcDbEntity
  8
1外形線
 48
3.0
100
AcDbLine
 10
1505.414376351536
 20
-1751.979727205616
 30
0.0
 11
1513.00272475695
 21
-1750.462057524532
 31
0.0
  0
ARC
  5
9440
330
1D72
100
AcDbEntity
  8
1外形線
 48
3.0
100
AcDbCircle
 10
1506.00272475695
 20
-1754.921469232689
 30
0.0
 40
3.0
100
AcDbArc
 50
101.3099324740253
 51
180.0
  0
LINE
  5
9441
330
1D72
100
AcDbEntity
  8
1外形線
 48
3.0
100
AcDbLine
 10
1519.00272475695
 20
-1723.962057524532
 30
0.0
 11
1516.00272475695
 21
-1723.962057524532
 31
0.0
  0
LINE
  5
9442
330
1D72
100
AcDbEntity
  8
1外形線
 48
3.0
100
AcDbLine
 10
1519.00272475695
 20
-1751.362190503491
 30
0.0
 11
1522.00272475695
 21
-1751.362190503491
 31
0.0
  0
LINE
  5
9443
330
1D72
100
AcDbEntity
  8
1外形線
 48
3.0
100
AcDbLine
 10
1519.00272475695
 20
-1756.435145589951
 30
0.0
 11
1522.00272475695
 21
-1756.435145589951
 31
0.0
  0
LINE
  5
9444
330
1D72
100
AcDbEntity
  8
1外形線
 48
3.0
100
AcDbLine
 10
1540.002724756949
 20
-1742.962057524533
 30
0.0
 11
1522.00272475695
 21
-1742.962057524533
 31
0.0
  0
LINE
  5
9445
330
1D72
100
AcDbEntity
  8
1外形線
 48
3.0
100
AcDbLine
 10
1543.00272475695
 20
-1743.962057524533
 30
0.0
 11
1540.002724756949
 21
-1742.962057524533
 31
0.0
  0
LINE
  5
9446
330
1D72
100
AcDbEntity
  8
1外形線
 48
3.0
100
AcDbLine
 10
1543.00272475695
 20
-1833.962057524532
 30
0.0
 11
1543.00272475695
 21
-1788.962057524533
 31
0.0
  0
LINE
  5
9447
330
1D72
100
AcDbEntity
  8
1外形線
 48
3.0
100
AcDbLine
 10
1519.00272475695
 20
-1853.962057524532
 30
0.0
 11
1519.00272475695
 21
-1788.962057524533
 31
0.0
  0
LINE
  5
9448
330
1D72
100
AcDbEntity
  8
1外形線
 48
3.0
100
AcDbLine
 10
1513.00272475695
 20
-1850.962057524531
 30
0.0
 11
1513.00272475695
 21
-1788.962057524533
 31
0.0
  0
LINE
  5
9449
330
1D72
100
AcDbEntity
  8
1外形線
 48
3.0
100
AcDbLine
 10
1522.00272475695
 20
-1821.488969459114
 30
0.0
 11
1522.00272475695
 21
-1788.962057524533
 31
0.0
  0
LINE
  5
944A
330
1D72
100
AcDbEntity
  8
1外形線
 48
3.0
100
AcDbLine
 10
1503.002724756951
 20
-1822.962057524533
 30
0.0
 11
1503.002724756951
 21
-1788.962057524533
 31
0.0
  0
ARC
  5
944B
330
1D72
100
AcDbEntity
  8
1外形線
 48
3.0
100
AcDbCircle
 10
1516.00272475695
 20
-1850.962057524531
 30
0.0
 40
3.0
100
AcDbArc
 50
180.0
 51
270.0
  0
LINE
  5
944C
330
1D72
100
AcDbEntity
  8
1外形線
 48
3.0
100
AcDbLine
 10
1522.00272475695
 20
-1834.962057524532
 30
0.0
 11
1522.00272475695
 21
-1826.561924545574
 31
0.0
  0
LINE
  5
944D
330
1D72
100
AcDbEntity
  8
1外形線
 48
3.0
100
AcDbLine
 10
1505.414376351536
 20
-1825.944387843449
 30
0.0
 11
1513.00272475695
 21
-1827.462057524532
 31
0.0
  0
ARC
  5
944E
330
1D72
100
AcDbEntity
  8
1外形線
 48
3.0
100
AcDbCircle
 10
1506.00272475695
 20
-1823.002645816377
 30
0.0
 40
3.0
100
AcDbArc
 50
180.0
 51
258.6900675259747
  0
LINE
  5
944F
330
1D72
100
AcDbEntity
  8
1外形線
 48
3.0
100
AcDbLine
 10
1519.00272475695
 20
-1853.962057524532
 30
0.0
 11
1516.00272475695
 21
-1853.962057524532
 31
0.0
  0
LINE
  5
9450
330
1D72
100
AcDbEntity
  8
1外形線
 48
3.0
100
AcDbLine
 10
1519.00272475695
 20
-1826.561924545574
 30
0.0
 11
1522.00272475695
 21
-1826.561924545574
 31
0.0
  0
LINE
  5
9451
330
1D72
100
AcDbEntity
  8
1外形線
 48
3.0
100
AcDbLine
 10
1519.00272475695
 20
-1821.488969459114
 30
0.0
 11
1522.00272475695
 21
-1821.488969459114
 31
0.0
  0
LINE
  5
9452
330
1D72
100
AcDbEntity
  8
1外形線
 48
3.0
100
AcDbLine
 10
1540.002724756949
 20
-1834.962057524532
 30
0.0
 11
1522.00272475695
 21
-1834.962057524532
 31
0.0
  0
LINE
  5
9453
330
1D72
100
AcDbEntity
  8
1外形線
 48
3.0
100
AcDbLine
 10
1543.00272475695
 20
-1833.962057524532
 30
0.0
 11
1540.002724756949
 21
-1834.962057524532
 31
0.0
  0
ENDSEC
  0
SECTION
  2
OBJECTS
  0
DICTIONARY
  5
1D5C
330
0
100
AcDbDictionary
281
     1
  3
ACAD_COLOR
350
1D6B
  3
ACAD_GROUP
350
1D5D
  3
ACAD_LAYOUT
350
1D69
  3
ACAD_MATERIAL
350
1D6A
  3
ACAD_MLINESTYLE
350
1D66
  3
ACAD_PLOTSETTINGS
350
1D68
  3
ACAD_PLOTSTYLENAME
350
1D5E
  3
ACAD_TABLESTYLE
350
1D6C
  3
ACDBHEADERROUNDTRIPXREC
350
94D0
  3
AcDbVariableDictionary
350
318A
  0
DICTIONARY
  5
20C2
330
1D52
100
AcDbDictionary
280
     1
281
     1
  3
ACAD_LAYERSTATES
360
20C3
  0
DICTIONARY
  5
20AE
330
20AD
100
AcDbDictionary
280
     1
281
     1
  3
ACAD_XREC_ROUNDTRIP
360
20AF
  0
DICTIONARY
  5
4C2B
330
1D72
100
AcDbDictionary
280
     1
281
     1
  3
ACAD_SORTENTS
360
4C2C
  0
DICTIONARY
  5
1D6B
102
{ACAD_REACTORS
330
1D5C
102
}
330
1D5C
100
AcDbDictionary
281
     1
  0
DICTIONARY
  5
1D5D
102
{ACAD_REACTORS
330
1D5C
102
}
330
1D5C
100
AcDbDictionary
281
     1
  0
DICTIONARY
  5
1D69
102
{ACAD_REACTORS
330
1D5C
102
}
330
1D5C
100
AcDbDictionary
281
     1
  3
Model
350
1D75
  3
レイアウト1
350
1D71
  0
DICTIONARY
  5
1D6A
102
{ACAD_REACTORS
330
1D5C
102
}
330
1D5C
100
AcDbDictionary
281
     1
  3
Global
350
20BF
  0
DICTIONARY
  5
1D66
102
{ACAD_REACTORS
330
1D5C
102
}
330
1D5C
100
AcDbDictionary
281
     1
  3
Standard
350
1D67
  0
DICTIONARY
  5
1D68
102
{ACAD_REACTORS
330
1D5C
102
}
330
1D5C
100
AcDbDictionary
281
     1
  0
ACDBDICTIONARYWDFLT
  5
1D5E
102
{ACAD_REACTORS
330
1D5C
102
}
330
1D5C
100
AcDbDictionary
281
     1
  3
Normal
350
1D5F
100
AcDbDictionaryWithDefault
340
1D5F
  0
DICTIONARY
  5
1D6C
102
{ACAD_REACTORS
330
1D5C
102
}
330
1D5C
100
AcDbDictionary
281
     1
  3
Standard
350
1D6D
  0
DICTIONARY
  5
94D0
102
{ACAD_REACTORS
330
1D5C
102
}
330
1D5C
100
AcDbDictionary
281
     1
  0
DICTIONARY
  5
318A
102
{ACAD_REACTORS
330
1D5C
102
}
330
1D5C
100
AcDbDictionary
281
     1
  3
CTABLESTYLE
350
318B
  3
DIMASSOC
350
628C
  3
PROJECTNAME
350
628D
  0
DICTIONARY
  5
20C3
102
{ACAD_REACTORS
330
20C2
102
}
330
20C2
100
AcDbDictionary
281
     1
  0
XRECORD
  5
20AF
102
{ACAD_REACTORS
330
20AE
102
}
330
20AE
100
AcDbXrecord
280
     1
102
MATERIAL
340
20BF
  0
SORTENTSTABLE
  5
4C2C
102
{ACAD_REACTORS
330
4C2B
102
}
330
4C2B
100
AcDbSortentsTable
330
1D72
331
558B
  5
558D
331
556B
  5
556C
331
5620
  5
5676
331
4CE7
  5
4CE8
331
5604
  5
560E
331
6255
  5
6256
331
65D1
  5
55DA
331
6249
  5
624D
331
5580
  5
5582
331
5621
  5
5677
331
556C
  5
556D
331
4CE8
  5
4CE9
331
6256
  5
6257
331
564E
  5
561A
331
556D
  5
556E
331
5581
  5
5583
331
4CE9
  5
4CEA
331
6257
  5
6258
331
564F
  5
5675
331
5582
  5
5584
331
556E
  5
556F
331
6258
  5
6259
331
4CEA
  5
4CEB
331
624C
  5
6254
331
6240
  5
6243
331
556F
  5
5570
331
5583
  5
5585
331
4CEB
  5
4D02
331
5608
  5
5610
331
6259
  5
625A
331
55BC
  5
55E9
331
624D
  5
6253
331
4CC3
  5
4CC3
331
5584
  5
5586
331
5570
  5
5571
331
625A
  5
625B
331
5609
  5
5611
331
4CE0
  5
4CE1
331
624E
  5
6252
331
4CC4
  5
4CC4
331
6242
  5
6246
331
5585
  5
5587
331
5571
  5
5572
331
625B
  5
625C
331
4CC5
  5
4CC5
331
4CE1
  5
4CE2
331
5586
  5
5588
331
625C
  5
625D
331
4CE2
  5
4CE3
331
4CC6
  5
4CC6
331
6250
  5
6251
331
5587
  5
5589
331
625D
  5
625E
331
5614
  5
561B
331
6251
  5
624F
331
4CC7
  5
4CC7
331
4CE3
  5
4CE4
331
5588
  5
558A
331
625E
  5
625F
331
5615
  5
561C
331
559D
  5
559F
331
4CE4
  5
4CE5
331
4CC8
  5
4CC8
331
5589
  5
558B
331
6246
  5
6245
331
625F
  5
6477
331
4CE5
  5
4CE6
331
6247
  5
6249
331
558A
  5
558C
331
4CC9
  5
4CC9
331
5617
  5
5620
331
4CE6
  5
4CE7
331
5603
  5
5608
331
6254
  5
6255
  0
LAYOUT
  5
1D75
102
{ACAD_XDICTIONARY
360
94D3
102
}
102
{ACAD_REACTORS
330
1D69
102
}
330
1D69
100
AcDbPlotSettings
  1

  2
RICOH IPSiO SP 6310 RPCS
  4
A4
  6

 40
5.873749732971191
 41
5.873747825622557
 42
5.873748779296875
 43
5.873748779296875
 44
209.9733276367186
 45
296.9259948730469
 46
0.0
 47
0.0
 48
0.0
 49
0.0
140
0.0
141
0.0
142
1.0
143
1.779320817970987
 70
 11952
 72
     1
 73
     1
 74
     0
  7
INABA-CAD-Canon.ctb
 75
     0
147
0.5620121958334245
148
-1671.427162896301
149
2004.315007072786
100
AcDbLayout
  1
Model
 70
     1
 71
     0
 10
0.0
 20
0.0
 11
12.0
 21
9.0
 12
0.0
 22
0.0
 32
0.0
 14
0.0
 24
0.0
 34
0.0
 15
0.0
 25
0.0
 35
0.0
146
0.0
 13
0.0
 23
0.0
 33
0.0
 16
1.0
 26
0.0
 36
0.0
 17
0.0
 27
1.0
 37
0.0
 76
     0
330
1D72
1001
ACAD_PSEXT
1000
RICOH IPSiO SP 6310 RPCS
1000
RICOH IPSiO SP 6310 RPCS
1000
192.168.210.201@
1000
RPCS Driver (Windows 2000/XP/Server 2003/2008/Vista/7)
1070
     0
  0
LAYOUT
  5
1D71
102
{ACAD_XDICTIONARY
360
94D1
102
}
102
{ACAD_REACTORS
330
1D69
102
}
330
1D69
100
AcDbPlotSettings
  1

  2
Canon LBP3920/3970 LIPSLX
  4

  6

 40
0.0
 41
0.0
 42
0.0
 43
0.0
 44
0.0
 45
0.0
 46
0.0
 47
0.0
 48
0.0
 49
0.0
140
0.0
141
0.0
142
1.0
143
1.0
 70
   688
 72
     0
 73
     0
 74
     5
  7
INABA-CAD-Canon.ctb
 75
    16
147
1.0
148
0.0
149
0.0
100
AcDbLayout
  1
レイアウト1
 70
     1
 71
     1
 10
0.0
 20
0.0
 11
420.0
 21
297.0
 12
0.0
 22
0.0
 32
0.0
 14
1.000000000000000E+20
 24
1.000000000000000E+20
 34
1.000000000000000E+20
 15
-1.000000000000000E+20
 25
-1.000000000000000E+20
 35
-1.000000000000000E+20
146
0.0
 13
0.0
 23
0.0
 33
0.0
 16
1.0
 26
0.0
 36
0.0
 17
0.0
 27
1.0
 37
0.0
 76
     0
330
1D6E
  0
MATERIAL
  5
20BF
102
{ACAD_XDICTIONARY
360
20C0
102
}
102
{ACAD_REACTORS
330
1D6A
102
}
330
1D6A
100
AcDbMaterial
  1
Global
  0
MLINESTYLE
  5
1D67
102
{ACAD_REACTORS
330
1D66
102
}
330
1D66
100
AcDbMlineStyle
  2
STANDARD
 70
     0
  3

 62
   256
 51
90.0
 52
90.0
 71
     2
 49
0.5
 62
   256
  6
BYLAYER
 49
-0.5
 62
   256
  6
BYLAYER
  0
ACDBPLACEHOLDER
  5
1D5F
102
{ACAD_REACTORS
330
1D5E
102
}
330
1D5E
  0
TABLESTYLE
  5
1D6D
102
{ACAD_REACTORS
330
1D6C
102
}
330
1D6C
100
AcDbTableStyle
  3
Standard
 70
     0
 71
     0
 40
0.06
 41
0.06
280
     0
281
     0
  7
STANDARD
140
0.18
170
     2
 62
     0
 63
     7
283
     0
274
    -2
284
     1
 64
     0
275
    -2
285
     1
 65
     0
276
    -2
286
     1
 66
     0
277
    -2
287
     1
 67
     0
278
    -2
288
     1
 68
     0
279
    -2
289
     1
 69
     0
  7
STANDARD
140
0.25
170
     5
 62
     0
 63
     7
283
     0
274
    -2
284
     1
 64
     0
275
    -2
285
     1
 65
     0
276
    -2
286
     1
 66
     0
277
    -2
287
     1
 67
     0
278
    -2
288
     1
 68
     0
279
    -2
289
     1
 69
     0
  7
STANDARD
140
0.18
170
     5
 62
     0
 63
     7
283
     0
274
    -2
284
     1
 64
     0
275
    -2
285
     1
 65
     0
276
    -2
286
     1
 66
     0
277
    -2
287
     1
 67
     0
278
    -2
288
     1
 68
     0
279
    -2
289
     1
 69
     0
  0
DICTIONARYVAR
  5
318B
102
{ACAD_REACTORS
330
318A
102
}
330
318A
100
DictionaryVariables
280
     0
  1
STANDARD
  0
DICTIONARYVAR
  5
628C
102
{ACAD_REACTORS
330
318A
102
}
330
318A
100
DictionaryVariables
280
     0
  1
1
  0
DICTIONARYVAR
  5
628D
102
{ACAD_REACTORS
330
318A
102
}
330
318A
100
DictionaryVariables
280
     0
  1

  0
DICTIONARY
  5
94D3
330
1D75
100
AcDbDictionary
280
     1
281
     1
  3
ACAD_XREC_ROUNDTRIP
360
94D4
  0
DICTIONARY
  5
94D1
330
1D71
100
AcDbDictionary
280
     1
281
     1
  3
ACAD_XREC_ROUNDTRIP
360
94D2
  0
DICTIONARY
  5
20C0
330
20BF
100
AcDbDictionary
280
     1
281
     1
  3
ACAD_XREC_ROUNDTRIP
360
20C1
  0
XRECORD
  5
94D4
102
{ACAD_REACTORS
330
94D3
102
}
330
94D3
100
AcDbXrecord
280
     1
102
SHADEPLOT
 70
     0
102
SHADEPLOTRESLEVEL
 70
     2
102
SHADEPLOTCUSTOMDPI
 70
   300
  0
XRECORD
  5
94D2
102
{ACAD_REACTORS
330
94D1
102
}
330
94D1
100
AcDbXrecord
280
     1
102
SHADEPLOT
 70
     0
102
SHADEPLOTRESLEVEL
 70
     2
102
SHADEPLOTCUSTOMDPI
 70
   300
  0
XRECORD
  5
20C1
102
{ACAD_REACTORS
330
20C0
102
}
330
20C0
100
AcDbXrecord
280
     1
102
MATERIAL
148
0.0
149
0.0
149
0.0
 93
        0
 94
       63
282
     0
 72
     1
 77
     1
171
     1
175
     1
179
     1
273
     0
  0
ENDSEC
  0
EOF
