  0
SECTION
  2
HEADER
  9
$ACADVER
  1
AC1009
  9
$INSBASE
 10
0.0
 20
0.0
 30
0.0
  9
$EXTMIN
 10
-87.462558929956231
 20
-906.17732803146816
 30
0.0
  9
$EXTMAX
 10
523.74458062754616
 20
-300.35137499572818
 30
0.0
  9
$LIMMIN
 10
0.0
 20
0.0
  9
$LIMMAX
 10
420.0
 20
297.0
  9
$ORTHOMODE
 70
     1
  9
$REGENMODE
 70
     1
  9
$FILLMODE
 70
     1
  9
$QTEXTMODE
 70
     0
  9
$MIRRTEXT
 70
     1
  9
$DRAGMODE
 70
     2
  9
$LTSCALE
 40
1.0
  9
$OSMODE
 70
    37
  9
$ATTMODE
 70
     1
  9
$TEXTSIZE
 40
2.5
  9
$TRACEWID
 40
1.0
  9
$TEXTSTYLE
  7
KANJI
  9
$CLAYER
  8
2寸法線
  9
$CELTYPE
  6
BYLAYER
  9
$CECOLOR
 62
   256
  9
$DIMSCALE
 40
0.0
  9
$DIMASZ
 40
1.8
  9
$DIMEXO
 40
1.0
  9
$DIMDLI
 40
0.0
  9
$DIMRND
 40
0.0
  9
$DIMDLE
 40
0.0
  9
$DIMEXE
 40
1.0
  9
$DIMTP
 40
0.0
  9
$DIMTM
 40
0.0
  9
$DIMTXT
 40
2.5
  9
$DIMCEN
 40
0.0
  9
$DIMTSZ
 40
0.0
  9
$DIMTOL
 70
     0
  9
$DIMLIM
 70
     0
  9
$DIMTIH
 70
     0
  9
$DIMTOH
 70
     0
  9
$DIMSE1
 70
     0
  9
$DIMSE2
 70
     0
  9
$DIMTAD
 70
     1
  9
$DIMZIN
 70
     8
  9
$DIMBLK
  1

  9
$DIMASO
 70
     1
  9
$DIMSHO
 70
     1
  9
$DIMPOST
  1

  9
$DIMAPOST
  1

  9
$DIMALT
 70
     0
  9
$DIMALTD
 70
     2
  9
$DIMALTF
 40
25.399999999999999
  9
$DIMLFAC
 40
1.0
  9
$DIMTOFL
 70
     1
  9
$DIMTVP
 40
0.0
  9
$DIMTIX
 70
     0
  9
$DIMSOXD
 70
     0
  9
$DIMSAH
 70
     1
  9
$DIMBLK1
  1
2
  9
$DIMBLK2
  1
2
  9
$DIMSTYLE
  2
M
  9
$DIMCLRD
 70
     0
  9
$DIMCLRE
 70
     0
  9
$DIMCLRT
 70
     0
  9
$DIMTFAC
 40
1.0
  9
$DIMGAP
 40
0.5
  9
$LUNITS
 70
     2
  9
$LUPREC
 70
     3
  9
$SKETCHINC
 40
1.0
  9
$FILLETRAD
 40
0.0
  9
$AUNITS
 70
     0
  9
$AUPREC
 70
     1
  9
$MENU
  1
.
  9
$ELEVATION
 40
0.0
  9
$PELEVATION
 40
0.0
  9
$THICKNESS
 40
0.0
  9
$LIMCHECK
 70
     0
  9
$BLIPMODE
 70
     0
  9
$CHAMFERA
 40
10.0
  9
$CHAMFERB
 40
10.0
  9
$SKPOLY
 70
     0
  9
$TDCREATE
 40
2454393.806994895
  9
$TDUPDATE
 40
2454396.451486724
  9
$TDINDWG
 40
0.0327365509
  9
$TDUSRTIMER
 40
0.0327361806
  9
$USRTIMER
 70
     1
  9
$ANGBASE
 50
0.0
  9
$ANGDIR
 70
     0
  9
$PDMODE
 70
     0
  9
$PDSIZE
 40
0.0
  9
$PLINEWID
 40
0.0
  9
$COORDS
 70
     0
  9
$SPLFRAME
 70
     0
  9
$SPLINETYPE
 70
     6
  9
$SPLINESEGS
 70
     8
  9
$ATTDIA
 70
     1
  9
$ATTREQ
 70
     1
  9
$HANDLING
 70
     1
  9
$HANDSEED
  5
2D44
  9
$SURFTAB1
 70
     6
  9
$SURFTAB2
 70
     6
  9
$SURFTYPE
 70
     6
  9
$SURFU
 70
     6
  9
$SURFV
 70
     6
  9
$UCSNAME
  2

  9
$UCSORG
 10
0.0
 20
0.0
 30
0.0
  9
$UCSXDIR
 10
1.0
 20
0.0
 30
0.0
  9
$UCSYDIR
 10
0.0
 20
1.0
 30
0.0
  9
$PUCSNAME
  2

  9
$PUCSORG
 10
0.0
 20
0.0
 30
0.0
  9
$PUCSXDIR
 10
1.0
 20
0.0
 30
0.0
  9
$PUCSYDIR
 10
0.0
 20
1.0
 30
0.0
  9
$USERI1
 70
     0
  9
$USERI2
 70
     0
  9
$USERI3
 70
     0
  9
$USERI4
 70
     0
  9
$USERI5
 70
     0
  9
$USERR1
 40
0.0
  9
$USERR2
 40
0.0
  9
$USERR3
 40
0.0
  9
$USERR4
 40
0.0
  9
$USERR5
 40
0.0
  9
$WORLDVIEW
 70
     1
  9
$SHADEDGE
 70
     3
  9
$SHADEDIF
 70
    70
  9
$TILEMODE
 70
     1
  9
$MAXACTVP
 70
    48
  9
$PLIMCHECK
 70
     0
  9
$PEXTMIN
 10
1.0000000000000000E+020
 20
1.0000000000000000E+020
 30
1.0000000000000000E+020
  9
$PEXTMAX
 10
-1.0000000000000000E+020
 20
-1.0000000000000000E+020
 30
-1.0000000000000000E+020
  9
$PLIMMIN
 10
0.0
 20
0.0
  9
$PLIMMAX
 10
420.0
 20
297.0
  9
$UNITMODE
 70
     0
  9
$VISRETAIN
 70
     1
  9
$PLINEGEN
 70
     0
  9
$PSLTSCALE
 70
     1
  0
ENDSEC
  0
SECTION
  2
TABLES
  0
TABLE
  2
VPORT
 70
     3
  0
VPORT
  2
*ACTIVE
 70
     0
 10
0.0
 20
0.0
 11
1.0
 21
1.0
 12
240.15226630130471
 22
-624.06330336354915
 13
0.0
 23
0.0
 14
10.0
 24
10.0
 15
10.0
 25
10.0
 16
0.0
 26
0.0
 36
1.0
 17
0.0
 27
0.0
 37
0.0
 40
601.99196635483645
 41
1.5937904269081491
 42
50.0
 43
0.0
 44
0.0
 50
0.0
 51
0.0
 71
     0
 72
   100
 73
     1
 74
     1
 75
     0
 76
     0
 77
     0
 78
     0
  0
ENDTAB
  0
TABLE
  2
LTYPE
 70
     4
  0
LTYPE
  2
CONTINUOUS
 70
     0
  3
Solid line
 72
    65
 73
     0
 40
0.0
  0
ENDTAB
  0
TABLE
  2
LAYER
 70
    10
  0
LAYER
  2
0
 70
     0
 62
     7
  6
CONTINUOUS
  0
LAYER
  2
2寸法線
 70
     0
 62
     2
  6
CONTINUOUS
  0
LAYER
  2
1外形線
 70
     0
 62
     3
  6
CONTINUOUS
  0
LAYER
  2
DEFPOINTS
 70
     0
 62
     7
  6
CONTINUOUS
  0
ENDTAB
  0
TABLE
  2
STYLE
 70
     3
  0
STYLE
  2
STANDARD
 70
     0
 40
0.0
 41
1.0
 50
0.0
 71
     0
 42
2.5
  3
txt
  4

  0
STYLE
  2
KANJI
 70
     0
 40
0.0
 41
1.0
 50
0.0
 71
     0
 42
2.5
  3
simplex.shx
  4
bigfont.shx
  0
ENDTAB
  0
TABLE
  2
VIEW
 70
     0
  0
ENDTAB
  0
TABLE
  2
UCS
 70
     0
  0
ENDTAB
  0
TABLE
  2
APPID
 70
     1
  0
APPID
  2
ACAD
 70
     0
  0
ENDTAB
  0
TABLE
  2
DIMSTYLE
 70
     5
  0
DIMSTYLE
  2
STANDARD
 70
     0
  3

  4

  5

  6

  7

 40
1.0
 41
0.18
 42
0.0625
 43
0.38
 44
0.18
 45
0.0
 46
0.0
 47
0.0
 48
0.0
140
0.18
141
0.09
142
0.0
143
25.399999999999999
144
1.0
145
0.0
146
1.0
147
0.09
 71
     0
 72
     0
 73
     0
 74
     0
 75
     0
 76
     0
 77
     0
 78
     0
170
     0
171
     2
172
     1
173
     0
174
     0
175
     0
176
     0
177
     0
178
     0
  0
DIMSTYLE
  2
M
 70
     0
  3

  4

  5

  6

  7

 40
0.0
 41
2.0
 42
1.0
 43
0.0
 44
1.0
 45
0.0
 46
0.0
 47
0.0
 48
0.0
140
2.5
141
0.0
142
0.0
143
25.399999999999999
144
1.0
145
0.0
146
1.0
147
0.5
 71
     0
 72
     0
 73
     0
 74
     0
 75
     0
 76
     0
 77
     1
 78
     8
170
     0
171
     2
172
     1
173
     1
174
     0
175
     0
176
     0
177
     0
178
     0
  0
ENDTAB
  0
ENDSEC
  0
SECTION
  2
BLOCKS
  0
BLOCK
  8
0
  2
$MODEL_SPACE
 70
     0
 10
0.0
 20
0.0
 30
0.0
  3
$MODEL_SPACE
  1

  0
ENDBLK
  5
2A61
  8
0
  0
BLOCK
 67
     1
  8
0
  2
$PAPER_SPACE
 70
     0
 10
0.0
 20
0.0
 30
0.0
  3
$PAPER_SPACE
  1

  0
ENDBLK
  5
2A5D
 67
     1
  8
0
  0
BLOCK
  8
0
  2
2
 70
     0
 10
0.0
 20
0.0
 30
0.0
  3
2
  1

  0
INSERT
  5
131
  8
0
  6
CONTINUOUS
 62
     0
  2
*U3
 10
0.0
 20
0.0
 30
0.0
1001
ACAD
1002
{
1000
R14_HATCH_DATA
1000
131
1011
1.0
1021
4.0917382627877661E+149
1031
0.0
1021
0.0
1031
0.0
1011
0.0
1021
4.0917382627877661E+149
1031
0.0
1021
1.0
1031
0.0
1011
0.0
1021
4.0917382627877661E+149
1031
0.0
1021
0.0
1031
1.0
1040
0.0
1010
0.0
1020
0.0
1030
1.0
1000
SOLID
1070
     1
1070
     0
1071
        1
1071
        1
1071
        3
1070
     1
1040
-0.9999999999983517
1040
0.2679491924306774
1040
0.0
1040
0.0
1070
     1
1040
0.0
1040
0.0
1040
-0.9999999999983517
1040
-0.2679491924306765
1070
     1
1040
-0.9999999999983524
1040
-0.267949192430676
1040
-0.9999999999983524
1040
0.2679491924306774
1071
        0
1070
     0
1070
     1
1071
        1
1040
2.9957451172313361
1040
-4.1249460962632014
1040
0.0
1002
}
  0
ENDBLK
  5
132
  8
0
  0
BLOCK
  8
0
  2
*U3
 70
     1
 10
0.0
 20
0.0
 30
0.0
  3
*U3
  1

  0
SOLID
  5
2958
  8
0
  6
CONTINUOUS
 62
     0
 10
0.666666666665568
 20
0.0000000000000004
 30
0.0
 11
0.9999999999983517
 21
0.2679491924306774
 31
0.0
 12
0.0
 22
0.0
 32
0.0
 13
0.0
 23
0.0
 33
0.0
210
0.0
220
0.0
230
-1.0
  0
SOLID
  5
2959
  8
0
  6
CONTINUOUS
 62
     0
 10
0.666666666665568
 20
0.0000000000000004
 30
0.0
 11
0.0
 21
0.0
 31
0.0
 12
0.9999999999983524
 22
-0.267949192430676
 32
0.0
 13
0.9999999999983524
 23
-0.267949192430676
 33
0.0
210
0.0
220
0.0
230
-1.0
  0
SOLID
  5
295A
  8
0
  6
CONTINUOUS
 62
     0
 10
0.666666666665568
 20
0.0000000000000004
 30
0.0
 11
0.9999999999983524
 21
-0.267949192430676
 31
0.0
 12
0.9999999999983517
 22
0.2679491924306774
 32
0.0
 13
0.9999999999983517
 23
0.2679491924306774
 33
0.0
210
0.0
220
0.0
230
-1.0
  0
ENDBLK
  5
295C
  8
0
  0
ENDSEC
  0
SECTION
  2
ENTITIES
  0
ARC
  5
25DF
  8
1外形線
  6
CONTINUOUS
 10
44.830466090780249
 20
-622.2174170024482
 30
0.0
 40
73.199999999999918
 50
0.0
 51
180.0
  0
ARC
  5
25F7
  8
1外形線
 10
44.830466090780249
 20
-622.2174170024482
 30
0.0
 40
73.199999999999946
 50
300.5892413168051
 51
0.0
  0
ARC
  5
25F8
  8
1外形線
 10
44.830466090780249
 20
-622.2174170024482
 30
0.0
 40
73.199999999999946
 50
180.0
 51
239.6378095072817
  0
LINE
  5
25FC
  8
1外形線
 10
292.92881850639498
 20
-622.2174170024482
 30
0.0
 11
292.92881850639498
 21
-549.01741700244759
 31
0.0
  0
LINE
  5
25FF
  8
1外形線
 10
208.928818506395
 20
-660.26664378602504
 30
0.0
 11
208.928818506395
 21
-610.9674170024482
 31
0.0
  0
LINE
  5
2601
  8
1外形線
 10
274.57908535327221
 20
-584.96741700244809
 30
0.0
 11
278.74279285788327
 21
-557.51772148364887
 31
0.0
  0
LINE
  5
2605
  8
1外形線
 10
274.54116409926638
 20
-585.2174170024482
 30
0.0
 11
274.54116409926638
 21
-675.23072908807001
 31
0.0
  0
LINE
  5
2618
  8
1外形線
 10
228.4191995631619
 20
-702.06344980815857
 30
0.0
 11
212.94805639286159
 21
-675.26664378602425
 31
0.0
  0
ARC
  5
2619
  8
1外形線
 10
238.9288185063952
 20
-660.26664378602504
 30
0.0
 40
30.0
 50
180.0
 51
210.0
  0
LINE
  5
261D
  8
1外形線
 10
292.92881850639498
 20
-733.01741700244816
 30
0.0
 11
292.9288185063952
 21
-622.2174170024482
 31
0.0
  0
ARC
  5
2634
  8
1外形線
  6
CONTINUOUS
 10
442.13615598955101
 20
-622.2174170024482
 30
0.0
 40
73.199999999999974
 50
0.0
 51
180.0
  0
ARC
  5
2639
  8
1外形線
  6
CONTINUOUS
 10
442.13615598955101
 20
-622.2174170024482
 30
0.0
 40
34.199999999999918
 50
0.0
 51
180.0
  0
ARC
  5
2659
  8
1外形線
  6
CONTINUOUS
 10
442.13615598955101
 20
-622.2174170024482
 30
0.0
 40
73.199999999999946
 50
180.0
 51
239.41075868319481
  0
ARC
  5
265F
  8
1外形線
  6
CONTINUOUS
 10
442.13615598955101
 20
-622.2174170024482
 30
0.0
 40
73.199999999999946
 50
300.36219049271813
 51
0.0
  0
LINE
  5
2662
  8
1外形線
  6
CONTINUOUS
 10
407.93615598955068
 20
-684.43767093957103
 30
0.0
 11
407.93615598955068
 21
-622.21741700244866
 31
0.0
  0
LINE
  5
2663
  8
1外形線
  6
CONTINUOUS
 10
476.33615598955112
 20
-684.43767093957103
 30
0.0
 11
476.33615598955112
 21
-622.21741700244866
 31
0.0
  0
LINE
  5
269F
  8
1外形線
 10
-27.930984480106169
 20
-899.08165983960134
 30
0.0
 11
44.830466090780249
 21
-899.08165983960066
 31
0.0
  0
LINE
  5
26A3
  8
1外形線
 10
7.5804660907802477
 20
-880.73192668647778
 30
0.0
 11
-19.430679998904751
 21
-884.82911281390614
 31
0.0
  0
CIRCLE
  5
290D
  8
1外形線
  6
CONTINUOUS
 10
442.13615598955101
 20
-622.2174170024482
 30
0.0
 40
71.000000000000483
  0
LINE
  5
2949
  8
2寸法線
 10
44.830466090780249
 20
-743.22264613637708
 30
0.0
 11
44.830466090780249
 21
-537.81582743238016
 31
0.0
  0
LINE
  5
294A
  8
2寸法線
 10
44.830466090780249
 20
-906.17732803146816
 30
0.0
 11
44.830466090780249
 21
-807.33092681196649
 31
0.0
  0
LINE
  5
294B
  8
2寸法線
 10
442.13615598955101
 20
-747.28506441952982
 30
0.0
 11
442.13615598955101
 21
-538.41231067578315
 31
0.0
  0
LINE
  5
2CC7
  8
1外形線
 10
44.830466090780249
 20
-733.01741700244816
 30
0.0
 11
7.5804660907802486
 21
-733.01741700244816
 31
0.0
  0
LINE
  5
2CD5
  8
1外形線
 10
44.830466090780249
 20
-728.01741700244827
 30
0.0
 11
7.5804660907802486
 21
-728.01741700244827
 31
0.0
  0
LINE
  5
2CD6
  8
1外形線
 10
7.5804660907802486
 20
-733.01741700244816
 30
0.0
 11
7.5804660907802477
 21
-622.2174170024482
 31
0.0
  0
ARC
  5
2CD8
  8
1外形線
 10
44.830466090780249
 20
-622.2174170024482
 30
0.0
 40
37.25
 50
0.0
 51
180.0
  0
LINE
  5
2CD9
  8
1外形線
 10
44.830466090780249
 20
-733.01741700244816
 30
0.0
 11
82.080466090780234
 21
-733.01741700244816
 31
0.0
  0
LINE
  5
2CDA
  8
1外形線
 10
44.830466090780249
 20
-728.01741700244827
 30
0.0
 11
82.080466090780234
 21
-728.01741700244827
 31
0.0
  0
LINE
  5
2CDB
  8
1外形線
 10
82.080466090780234
 20
-733.01741700244816
 30
0.0
 11
82.080466090780234
 21
-622.2174170024482
 31
0.0
  0
LINE
  5
2CDD
  8
1外形線
 10
7.5804660907802477
 20
-875.08165983960077
 30
0.0
 11
7.5804660907802477
 21
-841.08165983960066
 31
0.0
  0
ARC
  5
2CDE
  8
1外形線
 10
31.580466090780249
 20
-875.08165983960077
 30
0.0
 40
24.0
 50
180.0
 51
270.0
  0
LINE
  5
2CE9
  8
1外形線
 10
-27.930984480106169
 20
-899.08165983960134
 30
0.0
 11
-27.930984480106179
 21
-894.71601897058099
 31
0.0
  0
ARC
  5
2CEA
  8
1外形線
 10
-17.930984480106179
 20
-894.71601897058099
 30
0.0
 40
10.0
 50
98.62516205032216
 51
180.0
  0
LINE
  5
2CEB
  8
1外形線
 10
33.58046609078
 20
-836.58165983960066
 30
0.0
 11
44.830466090779659
 21
-836.58165983960066
 31
0.0
  0
ARC
  5
2CEC
  8
1外形線
 10
33.580466090780249
 20
-862.58165983960077
 30
0.0
 40
26.0
 50
90.000000000000554
 51
180.0
  0
LINE
  5
2CED
  8
1外形線
 10
33.58046609078
 20
-815.08165983960066
 30
0.0
 11
44.83046609077946
 21
-815.08165983960066
 31
0.0
  0
ARC
  5
2CEE
  8
1外形線
 10
33.580466090780249
 20
-841.08165983960066
 30
0.0
 40
26.0
 50
90.000000000000554
 51
180.0
  0
ARC
  5
2CEF
  8
1外形線
 10
56.080466090780249
 20
-841.08165983960066
 30
0.0
 40
26.0
 50
0.000000000000007
 51
89.999999999999474
  0
ARC
  5
2CF0
  8
1外形線
 10
56.080466090780249
 20
-862.58165983960077
 30
0.0
 40
26.0
 50
0.000000000000007
 51
89.999999999999474
  0
LINE
  5
2CF1
  8
1外形線
 10
117.5919166616666
 20
-899.08165983960134
 30
0.0
 11
44.830466090780249
 21
-899.08165983960066
 31
0.0
  0
ARC
  5
2CF2
  8
1外形線
 10
58.080466090780249
 20
-875.08165983960077
 30
0.0
 40
24.0
 50
270.0
 51
0.000000000000007
  0
ARC
  5
2CF3
  8
1外形線
 10
107.5919166616666
 20
-894.71601897058099
 30
0.0
 40
10.0
 50
0.000000000000007
 51
81.374837949677826
  0
LINE
  5
2CF4
  8
1外形線
 10
117.5919166616666
 20
-899.08165983960134
 30
0.0
 11
117.5919166616666
 21
-894.71601897058099
 31
0.0
  0
LINE
  5
2CF5
  8
1外形線
 10
82.080466090780234
 20
-880.73192668647778
 30
0.0
 11
109.09161218046521
 21
-884.82911281390614
 31
0.0
  0
LINE
  5
2CF6
  8
1外形線
 10
82.080466090780234
 20
-875.08165983960077
 30
0.0
 11
82.080466090780234
 21
-841.08165983960066
 31
0.0
  0
LINE
  5
2CF7
  8
1外形線
 10
56.08046609078049
 20
-836.58165983960066
 30
0.0
 11
44.830466090780817
 21
-836.58165983960066
 31
0.0
  0
LINE
  5
2CF8
  8
1外形線
 10
56.08046609078049
 20
-815.08165983960066
 30
0.0
 11
44.830466090781037
 21
-815.08165983960066
 31
0.0
  0
ARC
  5
2CFB
  8
1外形線
 10
56.080466090780249
 20
-456.44170482563658
 30
0.0
 40
26.0
 50
270.00000000000051
 51
0.0
  0
LINE
  5
2CFC
  8
1外形線
 10
117.5919166616666
 20
-398.4417048256359
 30
0.0
 11
44.830466090780249
 21
-398.44170482563658
 31
0.0
  0
LINE
  5
2CFD
  8
1外形線
 10
-27.93098448010619
 20
-398.4417048256359
 30
0.0
 11
44.830466090780249
 21
-398.44170482563658
 31
0.0
  0
ARC
  5
2CFF
  8
1外形線
 10
33.580466090780249
 20
-456.44170482563658
 30
0.0
 40
26.0
 50
180.0
 51
269.99999999999937
  0
ARC
  5
2D01
  8
1外形線
 10
-17.93098448010619
 20
-402.80734569465631
 30
0.0
 40
10.0
 50
180.0
 51
261.37483794967778
  0
LINE
  5
2D02
  8
1外形線
 10
-27.93098448010619
 20
-398.4417048256359
 30
0.0
 11
-27.93098448010619
 21
-402.80734569465631
 31
0.0
  0
LINE
  5
2D03
  8
1外形線
 10
7.5804660907802477
 20
-416.79143797875929
 30
0.0
 11
-19.430679998904729
 21
-412.6942518513311
 31
0.0
  0
LINE
  5
2D04
  8
1外形線
 10
7.5804660907802477
 20
-416.79143797875929
 30
0.0
 11
7.5804660907802477
 21
-456.44170482563658
 31
0.0
  0
LINE
  5
2D05
  8
1外形線
 10
56.08046609078049
 20
-482.44170482563658
 30
0.0
 11
44.830466090781037
 21
-482.44170482563658
 31
0.0
  0
LINE
  5
2D07
  8
2寸法線
 10
44.830466090780249
 20
-391.34603663376902
 30
0.0
 11
44.830466090780249
 21
-490.1924378532708
 31
0.0
  0
LINE
  5
2D09
  8
1外形線
 10
33.580466090780021
 20
-482.44170482563658
 30
0.0
 11
44.830466090779453
 21
-482.44170482563658
 31
0.0
  0
ARC
  5
2D0A
  8
1外形線
 10
107.5919166616666
 20
-402.80734569465631
 30
0.0
 40
10.0
 50
278.6251620503221
 51
0.0
  0
LINE
  5
2D0B
  8
1外形線
 10
82.080466090780234
 20
-416.79143797875929
 30
0.0
 11
109.09161218046521
 21
-412.6942518513311
 31
0.0
  0
LINE
  5
2D0C
  8
1外形線
 10
82.080466090780234
 20
-416.79143797875929
 30
0.0
 11
82.080466090780234
 21
-456.44170482563658
 31
0.0
  0
LINE
  5
2D0D
  8
1外形線
 10
117.5919166616666
 20
-398.4417048256359
 30
0.0
 11
117.5919166616666
 21
-402.80734569465631
 31
0.0
  0
LINE
  5
2D0E
  8
1外形線
 10
7.5804660907802477
 20
-416.79143797875929
 30
0.0
 11
82.080466090780234
 21
-416.79143797875929
 31
0.0
  0
LINE
  5
2D0F
  8
1外形線
 10
292.92881850639498
 20
-549.01741700244759
 30
0.0
 11
288.62969901455818
 21
-549.01741700244759
 31
0.0
  0
ARC
  5
2D10
  8
1外形線
 10
288.62969901455818
 20
-559.0174170024477
 30
0.0
 40
10.0
 50
90.0
 51
171.3748379496767
  0
LINE
  5
2D11
  8
1外形線
 10
274.57908535327221
 20
-584.96741700244809
 30
0.0
 11
234.928818506395
 21
-584.96741700244809
 31
0.0
  0
ARC
  5
2D1C
  8
1外形線
 10
234.92881850639489
 20
-610.9674170024482
 30
0.0
 40
26.0
 50
89.999999999999758
 51
180.0
  0
LINE
  5
2D2A
  8
1外形線
 10
284.54116409926638
 20
-685.23072908807012
 30
0.0
 11
292.92881850639509
 21
-685.23072908807012
 31
0.0
  0
ARC
  5
2D2B
  8
1外形線
 10
284.54116409926633
 20
-675.23072908807001
 30
0.0
 40
10.0
 50
180.0
 51
270.00000000000023
  0
LINE
  5
2D2C
  8
1外形線
 10
292.92881850639498
 20
-733.01741700244816
 30
0.0
 11
230.428818506395
 21
-733.01741700244816
 31
0.0
  0
LINE
  5
2D2D
  8
1外形線
 10
292.92881850639498
 20
-728.01741700244816
 30
0.0
 11
230.428818506395
 21
-728.01741700244816
 31
0.0
  0
LINE
  5
2D2E
  8
1外形線
 10
230.428818506395
 20
-733.01741700244804
 30
0.0
 11
230.428818506395
 21
-709.56344980815823
 31
0.0
  0
ARC
  5
2D2F
  8
1外形線
 10
215.42881850639509
 20
-709.56344980815823
 30
0.0
 40
15.0
 50
359.99999999999977
 51
29.999999999998291
  0
LINE
  5
2D30
  8
1外形線
  6
CONTINUOUS
 10
442.13615598955101
 20
-733.01741700244816
 30
0.0
 11
404.88615598955101
 21
-733.01741700244816
 31
0.0
  0
LINE
  5
2D33
  8
1外形線
  6
CONTINUOUS
 10
429.13615598954601
 20
-728.01741700244816
 30
0.0
 11
404.88615598955101
 21
-728.01741700244816
 31
0.0
  0
LINE
  5
2D34
  8
1外形線
  6
CONTINUOUS
 10
404.88615598955101
 20
-733.01741700244816
 30
0.0
 11
404.88615598955101
 21
-685.23072908807012
 31
0.0
  0
LINE
  5
2D35
  8
1外形線
  6
CONTINUOUS
 10
442.13615598955101
 20
-733.01741700244816
 30
0.0
 11
479.38615598955101
 21
-733.01741700244816
 31
0.0
  0
LINE
  5
2D36
  8
1外形線
  6
CONTINUOUS
 10
455.13615598955607
 20
-728.01741700244816
 30
0.0
 11
479.38615598955101
 21
-728.01741700244816
 31
0.0
  0
LINE
  5
2D37
  8
1外形線
  6
CONTINUOUS
 10
479.38615598955101
 20
-733.01741700244816
 30
0.0
 11
479.38615598955101
 21
-685.23072908807012
 31
0.0
  0
ENDSEC
  0
EOF
