  0
SECTION
  2
HEADER
  9
$ACADVER
  1
AC1009
  9
$INSBASE
 10
0.0
 20
0.0
 30
0.0
  9
$EXTMIN
 10
-91.460343564865639
 20
-1273.7252522985191
 30
0.0
  9
$EXTMAX
 10
549.84827806883015
 20
-721.25853873126675
 30
0.0
  9
$LIMMIN
 10
0.0
 20
0.0
  9
$LIMMAX
 10
420.0
 20
297.0
  9
$ORTHOMODE
 70
     1
  9
$REGENMODE
 70
     1
  9
$FILLMODE
 70
     1
  9
$QTEXTMODE
 70
     0
  9
$MIRRTEXT
 70
     1
  9
$DRAGMODE
 70
     2
  9
$LTSCALE
 40
1.0
  9
$OSMODE
 70
    37
  9
$ATTMODE
 70
     1
  9
$TEXTSIZE
 40
2.5
  9
$TRACEWID
 40
1.0
  9
$TEXTSTYLE
  7
KANJI
  9
$CLAYER
  8
2寸法線
  9
$CELTYPE
  6
BYLAYER
  9
$CECOLOR
 62
   256
  9
$DIMSCALE
 40
0.0
  9
$DIMASZ
 40
1.8
  9
$DIMEXO
 40
1.0
  9
$DIMDLI
 40
0.0
  9
$DIMRND
 40
0.0
  9
$DIMDLE
 40
0.0
  9
$DIMEXE
 40
1.0
  9
$DIMTP
 40
0.0
  9
$DIMTM
 40
0.0
  9
$DIMTXT
 40
2.5
  9
$DIMCEN
 40
0.0
  9
$DIMTSZ
 40
0.0
  9
$DIMTOL
 70
     0
  9
$DIMLIM
 70
     0
  9
$DIMTIH
 70
     0
  9
$DIMTOH
 70
     0
  9
$DIMSE1
 70
     0
  9
$DIMSE2
 70
     0
  9
$DIMTAD
 70
     1
  9
$DIMZIN
 70
     8
  9
$DIMBLK
  1

  9
$DIMASO
 70
     1
  9
$DIMSHO
 70
     1
  9
$DIMPOST
  1

  9
$DIMAPOST
  1

  9
$DIMALT
 70
     0
  9
$DIMALTD
 70
     2
  9
$DIMALTF
 40
25.399999999999999
  9
$DIMLFAC
 40
1.0
  9
$DIMTOFL
 70
     1
  9
$DIMTVP
 40
0.0
  9
$DIMTIX
 70
     0
  9
$DIMSOXD
 70
     0
  9
$DIMSAH
 70
     1
  9
$DIMBLK1
  1
2
  9
$DIMBLK2
  1
2
  9
$DIMSTYLE
  2
M
  9
$DIMCLRD
 70
     0
  9
$DIMCLRE
 70
     0
  9
$DIMCLRT
 70
     0
  9
$DIMTFAC
 40
1.0
  9
$DIMGAP
 40
0.5
  9
$LUNITS
 70
     2
  9
$LUPREC
 70
     3
  9
$SKETCHINC
 40
1.0
  9
$FILLETRAD
 40
0.0
  9
$AUNITS
 70
     0
  9
$AUPREC
 70
     1
  9
$MENU
  1
.
  9
$ELEVATION
 40
0.0
  9
$PELEVATION
 40
0.0
  9
$THICKNESS
 40
0.0
  9
$LIMCHECK
 70
     0
  9
$BLIPMODE
 70
     0
  9
$CHAMFERA
 40
10.0
  9
$CHAMFERB
 40
10.0
  9
$SKPOLY
 70
     0
  9
$TDCREATE
 40
2454393.806994895
  9
$TDUPDATE
 40
2454396.4563047909
  9
$TDINDWG
 40
0.0392489468
  9
$TDUSRTIMER
 40
0.0392487616
  9
$USRTIMER
 70
     1
  9
$ANGBASE
 50
0.0
  9
$ANGDIR
 70
     0
  9
$PDMODE
 70
     0
  9
$PDSIZE
 40
0.0
  9
$PLINEWID
 40
0.0
  9
$COORDS
 70
     0
  9
$SPLFRAME
 70
     0
  9
$SPLINETYPE
 70
     6
  9
$SPLINESEGS
 70
     8
  9
$ATTDIA
 70
     1
  9
$ATTREQ
 70
     1
  9
$HANDLING
 70
     1
  9
$HANDSEED
  5
48A7
  9
$SURFTAB1
 70
     6
  9
$SURFTAB2
 70
     6
  9
$SURFTYPE
 70
     6
  9
$SURFU
 70
     6
  9
$SURFV
 70
     6
  9
$UCSNAME
  2

  9
$UCSORG
 10
0.0
 20
0.0
 30
0.0
  9
$UCSXDIR
 10
1.0
 20
0.0
 30
0.0
  9
$UCSYDIR
 10
0.0
 20
1.0
 30
0.0
  9
$PUCSNAME
  2

  9
$PUCSORG
 10
0.0
 20
0.0
 30
0.0
  9
$PUCSXDIR
 10
1.0
 20
0.0
 30
0.0
  9
$PUCSYDIR
 10
0.0
 20
1.0
 30
0.0
  9
$USERI1
 70
     0
  9
$USERI2
 70
     0
  9
$USERI3
 70
     0
  9
$USERI4
 70
     0
  9
$USERI5
 70
     0
  9
$USERR1
 40
0.0
  9
$USERR2
 40
0.0
  9
$USERR3
 40
0.0
  9
$USERR4
 40
0.0
  9
$USERR5
 40
0.0
  9
$WORLDVIEW
 70
     1
  9
$SHADEDGE
 70
     3
  9
$SHADEDIF
 70
    70
  9
$TILEMODE
 70
     1
  9
$MAXACTVP
 70
    48
  9
$PLIMCHECK
 70
     0
  9
$PEXTMIN
 10
1.0000000000000000E+020
 20
1.0000000000000000E+020
 30
1.0000000000000000E+020
  9
$PEXTMAX
 10
-1.0000000000000000E+020
 20
-1.0000000000000000E+020
 30
-1.0000000000000000E+020
  9
$PLIMMIN
 10
0.0
 20
0.0
  9
$PLIMMAX
 10
420.0
 20
297.0
  9
$UNITMODE
 70
     0
  9
$VISRETAIN
 70
     1
  9
$PLINEGEN
 70
     0
  9
$PSLTSCALE
 70
     1
  0
ENDSEC
  0
SECTION
  2
TABLES
  0
TABLE
  2
VPORT
 70
     3
  0
VPORT
  2
*ACTIVE
 70
     0
 10
0.0
 20
0.0
 11
1.0
 21
1.0
 12
251.64993593867169
 22
-994.44093164743333
 13
0.0
 23
0.0
 14
10.0
 24
10.0
 15
10.0
 25
10.0
 16
0.0
 26
0.0
 36
1.0
 17
0.0
 27
0.0
 37
0.0
 40
609.43917592892603
 41
1.5937904269081491
 42
50.0
 43
0.0
 44
0.0
 50
0.0
 51
0.0
 71
     0
 72
   100
 73
     1
 74
     1
 75
     0
 76
     0
 77
     0
 78
     0
  0
ENDTAB
  0
TABLE
  2
LTYPE
 70
     4
  0
LTYPE
  2
CONTINUOUS
 70
     0
  3
Solid line
 72
    65
 73
     0
 40
0.0
  0
ENDTAB
  0
TABLE
  2
LAYER
 70
    10
  0
LAYER
  2
0
 70
     0
 62
     7
  6
CONTINUOUS
  0
LAYER
  2
2寸法線
 70
     0
 62
     2
  6
CONTINUOUS
  0
LAYER
  2
1外形線
 70
     0
 62
     3
  6
CONTINUOUS
  0
LAYER
  2
DEFPOINTS
 70
     0
 62
     7
  6
CONTINUOUS
  0
ENDTAB
  0
TABLE
  2
STYLE
 70
     3
  0
STYLE
  2
STANDARD
 70
     0
 40
0.0
 41
1.0
 50
0.0
 71
     0
 42
2.5
  3
txt
  4

  0
STYLE
  2
KANJI
 70
     0
 40
0.0
 41
1.0
 50
0.0
 71
     0
 42
2.5
  3
simplex.shx
  4
bigfont.shx
  0
ENDTAB
  0
TABLE
  2
VIEW
 70
     0
  0
ENDTAB
  0
TABLE
  2
UCS
 70
     0
  0
ENDTAB
  0
TABLE
  2
APPID
 70
     1
  0
APPID
  2
ACAD
 70
     0
  0
ENDTAB
  0
TABLE
  2
DIMSTYLE
 70
     5
  0
DIMSTYLE
  2
STANDARD
 70
     0
  3

  4

  5

  6

  7

 40
1.0
 41
0.18
 42
0.0625
 43
0.38
 44
0.18
 45
0.0
 46
0.0
 47
0.0
 48
0.0
140
0.18
141
0.09
142
0.0
143
25.399999999999999
144
1.0
145
0.0
146
1.0
147
0.09
 71
     0
 72
     0
 73
     0
 74
     0
 75
     0
 76
     0
 77
     0
 78
     0
170
     0
171
     2
172
     1
173
     0
174
     0
175
     0
176
     0
177
     0
178
     0
  0
DIMSTYLE
  2
M
 70
     0
  3

  4

  5

  6

  7

 40
0.0
 41
2.0
 42
1.0
 43
0.0
 44
1.0
 45
0.0
 46
0.0
 47
0.0
 48
0.0
140
2.5
141
0.0
142
0.0
143
25.399999999999999
144
1.0
145
0.0
146
1.0
147
0.5
 71
     0
 72
     0
 73
     0
 74
     0
 75
     0
 76
     0
 77
     1
 78
     8
170
     0
171
     2
172
     1
173
     1
174
     0
175
     0
176
     0
177
     0
178
     0
  0
ENDTAB
  0
ENDSEC
  0
SECTION
  2
BLOCKS
  0
BLOCK
  8
0
  2
$MODEL_SPACE
 70
     0
 10
0.0
 20
0.0
 30
0.0
  3
$MODEL_SPACE
  1

  0
ENDBLK
  5
44B1
  8
0
  0
BLOCK
 67
     1
  8
0
  2
$PAPER_SPACE
 70
     0
 10
0.0
 20
0.0
 30
0.0
  3
$PAPER_SPACE
  1

  0
ENDBLK
  5
44AD
 67
     1
  8
0
  0
BLOCK
  8
0
  2
2
 70
     0
 10
0.0
 20
0.0
 30
0.0
  3
2
  1

  0
INSERT
  5
131
  8
0
  6
CONTINUOUS
 62
     0
  2
*U3
 10
0.0
 20
0.0
 30
0.0
1001
ACAD
1002
{
1000
R14_HATCH_DATA
1000
131
1011
1.0
1021
0.0
1031
0.0
1021
0.0
1031
0.0
1011
0.0
1021
0.0
1031
0.0
1021
1.0
1031
0.0
1011
0.0
1021
0.0
1031
0.0
1021
0.0
1031
1.0
1040
0.0
1010
0.0
1020
0.0
1030
1.0
1000
SOLID
1070
     1
1070
     0
1071
        1
1071
        1
1071
        3
1070
     1
1040
-0.9999999999983517
1040
0.2679491924306774
1040
0.0
1040
0.0
1070
     1
1040
0.0
1040
0.0
1040
-0.9999999999983517
1040
-0.2679491924306765
1070
     1
1040
-0.9999999999983524
1040
-0.267949192430676
1040
-0.9999999999983524
1040
0.2679491924306774
1071
        0
1070
     0
1070
     1
1071
        1
1040
2.9957451172313361
1040
-4.1249460962632014
1040
0.0
1002
}
  0
ENDBLK
  5
132
  8
0
  0
BLOCK
  8
0
  2
*U3
 70
     1
 10
0.0
 20
0.0
 30
0.0
  3
*U3
  1

  0
SOLID
  5
43A8
  8
0
  6
CONTINUOUS
 62
     0
 10
0.666666666665568
 20
0.0000000000000004
 30
0.0
 11
0.9999999999983517
 21
0.2679491924306774
 31
0.0
 12
0.0
 22
0.0
 32
0.0
 13
0.0
 23
0.0
 33
0.0
210
0.0
220
0.0
230
-1.0
  0
SOLID
  5
43A9
  8
0
  6
CONTINUOUS
 62
     0
 10
0.666666666665568
 20
0.0000000000000004
 30
0.0
 11
0.0
 21
0.0
 31
0.0
 12
0.9999999999983524
 22
-0.267949192430676
 32
0.0
 13
0.9999999999983524
 23
-0.267949192430676
 33
0.0
210
0.0
220
0.0
230
-1.0
  0
SOLID
  5
43AA
  8
0
  6
CONTINUOUS
 62
     0
 10
0.666666666665568
 20
0.0000000000000004
 30
0.0
 11
0.9999999999983524
 21
-0.267949192430676
 31
0.0
 12
0.9999999999983517
 22
0.2679491924306774
 32
0.0
 13
0.9999999999983517
 23
0.2679491924306774
 33
0.0
210
0.0
220
0.0
230
-1.0
  0
ENDBLK
  5
43AC
  8
0
  0
ENDSEC
  0
SECTION
  2
ENTITIES
  0
ARC
  5
2E1D
  8
1外形線
 10
31.07733491490211
 20
-972.81286851195273
 30
0.0
 40
73.200000000000003
 50
89.999999999999986
 51
230.15518864865481
  0
LINE
  5
2E1F
  8
1外形線
 62
     2
 10
31.077334914901879
 20
-1097.812868511952
 30
0.0
 11
31.077334914902309
 21
-885.6128685119545
 31
0.0
  0
LINE
  5
3AC1
  8
1外形線
 10
-33.622360603897562
 20
-1226.752842557519
 30
0.0
 11
-14.887606340220341
 21
-1223.911061056833
 31
0.0
  0
LINE
  5
3AC3
  8
1外形線
 10
31.077334914901879
 20
-1240.9388682060301
 30
0.0
 11
-42.122665085097871
 21
-1240.9388682060301
 31
0.0
  0
LINE
  5
3B04
  8
1外形線
 62
     2
 10
31.077334914901879
 20
-1146.9388682060301
 30
0.0
 11
31.077334914901879
 21
-1250.938868206028
 31
0.0
  0
LINE
  5
3CE3
  8
1外形線
 10
270.55393696609372
 20
-925.91321283633715
 30
0.0
 11
270.55393696609372
 21
-1018.930958286997
 31
0.0
  0
LINE
  5
3CE4
  8
1外形線
 10
203.4399619434389
 20
-1025.68260337122
 30
0.0
 11
203.43996194343879
 21
-951.91321283633715
 31
0.0
  0
LINE
  5
3CE5
  8
1外形線
 10
287.43996194343879
 20
-1083.6128685119529
 30
0.0
 11
287.43996194343879
 21
-899.6128685119545
 31
0.0
  0
LINE
  5
3CE9
  8
1外形線
 10
273.25393629492692
 20
-908.11317299315397
 30
0.0
 11
270.56915769654569
 21
-925.81286851195239
 31
0.0
  0
ARC
  5
3D29
  8
1外形線
 10
233.43996194343859
 20
-1025.68260337122
 30
0.0
 40
30.0
 50
180.0
 51
209.9999999999944
  0
LINE
  5
3D2A
  8
1外形線
 10
212.4303430002054
 20
-1049.2928759138781
 30
0.0
 11
207.45919982990571
 21
-1040.68260337122
 31
0.0
  0
LINE
  5
40D7
  8
1外形線
 62
     2
 10
457.55116994816382
 20
-1093.8128685119541
 30
0.0
 11
457.55116994816382
 21
-889.61286851195462
 31
0.0
  0
ARC
  5
40DC
  8
1外形線
 10
457.55116994816382
 20
-972.81286851195443
 30
0.0
 40
44.0
 50
89.999999999999986
 51
180.0
  0
ARC
  5
40DD
  8
1外形線
 10
457.55116994816382
 20
-972.81286851195443
 30
0.0
 40
44.0
 50
0.0
 51
89.999999999999986
  0
ARC
  5
40DF
  8
1外形線
 10
457.55116994816382
 20
-972.81286851195443
 30
0.0
 40
71.0
 50
90.0
 51
179.19299050692609
  0
ARC
  5
40E0
  8
1外形線
 10
457.55116994816382
 20
-972.81286851195443
 30
0.0
 40
73.200000000000003
 50
89.999999999999986
 51
230.05316607649041
  0
ARC
  5
40E1
  8
1外形線
 10
457.55116994816382
 20
-972.81286851195443
 30
0.0
 40
73.200000000000003
 50
309.94683392350998
 51
89.999999999999986
  0
ARC
  5
40E2
  8
1外形線
 10
457.55116994816382
 20
-972.81286851195443
 30
0.0
 40
71.0
 50
0.8070094930736882
 51
90.0
  0
ARC
  5
426B
  8
1外形線
 10
457.55116994816422
 20
-972.81286851195443
 30
0.0
 40
71.0
 50
178.36275492221981
 51
270.0
  0
ARC
  5
426C
  8
1外形線
 10
457.55116994816382
 20
-972.81286851195443
 30
0.0
 40
71.0
 50
270.0
 51
1.637245077780066
  0
LINE
  5
426D
  8
1外形線
 10
413.55116994816382
 20
-972.81286851195443
 30
0.0
 11
413.55116994816382
 21
-1028.5353953749741
 31
0.0
  0
LINE
  5
426E
  8
1外形線
 10
501.55116994816382
 20
-972.81286851195443
 30
0.0
 11
501.55116994816382
 21
-1028.5353953749741
 31
0.0
  0
LINE
  5
483D
  8
1外形線
 10
-42.122665085097871
 20
-1240.9388682060301
 30
0.0
 11
-42.122665085097871
 21
-1236.639748714194
 31
0.0
  0
ARC
  5
484B
  8
1外形線
 10
-32.122665085097871
 20
-1236.639748714194
 30
0.0
 40
10.0
 50
98.625162050328683
 51
180.0
  0
LINE
  5
4859
  8
1外形線
 10
-15.92266508509811
 20
-1182.9388682060301
 30
0.0
 11
-15.92266508509811
 21
-1216.9388682060301
 31
0.0
  0
ARC
  5
485A
  8
1外形線
 10
8.0773349149018827
 20
-1216.9388682060301
 30
0.0
 40
24.0
 50
180.0
 51
270.0
  0
LINE
  5
485B
  8
1外形線
 10
31.077334914901879
 20
-1167.9388682060301
 30
0.0
 11
10.077334914901879
 21
-1167.9388682060301
 31
0.0
  0
ARC
  5
485C
  8
1外形線
 10
10.077334914901879
 20
-1193.9388682060301
 30
0.0
 40
26.0
 50
90.0
 51
180.0
  0
LINE
  5
485D
  8
1外形線
 10
31.077334914901879
 20
-1156.9388682060301
 30
0.0
 11
10.077334914901879
 21
-1156.9388682060301
 31
0.0
  0
ARC
  5
485E
  8
1外形線
 10
10.077334914901879
 20
-1182.9388682060301
 30
0.0
 40
26.0
 50
90.0
 51
180.0
  0
LINE
  5
485F
  8
1外形線
 10
31.077334914901879
 20
-1156.9388682060301
 30
0.0
 11
52.077334914901883
 21
-1156.9388682060301
 31
0.0
  0
LINE
  5
4860
  8
1外形線
 10
31.077334914901879
 20
-1167.9388682060301
 30
0.0
 11
52.077334914901883
 21
-1167.9388682060301
 31
0.0
  0
LINE
  5
4861
  8
1外形線
 10
31.077334914901879
 20
-1240.9388682060301
 30
0.0
 11
104.2773349149016
 21
-1240.9388682060301
 31
0.0
  0
ARC
  5
4862
  8
1外形線
 10
52.077334914901883
 20
-1182.9388682060301
 30
0.0
 40
26.0
 50
0.000000000000007
 51
90.0
  0
LINE
  5
4863
  8
1外形線
 10
95.777030433701327
 20
-1226.752842557519
 30
0.0
 11
77.04227617002411
 21
-1223.911061056833
 31
0.0
  0
ARC
  5
4864
  8
1外形線
 10
52.077334914901883
 20
-1193.9388682060301
 30
0.0
 40
26.0
 50
0.000000000000007
 51
90.0
  0
ARC
  5
4865
  8
1外形線
 10
54.077334914901883
 20
-1216.9388682060301
 30
0.0
 40
24.0
 50
270.0
 51
0.000000000000007
  0
ARC
  5
4866
  8
1外形線
 10
94.277334914901644
 20
-1236.639748714194
 30
0.0
 40
10.0
 50
0.000000000000007
 51
81.374837949671331
  0
LINE
  5
4867
  8
1外形線
 10
104.2773349149016
 20
-1240.9388682060301
 30
0.0
 11
104.2773349149016
 21
-1236.639748714194
 31
0.0
  0
LINE
  5
4868
  8
1外形線
 10
78.077334914901883
 20
-1182.9388682060301
 30
0.0
 11
78.077334914901883
 21
-1216.9388682060301
 31
0.0
  0
LINE
  5
486A
  8
1外形線
 10
-15.92266508509811
 20
-1083.6128685119529
 30
0.0
 11
-15.92266508509811
 21
-972.81286851195273
 31
0.0
  0
LINE
  5
486B
  8
1外形線
 10
31.077334914902281
 20
-1083.6128685119529
 30
0.0
 11
-15.92266508509811
 21
-1083.6128685119529
 31
0.0
  0
LINE
  5
486C
  8
1外形線
 10
31.077334914902281
 20
-1078.612868511952
 30
0.0
 11
-15.92266508509811
 21
-1078.612868511952
 31
0.0
  0
ARC
  5
486E
  8
1外形線
 10
31.07733491490211
 20
-972.81286851195273
 30
0.0
 40
47.000000000000227
 50
89.999999999999844
 51
180.0
  0
ARC
  5
486F
  8
1外形線
 10
31.077334914902451
 20
-972.81286851195273
 30
0.0
 40
73.200000000000003
 50
309.84481135134507
 51
90.000000000000028
  0
ARC
  5
4870
  8
1外形線
 10
31.077334914902451
 20
-972.81286851195273
 30
0.0
 40
47.000000000000227
 50
0.000000000000007
 51
90.000000000000142
  0
LINE
  5
4871
  8
1外形線
 10
31.077334914902291
 20
-1083.6128685119529
 30
0.0
 11
78.077334914902664
 21
-1083.6128685119529
 31
0.0
  0
LINE
  5
4872
  8
1外形線
 10
31.077334914902291
 20
-1078.612868511952
 30
0.0
 11
78.077334914902664
 21
-1078.612868511952
 31
0.0
  0
LINE
  5
4873
  8
1外形線
 10
78.077334914902664
 20
-1083.6128685119529
 30
0.0
 11
78.077334914902664
 21
-972.81286851195273
 31
0.0
  0
LINE
  5
4876
  8
1外形線
 10
95.777030433701327
 20
-745.44456437977624
 30
0.0
 11
78.077334914901883
 21
-748.12934297815957
 31
0.0
  0
ARC
  5
4877
  8
1外形線
 10
52.077334914901883
 20
-789.25853873126437
 30
0.0
 40
26.0
 50
270.0
 51
0.0
  0
LINE
  5
4878
  8
1外形線
 10
31.077334914901879
 20
-731.25853873126437
 30
0.0
 11
104.2773349149016
 21
-731.25853873126437
 31
0.0
  0
LINE
  5
4879
  8
1外形線
 10
31.077334914901879
 20
-815.25853873126437
 30
0.0
 11
10.077334914901879
 21
-815.25853873126437
 31
0.0
  0
LINE
  5
487B
  8
1外形線
 10
31.077334914901879
 20
-731.25853873126437
 30
0.0
 11
-42.122665085097871
 21
-731.25853873126437
 31
0.0
  0
ARC
  5
487C
  8
1外形線
 10
10.077334914901879
 20
-789.25853873126437
 30
0.0
 40
26.0
 50
180.0
 51
270.0
  0
LINE
  5
487D
  8
1外形線
 10
-33.622360603897562
 20
-745.44456437977624
 30
0.0
 11
-15.92266508509811
 21
-748.12934297815957
 31
0.0
  0
ARC
  5
4880
  8
1外形線
 10
-32.122665085097879
 20
-735.5576582231015
 30
0.0
 40
10.0
 50
180.0
 51
261.3748379496713
  0
LINE
  5
4881
  8
1外形線
 10
-42.122665085097871
 20
-731.25853873126437
 30
0.0
 11
-42.122665085097871
 21
-735.5576582231015
 31
0.0
  0
LINE
  5
4882
  8
1外形線
 10
-15.92266508509811
 20
-789.25853873126437
 30
0.0
 11
-15.92266508509811
 21
-748.12934297815957
 31
0.0
  0
LINE
  5
4883
  8
1外形線
 62
     2
 10
31.077334914901879
 20
-825.25853873126448
 30
0.0
 11
31.077334914901879
 21
-721.25853873126675
 31
0.0
  0
LINE
  5
4885
  8
1外形線
 10
31.077334914901879
 20
-815.25853873126437
 30
0.0
 11
52.077334914901883
 21
-815.25853873126437
 31
0.0
  0
LINE
  5
4886
  8
1外形線
 10
78.077334914901883
 20
-789.25853873126437
 30
0.0
 11
78.077334914901883
 21
-748.12934297815957
 31
0.0
  0
ARC
  5
4887
  8
1外形線
 10
94.277334914901644
 20
-735.5576582231015
 30
0.0
 40
10.0
 50
278.62516205032858
 51
0.0
  0
LINE
  5
4888
  8
1外形線
 10
104.2773349149016
 20
-731.25853873126437
 30
0.0
 11
104.2773349149016
 21
-735.5576582231015
 31
0.0
  0
LINE
  5
4889
  8
1外形線
 10
-15.92266508509811
 20
-748.12934297815957
 30
0.0
 11
78.077334914901883
 21
-748.12934297815957
 31
0.0
  0
LINE
  5
488A
  8
1外形線
 10
283.14084245160183
 20
-899.61286851195268
 30
0.0
 11
287.43996194343879
 21
-899.61286851195268
 31
0.0
  0
ARC
  5
488B
  8
1外形線
 10
283.14084245160183
 20
-909.61286851195268
 30
0.0
 40
10.0
 50
90.0
 51
171.3748379496769
  0
LINE
  5
488D
  8
1外形線
 10
270.55393696609372
 20
-925.91321283633715
 30
0.0
 11
229.43996194343879
 21
-925.91321283633715
 31
0.0
  0
ARC
  5
488E
  8
1外形線
 10
229.43996194343879
 20
-951.91321283633715
 30
0.0
 40
26.0
 50
90.0
 51
180.0
  0
LINE
  5
488F
  8
1外形線
 10
280.55393696609372
 20
-1028.9309582869971
 30
0.0
 11
287.43996194343879
 21
-1028.9309582869971
 31
0.0
  0
ARC
  5
4890
  8
1外形線
 10
280.5539369660936
 20
-1018.930958286997
 30
0.0
 40
10.0
 50
180.0
 51
270.00000000000023
  0
LINE
  5
4891
  8
1外形線
 10
214.4399619434389
 20
-1083.6128685119529
 30
0.0
 11
214.4399619434389
 21
-1056.7928759138781
 31
0.0
  0
ARC
  5
4892
  8
1外形線
 10
199.4399619434389
 20
-1056.7928759138781
 30
0.0
 40
15.0
 50
0.0
 51
30.000000000000242
  0
LINE
  5
4893
  8
1外形線
 10
287.43996194343879
 20
-1083.6128685119529
 30
0.0
 11
214.4399619434389
 21
-1083.6128685119529
 31
0.0
  0
LINE
  5
4894
  8
1外形線
 10
287.43996194343879
 20
-1078.612868511952
 30
0.0
 11
214.4399619434389
 21
-1078.612868511952
 31
0.0
  0
LINE
  5
4895
  8
1外形線
 10
410.55116994816382
 20
-1083.6128685119529
 30
0.0
 11
410.55116994816382
 21
-1028.9309582869989
 31
0.0
  0
LINE
  5
4896
  8
1外形線
 10
410.55116994816382
 20
-1083.6128685119529
 30
0.0
 11
457.55116994816382
 21
-1083.6128685119529
 31
0.0
  0
LINE
  5
4897
  8
1外形線
 10
410.55116994816382
 20
-1078.612868511952
 30
0.0
 11
457.55116994816382
 21
-1078.612868511952
 31
0.0
  0
LINE
  5
4898
  8
1外形線
 10
504.5511699481645
 20
-1083.6128685119529
 30
0.0
 11
457.5511699481645
 21
-1083.6128685119529
 31
0.0
  0
LINE
  5
4899
  8
1外形線
 10
504.5511699481645
 20
-1078.612868511952
 30
0.0
 11
457.5511699481645
 21
-1078.612868511952
 31
0.0
  0
LINE
  5
489A
  8
1外形線
 10
504.5511699481645
 20
-1083.6128685119529
 30
0.0
 11
504.5511699481645
 21
-1028.930958286998
 31
0.0
  0
ENDSEC
  0
EOF
