  0
SECTION
  2
HEADER
  9
$ACADVER
  1
AC1015
  9
$ACADMAINTVER
 70
    20
  9
$DWGCODEPAGE
  3
ANSI_932
  9
$INSBASE
 10
0.0
 20
0.0
 30
0.0
  9
$EXTMIN
 10
37.36842050492986
 20
30.20624167051926
 30
0.0
  9
$EXTMAX
 10
918.5133933668222
 20
497.3940506873341
 30
0.0
  9
$LIMMIN
 10
0.0
 20
0.0
  9
$LIMMAX
 10
420.0
 20
297.0
  9
$ORTHOMODE
 70
     0
  9
$REGENMODE
 70
     1
  9
$FILLMODE
 70
     1
  9
$QTEXTMODE
 70
     0
  9
$MIRRTEXT
 70
     1
  9
$LTSCALE
 40
1.0
  9
$ATTMODE
 70
     1
  9
$TEXTSIZE
 40
2.5
  9
$TRACEWID
 40
1.0
  9
$TEXTSTYLE
  7
STANDARD
  9
$CLAYER
  8
2寸法線
  9
$CELTYPE
  6
ByLayer
  9
$CECOLOR
 62
   256
  9
$CELTSCALE
 40
1.0
  9
$DISPSILH
 70
     0
  9
$DIMSCALE
 40
1.0
  9
$DIMASZ
 40
2.5
  9
$DIMEXO
 40
0.625
  9
$DIMDLI
 40
3.75
  9
$DIMRND
 40
0.0
  9
$DIMDLE
 40
0.0
  9
$DIMEXE
 40
1.25
  9
$DIMTP
 40
0.0
  9
$DIMTM
 40
0.0
  9
$DIMTXT
 40
2.5
  9
$DIMCEN
 40
2.5
  9
$DIMTSZ
 40
0.0
  9
$DIMTOL
 70
     0
  9
$DIMLIM
 70
     0
  9
$DIMTIH
 70
     0
  9
$DIMTOH
 70
     0
  9
$DIMSE1
 70
     0
  9
$DIMSE2
 70
     0
  9
$DIMTAD
 70
     1
  9
$DIMZIN
 70
     8
  9
$DIMBLK
  1

  9
$DIMASO
 70
     1
  9
$DIMSHO
 70
     1
  9
$DIMPOST
  1

  9
$DIMAPOST
  1

  9
$DIMALT
 70
     0
  9
$DIMALTD
 70
     3
  9
$DIMALTF
 40
0.03937007874016
  9
$DIMLFAC
 40
1.0
  9
$DIMTOFL
 70
     1
  9
$DIMTVP
 40
0.0
  9
$DIMTIX
 70
     0
  9
$DIMSOXD
 70
     0
  9
$DIMSAH
 70
     0
  9
$DIMBLK1
  1

  9
$DIMBLK2
  1

  9
$DIMSTYLE
  2
ISO-25
  9
$DIMCLRD
 70
     0
  9
$DIMCLRE
 70
     0
  9
$DIMCLRT
 70
     0
  9
$DIMTFAC
 40
1.0
  9
$DIMGAP
 40
0.625
  9
$DIMJUST
 70
     0
  9
$DIMSD1
 70
     0
  9
$DIMSD2
 70
     0
  9
$DIMTOLJ
 70
     1
  9
$DIMTZIN
 70
     0
  9
$DIMALTZ
 70
     0
  9
$DIMALTTZ
 70
     0
  9
$DIMUPT
 70
     0
  9
$DIMDEC
 70
     4
  9
$DIMTDEC
 70
     4
  9
$DIMALTU
 70
     2
  9
$DIMALTTD
 70
     2
  9
$DIMTXSTY
  7
STANDARD
  9
$DIMAUNIT
 70
     0
  9
$DIMADEC
 70
     0
  9
$DIMALTRND
 40
0.0
  9
$DIMAZIN
 70
     0
  9
$DIMDSEP
 70
    46
  9
$DIMATFIT
 70
     3
  9
$DIMFRAC
 70
     0
  9
$DIMLDRBLK
  1

  9
$DIMLUNIT
 70
     2
  9
$DIMLWD
 70
    -2
  9
$DIMLWE
 70
    -2
  9
$DIMTMOVE
 70
     0
  9
$LUNITS
 70
     2
  9
$LUPREC
 70
     4
  9
$SKETCHINC
 40
1.0
  9
$FILLETRAD
 40
10.0
  9
$AUNITS
 70
     0
  9
$AUPREC
 70
     0
  9
$MENU
  1
.
  9
$ELEVATION
 40
0.0
  9
$PELEVATION
 40
0.0
  9
$THICKNESS
 40
0.0
  9
$LIMCHECK
 70
     0
  9
$CHAMFERA
 40
10.0
  9
$CHAMFERB
 40
10.0
  9
$CHAMFERC
 40
0.0
  9
$CHAMFERD
 40
0.0
  9
$SKPOLY
 70
     0
  9
$TDCREATE
 40
2452263.783807870
  9
$TDUCREATE
 40
2452263.408811482
  9
$TDUPDATE
 40
2459990.434259259
  9
$TDUUPDATE
 40
2459990.059259259
  9
$TDINDWG
 40
0.3069659838
  9
$TDUSRTIMER
 40
0.3069656829
  9
$USRTIMER
 70
     1
  9
$ANGBASE
 50
0.0
  9
$ANGDIR
 70
     0
  9
$PDMODE
 70
     0
  9
$PDSIZE
 40
0.0
  9
$PLINEWID
 40
0.0
  9
$SPLFRAME
 70
     0
  9
$SPLINETYPE
 70
     6
  9
$SPLINESEGS
 70
     8
  9
$HANDSEED
  5
93F
  9
$SURFTAB1
 70
     6
  9
$SURFTAB2
 70
     6
  9
$SURFTYPE
 70
     6
  9
$SURFU
 70
     6
  9
$SURFV
 70
     6
  9
$UCSBASE
  2

  9
$UCSNAME
  2

  9
$UCSORG
 10
0.0
 20
0.0
 30
0.0
  9
$UCSXDIR
 10
1.0
 20
0.0
 30
0.0
  9
$UCSYDIR
 10
0.0
 20
1.0
 30
0.0
  9
$UCSORTHOREF
  2

  9
$UCSORTHOVIEW
 70
     0
  9
$UCSORGTOP
 10
0.0
 20
0.0
 30
0.0
  9
$UCSORGBOTTOM
 10
0.0
 20
0.0
 30
0.0
  9
$UCSORGLEFT
 10
0.0
 20
0.0
 30
0.0
  9
$UCSORGRIGHT
 10
0.0
 20
0.0
 30
0.0
  9
$UCSORGFRONT
 10
0.0
 20
0.0
 30
0.0
  9
$UCSORGBACK
 10
0.0
 20
0.0
 30
0.0
  9
$PUCSBASE
  2

  9
$PUCSNAME
  2

  9
$PUCSORG
 10
0.0
 20
0.0
 30
0.0
  9
$PUCSXDIR
 10
1.0
 20
0.0
 30
0.0
  9
$PUCSYDIR
 10
0.0
 20
1.0
 30
0.0
  9
$PUCSORTHOREF
  2

  9
$PUCSORTHOVIEW
 70
     0
  9
$PUCSORGTOP
 10
0.0
 20
0.0
 30
0.0
  9
$PUCSORGBOTTOM
 10
0.0
 20
0.0
 30
0.0
  9
$PUCSORGLEFT
 10
0.0
 20
0.0
 30
0.0
  9
$PUCSORGRIGHT
 10
0.0
 20
0.0
 30
0.0
  9
$PUCSORGFRONT
 10
0.0
 20
0.0
 30
0.0
  9
$PUCSORGBACK
 10
0.0
 20
0.0
 30
0.0
  9
$USERI1
 70
     0
  9
$USERI2
 70
     0
  9
$USERI3
 70
     0
  9
$USERI4
 70
     0
  9
$USERI5
 70
     0
  9
$USERR1
 40
0.0
  9
$USERR2
 40
0.0
  9
$USERR3
 40
0.0
  9
$USERR4
 40
0.0
  9
$USERR5
 40
0.0
  9
$WORLDVIEW
 70
     1
  9
$SHADEDGE
 70
     3
  9
$SHADEDIF
 70
    70
  9
$TILEMODE
 70
     1
  9
$MAXACTVP
 70
    64
  9
$PINSBASE
 10
0.0
 20
0.0
 30
0.0
  9
$PLIMCHECK
 70
     0
  9
$PEXTMIN
 10
1.000000000000000E+20
 20
1.000000000000000E+20
 30
1.000000000000000E+20
  9
$PEXTMAX
 10
-1.000000000000000E+20
 20
-1.000000000000000E+20
 30
-1.000000000000000E+20
  9
$PLIMMIN
 10
0.0
 20
0.0
  9
$PLIMMAX
 10
420.0
 20
297.0
  9
$UNITMODE
 70
     0
  9
$VISRETAIN
 70
     1
  9
$PLINEGEN
 70
     0
  9
$PSLTSCALE
 70
     1
  9
$TREEDEPTH
 70
  3020
  9
$CMLSTYLE
  2
Standard
  9
$CMLJUST
 70
     0
  9
$CMLSCALE
 40
1.0
  9
$PROXYGRAPHICS
 70
     1
  9
$MEASUREMENT
 70
     0
  9
$CELWEIGHT
370
    -1
  9
$ENDCAPS
280
     0
  9
$JOINSTYLE
280
     0
  9
$LWDISPLAY
290
     0
  9
$INSUNITS
 70
     0
  9
$HYPERLINKBASE
  1

  9
$STYLESHEET
  1

  9
$XEDIT
290
     1
  9
$CEPSNTYPE
380
     0
  9
$PSTYLEMODE
290
     1
  9
$FINGERPRINTGUID
  2
{F28305D8-7C18-4369-90EB-BFABBADB8EAD}
  9
$VERSIONGUID
  2
{7A08E0A6-0751-1643-B96D-A331A35E2534}
  9
$EXTNAMES
290
     1
  9
$PSVPSCALE
 40
0.0
  9
$OLESTARTUP
290
     0
  0
ENDSEC
  0
SECTION
  2
CLASSES
  0
CLASS
  1
ACDBDICTIONARYWDFLT
  2
AcDbDictionaryWithDefault
  3
ObjectDBX Classes
 90
        0
280
     0
281
     0
  0
CLASS
  1
ACDBPLACEHOLDER
  2
AcDbPlaceHolder
  3
ObjectDBX Classes
 90
        0
280
     0
281
     0
  0
CLASS
  1
LAYOUT
  2
AcDbLayout
  3
ObjectDBX Classes
 90
        0
280
     0
281
     0
  0
CLASS
  1
DICTIONARYVAR
  2
AcDbDictionaryVar
  3
ObjectDBX Classes
 90
        0
280
     0
281
     0
  0
CLASS
  1
MATERIAL
  2
AcDbMaterial
  3
ObjectDBX Classes
 90
     1153
280
     0
281
     0
  0
CLASS
  1
VISUALSTYLE
  2
AcDbVisualStyle
  3
ObjectDBX Classes
 90
     4095
280
     0
281
     0
  0
CLASS
  1
TABLESTYLE
  2
AcDbTableStyle
  3
ObjectDBX Classes
 90
     4095
280
     0
281
     0
  0
CLASS
  1
SCALE
  2
AcDbScale
  3
ObjectDBX Classes
 90
     1153
280
     0
281
     0
  0
CLASS
  1
MLEADERSTYLE
  2
AcDbMLeaderStyle
  3
ACDB_MLEADERSTYLE_CLASS
 90
     4095
280
     0
281
     0
  0
CLASS
  1
ACDBSECTIONVIEWSTYLE
  2
AcDbSectionViewStyle
  3
ObjectDBX Classes
 90
     1025
280
     0
281
     0
  0
CLASS
  1
ACDBDETAILVIEWSTYLE
  2
AcDbDetailViewStyle
  3
ObjectDBX Classes
 90
     1025
280
     0
281
     0
  0
CLASS
  1
SORTENTSTABLE
  2
AcDbSortentsTable
  3
ObjectDBX Classes
 90
        0
280
     0
281
     0
  0
CLASS
  1
CELLSTYLEMAP
  2
AcDbCellStyleMap
  3
ObjectDBX Classes
 90
     1152
280
     0
281
     0
  0
ENDSEC
  0
SECTION
  2
TABLES
  0
TABLE
  2
VPORT
  5
1A4
330
0
100
AcDbSymbolTable
 70
     1
  0
VPORT
  5
31B
330
1A4
100
AcDbSymbolTableRecord
100
AcDbViewportTableRecord
  2
*Active
 70
     0
 10
0.0
 20
0.0
 11
1.0
 21
1.0
 12
251.7475742393137
 22
246.2315838349258
 13
0.0
 23
0.0
 14
10.0
 24
10.0
 15
10.0
 25
10.0
 16
0.0
 26
0.0
 36
1.0
 17
0.0
 27
0.0
 37
0.0
 40
475.9049510059587
 41
2.209439528023598
 42
50.0
 43
0.0
 44
0.0
 50
0.0
 51
0.0
 71
     0
 72
   100
 73
     1
 74
     3
 75
     0
 76
     0
 77
     0
 78
     0
281
     0
 65
     1
110
0.0
120
0.0
130
0.0
111
1.0
121
0.0
131
0.0
112
0.0
122
1.0
132
0.0
 79
     0
146
0.0
1001
ACAD_NAV_VCDISPLAY
1070
     3
  0
ENDTAB
  0
TABLE
  2
LTYPE
  5
1A1
330
0
100
AcDbSymbolTable
 70
     1
  0
LTYPE
  5
1AF
330
1A1
100
AcDbSymbolTableRecord
100
AcDbLinetypeTableRecord
  2
ByBlock
 70
     0
  3

 72
    65
 73
     0
 40
0.0
  0
LTYPE
  5
1B0
330
1A1
100
AcDbSymbolTableRecord
100
AcDbLinetypeTableRecord
  2
ByLayer
 70
     0
  3

 72
    65
 73
     0
 40
0.0
  0
LTYPE
  5
1B1
330
1A1
100
AcDbSymbolTableRecord
100
AcDbLinetypeTableRecord
  2
CONTINUOUS
 70
     0
  3
Solid line
 72
    65
 73
     0
 40
0.0
  0
ENDTAB
  0
TABLE
  2
LAYER
  5
19E
102
{ACAD_XDICTIONARY
360
43B
102
}
330
0
100
AcDbSymbolTable
 70
     5
  0
LAYER
  5
1AC
102
{ACAD_XDICTIONARY
360
37D
102
}
330
19E
100
AcDbSymbolTableRecord
100
AcDbLayerTableRecord
  2
0
 70
     0
 62
     7
  6
CONTINUOUS
370
    -3
390
1AB
  0
LAYER
  5
1BF
102
{ACAD_XDICTIONARY
360
37F
102
}
330
19E
100
AcDbSymbolTableRecord
100
AcDbLayerTableRecord
  2
1外形線
 70
     0
 62
     3
  6
CONTINUOUS
370
    -3
390
1AB
  0
LAYER
  5
1C0
102
{ACAD_XDICTIONARY
360
381
102
}
330
19E
100
AcDbSymbolTableRecord
100
AcDbLayerTableRecord
  2
C4
 70
     0
 62
     3
  6
CONTINUOUS
370
    -3
390
1AB
  0
LAYER
  5
1CB
102
{ACAD_XDICTIONARY
360
383
102
}
330
19E
100
AcDbSymbolTableRecord
100
AcDbLayerTableRecord
  2
2寸法線
 70
     0
 62
     2
  6
CONTINUOUS
370
    -3
390
1AB
  0
LAYER
  5
218
330
19E
100
AcDbSymbolTableRecord
100
AcDbLayerTableRecord
  2
Defpoints
 70
     0
 62
     7
  6
CONTINUOUS
290
     0
370
    -3
390
1AB
  0
ENDTAB
  0
TABLE
  2
STYLE
  5
19F
330
0
100
AcDbSymbolTable
 70
     2
  0
STYLE
  5
1AD
330
19F
100
AcDbSymbolTableRecord
100
AcDbTextStyleTableRecord
  2
STANDARD
 70
     0
 40
0.0
 41
1.0
 50
0.0
 71
     0
 42
2.5
  3
txt
  4

  0
STYLE
  5
1C1
330
19F
100
AcDbSymbolTableRecord
100
AcDbTextStyleTableRecord
  2
KANJI
 70
     0
 40
0.0
 41
1.0
 50
0.0
 71
     0
 42
2.5
  3
simplex.shx
  4
extfont.shx
  0
ENDTAB
  0
TABLE
  2
VIEW
  5
1A2
330
0
100
AcDbSymbolTable
 70
     0
  0
ENDTAB
  0
TABLE
  2
UCS
  5
1A3
330
0
100
AcDbSymbolTable
 70
     0
  0
ENDTAB
  0
TABLE
  2
APPID
  5
1A5
330
0
100
AcDbSymbolTable
 70
     5
  0
APPID
  5
1AE
330
1A5
100
AcDbSymbolTableRecord
100
AcDbRegAppTableRecord
  2
ACAD
 70
     0
  0
APPID
  5
373
330
1A5
100
AcDbSymbolTableRecord
100
AcDbRegAppTableRecord
  2
ACAD_NAV_VCDISPLAY
 70
     0
  0
APPID
  5
3C9
330
1A5
100
AcDbSymbolTableRecord
100
AcDbRegAppTableRecord
  2
ACAD_MLEADERVER
 70
     0
  0
APPID
  5
43A
330
1A5
100
AcDbSymbolTableRecord
100
AcDbRegAppTableRecord
  2
ACAD_PSEXT
 70
     0
  0
APPID
  5
6CA
330
1A5
100
AcDbSymbolTableRecord
100
AcDbRegAppTableRecord
  2
ACAD_EXEMPT_FROM_CAD_STANDARDS
 70
     0
  0
ENDTAB
  0
TABLE
  2
DIMSTYLE
  5
1A6
330
0
100
AcDbSymbolTable
 70
     4
100
AcDbDimStyleTable
 71
     1
340
1C2
  0
DIMSTYLE
105
1C2
330
1A6
100
AcDbSymbolTableRecord
100
AcDbDimStyleTableRecord
  2
ISO-25
 70
     0
 41
2.5
 42
0.625
 43
3.75
 44
1.25
 73
     0
 74
     0
 77
     1
 78
     8
140
2.5
141
2.5
143
0.03937007874016
147
0.625
171
     3
172
     1
274
     3
279
     2
284
     8
285
     8
286
     8
340
1AD
  0
DIMSTYLE
105
1C3
330
1A6
100
AcDbSymbolTableRecord
100
AcDbDimStyleTableRecord
  2
STANDARD
 70
     0
274
     3
279
     2
284
     8
285
     8
286
     8
340
1AD
  0
DIMSTYLE
105
438
330
1A6
100
AcDbSymbolTableRecord
100
AcDbDimStyleTableRecord
  2
M
 70
     0
 40
0.0
 41
2.0
 42
1.0
 43
0.0
 44
1.0
 73
     0
 74
     0
 77
     1
 78
     8
140
2.5
141
0.0
147
0.5
172
     1
173
     1
284
     8
340
1C1
341
3D7
343
3D7
344
3D7
  0
DIMSTYLE
105
439
330
1A6
100
AcDbSymbolTableRecord
100
AcDbDimStyleTableRecord
  2
M$4
 70
     0
 40
0.0
 41
2.0
 42
1.0
 43
0.0
 44
1.0
 73
     0
 77
     1
 78
     8
140
2.5
141
0.0
147
0.5
173
     1
284
     8
340
1C1
341
3D7
343
3D7
344
3D7
  0
ENDTAB
  0
TABLE
  2
BLOCK_RECORD
  5
19D
330
0
100
AcDbSymbolTable
 70
    36
  0
BLOCK_RECORD
  5
1BA
102
{ACAD_XDICTIONARY
360
370
102
}
330
19D
100
AcDbSymbolTableRecord
100
AcDbBlockTableRecord
  2
*Model_Space
340
1BD
  0
BLOCK_RECORD
  5
1B6
330
19D
100
AcDbSymbolTableRecord
100
AcDbBlockTableRecord
  2
*Paper_Space
340
1B9
  0
BLOCK_RECORD
  5
3D3
330
19D
100
AcDbSymbolTableRecord
100
AcDbBlockTableRecord
  2
Y2
340
0
  0
BLOCK_RECORD
  5
3D7
330
19D
100
AcDbSymbolTableRecord
100
AcDbBlockTableRecord
  2
2
340
0
102
{BLKREFS
331
3E0
331
3E1
331
3EC
331
3ED
331
3F8
331
3F9
331
404
331
405
331
410
331
411
331
41C
331
41D
331
428
331
431
331
432
331
615
331
61B
331
61C
331
624
331
625
331
62D
331
62E
331
636
331
637
331
63F
331
640
331
648
331
649
331
651
331
652
102
}
  0
BLOCK_RECORD
  5
3DB
330
19D
100
AcDbSymbolTableRecord
100
AcDbBlockTableRecord
  2
*D2
340
0
  0
BLOCK_RECORD
  5
3E7
330
19D
100
AcDbSymbolTableRecord
100
AcDbBlockTableRecord
  2
*D3
340
0
  0
BLOCK_RECORD
  5
3F3
330
19D
100
AcDbSymbolTableRecord
100
AcDbBlockTableRecord
  2
*D4
340
0
  0
BLOCK_RECORD
  5
3FF
330
19D
100
AcDbSymbolTableRecord
100
AcDbBlockTableRecord
  2
*D5
340
0
  0
BLOCK_RECORD
  5
40B
330
19D
100
AcDbSymbolTableRecord
100
AcDbBlockTableRecord
  2
*D6
340
0
  0
BLOCK_RECORD
  5
417
330
19D
100
AcDbSymbolTableRecord
100
AcDbBlockTableRecord
  2
*D7
340
0
  0
BLOCK_RECORD
  5
423
330
19D
100
AcDbSymbolTableRecord
100
AcDbBlockTableRecord
  2
*D8
340
0
  0
BLOCK_RECORD
  5
42C
330
19D
100
AcDbSymbolTableRecord
100
AcDbBlockTableRecord
  2
*D9
340
0
  0
BLOCK_RECORD
  5
5B5
330
19D
100
AcDbSymbolTableRecord
100
AcDbBlockTableRecord
  2
*D10
340
0
  0
BLOCK_RECORD
  5
5BE
330
19D
100
AcDbSymbolTableRecord
100
AcDbBlockTableRecord
  2
*D11
340
0
  0
BLOCK_RECORD
  5
5CA
330
19D
100
AcDbSymbolTableRecord
100
AcDbBlockTableRecord
  2
*D12
340
0
  0
BLOCK_RECORD
  5
5D6
330
19D
100
AcDbSymbolTableRecord
100
AcDbBlockTableRecord
  2
*D13
340
0
  0
BLOCK_RECORD
  5
5E2
330
19D
100
AcDbSymbolTableRecord
100
AcDbBlockTableRecord
  2
*D14
340
0
  0
BLOCK_RECORD
  5
5EE
330
19D
100
AcDbSymbolTableRecord
100
AcDbBlockTableRecord
  2
*D15
340
0
  0
BLOCK_RECORD
  5
5FA
330
19D
100
AcDbSymbolTableRecord
100
AcDbBlockTableRecord
  2
*D16
340
0
  0
BLOCK_RECORD
  5
606
330
19D
100
AcDbSymbolTableRecord
100
AcDbBlockTableRecord
  2
*D17
340
0
  0
BLOCK_RECORD
  5
658
330
19D
100
AcDbSymbolTableRecord
100
AcDbBlockTableRecord
  2
*D18
340
0
  0
BLOCK_RECORD
  5
66E
330
19D
100
AcDbSymbolTableRecord
100
AcDbBlockTableRecord
  2
*D19
340
0
  0
BLOCK_RECORD
  5
6A4
330
19D
100
AcDbSymbolTableRecord
100
AcDbBlockTableRecord
  2
*D20
340
0
  0
BLOCK_RECORD
  5
6B1
330
19D
100
AcDbSymbolTableRecord
100
AcDbBlockTableRecord
  2
*D21
340
0
  0
BLOCK_RECORD
  5
6BE
330
19D
100
AcDbSymbolTableRecord
100
AcDbBlockTableRecord
  2
*D22
340
0
  0
BLOCK_RECORD
  5
74E
330
19D
100
AcDbSymbolTableRecord
100
AcDbBlockTableRecord
  2
*D23
340
0
  0
BLOCK_RECORD
  5
75A
330
19D
100
AcDbSymbolTableRecord
100
AcDbBlockTableRecord
  2
*D24
340
0
  0
BLOCK_RECORD
  5
766
330
19D
100
AcDbSymbolTableRecord
100
AcDbBlockTableRecord
  2
*D25
340
0
  0
BLOCK_RECORD
  5
772
330
19D
100
AcDbSymbolTableRecord
100
AcDbBlockTableRecord
  2
*D26
340
0
  0
BLOCK_RECORD
  5
77E
330
19D
100
AcDbSymbolTableRecord
100
AcDbBlockTableRecord
  2
*D27
340
0
  0
BLOCK_RECORD
  5
78A
330
19D
100
AcDbSymbolTableRecord
100
AcDbBlockTableRecord
  2
*D28
340
0
  0
BLOCK_RECORD
  5
836
330
19D
100
AcDbSymbolTableRecord
100
AcDbBlockTableRecord
  2
*D30
340
0
  0
BLOCK_RECORD
  5
842
330
19D
100
AcDbSymbolTableRecord
100
AcDbBlockTableRecord
  2
*D31
340
0
  0
BLOCK_RECORD
  5
84E
330
19D
100
AcDbSymbolTableRecord
100
AcDbBlockTableRecord
  2
*D32
340
0
  0
BLOCK_RECORD
  5
85A
330
19D
100
AcDbSymbolTableRecord
100
AcDbBlockTableRecord
  2
*D33
340
0
  0
BLOCK_RECORD
  5
866
330
19D
100
AcDbSymbolTableRecord
100
AcDbBlockTableRecord
  2
*D34
340
0
  0
BLOCK_RECORD
  5
872
330
19D
100
AcDbSymbolTableRecord
100
AcDbBlockTableRecord
  2
*D35
340
0
  0
ENDTAB
  0
ENDSEC
  0
SECTION
  2
BLOCKS
  0
BLOCK
  5
1BB
330
1BA
100
AcDbEntity
  8
0
100
AcDbBlockBegin
  2
*Model_Space
 70
     0
 10
0.0
 20
0.0
 30
0.0
  3
*Model_Space
  1

  0
ENDBLK
  5
1BC
330
1BA
100
AcDbEntity
  8
0
100
AcDbBlockEnd
  0
BLOCK
  5
1B7
330
1B6
100
AcDbEntity
 67
     1
  8
0
100
AcDbBlockBegin
  2
*Paper_Space
 70
     0
 10
0.0
 20
0.0
 30
0.0
  3
*Paper_Space
  1

  0
ENDBLK
  5
1B8
330
1B6
100
AcDbEntity
 67
     1
  8
0
100
AcDbBlockEnd
  0
BLOCK
  5
3D4
330
3D3
100
AcDbEntity
  8
0
 48
2.0
100
AcDbBlockBegin
  2
Y2
 70
     0
 10
0.0
 20
0.0
 30
0.0
  3
Y2
  1

  0
SOLID
  5
3D5
330
3D3
100
AcDbEntity
  8
0
  6
ByBlock
 62
     0
100
AcDbTrace
 10
-1.811110924292108
 20
0.485285709567151
 30
0.0
 11
-1.811110924292108
 21
-0.4852857095673784
 31
0.0
 12
-0.0000000000000568
 22
-0.0000000000000142
 32
0.0
 13
-0.0000000000000568
 23
-0.0000000000000142
 33
0.0
  0
ENDBLK
  5
3D6
330
3D3
100
AcDbEntity
  8
0
 48
2.0
100
AcDbBlockEnd
  0
BLOCK
  5
3D8
330
3D7
100
AcDbEntity
  8
0
 48
3.0
100
AcDbBlockBegin
  2
2
 70
     0
 10
0.0
 20
0.0
 30
0.0
  3
2
  1

  0
HATCH
  5
3D9
330
3D7
100
AcDbEntity
  8
0
  6
ByBlock
 62
     0
 48
3.0
100
AcDbHatch
 10
0.0
 20
0.0
 30
0.0
210
0.0
220
0.0
230
1.0
  2
SOLID
 70
     1
 71
     0
 91
        1
 92
        1
 93
        3
 72
     1
 10
-0.9999999999983517
 20
0.2679491924306774
 11
0.0
 21
0.0
 72
     1
 10
0.0
 20
0.0
 11
-0.9999999999983517
 21
-0.2679491924306765
 72
     1
 10
-0.9999999999983524
 20
-0.267949192430676
 11
-0.9999999999983524
 21
0.2679491924306774
 97
        0
 75
     0
 76
     1
 98
        1
 10
2.995745117231336
 20
-4.124946096263201
  0
ENDBLK
  5
3DA
330
3D7
100
AcDbEntity
  8
0
 48
3.0
100
AcDbBlockEnd
  0
BLOCK
  5
3DC
330
3DB
100
AcDbEntity
  8
0
 48
2.0
100
AcDbBlockBegin
  2
*D2
 70
     1
 10
0.0
 20
0.0
 30
0.0
  3
*D2
  1

  0
LINE
  5
3DD
330
3DB
100
AcDbEntity
  8
2寸法線
 62
     0
 48
2.0
370
    -2
100
AcDbLine
 10
390.1221546786191
 20
-74.28871377589643
 30
0.0
 11
390.1221546786191
 21
-47.30556022047472
 31
0.0
  0
LINE
  5
3DE
330
3DB
100
AcDbEntity
  8
2寸法線
 62
     0
 48
2.0
370
    -2
100
AcDbLine
 10
504.1221546786187
 20
-65.28871377589644
 30
0.0
 11
504.1221546786187
 21
-47.30556022047472
 31
0.0
  0
LINE
  5
3DF
330
3DB
100
AcDbEntity
  8
2寸法線
 62
     0
 48
2.0
370
    -2
100
AcDbLine
 10
393.1221546786192
 20
-48.30556022047471
 30
0.0
 11
501.1221546786186
 21
-48.30556022047471
 31
0.0
  0
INSERT
  5
3E0
330
3DB
100
AcDbEntity
  8
2寸法線
 62
     0
 48
2.0
370
    -2
100
AcDbBlockReference
  2
2
 10
390.1221546786191
 20
-48.30556022047471
 30
0.0
 41
3.0
 42
3.0
 43
3.0
 50
180.0
  0
INSERT
  5
3E1
330
3DB
100
AcDbEntity
  8
2寸法線
 62
     0
 48
2.0
370
    -2
100
AcDbBlockReference
  2
2
 10
504.1221546786187
 20
-48.30556022047471
 30
0.0
 41
3.0
 42
3.0
 43
3.0
  0
MTEXT
  5
3E2
330
3DB
100
AcDbEntity
  8
2寸法線
 62
     0
 48
2.0
100
AcDbMText
 10
447.1221546786186
 20
-45.80556022047471
 30
0.0
 40
4.0
 41
0.0
 71
     5
 72
     1
  1
\A1;C
  7
KANJI
 73
     1
 44
1.0
1001
ACAD
1000
MTEXTBEGIN
1070
    73
1070
     1
1070
    44
1040
1.0
1070
    74
1070
     0
1000
MTEXTEND
  0
POINT
  5
3E3
330
3DB
100
AcDbEntity
  8
Defpoints
 62
     0
 48
2.0
100
AcDbPoint
 10
390.1221546786191
 20
-75.28871377589644
 30
0.0
  0
POINT
  5
3E4
330
3DB
100
AcDbEntity
  8
Defpoints
 62
     0
 48
2.0
100
AcDbPoint
 10
504.1221546786187
 20
-66.28871377589644
 30
0.0
  0
POINT
  5
3E5
330
3DB
100
AcDbEntity
  8
Defpoints
 62
     0
 48
2.0
100
AcDbPoint
 10
504.1221546786187
 20
-48.30556022047471
 30
0.0
  0
ENDBLK
  5
3E6
330
3DB
100
AcDbEntity
  8
0
 48
2.0
100
AcDbBlockEnd
  0
BLOCK
  5
3E8
330
3E7
100
AcDbEntity
  8
0
 48
2.0
100
AcDbBlockBegin
  2
*D3
 70
     1
 10
0.0
 20
0.0
 30
0.0
  3
*D3
  1

  0
LINE
  5
3E9
330
3E7
100
AcDbEntity
  8
2寸法線
 62
     0
 48
2.0
370
    -2
100
AcDbLine
 10
399.1221546786192
 20
-65.28871377589644
 30
0.0
 11
374.5604462424976
 21
-65.28871377589644
 31
0.0
  0
LINE
  5
3EA
330
3E7
100
AcDbEntity
  8
2寸法線
 62
     0
 48
2.0
370
    -2
100
AcDbLine
 10
390.1221546786187
 20
-179.288713775896
 30
0.0
 11
374.5604462424976
 21
-179.288713775896
 31
0.0
  0
LINE
  5
3EB
330
3E7
100
AcDbEntity
  8
2寸法線
 62
     0
 48
2.0
370
    -2
100
AcDbLine
 10
375.5604462424976
 20
-68.28871377589644
 30
0.0
 11
375.5604462424976
 21
-176.288713775896
 31
0.0
  0
INSERT
  5
3EC
330
3E7
100
AcDbEntity
  8
2寸法線
 62
     0
 48
2.0
370
    -2
100
AcDbBlockReference
  2
2
 10
375.5604462424976
 20
-65.28871377589644
 30
0.0
 41
3.0
 42
3.0
 43
3.0
 50
90.0
  0
INSERT
  5
3ED
330
3E7
100
AcDbEntity
  8
2寸法線
 62
     0
 48
2.0
370
    -2
100
AcDbBlockReference
  2
2
 10
375.5604462424976
 20
-179.288713775896
 30
0.0
 41
3.0
 42
3.0
 43
3.0
 50
270.0
  0
MTEXT
  5
3EE
330
3E7
100
AcDbEntity
  8
2寸法線
 62
     0
 48
2.0
100
AcDbMText
 10
373.0604462424976
 20
-121.02400198397
 30
0.0
 40
4.0
 41
0.0
 71
     5
 72
     1
  1
\A1;C
  7
KANJI
 11
0.0000000000000001
 21
1.0
 31
0.0
 73
     1
 44
1.0
1001
ACAD
1000
MTEXTBEGIN
1070
    73
1070
     1
1070
    44
1040
1.0
1070
    74
1070
     0
1000
MTEXTEND
  0
POINT
  5
3EF
330
3E7
100
AcDbEntity
  8
Defpoints
 62
     0
 48
2.0
100
AcDbPoint
 10
400.1221546786191
 20
-65.28871377589644
 30
0.0
  0
POINT
  5
3F0
330
3E7
100
AcDbEntity
  8
Defpoints
 62
     0
 48
2.0
100
AcDbPoint
 10
391.1221546786187
 20
-179.288713775896
 30
0.0
  0
POINT
  5
3F1
330
3E7
100
AcDbEntity
  8
Defpoints
 62
     0
 48
2.0
100
AcDbPoint
 10
375.5604462424976
 20
-179.288713775896
 30
0.0
  0
ENDBLK
  5
3F2
330
3E7
100
AcDbEntity
  8
0
 48
2.0
100
AcDbBlockEnd
  0
BLOCK
  5
3F4
330
3F3
100
AcDbEntity
  8
0
 48
2.0
100
AcDbBlockBegin
  2
*D4
 70
     1
 10
0.0
 20
0.0
 30
0.0
  3
*D4
  1

  0
LINE
  5
3F5
330
3F3
100
AcDbEntity
  8
2寸法線
 62
     0
 48
2.0
370
    -2
100
AcDbLine
 10
589.7585551345651
 20
-64.28871377589643
 30
0.0
 11
589.7585551345651
 21
-47.29235758385653
 31
0.0
  0
LINE
  5
3F6
330
3F3
100
AcDbEntity
  8
2寸法線
 62
     0
 48
2.0
370
    -2
100
AcDbLine
 10
521.7585551345649
 20
-76.35978158776175
 30
0.0
 11
521.7585551345649
 21
-47.29235758385653
 31
0.0
  0
LINE
  5
3F7
330
3F3
100
AcDbEntity
  8
2寸法線
 62
     0
 48
2.0
370
    -2
100
AcDbLine
 10
586.758555134565
 20
-48.29235758385653
 30
0.0
 11
524.7585551345649
 21
-48.29235758385653
 31
0.0
  0
INSERT
  5
3F8
330
3F3
100
AcDbEntity
  8
2寸法線
 62
     0
 48
2.0
370
    -2
100
AcDbBlockReference
  2
2
 10
589.7585551345651
 20
-48.29235758385653
 30
0.0
 41
3.0
 42
3.0
 43
3.0
  0
INSERT
  5
3F9
330
3F3
100
AcDbEntity
  8
2寸法線
 62
     0
 48
2.0
370
    -2
100
AcDbBlockReference
  2
2
 10
521.7585551345649
 20
-48.29235758385653
 30
0.0
 41
3.0
 42
3.0
 43
3.0
 50
180.0
  0
MTEXT
  5
3FA
330
3F3
100
AcDbEntity
  8
2寸法線
 62
     0
 48
2.0
100
AcDbMText
 10
555.7585551345651
 20
-45.79235758385652
 30
0.0
 40
4.0
 41
0.0
 71
     5
 72
     1
  1
\A1;B
  7
KANJI
 73
     1
 44
1.0
1001
ACAD
1000
MTEXTBEGIN
1070
    73
1070
     1
1070
    44
1040
1.0
1070
    74
1070
     0
1000
MTEXTEND
  0
POINT
  5
3FB
330
3F3
100
AcDbEntity
  8
Defpoints
 62
     0
 48
2.0
100
AcDbPoint
 10
589.7585551345651
 20
-65.28871377589644
 30
0.0
  0
POINT
  5
3FC
330
3F3
100
AcDbEntity
  8
Defpoints
 62
     0
 48
2.0
100
AcDbPoint
 10
521.7585551345649
 20
-77.35978158776173
 30
0.0
  0
POINT
  5
3FD
330
3F3
100
AcDbEntity
  8
Defpoints
 62
     0
 48
2.0
100
AcDbPoint
 10
521.7585551345649
 20
-48.29235758385653
 30
0.0
  0
ENDBLK
  5
3FE
330
3F3
100
AcDbEntity
  8
0
 48
2.0
100
AcDbBlockEnd
  0
BLOCK
  5
400
330
3FF
100
AcDbEntity
  8
0
 48
2.0
100
AcDbBlockBegin
  2
*D5
 70
     1
 10
0.0
 20
0.0
 30
0.0
  3
*D5
  1

  0
LINE
  5
401
330
3FF
100
AcDbEntity
  8
2寸法線
 62
     0
 48
2.0
370
    -2
100
AcDbLine
 10
613.3641035474534
 20
-65.28871377589644
 30
0.0
 11
613.3641035474534
 21
-47.39340972635978
 31
0.0
  0
LINE
  5
402
330
3FF
100
AcDbEntity
  8
2寸法線
 62
     0
 48
2.0
370
    -2
100
AcDbLine
 10
687.3641035474537
 20
-104.2887137758964
 30
0.0
 11
687.3641035474537
 21
-47.39340972635978
 31
0.0
  0
LINE
  5
403
330
3FF
100
AcDbEntity
  8
2寸法線
 62
     0
 48
2.0
370
    -2
100
AcDbLine
 10
616.3641035474532
 20
-48.39340972635977
 30
0.0
 11
684.3641035474537
 21
-48.39340972635977
 31
0.0
  0
INSERT
  5
404
330
3FF
100
AcDbEntity
  8
2寸法線
 62
     0
 48
2.0
370
    -2
100
AcDbBlockReference
  2
2
 10
613.3641035474534
 20
-48.39340972635977
 30
0.0
 41
3.0
 42
3.0
 43
3.0
 50
180.0
  0
INSERT
  5
405
330
3FF
100
AcDbEntity
  8
2寸法線
 62
     0
 48
2.0
370
    -2
100
AcDbBlockReference
  2
2
 10
687.3641035474537
 20
-48.39340972635977
 30
0.0
 41
3.0
 42
3.0
 43
3.0
  0
MTEXT
  5
406
330
3FF
100
AcDbEntity
  8
2寸法線
 62
     0
 48
2.0
100
AcDbMText
 10
650.3641035474534
 20
-45.89340972635977
 30
0.0
 40
4.0
 41
0.0
 71
     5
 72
     1
  1
\A1;D
  7
KANJI
 73
     1
 44
1.0
1001
ACAD
1000
MTEXTBEGIN
1070
    73
1070
     1
1070
    44
1040
1.0
1070
    74
1070
     0
1000
MTEXTEND
  0
POINT
  5
407
330
3FF
100
AcDbEntity
  8
Defpoints
 62
     0
 48
2.0
100
AcDbPoint
 10
613.3641035474534
 20
-66.28871377589644
 30
0.0
  0
POINT
  5
408
330
3FF
100
AcDbEntity
  8
Defpoints
 62
     0
 48
2.0
100
AcDbPoint
 10
687.3641035474537
 20
-105.2887137758964
 30
0.0
  0
POINT
  5
409
330
3FF
100
AcDbEntity
  8
Defpoints
 62
     0
 48
2.0
100
AcDbPoint
 10
687.3641035474537
 20
-48.39340972635977
 30
0.0
  0
ENDBLK
  5
40A
330
3FF
100
AcDbEntity
  8
0
 48
2.0
100
AcDbBlockEnd
  0
BLOCK
  5
40C
330
40B
100
AcDbEntity
  8
0
 48
2.0
100
AcDbBlockBegin
  2
*D6
 70
     1
 10
0.0
 20
0.0
 30
0.0
  3
*D6
  1

  0
LINE
  5
40D
330
40B
100
AcDbEntity
  8
2寸法線
 62
     0
 48
2.0
370
    -2
100
AcDbLine
 10
725.3641035474532
 20
-179.288713775896
 30
0.0
 11
705.3700653936402
 21
-179.288713775896
 31
0.0
  0
LINE
  5
40E
330
40B
100
AcDbEntity
  8
2寸法線
 62
     0
 48
2.0
370
    -2
100
AcDbLine
 10
688.3641035474537
 20
-105.2887137758964
 30
0.0
 11
707.3700653936403
 21
-105.2887137758964
 31
0.0
  0
LINE
  5
40F
330
40B
100
AcDbEntity
  8
2寸法線
 62
     0
 48
2.0
370
    -2
100
AcDbLine
 10
706.3700653936402
 20
-176.288713775896
 30
0.0
 11
706.3700653936402
 21
-108.2887137758964
 31
0.0
  0
INSERT
  5
410
330
40B
100
AcDbEntity
  8
2寸法線
 62
     0
 48
2.0
370
    -2
100
AcDbBlockReference
  2
2
 10
706.3700653936402
 20
-179.288713775896
 30
0.0
 41
3.0
 42
3.0
 43
3.0
 50
270.0
  0
INSERT
  5
411
330
40B
100
AcDbEntity
  8
2寸法線
 62
     0
 48
2.0
370
    -2
100
AcDbBlockReference
  2
2
 10
706.3700653936402
 20
-105.2887137758964
 30
0.0
 41
3.0
 42
3.0
 43
3.0
 50
90.0
  0
MTEXT
  5
412
330
40B
100
AcDbEntity
  8
2寸法線
 62
     0
 48
2.0
100
AcDbMText
 10
703.8700653936403
 20
-142.2887137758961
 30
0.0
 40
4.0
 41
0.0
 71
     5
 72
     1
  1
\A1;D
  7
KANJI
 11
0.0000000000000001
 21
1.0
 31
0.0
 73
     1
 44
1.0
1001
ACAD
1000
MTEXTBEGIN
1070
    73
1070
     1
1070
    44
1040
1.0
1070
    74
1070
     0
1000
MTEXTEND
  0
POINT
  5
413
330
40B
100
AcDbEntity
  8
Defpoints
 62
     0
 48
2.0
100
AcDbPoint
 10
726.3641035474533
 20
-179.288713775896
 30
0.0
  0
POINT
  5
414
330
40B
100
AcDbEntity
  8
Defpoints
 62
     0
 48
2.0
100
AcDbPoint
 10
687.3641035474537
 20
-105.2887137758964
 30
0.0
  0
POINT
  5
415
330
40B
100
AcDbEntity
  8
Defpoints
 62
     0
 48
2.0
100
AcDbPoint
 10
706.3700653936402
 20
-105.2887137758964
 30
0.0
  0
ENDBLK
  5
416
330
40B
100
AcDbEntity
  8
0
 48
2.0
100
AcDbBlockEnd
  0
BLOCK
  5
418
330
417
100
AcDbEntity
  8
0
 48
2.0
100
AcDbBlockBegin
  2
*D7
 70
     1
 10
0.0
 20
0.0
 30
0.0
  3
*D7
  1

  0
LINE
  5
419
330
417
100
AcDbEntity
  8
2寸法線
 62
     0
 48
2.0
370
    -2
100
AcDbLine
 10
613.3641035474534
 20
-145.288713775896
 30
0.0
 11
613.3641035474534
 21
-162.5767050461083
 31
0.0
  0
LINE
  5
41A
330
417
100
AcDbEntity
  8
2寸法線
 62
     0
 48
2.0
370
    -2
100
AcDbLine
 10
628.3641035474532
 20
-144.2887137758964
 30
0.0
 11
628.3641035474532
 21
-162.5767050461083
 31
0.0
  0
LINE
  5
41B
330
417
100
AcDbEntity
  8
2寸法線
 62
     0
 48
2.0
370
    -2
100
AcDbLine
 10
616.3641035474532
 20
-161.5767050461083
 30
0.0
 11
625.3641035474534
 21
-161.5767050461083
 31
0.0
  0
INSERT
  5
41C
330
417
100
AcDbEntity
  8
2寸法線
 62
     0
 48
2.0
370
    -2
100
AcDbBlockReference
  2
2
 10
613.3641035474534
 20
-161.5767050461083
 30
0.0
 41
3.0
 42
3.0
 43
3.0
 50
180.0
  0
INSERT
  5
41D
330
417
100
AcDbEntity
  8
2寸法線
 62
     0
 48
2.0
370
    -2
100
AcDbBlockReference
  2
2
 10
628.3641035474532
 20
-161.5767050461083
 30
0.0
 41
3.0
 42
3.0
 43
3.0
  0
MTEXT
  5
41E
330
417
100
AcDbEntity
  8
2寸法線
 62
     0
 48
2.0
100
AcDbMText
 10
620.8641035474534
 20
-158.5767050461083
 30
0.0
 40
4.0
 41
0.0
 71
     5
 72
     1
  1
\A1;15
  7
KANJI
 73
     1
 44
1.0
1001
ACAD
1000
MTEXTBEGIN
1070
    73
1070
     1
1070
    44
1040
1.0
1070
    74
1070
     0
1000
MTEXTEND
  0
POINT
  5
41F
330
417
100
AcDbEntity
  8
Defpoints
 62
     0
 48
2.0
100
AcDbPoint
 10
613.3641035474534
 20
-144.288713775896
 30
0.0
  0
POINT
  5
420
330
417
100
AcDbEntity
  8
Defpoints
 62
     0
 48
2.0
100
AcDbPoint
 10
628.3641035474532
 20
-143.2887137758964
 30
0.0
  0
POINT
  5
421
330
417
100
AcDbEntity
  8
Defpoints
 62
     0
 48
2.0
100
AcDbPoint
 10
628.3641035474532
 20
-161.5767050461083
 30
0.0
  0
ENDBLK
  5
422
330
417
100
AcDbEntity
  8
0
 48
2.0
100
AcDbBlockEnd
  0
BLOCK
  5
424
330
423
100
AcDbEntity
  8
0
 48
2.0
100
AcDbBlockBegin
  2
*D8
 70
     1
 10
0.0
 20
0.0
 30
0.0
  3
*D8
  1

  0
LINE
  5
425
330
423
100
AcDbEntity
  8
2寸法線
 62
     0
 48
2.0
370
    -2
100
AcDbLine
 10
664.2381845105396
 20
-119.4996393071881
 30
0.0
 11
676.7381845105425
 21
-119.4996393071882
 31
0.0
  0
LINE
  5
426
330
423
100
AcDbEntity
  8
2寸法線
 62
     0
 48
2.0
370
    -2
100
AcDbLine
 10
676.7381845105425
 20
-119.4996393071882
 30
0.0
 11
684.9687624701306
 21
-108.4922026744698
 31
0.0
  0
MTEXT
  5
427
330
423
100
AcDbEntity
  8
2寸法線
 62
     0
 48
2.0
100
AcDbMText
 10
670.2381845105398
 20
-116.9996393071881
 30
0.0
 40
4.0
 41
0.0
 71
     5
 72
     1
  1
\A1;%%c4.2
  7
KANJI
 73
     1
 44
1.0
1001
ACAD
1000
MTEXTBEGIN
1070
    73
1070
     1
1070
    44
1040
1.0
1070
    74
1070
     0
1000
MTEXTEND
  0
INSERT
  5
428
330
423
100
AcDbEntity
  8
2寸法線
 62
     0
 48
2.0
370
    -2
100
AcDbBlockReference
  2
2
 10
686.1664330087923
 20
-106.8904582251829
 30
0.0
 41
2.0
 42
2.0
 43
2.0
 50
53.2134745793795
  0
POINT
  5
429
330
423
100
AcDbEntity
  8
Defpoints
 62
     0
 48
2.0
100
AcDbPoint
 10
686.1664330087923
 20
-106.8904582251829
 30
0.0
  0
POINT
  5
42A
330
423
100
AcDbEntity
  8
Defpoints
 62
     0
 48
2.0
100
AcDbPoint
 10
687.3641035474557
 20
-105.2887137758936
 30
0.0
  0
ENDBLK
  5
42B
330
423
100
AcDbEntity
  8
0
 48
2.0
100
AcDbBlockEnd
  0
BLOCK
  5
42D
330
42C
100
AcDbEntity
  8
0
 48
2.0
100
AcDbBlockBegin
  2
*D9
 70
     1
 10
0.0
 20
0.0
 30
0.0
  3
*D9
  1

  0
LINE
  5
42E
330
42C
100
AcDbEntity
  8
2寸法線
 62
     0
 48
2.0
370
    -2
100
AcDbLine
 10
590.758555134565
 20
-65.28871377589644
 30
0.0
 11
602.7825497982713
 21
-65.28871377589644
 31
0.0
  0
LINE
  5
42F
330
42C
100
AcDbEntity
  8
2寸法線
 62
     0
 48
2.0
370
    -2
100
AcDbLine
 10
590.758555134565
 20
-145.2887137758964
 30
0.0
 11
602.7825497982713
 21
-145.2887137758964
 31
0.0
  0
LINE
  5
430
330
42C
100
AcDbEntity
  8
2寸法線
 62
     0
 48
2.0
370
    -2
100
AcDbLine
 10
601.7825497982713
 20
-68.28871377589644
 30
0.0
 11
601.7825497982713
 21
-142.2887137758964
 31
0.0
  0
INSERT
  5
431
330
42C
100
AcDbEntity
  8
2寸法線
 62
     0
 48
2.0
370
    -2
100
AcDbBlockReference
  2
2
 10
601.7825497982713
 20
-65.28871377589644
 30
0.0
 41
3.0
 42
3.0
 43
3.0
 50
90.0
  0
INSERT
  5
432
330
42C
100
AcDbEntity
  8
2寸法線
 62
     0
 48
2.0
370
    -2
100
AcDbBlockReference
  2
2
 10
601.7825497982713
 20
-145.2887137758964
 30
0.0
 41
3.0
 42
3.0
 43
3.0
 50
270.0
  0
MTEXT
  5
433
330
42C
100
AcDbEntity
  8
2寸法線
 62
     0
 48
2.0
100
AcDbMText
 10
599.2825497982713
 20
-105.2887137758963
 30
0.0
 40
4.0
 41
0.0
 71
     5
 72
     1
  1
\A1;A
  7
KANJI
 11
0.0000000000000001
 21
1.0
 31
0.0
 73
     1
 44
1.0
1001
ACAD
1000
MTEXTBEGIN
1070
    73
1070
     1
1070
    44
1040
1.0
1070
    74
1070
     0
1000
MTEXTEND
  0
POINT
  5
434
330
42C
100
AcDbEntity
  8
Defpoints
 62
     0
 48
2.0
100
AcDbPoint
 10
589.7585551345651
 20
-65.28871377589644
 30
0.0
  0
POINT
  5
435
330
42C
100
AcDbEntity
  8
Defpoints
 62
     0
 48
2.0
100
AcDbPoint
 10
589.7585551345651
 20
-145.2887137758964
 30
0.0
  0
POINT
  5
436
330
42C
100
AcDbEntity
  8
Defpoints
 62
     0
 48
2.0
100
AcDbPoint
 10
601.7825497982713
 20
-145.2887137758964
 30
0.0
  0
ENDBLK
  5
437
330
42C
100
AcDbEntity
  8
0
 48
2.0
100
AcDbBlockEnd
  0
BLOCK
  5
5B6
330
5B5
100
AcDbEntity
  8
0
100
AcDbBlockBegin
  2
*D10
 70
     1
 10
0.0
 20
0.0
 30
0.0
  3
*D10
  1

  0
LINE
  5
612
330
5B5
100
AcDbEntity
  8
2寸法線
 62
     0
 48
2.0
370
    -2
100
AcDbLine
 10
863.3676149748511
 20
363.1394040073399
 30
0.0
 11
875.8676149748556
 21
363.13940400734
 31
0.0
  0
LINE
  5
613
330
5B5
100
AcDbEntity
  8
2寸法線
 62
     0
 48
2.0
370
    -2
100
AcDbLine
 10
875.8676149748556
 20
363.13940400734
 30
0.0
 11
884.0981929344422
 21
374.1468406400581
 31
0.0
  0
MTEXT
  5
614
330
5B5
100
AcDbEntity
  8
2寸法線
 62
     0
 48
2.0
100
AcDbMText
 10
869.367614974851
 20
365.6394040073398
 30
0.0
 40
4.0
 41
0.0
 71
     5
 72
     1
  1
\A1;%%c4.2
  7
KANJI
 73
     1
 44
1.0
1001
ACAD
1000
MTEXTBEGIN
1070
    73
1070
     1
1070
    44
1040
1.0
1070
    74
1070
     0
1000
MTEXTEND
  0
INSERT
  5
615
330
5B5
100
AcDbEntity
  8
2寸法線
 62
     0
 48
2.0
370
    -2
100
AcDbBlockReference
  2
2
 10
885.295863473104
 20
375.7485850893452
 30
0.0
 41
2.0
 42
2.0
 43
2.0
 50
53.213474579383
  0
POINT
  5
616
330
5B5
100
AcDbEntity
  8
Defpoints
 62
     0
 48
2.0
100
AcDbPoint
 10
885.295863473104
 20
375.7485850893452
 30
0.0
  0
POINT
  5
617
330
5B5
100
AcDbEntity
  8
Defpoints
 62
     0
 48
2.0
100
AcDbPoint
 10
886.4935340117675
 20
377.3503295386344
 30
0.0
  0
ENDBLK
  5
5B7
330
5B5
100
AcDbEntity
  8
0
100
AcDbBlockEnd
  0
BLOCK
  5
5BF
330
5BE
100
AcDbEntity
  8
0
100
AcDbBlockBegin
  2
*D11
 70
     1
 10
0.0
 20
0.0
 30
0.0
  3
*D11
  1

  0
LINE
  5
618
330
5BE
100
AcDbEntity
  8
2寸法線
 62
     0
 48
2.0
370
    -2
100
AcDbLine
 10
789.8879855988771
 20
417.350329538632
 30
0.0
 11
801.9119802625834
 21
417.350329538632
 31
0.0
  0
LINE
  5
619
330
5BE
100
AcDbEntity
  8
2寸法線
 62
     0
 48
2.0
370
    -2
100
AcDbLine
 10
789.8879855988771
 20
337.3503295386318
 30
0.0
 11
801.9119802625834
 21
337.3503295386318
 31
0.0
  0
LINE
  5
61A
330
5BE
100
AcDbEntity
  8
2寸法線
 62
     0
 48
2.0
370
    -2
100
AcDbLine
 10
800.9119802625836
 20
414.3503295386318
 30
0.0
 11
800.9119802625836
 21
340.3503295386319
 31
0.0
  0
INSERT
  5
61B
330
5BE
100
AcDbEntity
  8
2寸法線
 62
     0
 48
2.0
370
    -2
100
AcDbBlockReference
  2
2
 10
800.9119802625836
 20
417.350329538632
 30
0.0
 41
3.0
 42
3.0
 43
3.0
 50
90.0
  0
INSERT
  5
61C
330
5BE
100
AcDbEntity
  8
2寸法線
 62
     0
 48
2.0
370
    -2
100
AcDbBlockReference
  2
2
 10
800.9119802625836
 20
337.3503295386318
 30
0.0
 41
3.0
 42
3.0
 43
3.0
 50
270.0
  0
MTEXT
  5
61D
330
5BE
100
AcDbEntity
  8
2寸法線
 62
     0
 48
2.0
100
AcDbMText
 10
798.4119802625833
 20
377.3503295386316
 30
0.0
 40
4.0
 41
0.0
 71
     5
 72
     1
  1
\A1;A
  7
KANJI
 11
0.0000000000000001
 21
1.0
 31
0.0
 73
     1
 44
1.0
1001
ACAD
1000
MTEXTBEGIN
1070
    73
1070
     1
1070
    44
1040
1.0
1070
    74
1070
     0
1000
MTEXTEND
  0
POINT
  5
61E
330
5BE
100
AcDbEntity
  8
Defpoints
 62
     0
 48
2.0
100
AcDbPoint
 10
788.8879855988769
 20
417.350329538632
 30
0.0
  0
POINT
  5
61F
330
5BE
100
AcDbEntity
  8
Defpoints
 62
     0
 48
2.0
100
AcDbPoint
 10
788.8879855988769
 20
337.3503295386318
 30
0.0
  0
POINT
  5
620
330
5BE
100
AcDbEntity
  8
Defpoints
 62
     0
 48
2.0
100
AcDbPoint
 10
800.9119802625836
 20
337.3503295386318
 30
0.0
  0
ENDBLK
  5
5C0
330
5BE
100
AcDbEntity
  8
0
100
AcDbBlockEnd
  0
BLOCK
  5
5CB
330
5CA
100
AcDbEntity
  8
0
100
AcDbBlockBegin
  2
*D12
 70
     1
 10
0.0
 20
0.0
 30
0.0
  3
*D12
  1

  0
LINE
  5
621
330
5CA
100
AcDbEntity
  8
2寸法線
 62
     0
 48
2.0
370
    -2
100
AcDbLine
 10
589.2515851429307
 20
408.3503295386316
 30
0.0
 11
589.2515851429307
 21
435.3334830940533
 31
0.0
  0
LINE
  5
622
330
5CA
100
AcDbEntity
  8
2寸法線
 62
     0
 48
2.0
370
    -2
100
AcDbLine
 10
703.2515851429302
 20
417.3503295386316
 30
0.0
 11
703.2515851429302
 21
435.3334830940533
 31
0.0
  0
LINE
  5
623
330
5CA
100
AcDbEntity
  8
2寸法線
 62
     0
 48
2.0
370
    -2
100
AcDbLine
 10
592.2515851429307
 20
434.3334830940533
 30
0.0
 11
700.2515851429302
 21
434.3334830940533
 31
0.0
  0
INSERT
  5
624
330
5CA
100
AcDbEntity
  8
2寸法線
 62
     0
 48
2.0
370
    -2
100
AcDbBlockReference
  2
2
 10
589.2515851429307
 20
434.3334830940533
 30
0.0
 41
3.0
 42
3.0
 43
3.0
 50
180.0
  0
INSERT
  5
625
330
5CA
100
AcDbEntity
  8
2寸法線
 62
     0
 48
2.0
370
    -2
100
AcDbBlockReference
  2
2
 10
703.2515851429302
 20
434.3334830940533
 30
0.0
 41
3.0
 42
3.0
 43
3.0
  0
MTEXT
  5
626
330
5CA
100
AcDbEntity
  8
2寸法線
 62
     0
 48
2.0
100
AcDbMText
 10
646.2515851429302
 20
436.8334830940533
 30
0.0
 40
4.0
 41
0.0
 71
     5
 72
     1
  1
\A1;C
  7
KANJI
 73
     1
 44
1.0
1001
ACAD
1000
MTEXTBEGIN
1070
    73
1070
     1
1070
    44
1040
1.0
1070
    74
1070
     0
1000
MTEXTEND
  0
POINT
  5
627
330
5CA
100
AcDbEntity
  8
Defpoints
 62
     0
 48
2.0
100
AcDbPoint
 10
589.2515851429307
 20
407.3503295386316
 30
0.0
  0
POINT
  5
628
330
5CA
100
AcDbEntity
  8
Defpoints
 62
     0
 48
2.0
100
AcDbPoint
 10
703.2515851429302
 20
416.3503295386316
 30
0.0
  0
POINT
  5
629
330
5CA
100
AcDbEntity
  8
Defpoints
 62
     0
 48
2.0
100
AcDbPoint
 10
703.2515851429302
 20
434.3334830940533
 30
0.0
  0
ENDBLK
  5
5CC
330
5CA
100
AcDbEntity
  8
0
100
AcDbBlockEnd
  0
BLOCK
  5
5D7
330
5D6
100
AcDbEntity
  8
0
100
AcDbBlockBegin
  2
*D13
 70
     1
 10
0.0
 20
0.0
 30
0.0
  3
*D13
  1

  0
LINE
  5
62A
330
5D6
100
AcDbEntity
  8
2寸法線
 62
     0
 48
2.0
370
    -2
100
AcDbLine
 10
598.2515851429309
 20
417.350329538632
 30
0.0
 11
573.6898767068091
 21
417.350329538632
 31
0.0
  0
LINE
  5
62B
330
5D6
100
AcDbEntity
  8
2寸法線
 62
     0
 48
2.0
370
    -2
100
AcDbLine
 10
589.2515851429305
 20
303.3503295386323
 30
0.0
 11
573.6898767068091
 21
303.3503295386323
 31
0.0
  0
LINE
  5
62C
330
5D6
100
AcDbEntity
  8
2寸法線
 62
     0
 48
2.0
370
    -2
100
AcDbLine
 10
574.6898767068091
 20
414.3503295386318
 30
0.0
 11
574.6898767068091
 21
306.3503295386323
 31
0.0
  0
INSERT
  5
62D
330
5D6
100
AcDbEntity
  8
2寸法線
 62
     0
 48
2.0
370
    -2
100
AcDbBlockReference
  2
2
 10
574.6898767068091
 20
417.350329538632
 30
0.0
 41
3.0
 42
3.0
 43
3.0
 50
90.0
  0
INSERT
  5
62E
330
5D6
100
AcDbEntity
  8
2寸法線
 62
     0
 48
2.0
370
    -2
100
AcDbBlockReference
  2
2
 10
574.6898767068091
 20
303.3503295386323
 30
0.0
 41
3.0
 42
3.0
 43
3.0
 50
270.0
  0
MTEXT
  5
62F
330
5D6
100
AcDbEntity
  8
2寸法線
 62
     0
 48
2.0
100
AcDbMText
 10
572.1898767068092
 20
361.6150413305581
 30
0.0
 40
4.0
 41
0.0
 71
     5
 72
     1
  1
\A1;C
  7
KANJI
 11
0.0000000000000001
 21
1.0
 31
0.0
 73
     1
 44
1.0
1001
ACAD
1000
MTEXTBEGIN
1070
    73
1070
     1
1070
    44
1040
1.0
1070
    74
1070
     0
1000
MTEXTEND
  0
POINT
  5
630
330
5D6
100
AcDbEntity
  8
Defpoints
 62
     0
 48
2.0
100
AcDbPoint
 10
599.2515851429309
 20
417.350329538632
 30
0.0
  0
POINT
  5
631
330
5D6
100
AcDbEntity
  8
Defpoints
 62
     0
 48
2.0
100
AcDbPoint
 10
590.2515851429305
 20
303.3503295386323
 30
0.0
  0
POINT
  5
632
330
5D6
100
AcDbEntity
  8
Defpoints
 62
     0
 48
2.0
100
AcDbPoint
 10
574.6898767068091
 20
303.3503295386323
 30
0.0
  0
ENDBLK
  5
5D8
330
5D6
100
AcDbEntity
  8
0
100
AcDbBlockEnd
  0
BLOCK
  5
5E3
330
5E2
100
AcDbEntity
  8
0
100
AcDbBlockBegin
  2
*D14
 70
     1
 10
0.0
 20
0.0
 30
0.0
  3
*D14
  1

  0
LINE
  5
633
330
5E2
100
AcDbEntity
  8
2寸法線
 62
     0
 48
2.0
370
    -2
100
AcDbLine
 10
788.8879855988766
 20
418.3503295386317
 30
0.0
 11
788.8879855988766
 21
435.3466857306716
 31
0.0
  0
LINE
  5
634
330
5E2
100
AcDbEntity
  8
2寸法線
 62
     0
 48
2.0
370
    -2
100
AcDbLine
 10
720.8879855988766
 20
406.2792617267663
 30
0.0
 11
720.8879855988766
 21
435.3466857306716
 31
0.0
  0
LINE
  5
635
330
5E2
100
AcDbEntity
  8
2寸法線
 62
     0
 48
2.0
370
    -2
100
AcDbLine
 10
785.8879855988766
 20
434.3466857306715
 30
0.0
 11
723.8879855988766
 21
434.3466857306715
 31
0.0
  0
INSERT
  5
636
330
5E2
100
AcDbEntity
  8
2寸法線
 62
     0
 48
2.0
370
    -2
100
AcDbBlockReference
  2
2
 10
788.8879855988766
 20
434.3466857306715
 30
0.0
 41
3.0
 42
3.0
 43
3.0
  0
INSERT
  5
637
330
5E2
100
AcDbEntity
  8
2寸法線
 62
     0
 48
2.0
370
    -2
100
AcDbBlockReference
  2
2
 10
720.8879855988766
 20
434.3466857306715
 30
0.0
 41
3.0
 42
3.0
 43
3.0
 50
180.0
  0
MTEXT
  5
638
330
5E2
100
AcDbEntity
  8
2寸法線
 62
     0
 48
2.0
100
AcDbMText
 10
754.8879855988766
 20
436.8466857306716
 30
0.0
 40
4.0
 41
0.0
 71
     5
 72
     1
  1
\A1;B
  7
KANJI
 73
     1
 44
1.0
1001
ACAD
1000
MTEXTBEGIN
1070
    73
1070
     1
1070
    44
1040
1.0
1070
    74
1070
     0
1000
MTEXTEND
  0
POINT
  5
639
330
5E2
100
AcDbEntity
  8
Defpoints
 62
     0
 48
2.0
100
AcDbPoint
 10
788.8879855988766
 20
417.3503295386316
 30
0.0
  0
POINT
  5
63A
330
5E2
100
AcDbEntity
  8
Defpoints
 62
     0
 48
2.0
100
AcDbPoint
 10
720.8879855988766
 20
405.2792617267663
 30
0.0
  0
POINT
  5
63B
330
5E2
100
AcDbEntity
  8
Defpoints
 62
     0
 48
2.0
100
AcDbPoint
 10
720.8879855988766
 20
434.3466857306715
 30
0.0
  0
ENDBLK
  5
5E4
330
5E2
100
AcDbEntity
  8
0
100
AcDbBlockEnd
  0
BLOCK
  5
5EF
330
5EE
100
AcDbEntity
  8
0
100
AcDbBlockBegin
  2
*D15
 70
     1
 10
0.0
 20
0.0
 30
0.0
  3
*D15
  1

  0
LINE
  5
63C
330
5EE
100
AcDbEntity
  8
2寸法線
 62
     0
 48
2.0
370
    -2
100
AcDbLine
 10
812.493534011765
 20
417.3503295386316
 30
0.0
 11
812.493534011765
 21
435.2456335881684
 31
0.0
  0
LINE
  5
63D
330
5EE
100
AcDbEntity
  8
2寸法線
 62
     0
 48
2.0
370
    -2
100
AcDbLine
 10
886.4935340117654
 20
378.3503295386318
 30
0.0
 11
886.4935340117654
 21
435.2456335881684
 31
0.0
  0
LINE
  5
63E
330
5EE
100
AcDbEntity
  8
2寸法線
 62
     0
 48
2.0
370
    -2
100
AcDbLine
 10
815.4935340117647
 20
434.2456335881684
 30
0.0
 11
883.4935340117654
 21
434.2456335881684
 31
0.0
  0
INSERT
  5
63F
330
5EE
100
AcDbEntity
  8
2寸法線
 62
     0
 48
2.0
370
    -2
100
AcDbBlockReference
  2
2
 10
812.493534011765
 20
434.2456335881684
 30
0.0
 41
3.0
 42
3.0
 43
3.0
 50
180.0
  0
INSERT
  5
640
330
5EE
100
AcDbEntity
  8
2寸法線
 62
     0
 48
2.0
370
    -2
100
AcDbBlockReference
  2
2
 10
886.4935340117654
 20
434.2456335881684
 30
0.0
 41
3.0
 42
3.0
 43
3.0
  0
MTEXT
  5
641
330
5EE
100
AcDbEntity
  8
2寸法線
 62
     0
 48
2.0
100
AcDbMText
 10
849.4935340117647
 20
436.7456335881684
 30
0.0
 40
4.0
 41
0.0
 71
     5
 72
     1
  1
\A1;D
  7
KANJI
 73
     1
 44
1.0
1001
ACAD
1000
MTEXTBEGIN
1070
    73
1070
     1
1070
    44
1040
1.0
1070
    74
1070
     0
1000
MTEXTEND
  0
POINT
  5
642
330
5EE
100
AcDbEntity
  8
Defpoints
 62
     0
 48
2.0
100
AcDbPoint
 10
812.493534011765
 20
416.3503295386316
 30
0.0
  0
POINT
  5
643
330
5EE
100
AcDbEntity
  8
Defpoints
 62
     0
 48
2.0
100
AcDbPoint
 10
886.4935340117654
 20
377.3503295386317
 30
0.0
  0
POINT
  5
644
330
5EE
100
AcDbEntity
  8
Defpoints
 62
     0
 48
2.0
100
AcDbPoint
 10
886.4935340117654
 20
434.2456335881684
 30
0.0
  0
ENDBLK
  5
5F0
330
5EE
100
AcDbEntity
  8
0
100
AcDbBlockEnd
  0
BLOCK
  5
5FB
330
5FA
100
AcDbEntity
  8
0
100
AcDbBlockBegin
  2
*D16
 70
     1
 10
0.0
 20
0.0
 30
0.0
  3
*D16
  1

  0
LINE
  5
645
330
5FA
100
AcDbEntity
  8
2寸法線
 62
     0
 48
2.0
370
    -2
100
AcDbLine
 10
924.4935340117654
 20
303.3503295386323
 30
0.0
 11
904.4994958579524
 21
303.3503295386323
 31
0.0
  0
LINE
  5
646
330
5FA
100
AcDbEntity
  8
2寸法線
 62
     0
 48
2.0
370
    -2
100
AcDbLine
 10
887.4935340117659
 20
377.3503295386319
 30
0.0
 11
906.4994958579523
 21
377.3503295386319
 31
0.0
  0
LINE
  5
647
330
5FA
100
AcDbEntity
  8
2寸法線
 62
     0
 48
2.0
370
    -2
100
AcDbLine
 10
905.4994958579523
 20
306.3503295386323
 30
0.0
 11
905.4994958579523
 21
374.3503295386319
 31
0.0
  0
INSERT
  5
648
330
5FA
100
AcDbEntity
  8
2寸法線
 62
     0
 48
2.0
370
    -2
100
AcDbBlockReference
  2
2
 10
905.4994958579523
 20
303.3503295386323
 30
0.0
 41
3.0
 42
3.0
 43
3.0
 50
270.0
  0
INSERT
  5
649
330
5FA
100
AcDbEntity
  8
2寸法線
 62
     0
 48
2.0
370
    -2
100
AcDbBlockReference
  2
2
 10
905.4994958579523
 20
377.3503295386319
 30
0.0
 41
3.0
 42
3.0
 43
3.0
 50
90.0
  0
MTEXT
  5
64A
330
5FA
100
AcDbEntity
  8
2寸法線
 62
     0
 48
2.0
100
AcDbMText
 10
902.9994958579523
 20
340.3503295386318
 30
0.0
 40
4.0
 41
0.0
 71
     5
 72
     1
  1
\A1;D
  7
KANJI
 11
0.0000000000000001
 21
1.0
 31
0.0
 73
     1
 44
1.0
1001
ACAD
1000
MTEXTBEGIN
1070
    73
1070
     1
1070
    44
1040
1.0
1070
    74
1070
     0
1000
MTEXTEND
  0
POINT
  5
64B
330
5FA
100
AcDbEntity
  8
Defpoints
 62
     0
 48
2.0
100
AcDbPoint
 10
925.4935340117654
 20
303.3503295386323
 30
0.0
  0
POINT
  5
64C
330
5FA
100
AcDbEntity
  8
Defpoints
 62
     0
 48
2.0
100
AcDbPoint
 10
886.4935340117659
 20
377.3503295386319
 30
0.0
  0
POINT
  5
64D
330
5FA
100
AcDbEntity
  8
Defpoints
 62
     0
 48
2.0
100
AcDbPoint
 10
905.4994958579523
 20
377.3503295386319
 30
0.0
  0
ENDBLK
  5
5FC
330
5FA
100
AcDbEntity
  8
0
100
AcDbBlockEnd
  0
BLOCK
  5
607
330
606
100
AcDbEntity
  8
0
100
AcDbBlockBegin
  2
*D17
 70
     1
 10
0.0
 20
0.0
 30
0.0
  3
*D17
  1

  0
LINE
  5
64E
330
606
100
AcDbEntity
  8
2寸法線
 62
     0
 48
2.0
370
    -2
100
AcDbLine
 10
812.493534011765
 20
337.3503295386322
 30
0.0
 11
812.493534011765
 21
320.0623382684198
 31
0.0
  0
LINE
  5
64F
330
606
100
AcDbEntity
  8
2寸法線
 62
     0
 48
2.0
370
    -2
100
AcDbLine
 10
827.4935340117647
 20
338.3503295386317
 30
0.0
 11
827.4935340117647
 21
320.0623382684198
 31
0.0
  0
LINE
  5
650
330
606
100
AcDbEntity
  8
2寸法線
 62
     0
 48
2.0
370
    -2
100
AcDbLine
 10
815.4935340117647
 20
321.0623382684198
 30
0.0
 11
824.4935340117647
 21
321.0623382684198
 31
0.0
  0
INSERT
  5
651
330
606
100
AcDbEntity
  8
2寸法線
 62
     0
 48
2.0
370
    -2
100
AcDbBlockReference
  2
2
 10
812.493534011765
 20
321.0623382684198
 30
0.0
 41
3.0
 42
3.0
 43
3.0
 50
180.0
  0
INSERT
  5
652
330
606
100
AcDbEntity
  8
2寸法線
 62
     0
 48
2.0
370
    -2
100
AcDbBlockReference
  2
2
 10
827.4935340117647
 20
321.0623382684198
 30
0.0
 41
3.0
 42
3.0
 43
3.0
  0
MTEXT
  5
653
330
606
100
AcDbEntity
  8
2寸法線
 62
     0
 48
2.0
100
AcDbMText
 10
819.9935340117647
 20
324.0623382684198
 30
0.0
 40
4.0
 41
0.0
 71
     5
 72
     1
  1
\A1;15
  7
KANJI
 73
     1
 44
1.0
1001
ACAD
1000
MTEXTBEGIN
1070
    73
1070
     1
1070
    44
1040
1.0
1070
    74
1070
     0
1000
MTEXTEND
  0
POINT
  5
654
330
606
100
AcDbEntity
  8
Defpoints
 62
     0
 48
2.0
100
AcDbPoint
 10
812.493534011765
 20
338.3503295386322
 30
0.0
  0
POINT
  5
655
330
606
100
AcDbEntity
  8
Defpoints
 62
     0
 48
2.0
100
AcDbPoint
 10
827.4935340117647
 20
339.3503295386318
 30
0.0
  0
POINT
  5
656
330
606
100
AcDbEntity
  8
Defpoints
 62
     0
 48
2.0
100
AcDbPoint
 10
827.4935340117647
 20
321.0623382684198
 30
0.0
  0
ENDBLK
  5
608
330
606
100
AcDbEntity
  8
0
100
AcDbBlockEnd
  0
BLOCK
  5
659
330
658
100
AcDbEntity
  8
0
100
AcDbBlockBegin
  2
*D18
 70
     1
 10
0.0
 20
0.0
 30
0.0
  3
*D18
  1

  0
LINE
  5
701
330
658
100
AcDbEntity
  8
2寸法線
 62
     0
370
    -2
100
AcDbLine
 10
205.7045908028068
 20
391.5984853621108
 30
0.0
 11
205.7045908028068
 21
421.1230834603942
 31
0.0
  0
LINE
  5
702
330
658
100
AcDbEntity
  8
2寸法線
 62
     0
370
    -2
100
AcDbLine
 10
319.7045908028068
 20
395.5984853621108
 30
0.0
 11
319.7045908028068
 21
421.1230834603942
 31
0.0
  0
LINE
  5
703
330
658
100
AcDbEntity
  8
2寸法線
 62
     0
370
    -2
100
AcDbLine
 10
208.2045908028068
 20
419.8730834603942
 30
0.0
 11
317.2045908028068
 21
419.8730834603942
 31
0.0
  0
SOLID
  5
704
330
658
100
AcDbEntity
  8
2寸法線
 62
     0
100
AcDbTrace
 10
208.2045908028068
 20
420.289750127061
 30
0.0
 11
208.2045908028068
 21
419.4564167937277
 31
0.0
 12
205.7045908028068
 22
419.8730834603942
 32
0.0
 13
205.7045908028068
 23
419.8730834603942
 33
0.0
  0
SOLID
  5
705
330
658
100
AcDbEntity
  8
2寸法線
 62
     0
100
AcDbTrace
 10
317.2045908028068
 20
420.289750127061
 30
0.0
 11
317.2045908028068
 21
419.4564167937277
 31
0.0
 12
319.7045908028068
 22
419.8730834603942
 32
0.0
 13
319.7045908028068
 23
419.8730834603942
 33
0.0
  0
MTEXT
  5
706
330
658
100
AcDbEntity
  8
2寸法線
 62
     0
100
AcDbMText
 10
262.7045908028068
 20
421.7480834603943
 30
0.0
 40
2.5
 41
0.0
 71
     5
 72
     1
  1
\A1;114
 73
     1
 44
1.0
1001
ACAD
1000
MTEXTBEGIN
1070
    73
1070
     1
1070
    44
1040
1.0
1070
    74
1070
     0
1000
MTEXTEND
  0
POINT
  5
707
330
658
100
AcDbEntity
  8
Defpoints
 62
     0
100
AcDbPoint
 10
205.7045908028068
 20
390.9734853621108
 30
0.0
  0
POINT
  5
708
330
658
100
AcDbEntity
  8
Defpoints
 62
     0
100
AcDbPoint
 10
319.7045908028068
 20
394.9734853621108
 30
0.0
  0
POINT
  5
709
330
658
100
AcDbEntity
  8
Defpoints
 62
     0
100
AcDbPoint
 10
319.7045908028068
 20
419.8730834603942
 30
0.0
  0
ENDBLK
  5
65A
330
658
100
AcDbEntity
  8
0
100
AcDbBlockEnd
  0
BLOCK
  5
66F
330
66E
100
AcDbEntity
  8
0
100
AcDbBlockBegin
  2
*D19
 70
     1
 10
0.0
 20
0.0
 30
0.0
  3
*D19
  1

  0
LINE
  5
67A
330
66E
100
AcDbEntity
  8
2寸法線
 62
     0
370
    -2
100
AcDbLine
 10
373.3128262882658
 20
369.3129514561782
 30
0.0
 11
373.3128262882658
 21
418.6854063525486
 31
0.0
  0
LINE
  5
67B
330
66E
100
AcDbEntity
  8
2寸法線
 62
     0
370
    -2
100
AcDbLine
 10
441.312826288266
 20
389.4244595057435
 30
0.0
 11
441.312826288266
 21
418.6854063525486
 31
0.0
  0
LINE
  5
67C
330
66E
100
AcDbEntity
  8
2寸法線
 62
     0
370
    -2
100
AcDbLine
 10
375.8128262882658
 20
417.4354063525486
 30
0.0
 11
438.8128262882658
 21
417.4354063525486
 31
0.0
  0
SOLID
  5
67D
330
66E
100
AcDbEntity
  8
2寸法線
 62
     0
100
AcDbTrace
 10
375.8128262882658
 20
417.8520730192151
 30
0.0
 11
375.8128262882658
 21
417.0187396858819
 31
0.0
 12
373.3128262882658
 22
417.4354063525486
 32
0.0
 13
373.3128262882658
 23
417.4354063525486
 33
0.0
  0
SOLID
  5
67E
330
66E
100
AcDbEntity
  8
2寸法線
 62
     0
100
AcDbTrace
 10
438.8128262882658
 20
417.8520730192151
 30
0.0
 11
438.8128262882658
 21
417.0187396858819
 31
0.0
 12
441.312826288266
 22
417.4354063525486
 32
0.0
 13
441.312826288266
 23
417.4354063525486
 33
0.0
  0
MTEXT
  5
67F
330
66E
100
AcDbEntity
  8
2寸法線
 62
     0
100
AcDbMText
 10
407.3128262882658
 20
419.3104063525486
 30
0.0
 40
2.5
 41
0.0
 71
     5
 72
     1
  1
\A1;68
 73
     1
 44
1.0
1001
ACAD
1000
MTEXTBEGIN
1070
    73
1070
     1
1070
    44
1040
1.0
1070
    74
1070
     0
1000
MTEXTEND
  0
POINT
  5
680
330
66E
100
AcDbEntity
  8
Defpoints
 62
     0
100
AcDbPoint
 10
373.3128262882658
 20
368.6879514561782
 30
0.0
  0
POINT
  5
681
330
66E
100
AcDbEntity
  8
Defpoints
 62
     0
100
AcDbPoint
 10
441.312826288266
 20
388.7994595057435
 30
0.0
  0
POINT
  5
682
330
66E
100
AcDbEntity
  8
Defpoints
 62
     0
100
AcDbPoint
 10
441.312826288266
 20
417.4354063525486
 30
0.0
  0
ENDBLK
  5
670
330
66E
100
AcDbEntity
  8
0
100
AcDbBlockEnd
  0
BLOCK
  5
6A5
330
6A4
100
AcDbEntity
  8
0
100
AcDbBlockBegin
  2
*D20
 70
     1
 10
0.0
 20
0.0
 30
0.0
  3
*D20
  1

  0
LINE
  5
6A7
330
6A4
100
AcDbEntity
  8
2寸法線
 62
     0
370
    -2
100
AcDbLine
 10
329.0484280764113
 20
143.930291965901
 30
0.0
 11
329.0484280764113
 21
143.2326683121
 31
0.0
  0
LINE
  5
6A8
330
6A4
100
AcDbEntity
  8
2寸法線
 62
     0
370
    -2
100
AcDbLine
 10
250.0484280764111
 20
66.18029196590088
 30
0.0
 11
250.0484280764111
 21
145.7326683121
 31
0.0
  0
LINE
  5
6A9
330
6A4
100
AcDbEntity
  8
2寸法線
 62
     0
370
    -2
100
AcDbLine
 10
326.5484280764113
 20
144.4826683121
 30
0.0
 11
252.5484280764111
 21
144.4826683121
 31
0.0
  0
SOLID
  5
6AA
330
6A4
100
AcDbEntity
  8
2寸法線
 62
     0
100
AcDbTrace
 10
326.5484280764113
 20
144.8993349787667
 30
0.0
 11
326.5484280764113
 21
144.0660016454333
 31
0.0
 12
329.0484280764113
 22
144.4826683121
 32
0.0
 13
329.0484280764113
 23
144.4826683121
 33
0.0
  0
SOLID
  5
6AB
330
6A4
100
AcDbEntity
  8
2寸法線
 62
     0
100
AcDbTrace
 10
252.5484280764111
 20
144.8993349787667
 30
0.0
 11
252.5484280764111
 21
144.0660016454333
 31
0.0
 12
250.0484280764111
 22
144.4826683121
 32
0.0
 13
250.0484280764111
 23
144.4826683121
 33
0.0
  0
MTEXT
  5
6AC
330
6A4
100
AcDbEntity
  8
2寸法線
 62
     0
100
AcDbMText
 10
289.5484280764112
 20
146.3576683121
 30
0.0
 40
2.5
 41
0.0
 71
     5
 72
     1
  1
\A1;79
 73
     1
 44
1.0
1001
ACAD
1000
MTEXTBEGIN
1070
    73
1070
     1
1070
    44
1040
1.0
1070
    74
1070
     0
1000
MTEXTEND
  0
POINT
  5
6AD
330
6A4
100
AcDbEntity
  8
Defpoints
 62
     0
100
AcDbPoint
 10
329.0484280764113
 20
144.555291965901
 30
0.0
  0
POINT
  5
6AE
330
6A4
100
AcDbEntity
  8
Defpoints
 62
     0
100
AcDbPoint
 10
250.0484280764111
 20
65.55529196590088
 30
0.0
  0
POINT
  5
6AF
330
6A4
100
AcDbEntity
  8
Defpoints
 62
     0
100
AcDbPoint
 10
250.0484280764111
 20
144.4826683121
 30
0.0
  0
ENDBLK
  5
6A6
330
6A4
100
AcDbEntity
  8
0
100
AcDbBlockEnd
  0
BLOCK
  5
6B2
330
6B1
100
AcDbEntity
  8
0
100
AcDbBlockBegin
  2
*D21
 70
     1
 10
0.0
 20
0.0
 30
0.0
  3
*D21
  1

  0
LINE
  5
6B4
330
6B1
100
AcDbEntity
  8
2寸法線
 62
     0
370
    -2
100
AcDbLine
 10
319.7045908028068
 20
356.5984853621108
 30
0.0
 11
319.7045908028068
 21
364.2719879668364
 31
0.0
  0
LINE
  5
6B5
330
6B1
100
AcDbEntity
  8
2寸法線
 62
     0
370
    -2
100
AcDbLine
 10
245.7045908028068
 20
282.5984853621108
 30
0.0
 11
245.7045908028068
 21
364.2719879668364
 31
0.0
  0
LINE
  5
6B6
330
6B1
100
AcDbEntity
  8
2寸法線
 62
     0
370
    -2
100
AcDbLine
 10
317.2045908028068
 20
363.0219879668364
 30
0.0
 11
248.2045908028068
 21
363.0219879668364
 31
0.0
  0
SOLID
  5
6B7
330
6B1
100
AcDbEntity
  8
2寸法線
 62
     0
100
AcDbTrace
 10
317.2045908028068
 20
363.4386546335031
 30
0.0
 11
317.2045908028068
 21
362.6053213001697
 31
0.0
 12
319.7045908028068
 22
363.0219879668364
 32
0.0
 13
319.7045908028068
 23
363.0219879668364
 33
0.0
  0
SOLID
  5
6B8
330
6B1
100
AcDbEntity
  8
2寸法線
 62
     0
100
AcDbTrace
 10
248.2045908028068
 20
363.4386546335031
 30
0.0
 11
248.2045908028068
 21
362.6053213001697
 31
0.0
 12
245.7045908028068
 22
363.0219879668364
 32
0.0
 13
245.7045908028068
 23
363.0219879668364
 33
0.0
  0
MTEXT
  5
6B9
330
6B1
100
AcDbEntity
  8
2寸法線
 62
     0
100
AcDbMText
 10
282.7045908028068
 20
364.8969879668364
 30
0.0
 40
2.5
 41
0.0
 71
     5
 72
     1
  1
\A1;74
 73
     1
 44
1.0
1001
ACAD
1000
MTEXTBEGIN
1070
    73
1070
     1
1070
    44
1040
1.0
1070
    74
1070
     0
1000
MTEXTEND
  0
POINT
  5
6BA
330
6B1
100
AcDbEntity
  8
Defpoints
 62
     0
100
AcDbPoint
 10
319.7045908028068
 20
355.9734853621108
 30
0.0
  0
POINT
  5
6BB
330
6B1
100
AcDbEntity
  8
Defpoints
 62
     0
100
AcDbPoint
 10
245.7045908028068
 20
281.9734853621108
 30
0.0
  0
POINT
  5
6BC
330
6B1
100
AcDbEntity
  8
Defpoints
 62
     0
100
AcDbPoint
 10
245.7045908028068
 20
363.0219879668364
 30
0.0
  0
ENDBLK
  5
6B3
330
6B1
100
AcDbEntity
  8
0
100
AcDbBlockEnd
  0
BLOCK
  5
6BF
330
6BE
100
AcDbEntity
  8
0
100
AcDbBlockBegin
  2
*D22
 70
     1
 10
0.0
 20
0.0
 30
0.0
  3
*D22
  1

  0
LINE
  5
6C1
330
6BE
100
AcDbEntity
  8
2寸法線
 62
     0
370
    -2
100
AcDbLine
 10
244.6411042796274
 20
281.9734853621109
 30
0.0
 11
231.0947210344513
 21
281.9734853621109
 31
0.0
  0
LINE
  5
6C2
330
6BE
100
AcDbEntity
  8
2寸法線
 62
     0
370
    -2
100
AcDbLine
 10
319.0795908028069
 20
355.9734853621109
 30
0.0
 11
231.0947210344513
 21
355.9734853621109
 31
0.0
  0
LINE
  5
6C3
330
6BE
100
AcDbEntity
  8
2寸法線
 62
     0
370
    -2
100
AcDbLine
 10
232.3447210344513
 20
284.4734853621109
 30
0.0
 11
232.3447210344513
 21
353.4734853621109
 31
0.0
  0
SOLID
  5
6C4
330
6BE
100
AcDbEntity
  8
2寸法線
 62
     0
100
AcDbTrace
 10
231.9280543677846
 20
284.4734853621109
 30
0.0
 11
232.761387701118
 21
284.4734853621109
 31
0.0
 12
232.3447210344513
 22
281.9734853621109
 32
0.0
 13
232.3447210344513
 23
281.9734853621109
 33
0.0
  0
SOLID
  5
6C5
330
6BE
100
AcDbEntity
  8
2寸法線
 62
     0
100
AcDbTrace
 10
231.9280543677846
 20
353.4734853621109
 30
0.0
 11
232.7613877011179
 21
353.4734853621109
 31
0.0
 12
232.3447210344513
 22
355.9734853621109
 32
0.0
 13
232.3447210344513
 23
355.9734853621109
 33
0.0
  0
MTEXT
  5
6C6
330
6BE
100
AcDbEntity
  8
2寸法線
 62
     0
100
AcDbMText
 10
230.4697210344513
 20
318.9734853621108
 30
0.0
 40
2.5
 41
0.0
 71
     5
 72
     1
  1
\A1;74
 11
0.0000000000000001
 21
1.0
 31
0.0
 73
     1
 44
1.0
1001
ACAD
1000
MTEXTBEGIN
1070
    73
1070
     1
1070
    44
1040
1.0
1070
    74
1070
     0
1000
MTEXTEND
  0
POINT
  5
6C7
330
6BE
100
AcDbEntity
  8
Defpoints
 62
     0
100
AcDbPoint
 10
245.2661042796274
 20
281.9734853621109
 30
0.0
  0
POINT
  5
6C8
330
6BE
100
AcDbEntity
  8
Defpoints
 62
     0
100
AcDbPoint
 10
319.7045908028069
 20
355.9734853621109
 30
0.0
  0
POINT
  5
6C9
330
6BE
100
AcDbEntity
  8
Defpoints
 62
     0
100
AcDbPoint
 10
232.3447210344513
 20
355.9734853621109
 30
0.0
  0
ENDBLK
  5
6C0
330
6BE
100
AcDbEntity
  8
0
100
AcDbBlockEnd
  0
BLOCK
  5
74F
330
74E
100
AcDbEntity
  8
0
100
AcDbBlockBegin
  2
*D23
 70
     1
 10
0.0
 20
0.0
 30
0.0
  3
*D23
  1

  0
LINE
  5
750
330
74E
100
AcDbEntity
  8
2寸法線
 62
     0
370
    -2
100
AcDbLine
 10
434.9249436225875
 20
345.5853240529604
 30
0.0
 11
422.093594354005
 21
345.5853240529604
 31
0.0
  0
LINE
  5
751
330
74E
100
AcDbEntity
  8
2寸法線
 62
     0
370
    -2
100
AcDbLine
 10
434.9249436225876
 20
411.0853240529604
 30
0.0
 11
422.0935943540049
 21
411.0853240529604
 31
0.0
  0
LINE
  5
752
330
74E
100
AcDbEntity
  8
2寸法線
 62
     0
370
    -2
100
AcDbLine
 10
423.3435943540049
 20
348.0853240529603
 30
0.0
 11
423.3435943540049
 21
408.5853240529604
 31
0.0
  0
SOLID
  5
753
330
74E
100
AcDbEntity
  8
2寸法線
 62
     0
100
AcDbTrace
 10
422.9269276873383
 20
348.0853240529603
 30
0.0
 11
423.7602610206717
 21
348.0853240529603
 31
0.0
 12
423.3435943540049
 22
345.5853240529604
 32
0.0
 13
423.3435943540049
 23
345.5853240529604
 33
0.0
  0
SOLID
  5
754
330
74E
100
AcDbEntity
  8
2寸法線
 62
     0
100
AcDbTrace
 10
422.9269276873382
 20
408.5853240529604
 30
0.0
 11
423.7602610206716
 21
408.5853240529604
 31
0.0
 12
423.3435943540049
 22
411.0853240529604
 32
0.0
 13
423.3435943540049
 23
411.0853240529604
 33
0.0
  0
MTEXT
  5
755
330
74E
100
AcDbEntity
  8
2寸法線
 62
     0
100
AcDbMText
 10
421.4685943540049
 20
378.3353240529602
 30
0.0
 40
2.5
 41
0.0
 71
     5
 72
     1
  1
\A1;65.5
 11
0.0000000000000001
 21
1.0
 31
0.0
 73
     1
 44
1.0
1001
ACAD
1000
MTEXTBEGIN
1070
    73
1070
     1
1070
    44
1040
1.0
1070
    74
1070
     0
1000
MTEXTEND
  0
POINT
  5
756
330
74E
100
AcDbEntity
  8
Defpoints
 62
     0
100
AcDbPoint
 10
435.5499436225875
 20
345.5853240529604
 30
0.0
  0
POINT
  5
757
330
74E
100
AcDbEntity
  8
Defpoints
 62
     0
100
AcDbPoint
 10
435.5499436225876
 20
411.0853240529604
 30
0.0
  0
POINT
  5
758
330
74E
100
AcDbEntity
  8
Defpoints
 62
     0
100
AcDbPoint
 10
423.3435943540049
 20
411.0853240529604
 30
0.0
  0
ENDBLK
  5
759
330
74E
100
AcDbEntity
  8
0
100
AcDbBlockEnd
  0
BLOCK
  5
75B
330
75A
100
AcDbEntity
  8
0
100
AcDbBlockBegin
  2
*D24
 70
     1
 10
0.0
 20
0.0
 30
0.0
  3
*D24
  1

  0
LINE
  5
75C
330
75A
100
AcDbEntity
  8
2寸法線
 62
     0
370
    -2
100
AcDbLine
 10
511.841792410129
 20
413.5853240529604
 30
0.0
 11
495.8253339019062
 21
413.5853240529604
 31
0.0
  0
LINE
  5
75D
330
75A
100
AcDbEntity
  8
2寸法線
 62
     0
370
    -2
100
AcDbLine
 10
511.8417924101291
 20
345.5853240529604
 30
0.0
 11
495.8253339019062
 21
345.5853240529604
 31
0.0
  0
LINE
  5
75E
330
75A
100
AcDbEntity
  8
2寸法線
 62
     0
370
    -2
100
AcDbLine
 10
497.0753339019061
 20
411.0853240529604
 30
0.0
 11
497.0753339019062
 21
348.0853240529603
 31
0.0
  0
SOLID
  5
75F
330
75A
100
AcDbEntity
  8
2寸法線
 62
     0
100
AcDbTrace
 10
496.6586672352395
 20
411.0853240529604
 30
0.0
 11
497.4920005685729
 21
411.0853240529604
 31
0.0
 12
497.0753339019061
 22
413.5853240529604
 32
0.0
 13
497.0753339019061
 23
413.5853240529604
 33
0.0
  0
SOLID
  5
760
330
75A
100
AcDbEntity
  8
2寸法線
 62
     0
100
AcDbTrace
 10
496.6586672352396
 20
348.0853240529603
 30
0.0
 11
497.492000568573
 21
348.0853240529603
 31
0.0
 12
497.0753339019062
 22
345.5853240529604
 32
0.0
 13
497.0753339019062
 23
345.5853240529604
 33
0.0
  0
MTEXT
  5
761
330
75A
100
AcDbEntity
  8
2寸法線
 62
     0
100
AcDbMText
 10
495.2003339019062
 20
379.5853240529602
 30
0.0
 40
2.5
 41
0.0
 71
     5
 72
     1
  1
\A1;68
 11
0.0000000000000001
 21
1.0
 31
0.0
 73
     1
 44
1.0
1001
ACAD
1000
MTEXTBEGIN
1070
    73
1070
     1
1070
    44
1040
1.0
1070
    74
1070
     0
1000
MTEXTEND
  0
POINT
  5
762
330
75A
100
AcDbEntity
  8
Defpoints
 62
     0
100
AcDbPoint
 10
512.4667924101291
 20
413.5853240529604
 30
0.0
  0
POINT
  5
763
330
75A
100
AcDbEntity
  8
Defpoints
 62
     0
100
AcDbPoint
 10
512.4667924101291
 20
345.5853240529604
 30
0.0
  0
POINT
  5
764
330
75A
100
AcDbEntity
  8
Defpoints
 62
     0
100
AcDbPoint
 10
497.0753339019062
 20
345.5853240529604
 30
0.0
  0
ENDBLK
  5
765
330
75A
100
AcDbEntity
  8
0
100
AcDbBlockEnd
  0
BLOCK
  5
767
330
766
100
AcDbEntity
  8
0
100
AcDbBlockBegin
  2
*D25
 70
     1
 10
0.0
 20
0.0
 30
0.0
  3
*D25
  1

  0
LINE
  5
768
330
766
100
AcDbEntity
  8
2寸法線
 62
     0
370
    -2
100
AcDbLine
 10
475.5499436225874
 20
371.6747901470276
 30
0.0
 11
475.5499436225874
 21
359.8811168657614
 31
0.0
  0
LINE
  5
769
330
766
100
AcDbEntity
  8
2寸法線
 62
     0
370
    -2
100
AcDbLine
 10
395.5499436225874
 20
371.6747901470276
 30
0.0
 11
395.5499436225874
 21
359.8811168657614
 31
0.0
  0
LINE
  5
76A
330
766
100
AcDbEntity
  8
2寸法線
 62
     0
370
    -2
100
AcDbLine
 10
473.0499436225874
 20
361.1311168657615
 30
0.0
 11
398.0499436225874
 21
361.1311168657615
 31
0.0
  0
SOLID
  5
76B
330
766
100
AcDbEntity
  8
2寸法線
 62
     0
100
AcDbTrace
 10
473.0499436225874
 20
361.5477835324281
 30
0.0
 11
473.0499436225874
 21
360.7144501990948
 31
0.0
 12
475.5499436225874
 22
361.1311168657615
 32
0.0
 13
475.5499436225874
 23
361.1311168657615
 33
0.0
  0
SOLID
  5
76C
330
766
100
AcDbEntity
  8
2寸法線
 62
     0
100
AcDbTrace
 10
398.0499436225874
 20
361.5477835324281
 30
0.0
 11
398.0499436225874
 21
360.7144501990948
 31
0.0
 12
395.5499436225874
 22
361.1311168657615
 32
0.0
 13
395.5499436225874
 23
361.1311168657615
 33
0.0
  0
MTEXT
  5
76D
330
766
100
AcDbEntity
  8
2寸法線
 62
     0
100
AcDbMText
 10
435.5499436225874
 20
363.0061168657614
 30
0.0
 40
2.5
 41
0.0
 71
     5
 72
     1
  1
\A1;80
 73
     1
 44
1.0
1001
ACAD
1000
MTEXTBEGIN
1070
    73
1070
     1
1070
    44
1040
1.0
1070
    74
1070
     0
1000
MTEXTEND
  0
POINT
  5
76E
330
766
100
AcDbEntity
  8
Defpoints
 62
     0
100
AcDbPoint
 10
475.5499436225874
 20
372.2997901470276
 30
0.0
  0
POINT
  5
76F
330
766
100
AcDbEntity
  8
Defpoints
 62
     0
100
AcDbPoint
 10
395.5499436225874
 20
372.2997901470276
 30
0.0
  0
POINT
  5
770
330
766
100
AcDbEntity
  8
Defpoints
 62
     0
100
AcDbPoint
 10
395.5499436225874
 20
361.1311168657615
 30
0.0
  0
ENDBLK
  5
771
330
766
100
AcDbEntity
  8
0
100
AcDbBlockEnd
  0
BLOCK
  5
773
330
772
100
AcDbEntity
  8
0
100
AcDbBlockBegin
  2
*D26
 70
     1
 10
0.0
 20
0.0
 30
0.0
  3
*D26
  1

  0
LINE
  5
774
330
772
100
AcDbEntity
  8
2寸法線
 62
     0
370
    -2
100
AcDbLine
 10
397.9933604799622
 20
176.3750832794092
 30
0.0
 11
397.9933604799622
 21
163.6827508613182
 31
0.0
  0
LINE
  5
775
330
772
100
AcDbEntity
  8
2寸法線
 62
     0
370
    -2
100
AcDbLine
 10
482.9933604799621
 20
176.3750832794091
 30
0.0
 11
482.9933604799621
 21
163.6827508613182
 31
0.0
  0
LINE
  5
776
330
772
100
AcDbEntity
  8
2寸法線
 62
     0
370
    -2
100
AcDbLine
 10
400.4933604799622
 20
164.9327508613182
 30
0.0
 11
480.4933604799621
 21
164.9327508613182
 31
0.0
  0
SOLID
  5
777
330
772
100
AcDbEntity
  8
2寸法線
 62
     0
100
AcDbTrace
 10
400.4933604799622
 20
165.3494175279849
 30
0.0
 11
400.4933604799622
 21
164.5160841946516
 31
0.0
 12
397.9933604799622
 22
164.9327508613182
 32
0.0
 13
397.9933604799622
 23
164.9327508613182
 33
0.0
  0
SOLID
  5
778
330
772
100
AcDbEntity
  8
2寸法線
 62
     0
100
AcDbTrace
 10
480.4933604799621
 20
165.3494175279849
 30
0.0
 11
480.4933604799621
 21
164.5160841946516
 31
0.0
 12
482.9933604799621
 22
164.9327508613182
 32
0.0
 13
482.9933604799621
 23
164.9327508613182
 33
0.0
  0
MTEXT
  5
779
330
772
100
AcDbEntity
  8
2寸法線
 62
     0
100
AcDbMText
 10
440.4933604799621
 20
166.8077508613182
 30
0.0
 40
2.5
 41
0.0
 71
     5
 72
     1
  1
\A1;85
 73
     1
 44
1.0
1001
ACAD
1000
MTEXTBEGIN
1070
    73
1070
     1
1070
    44
1040
1.0
1070
    74
1070
     0
1000
MTEXTEND
  0
POINT
  5
77A
330
772
100
AcDbEntity
  8
Defpoints
 62
     0
100
AcDbPoint
 10
397.9933604799622
 20
177.0000832794092
 30
0.0
  0
POINT
  5
77B
330
772
100
AcDbEntity
  8
Defpoints
 62
     0
100
AcDbPoint
 10
482.9933604799621
 20
177.0000832794091
 30
0.0
  0
POINT
  5
77C
330
772
100
AcDbEntity
  8
Defpoints
 62
     0
100
AcDbPoint
 10
482.9933604799621
 20
164.9327508613182
 30
0.0
  0
ENDBLK
  5
77D
330
772
100
AcDbEntity
  8
0
100
AcDbBlockEnd
  0
BLOCK
  5
77F
330
77E
100
AcDbEntity
  8
0
100
AcDbBlockBegin
  2
*D27
 70
     1
 10
0.0
 20
0.0
 30
0.0
  3
*D27
  1

  0
LINE
  5
780
330
77E
100
AcDbEntity
  8
2寸法線
 62
     0
370
    -2
100
AcDbLine
 10
441.0683604779627
 20
221.4606160310289
 30
0.0
 11
441.6933604779631
 21
221.4606160310289
 31
0.0
  0
LINE
  5
781
330
77E
100
AcDbEntity
  8
2寸法線
 62
     0
370
    -2
100
AcDbLine
 10
439.8683604799625
 20
153.4606160310288
 30
0.0
 11
439.1933604779632
 21
153.4606160310288
 31
0.0
  0
LINE
  5
782
330
77E
100
AcDbEntity
  8
2寸法線
 62
     0
370
    -2
100
AcDbLine
 10
440.4433604779632
 20
218.9606160310289
 30
0.0
 11
440.4433604779632
 21
155.9606160310288
 31
0.0
  0
SOLID
  5
783
330
77E
100
AcDbEntity
  8
2寸法線
 62
     0
100
AcDbTrace
 10
440.0266938112965
 20
218.9606160310289
 30
0.0
 11
440.8600271446299
 21
218.9606160310289
 31
0.0
 12
440.4433604779632
 22
221.4606160310289
 32
0.0
 13
440.4433604779632
 23
221.4606160310289
 33
0.0
  0
SOLID
  5
784
330
77E
100
AcDbEntity
  8
2寸法線
 62
     0
100
AcDbTrace
 10
440.0266938112965
 20
155.9606160310288
 30
0.0
 11
440.8600271446299
 21
155.9606160310288
 31
0.0
 12
440.4433604779632
 22
153.4606160310288
 32
0.0
 13
440.4433604779632
 23
153.4606160310288
 33
0.0
  0
MTEXT
  5
785
330
77E
100
AcDbEntity
  8
2寸法線
 62
     0
100
AcDbMText
 10
438.5683604779631
 20
187.4606160310287
 30
0.0
 40
2.5
 41
0.0
 71
     5
 72
     1
  1
\A1;68
 11
0.0000000000000001
 21
1.0
 31
0.0
 73
     1
 44
1.0
1001
ACAD
1000
MTEXTBEGIN
1070
    73
1070
     1
1070
    44
1040
1.0
1070
    74
1070
     0
1000
MTEXTEND
  0
POINT
  5
786
330
77E
100
AcDbEntity
  8
Defpoints
 62
     0
100
AcDbPoint
 10
440.4433604779627
 20
221.4606160310289
 30
0.0
  0
POINT
  5
787
330
77E
100
AcDbEntity
  8
Defpoints
 62
     0
100
AcDbPoint
 10
440.4933604799626
 20
153.4606160310288
 30
0.0
  0
POINT
  5
788
330
77E
100
AcDbEntity
  8
Defpoints
 62
     0
100
AcDbPoint
 10
440.4433604779632
 20
153.4606160310288
 30
0.0
  0
ENDBLK
  5
789
330
77E
100
AcDbEntity
  8
0
100
AcDbBlockEnd
  0
BLOCK
  5
78B
330
78A
100
AcDbEntity
  8
0
100
AcDbBlockBegin
  2
*D28
 70
     1
 10
0.0
 20
0.0
 30
0.0
  3
*D28
  1

  0
LINE
  5
78C
330
78A
100
AcDbEntity
  8
2寸法線
 62
     0
370
    -2
100
AcDbLine
 10
523.8964391871256
 20
223.9606160310289
 30
0.0
 11
507.5362060103505
 21
223.9606160310289
 31
0.0
  0
LINE
  5
78D
330
78A
100
AcDbEntity
  8
2寸法線
 62
     0
370
    -2
100
AcDbLine
 10
523.8964391871256
 20
150.9606160310288
 30
0.0
 11
507.5362060103505
 21
150.9606160310288
 31
0.0
  0
LINE
  5
78E
330
78A
100
AcDbEntity
  8
2寸法線
 62
     0
370
    -2
100
AcDbLine
 10
508.7862060103505
 20
221.4606160310289
 30
0.0
 11
508.7862060103505
 21
153.4606160310288
 31
0.0
  0
SOLID
  5
78F
330
78A
100
AcDbEntity
  8
2寸法線
 62
     0
100
AcDbTrace
 10
508.3695393436839
 20
221.4606160310289
 30
0.0
 11
509.2028726770172
 21
221.4606160310289
 31
0.0
 12
508.7862060103505
 22
223.9606160310289
 32
0.0
 13
508.7862060103505
 23
223.9606160310289
 33
0.0
  0
SOLID
  5
790
330
78A
100
AcDbEntity
  8
2寸法線
 62
     0
100
AcDbTrace
 10
508.3695393436839
 20
153.4606160310288
 30
0.0
 11
509.2028726770172
 21
153.4606160310288
 31
0.0
 12
508.7862060103505
 22
150.9606160310288
 32
0.0
 13
508.7862060103505
 23
150.9606160310288
 33
0.0
  0
MTEXT
  5
791
330
78A
100
AcDbEntity
  8
2寸法線
 62
     0
100
AcDbMText
 10
506.9112060103504
 20
187.4606160310286
 30
0.0
 40
2.5
 41
0.0
 71
     5
 72
     1
  1
\A1;73
 11
0.0000000000000001
 21
1.0
 31
0.0
 73
     1
 44
1.0
1001
ACAD
1000
MTEXTBEGIN
1070
    73
1070
     1
1070
    44
1040
1.0
1070
    74
1070
     0
1000
MTEXTEND
  0
POINT
  5
792
330
78A
100
AcDbEntity
  8
Defpoints
 62
     0
100
AcDbPoint
 10
524.5214391871257
 20
223.9606160310289
 30
0.0
  0
POINT
  5
793
330
78A
100
AcDbEntity
  8
Defpoints
 62
     0
100
AcDbPoint
 10
524.5214391871257
 20
150.9606160310288
 30
0.0
  0
POINT
  5
794
330
78A
100
AcDbEntity
  8
Defpoints
 62
     0
100
AcDbPoint
 10
508.7862060103505
 20
150.9606160310288
 30
0.0
  0
ENDBLK
  5
795
330
78A
100
AcDbEntity
  8
0
100
AcDbBlockEnd
  0
BLOCK
  5
837
330
836
100
AcDbEntity
  8
0
100
AcDbBlockBegin
  2
*D30
 70
     1
 10
0.0
 20
0.0
 30
0.0
  3
*D30
  1

  0
LINE
  5
8B4
330
836
100
AcDbEntity
  8
2寸法線
 62
     0
370
    -2
100
AcDbLine
 10
705.0765736399758
 20
313.797555122796
 30
0.0
 11
705.0765736399758
 21
300.9662058542139
 31
0.0
  0
LINE
  5
8B5
330
836
100
AcDbEntity
  8
2寸法線
 62
     0
370
    -2
100
AcDbLine
 10
639.5765736399757
 20
313.7975551227961
 30
0.0
 11
639.5765736399757
 21
300.9662058542139
 31
0.0
  0
LINE
  5
8B6
330
836
100
AcDbEntity
  8
2寸法線
 62
     0
370
    -2
100
AcDbLine
 10
702.5765736399757
 20
302.2162058542138
 30
0.0
 11
642.0765736399758
 21
302.2162058542138
 31
0.0
  0
SOLID
  5
8B7
330
836
100
AcDbEntity
  8
2寸法線
 62
     0
100
AcDbTrace
 10
702.5765736399757
 20
302.6328725208805
 30
0.0
 11
702.5765736399757
 21
301.7995391875472
 31
0.0
 12
705.0765736399758
 22
302.2162058542138
 32
0.0
 13
705.0765736399758
 23
302.2162058542138
 33
0.0
  0
SOLID
  5
8B8
330
836
100
AcDbEntity
  8
2寸法線
 62
     0
100
AcDbTrace
 10
642.0765736399758
 20
302.6328725208805
 30
0.0
 11
642.0765736399758
 21
301.7995391875472
 31
0.0
 12
639.5765736399757
 22
302.2162058542138
 32
0.0
 13
639.5765736399757
 23
302.2162058542138
 33
0.0
  0
MTEXT
  5
8B9
330
836
100
AcDbEntity
  8
2寸法線
 62
     0
100
AcDbMText
 10
672.3265736399757
 20
304.0912058542139
 30
0.0
 40
2.5
 41
0.0
 71
     5
 72
     1
  1
\A1;65.5
 73
     1
 44
1.0
1001
ACAD
1000
MTEXTBEGIN
1070
    73
1070
     1
1070
    44
1040
1.0
1070
    74
1070
     0
1000
MTEXTEND
  0
POINT
  5
8BA
330
836
100
AcDbEntity
  8
Defpoints
 62
     0
100
AcDbPoint
 10
705.0765736399758
 20
314.422555122796
 30
0.0
  0
POINT
  5
8BB
330
836
100
AcDbEntity
  8
Defpoints
 62
     0
100
AcDbPoint
 10
639.5765736399757
 20
314.4225551227961
 30
0.0
  0
POINT
  5
8BC
330
836
100
AcDbEntity
  8
Defpoints
 62
     0
100
AcDbPoint
 10
639.5765736399757
 20
302.2162058542138
 30
0.0
  0
ENDBLK
  5
838
330
836
100
AcDbEntity
  8
0
100
AcDbBlockEnd
  0
BLOCK
  5
843
330
842
100
AcDbEntity
  8
0
100
AcDbBlockBegin
  2
*D31
 70
     1
 10
0.0
 20
0.0
 30
0.0
  3
*D31
  1

  0
LINE
  5
8BD
330
842
100
AcDbEntity
  8
2寸法線
 62
     0
370
    -2
100
AcDbLine
 10
637.0765736399757
 20
390.7144039103375
 30
0.0
 11
637.0765736399757
 21
374.6979454021154
 31
0.0
  0
LINE
  5
8BE
330
842
100
AcDbEntity
  8
2寸法線
 62
     0
370
    -2
100
AcDbLine
 10
705.0765736399758
 20
390.7144039103375
 30
0.0
 11
705.0765736399758
 21
374.6979454021154
 31
0.0
  0
LINE
  5
8BF
330
842
100
AcDbEntity
  8
2寸法線
 62
     0
370
    -2
100
AcDbLine
 10
639.5765736399757
 20
375.9479454021155
 30
0.0
 11
702.5765736399757
 21
375.9479454021155
 31
0.0
  0
SOLID
  5
8C0
330
842
100
AcDbEntity
  8
2寸法線
 62
     0
100
AcDbTrace
 10
639.5765736399757
 20
376.3646120687822
 30
0.0
 11
639.5765736399757
 21
375.5312787354488
 31
0.0
 12
637.0765736399757
 22
375.9479454021155
 32
0.0
 13
637.0765736399757
 23
375.9479454021155
 33
0.0
  0
SOLID
  5
8C1
330
842
100
AcDbEntity
  8
2寸法線
 62
     0
100
AcDbTrace
 10
702.5765736399757
 20
376.3646120687822
 30
0.0
 11
702.5765736399757
 21
375.5312787354488
 31
0.0
 12
705.0765736399758
 22
375.9479454021155
 32
0.0
 13
705.0765736399758
 23
375.9479454021155
 33
0.0
  0
MTEXT
  5
8C2
330
842
100
AcDbEntity
  8
2寸法線
 62
     0
100
AcDbMText
 10
671.0765736399757
 20
377.8229454021154
 30
0.0
 40
2.5
 41
0.0
 71
     5
 72
     1
  1
\A1;68
 73
     1
 44
1.0
1001
ACAD
1000
MTEXTBEGIN
1070
    73
1070
     1
1070
    44
1040
1.0
1070
    74
1070
     0
1000
MTEXTEND
  0
POINT
  5
8C3
330
842
100
AcDbEntity
  8
Defpoints
 62
     0
100
AcDbPoint
 10
637.0765736399757
 20
391.3394039103375
 30
0.0
  0
POINT
  5
8C4
330
842
100
AcDbEntity
  8
Defpoints
 62
     0
100
AcDbPoint
 10
705.0765736399758
 20
391.3394039103375
 30
0.0
  0
POINT
  5
8C5
330
842
100
AcDbEntity
  8
Defpoints
 62
     0
100
AcDbPoint
 10
705.0765736399758
 20
375.9479454021155
 30
0.0
  0
ENDBLK
  5
844
330
842
100
AcDbEntity
  8
0
100
AcDbBlockEnd
  0
BLOCK
  5
84F
330
84E
100
AcDbEntity
  8
0
100
AcDbBlockBegin
  2
*D32
 70
     1
 10
0.0
 20
0.0
 30
0.0
  3
*D32
  1

  0
LINE
  5
8C6
330
84E
100
AcDbEntity
  8
2寸法線
 62
     0
370
    -2
100
AcDbLine
 10
678.9871075459086
 20
354.4225551227962
 30
0.0
 11
690.7807808271748
 21
354.4225551227962
 31
0.0
  0
LINE
  5
8C7
330
84E
100
AcDbEntity
  8
2寸法線
 62
     0
370
    -2
100
AcDbLine
 10
678.9871075459086
 20
274.4225551227962
 30
0.0
 11
690.7807808271748
 21
274.4225551227962
 31
0.0
  0
LINE
  5
8C8
330
84E
100
AcDbEntity
  8
2寸法線
 62
     0
370
    -2
100
AcDbLine
 10
689.5307808271748
 20
351.9225551227962
 30
0.0
 11
689.5307808271748
 21
276.9225551227962
 31
0.0
  0
SOLID
  5
8C9
330
84E
100
AcDbEntity
  8
2寸法線
 62
     0
100
AcDbTrace
 10
689.1141141605081
 20
351.9225551227962
 30
0.0
 11
689.9474474938414
 21
351.9225551227962
 31
0.0
 12
689.5307808271748
 22
354.4225551227962
 32
0.0
 13
689.5307808271748
 23
354.4225551227962
 33
0.0
  0
SOLID
  5
8CA
330
84E
100
AcDbEntity
  8
2寸法線
 62
     0
100
AcDbTrace
 10
689.1141141605081
 20
276.9225551227962
 30
0.0
 11
689.9474474938414
 21
276.9225551227962
 31
0.0
 12
689.5307808271748
 22
274.4225551227962
 32
0.0
 13
689.5307808271748
 23
274.4225551227962
 33
0.0
  0
MTEXT
  5
8CB
330
84E
100
AcDbEntity
  8
2寸法線
 62
     0
100
AcDbMText
 10
687.6557808271748
 20
314.4225551227959
 30
0.0
 40
2.5
 41
0.0
 71
     5
 72
     1
  1
\A1;80
 11
0.0000000000000001
 21
1.0
 31
0.0
 73
     1
 44
1.0
1001
ACAD
1000
MTEXTBEGIN
1070
    73
1070
     1
1070
    44
1040
1.0
1070
    74
1070
     0
1000
MTEXTEND
  0
POINT
  5
8CC
330
84E
100
AcDbEntity
  8
Defpoints
 62
     0
100
AcDbPoint
 10
678.3621075459087
 20
354.4225551227962
 30
0.0
  0
POINT
  5
8CD
330
84E
100
AcDbEntity
  8
Defpoints
 62
     0
100
AcDbPoint
 10
678.3621075459087
 20
274.4225551227962
 30
0.0
  0
POINT
  5
8CE
330
84E
100
AcDbEntity
  8
Defpoints
 62
     0
100
AcDbPoint
 10
689.5307808271748
 20
274.4225551227962
 30
0.0
  0
ENDBLK
  5
850
330
84E
100
AcDbEntity
  8
0
100
AcDbBlockEnd
  0
BLOCK
  5
85B
330
85A
100
AcDbEntity
  8
0
100
AcDbBlockBegin
  2
*D33
 70
     1
 10
0.0
 20
0.0
 30
0.0
  3
*D33
  1

  0
LINE
  5
8CF
330
85A
100
AcDbEntity
  8
2寸法線
 62
     0
370
    -2
100
AcDbLine
 10
874.2868144135272
 20
276.865971980171
 30
0.0
 11
886.9791468316181
 21
276.865971980171
 31
0.0
  0
LINE
  5
8D0
330
85A
100
AcDbEntity
  8
2寸法線
 62
     0
370
    -2
100
AcDbLine
 10
874.2868144135274
 20
361.8659719801709
 30
0.0
 11
886.9791468316181
 21
361.8659719801709
 31
0.0
  0
LINE
  5
8D1
330
85A
100
AcDbEntity
  8
2寸法線
 62
     0
370
    -2
100
AcDbLine
 10
885.7291468316182
 20
279.365971980171
 30
0.0
 11
885.7291468316182
 21
359.3659719801709
 31
0.0
  0
SOLID
  5
8D2
330
85A
100
AcDbEntity
  8
2寸法線
 62
     0
100
AcDbTrace
 10
885.3124801649515
 20
279.365971980171
 30
0.0
 11
886.1458134982848
 21
279.365971980171
 31
0.0
 12
885.7291468316182
 22
276.865971980171
 32
0.0
 13
885.7291468316182
 23
276.865971980171
 33
0.0
  0
SOLID
  5
8D3
330
85A
100
AcDbEntity
  8
2寸法線
 62
     0
100
AcDbTrace
 10
885.3124801649515
 20
359.3659719801709
 30
0.0
 11
886.1458134982848
 21
359.3659719801709
 31
0.0
 12
885.7291468316182
 22
361.8659719801709
 32
0.0
 13
885.7291468316182
 23
361.8659719801709
 33
0.0
  0
MTEXT
  5
8D4
330
85A
100
AcDbEntity
  8
2寸法線
 62
     0
100
AcDbMText
 10
883.8541468316181
 20
319.3659719801707
 30
0.0
 40
2.5
 41
0.0
 71
     5
 72
     1
  1
\A1;85
 11
0.0000000000000001
 21
1.0
 31
0.0
 73
     1
 44
1.0
1001
ACAD
1000
MTEXTBEGIN
1070
    73
1070
     1
1070
    44
1040
1.0
1070
    74
1070
     0
1000
MTEXTEND
  0
POINT
  5
8D5
330
85A
100
AcDbEntity
  8
Defpoints
 62
     0
100
AcDbPoint
 10
873.6618144135272
 20
276.865971980171
 30
0.0
  0
POINT
  5
8D6
330
85A
100
AcDbEntity
  8
Defpoints
 62
     0
100
AcDbPoint
 10
873.6618144135274
 20
361.8659719801709
 30
0.0
  0
POINT
  5
8D7
330
85A
100
AcDbEntity
  8
Defpoints
 62
     0
100
AcDbPoint
 10
885.7291468316182
 20
361.8659719801709
 30
0.0
  0
ENDBLK
  5
85C
330
85A
100
AcDbEntity
  8
0
100
AcDbBlockEnd
  0
BLOCK
  5
867
330
866
100
AcDbEntity
  8
0
100
AcDbBlockBegin
  2
*D34
 70
     1
 10
0.0
 20
0.0
 30
0.0
  3
*D34
  1

  0
LINE
  5
8D8
330
866
100
AcDbEntity
  8
2寸法線
 62
     0
370
    -2
100
AcDbLine
 10
829.2012816619072
 20
319.9409719781712
 30
0.0
 11
829.2012816619072
 21
320.5659719781721
 31
0.0
  0
LINE
  5
8D9
330
866
100
AcDbEntity
  8
2寸法線
 62
     0
370
    -2
100
AcDbLine
 10
897.2012816619072
 20
318.740971980171
 30
0.0
 11
897.2012816619072
 21
318.0659719781721
 31
0.0
  0
LINE
  5
8DA
330
866
100
AcDbEntity
  8
2寸法線
 62
     0
370
    -2
100
AcDbLine
 10
831.7012816619072
 20
319.3159719781721
 30
0.0
 11
894.7012816619073
 21
319.3159719781721
 31
0.0
  0
SOLID
  5
8DB
330
866
100
AcDbEntity
  8
2寸法線
 62
     0
100
AcDbTrace
 10
831.7012816619072
 20
319.7326386448388
 30
0.0
 11
831.7012816619072
 21
318.8993053115054
 31
0.0
 12
829.2012816619072
 22
319.3159719781721
 32
0.0
 13
829.2012816619072
 23
319.3159719781721
 33
0.0
  0
SOLID
  5
8DC
330
866
100
AcDbEntity
  8
2寸法線
 62
     0
100
AcDbTrace
 10
894.7012816619073
 20
319.7326386448388
 30
0.0
 11
894.7012816619073
 21
318.8993053115054
 31
0.0
 12
897.2012816619072
 22
319.3159719781721
 32
0.0
 13
897.2012816619072
 23
319.3159719781721
 33
0.0
  0
MTEXT
  5
8DD
330
866
100
AcDbEntity
  8
2寸法線
 62
     0
100
AcDbMText
 10
863.2012816619072
 20
321.1909719781721
 30
0.0
 40
2.5
 41
0.0
 71
     5
 72
     1
  1
\A1;68
 73
     1
 44
1.0
1001
ACAD
1000
MTEXTBEGIN
1070
    73
1070
     1
1070
    44
1040
1.0
1070
    74
1070
     0
1000
MTEXTEND
  0
POINT
  5
8DE
330
866
100
AcDbEntity
  8
Defpoints
 62
     0
100
AcDbPoint
 10
829.2012816619072
 20
319.3159719781712
 30
0.0
  0
POINT
  5
8DF
330
866
100
AcDbEntity
  8
Defpoints
 62
     0
100
AcDbPoint
 10
897.2012816619072
 20
319.365971980171
 30
0.0
  0
POINT
  5
8E0
330
866
100
AcDbEntity
  8
Defpoints
 62
     0
100
AcDbPoint
 10
897.2012816619072
 20
319.3159719781721
 30
0.0
  0
ENDBLK
  5
868
330
866
100
AcDbEntity
  8
0
100
AcDbBlockEnd
  0
BLOCK
  5
873
330
872
100
AcDbEntity
  8
0
100
AcDbBlockBegin
  2
*D35
 70
     1
 10
0.0
 20
0.0
 30
0.0
  3
*D35
  1

  0
LINE
  5
8E1
330
872
100
AcDbEntity
  8
2寸法線
 62
     0
370
    -2
100
AcDbLine
 10
826.7012816619072
 20
402.7690506873341
 30
0.0
 11
826.7012816619072
 21
386.4088175105597
 31
0.0
  0
LINE
  5
8E2
330
872
100
AcDbEntity
  8
2寸法線
 62
     0
370
    -2
100
AcDbLine
 10
899.7012816619074
 20
402.7690506873341
 30
0.0
 11
899.7012816619074
 21
386.4088175105597
 31
0.0
  0
LINE
  5
8E3
330
872
100
AcDbEntity
  8
2寸法線
 62
     0
370
    -2
100
AcDbLine
 10
829.2012816619072
 20
387.6588175105597
 30
0.0
 11
897.2012816619074
 21
387.6588175105597
 31
0.0
  0
SOLID
  5
8E4
330
872
100
AcDbEntity
  8
2寸法線
 62
     0
100
AcDbTrace
 10
829.2012816619072
 20
388.0754841772264
 30
0.0
 11
829.2012816619072
 21
387.2421508438931
 31
0.0
 12
826.7012816619072
 22
387.6588175105597
 32
0.0
 13
826.7012816619072
 23
387.6588175105597
 33
0.0
  0
SOLID
  5
8E5
330
872
100
AcDbEntity
  8
2寸法線
 62
     0
100
AcDbTrace
 10
897.2012816619074
 20
388.0754841772264
 30
0.0
 11
897.2012816619074
 21
387.2421508438931
 31
0.0
 12
899.7012816619074
 22
387.6588175105597
 32
0.0
 13
899.7012816619074
 23
387.6588175105597
 33
0.0
  0
MTEXT
  5
8E6
330
872
100
AcDbEntity
  8
2寸法線
 62
     0
100
AcDbMText
 10
863.2012816619074
 20
389.5338175105597
 30
0.0
 40
2.5
 41
0.0
 71
     5
 72
     1
  1
\A1;73
 73
     1
 44
1.0
1001
ACAD
1000
MTEXTBEGIN
1070
    73
1070
     1
1070
    44
1040
1.0
1070
    74
1070
     0
1000
MTEXTEND
  0
POINT
  5
8E7
330
872
100
AcDbEntity
  8
Defpoints
 62
     0
100
AcDbPoint
 10
826.7012816619072
 20
403.394050687334
 30
0.0
  0
POINT
  5
8E8
330
872
100
AcDbEntity
  8
Defpoints
 62
     0
100
AcDbPoint
 10
899.7012816619074
 20
403.394050687334
 30
0.0
  0
POINT
  5
8E9
330
872
100
AcDbEntity
  8
Defpoints
 62
     0
100
AcDbPoint
 10
899.7012816619074
 20
387.6588175105597
 30
0.0
  0
ENDBLK
  5
874
330
872
100
AcDbEntity
  8
0
100
AcDbBlockEnd
  0
ENDSEC
  0
SECTION
  2
ENTITIES
  0
TEXT
  5
140
330
1BA
100
AcDbEntity
  8
1外形線
100
AcDbText
 10
87.36841971011811
 20
433.5569920238807
 30
0.0
 40
10.0
  1
MK-75
  7
KANJI
100
AcDbText
  0
LINE
  5
1F3
330
1BA
100
AcDbEntity
  8
C4
100
AcDbLine
 10
441.312826288266
 20
395.9734853621108
 30
0.0
 11
441.312826288266
 21
355.9734853621106
 31
0.0
  0
LINE
  5
1F8
330
1BA
100
AcDbEntity
  8
C4
100
AcDbLine
 10
441.312826288266
 20
281.9734853621108
 30
0.0
 11
441.312826288266
 21
355.9734853621106
 31
0.0
  0
LINE
  5
1FA
330
1BA
100
AcDbEntity
  8
C4
100
AcDbLine
 10
387.6767873189448
 20
315.9734853621108
 30
0.0
 11
441.312826288266
 21
315.9734853621107
 31
0.0
  0
LINE
  5
200
330
1BA
100
AcDbEntity
  8
C4
100
AcDbLine
 10
382.7270398506389
 20
318.0237378938051
 30
0.0
 11
375.3630788199599
 21
325.3876989244842
 31
0.0
  0
LINE
  5
202
330
1BA
100
AcDbEntity
  8
C4
100
AcDbLine
 10
387.6767873189446
 20
395.9734853621108
 30
0.0
 11
441.312826288266
 21
395.9734853621108
 31
0.0
  0
LINE
  5
205
330
1BA
100
AcDbEntity
  8
C4
100
AcDbLine
 10
373.3128262882658
 20
381.6095243314316
 30
0.0
 11
373.3128262882658
 21
355.9734853621108
 31
0.0
  0
LINE
  5
208
330
1BA
100
AcDbEntity
  8
C4
100
AcDbLine
 10
373.3128262882658
 20
330.3374463927899
 30
0.0
 11
373.3128262882658
 21
355.9734853621108
 31
0.0
  0
LINE
  5
20C
330
1BA
100
AcDbEntity
  8
C4
100
AcDbLine
 10
382.7270398506387
 20
393.9232328304165
 30
0.0
 11
375.3630788199599
 21
386.5592717997373
 31
0.0
  0
LINE
  5
212
330
1BA
100
AcDbEntity
  8
C4
100
AcDbLine
 10
316.7045908028068
 20
395.9734853621108
 30
0.0
 11
212.7045908028068
 21
395.9734853621108
 31
0.0
  0
LINE
  5
214
330
1BA
100
AcDbEntity
  8
C4
100
AcDbLine
 10
316.7045908028068
 20
315.9734853621108
 30
0.0
 11
294.7045908028068
 21
315.9734853621108
 31
0.0
  0
LINE
  5
215
330
1BA
100
AcDbEntity
  8
C4
100
AcDbLine
 10
319.7045908028068
 20
394.9734853621108
 30
0.0
 11
319.7045908028068
 21
316.9734853621108
 31
0.0
  0
LINE
  5
216
330
1BA
100
AcDbEntity
  8
C4
100
AcDbLine
 10
284.2661042796273
 20
281.9734853621108
 30
0.0
 11
206.7045908028068
 21
281.973485362111
 31
0.0
  0
LINE
  5
225
330
1BA
100
AcDbEntity
  8
C4
100
AcDbLine
 10
285.2661042796274
 20
306.9734853621107
 30
0.0
 11
285.2661042796274
 21
284.9734853621108
 31
0.0
  0
LINE
  5
226
330
1BA
100
AcDbEntity
  8
C4
100
AcDbLine
 10
319.7045908028068
 20
384.5090192680432
 30
0.0
 11
221.7305703736947
 21
384.5090192680432
 31
0.0
  0
LINE
  5
227
330
1BA
100
AcDbEntity
  8
C4
100
AcDbLine
 10
319.7045908028068
 20
327.4379514561783
 30
0.0
 11
292.1165212962258
 21
327.4379514561783
 31
0.0
  0
LINE
  5
228
330
1BA
100
AcDbEntity
  8
C4
100
AcDbLine
 10
273.8016381855599
 20
281.9734853621108
 30
0.0
 11
273.8016381855599
 21
309.7416417563446
 31
0.0
  0
LINE
  5
229
330
1BA
100
AcDbEntity
  8
C4
100
AcDbLine
 10
216.7305703736949
 20
281.9734853621108
 30
0.0
 11
216.7305703736948
 21
379.5090192680433
 31
0.0
  0
ARC
  5
22B
330
1BA
100
AcDbEntity
  8
C4
100
AcDbCircle
 10
221.7305703736947
 20
379.5090192680433
 30
0.0
 40
5.0
100
AcDbArc
 50
90.0
 51
180.0
  0
LINE
  5
23B
330
1BA
100
AcDbEntity
  8
C4
100
AcDbLine
 10
285.2661042796274
 20
306.9734853621107
 30
0.0
 11
294.7045908028068
 21
315.9734853621108
 31
0.0
  0
LINE
  5
23C
330
1BA
100
AcDbEntity
  8
C4
100
AcDbLine
 10
275.3511585304063
 20
313.3602312811968
 30
0.0
 11
288.6660416410723
 21
326.0565409810307
 31
0.0
  0
ARC
  5
23D
330
1BA
100
AcDbEntity
  8
C4
100
AcDbCircle
 10
278.8016381855598
 20
309.7416417563446
 30
0.0
 40
5.0
100
AcDbArc
 50
133.6377031194884
 51
180.0000000000001
  0
ARC
  5
23E
330
1BA
100
AcDbEntity
  8
C4
100
AcDbCircle
 10
292.1165212962258
 20
322.4379514561783
 30
0.0
 40
5.0
100
AcDbArc
 50
89.99999999999994
 51
133.6377031194883
  0
LINE
  5
23F
330
1BA
100
AcDbEntity
  8
C4
100
AcDbLine
 10
374.3128262882659
 20
281.9734853621108
 30
0.0
 11
441.312826288266
 21
281.9734853621108
 31
0.0
  0
LINE
  5
240
330
1BA
100
AcDbEntity
  8
C4
100
AcDbLine
 10
373.3128262882658
 20
330.5445531739761
 30
0.0
 11
373.3128262882658
 21
284.9734853621108
 31
0.0
  0
LINE
  5
241
330
1BA
100
AcDbEntity
  8
C4
100
AcDbLine
 10
384.7772923823328
 20
316.6022273142397
 30
0.0
 11
384.7772923823328
 21
281.9734853621108
 31
0.0
  0
LINE
  5
243
330
1BA
100
AcDbEntity
  8
C4
100
AcDbLine
 10
154.8418682557186
 20
330.5445531739761
 30
0.0
 11
154.8418682557186
 21
355.9734853621108
 31
0.0
  0
LINE
  5
245
330
1BA
100
AcDbEntity
  8
C4
100
AcDbLine
 10
86.84186825571872
 20
281.9734853621108
 30
0.0
 11
86.84186825571872
 21
355.9734853621106
 31
0.0
  0
LINE
  5
246
330
1BA
100
AcDbEntity
  8
C4
100
AcDbLine
 10
143.3774021616515
 20
395.2998332705441
 30
0.0
 11
143.3774021616517
 21
281.9734853621108
 31
0.0
  0
LINE
  5
247
330
1BA
100
AcDbEntity
  8
C4
100
AcDbLine
 10
154.8418682557186
 20
330.5445531739761
 30
0.0
 11
154.8418682557186
 21
284.9734853621108
 31
0.0
  0
LINE
  5
248
330
1BA
100
AcDbEntity
  8
C4
100
AcDbLine
 10
153.8418682557185
 20
281.9734853621108
 30
0.0
 11
86.84186825571872
 21
281.9734853621108
 31
0.0
  0
LINE
  5
251
330
1BA
100
AcDbEntity
  8
C4
100
AcDbLine
 10
86.84186825571872
 20
395.9734853621108
 30
0.0
 11
86.84186825571872
 21
355.9734853621106
 31
0.0
  0
ARC
  5
252
330
1BA
100
AcDbEntity
  8
C4
100
AcDbCircle
 10
147.3418682557186
 20
381.4024175502456
 30
0.0
 40
7.500000000000013
100
AcDbArc
 50
0.000000000000007
 51
44.9999999999997
  0
LINE
  5
254
330
1BA
100
AcDbEntity
  8
C4
100
AcDbLine
 10
154.8418682557186
 20
381.4024175502456
 30
0.0
 11
154.8418682557186
 21
355.9734853621108
 31
0.0
  0
LINE
  5
256
330
1BA
100
AcDbEntity
  8
C4
100
AcDbLine
 10
140.2708004438531
 20
395.9734853621108
 30
0.0
 11
86.84186825571872
 21
395.9734853621108
 31
0.0
  0
ARC
  5
259
330
1BA
100
AcDbEntity
  8
C4
100
AcDbCircle
 10
140.2708004438531
 20
388.4734853621108
 30
0.0
 40
7.500000000000013
100
AcDbArc
 50
44.9999999999997
 51
90.0
  0
LINE
  5
25B
330
1BA
100
AcDbEntity
  8
C4
100
AcDbLine
 10
145.5741013027524
 20
393.7767862210101
 30
0.0
 11
152.6451691146178
 21
386.7057184091443
 31
0.0
  0
LINE
  5
25C
330
1BA
100
AcDbEntity
  8
C4
100
AcDbLine
 10
154.8418682557186
 20
284.9734853621108
 30
0.0
 11
86.84186825571872
 21
284.9734853621108
 31
0.0
  0
LINE
  5
25E
330
1BA
100
AcDbEntity
  8
C4
100
AcDbLine
 10
153.8418682557185
 20
281.9734853621108
 30
0.0
 11
154.8418682557186
 21
284.9734853621108
 31
0.0
  0
LINE
  5
25F
330
1BA
100
AcDbEntity
  8
C4
100
AcDbLine
 10
285.2661042796274
 20
284.9734853621108
 30
0.0
 11
205.7045908028068
 21
284.973485362111
 31
0.0
  0
LINE
  5
261
330
1BA
100
AcDbEntity
  8
C4
100
AcDbLine
 10
205.7045908028068
 20
284.9734853621108
 30
0.0
 11
206.7045908028068
 21
281.973485362111
 31
0.0
  0
LINE
  5
263
330
1BA
100
AcDbEntity
  8
C4
100
AcDbLine
 10
284.2661042796273
 20
281.9734853621108
 30
0.0
 11
285.2661042796274
 21
284.9734853621108
 31
0.0
  0
LINE
  5
264
330
1BA
100
AcDbEntity
  8
C4
100
AcDbLine
 10
316.7045908028068
 20
395.9734853621108
 30
0.0
 11
316.7045908028068
 21
315.9734853621108
 31
0.0
  0
LINE
  5
266
330
1BA
100
AcDbEntity
  8
C4
100
AcDbLine
 10
316.7045908028068
 20
395.9734853621108
 30
0.0
 11
319.7045908028068
 21
394.9734853621108
 31
0.0
  0
LINE
  5
268
330
1BA
100
AcDbEntity
  8
C4
100
AcDbLine
 10
316.7045908028068
 20
315.9734853621108
 30
0.0
 11
319.7045908028068
 21
316.9734853621108
 31
0.0
  0
LINE
  5
269
330
1BA
100
AcDbEntity
  8
C4
100
AcDbLine
 10
373.3128262882658
 20
284.9734853621108
 30
0.0
 11
441.312826288266
 21
284.9734853621109
 31
0.0
  0
LINE
  5
26B
330
1BA
100
AcDbEntity
  8
C4
100
AcDbLine
 10
374.3128262882659
 20
281.9734853621108
 30
0.0
 11
373.3128262882658
 21
284.9734853621108
 31
0.0
  0
LINE
  5
26F
330
1BA
100
AcDbEntity
  8
1外形線
100
AcDbLine
 10
37.36842050492986
 20
461.5183278764479
 30
0.0
 11
494.8684205049296
 21
461.5183278764479
 31
0.0
  0
LINE
  5
270
330
1BA
100
AcDbEntity
  8
1外形線
100
AcDbLine
 10
37.36842050492986
 20
461.5183278764479
 30
0.0
 11
37.36842050492986
 21
30.20624167051926
 31
0.0
  0
LINE
  5
271
330
1BA
100
AcDbEntity
  8
1外形線
100
AcDbLine
 10
494.8684205049296
 20
257.5183278764479
 30
0.0
 11
37.36842050492986
 21
257.5183278764479
 31
0.0
  0
LINE
  5
272
330
1BA
100
AcDbEntity
  8
1外形線
100
AcDbLine
 10
494.8684205049296
 20
461.5183278764479
 30
0.0
 11
494.8684205049296
 21
30.20624167051926
 31
0.0
  0
LINE
  5
298
330
1BA
100
AcDbEntity
  8
1外形線
100
AcDbLine
 10
440.8952471710655
 20
65.55529196590088
 30
0.0
 11
440.8952471710655
 21
189.5552919659008
 31
0.0
  0
LINE
  5
29A
330
1BA
100
AcDbEntity
  8
1外形線
100
AcDbLine
 10
367.8952471710656
 20
120.161893683699
 30
0.0
 11
367.8952471710656
 21
144.5552919659008
 31
0.0
  0
LINE
  5
29D
330
1BA
100
AcDbEntity
  8
1外形線
100
AcDbLine
 10
388.5018488888635
 20
99.5552919659009
 30
0.0
 11
440.8952471710655
 21
99.5552919659009
 31
0.0
  0
LINE
  5
2A3
330
1BA
100
AcDbEntity
  8
1外形線
100
AcDbLine
 10
381.430781076998
 20
102.4842241540355
 30
0.0
 11
370.8241793592001
 21
113.0908258718336
 31
0.0
  0
LINE
  5
2A9
330
1BA
100
AcDbEntity
  8
1外形線
100
AcDbLine
 10
388.5018488888636
 20
189.5552919659008
 30
0.0
 11
440.8952471710655
 21
189.5552919659008
 31
0.0
  0
LINE
  5
2AC
330
1BA
100
AcDbEntity
  8
1外形線
100
AcDbLine
 10
367.8952471710656
 20
168.9486902481028
 30
0.0
 11
367.8952471710656
 21
144.5552919659008
 31
0.0
  0
LINE
  5
2AF
330
1BA
100
AcDbEntity
  8
1外形線
100
AcDbLine
 10
381.4307810769981
 20
186.6263597777663
 30
0.0
 11
370.8241793592001
 21
176.0197580599682
 31
0.0
  0
LINE
  5
2B7
330
1BA
100
AcDbEntity
  8
1外形線
100
AcDbLine
 10
326.0484280764113
 20
189.5552919659009
 30
0.0
 11
215.0484280764111
 21
189.5552919659008
 31
0.0
  0
LINE
  5
2B8
330
1BA
100
AcDbEntity
  8
1外形線
100
AcDbLine
 10
329.0484280764112
 20
173.0908258718335
 30
0.0
 11
226.5128941704785
 21
173.0908258718335
 31
0.0
  0
LINE
  5
2B9
330
1BA
100
AcDbEntity
  8
1外形線
100
AcDbLine
 10
205.0484280764111
 20
179.5552919659008
 30
0.0
 11
205.0484280764111
 21
68.55529196590087
 31
0.0
  0
LINE
  5
2BA
330
1BA
100
AcDbEntity
  8
1外形線
100
AcDbLine
 10
329.0484280764113
 20
116.0197580599682
 30
0.0
 11
299.2996907348821
 21
116.0197580599682
 31
0.0
  0
LINE
  5
2BB
330
1BA
100
AcDbEntity
  8
1外形線
100
AcDbLine
 10
326.0484280764113
 20
99.55529196590099
 30
0.0
 11
304.0484280764113
 21
99.55529196590099
 31
0.0
  0
LINE
  5
2BC
330
1BA
100
AcDbEntity
  8
1外形線
100
AcDbLine
 10
329.0484280764112
 20
188.5552919659009
 30
0.0
 11
329.0484280764113
 21
100.5552919659009
 31
0.0
  0
LINE
  5
2BD
330
1BA
100
AcDbEntity
  8
1外形線
100
AcDbLine
 10
294.048428076411
 20
65.55529196590088
 30
0.0
 11
206.0484280764111
 21
65.55529196590088
 31
0.0
  0
LINE
  5
2C0
330
1BA
100
AcDbEntity
  8
1外形線
100
AcDbLine
 10
278.5839619823438
 20
65.55529196590088
 30
0.0
 11
278.5839619823438
 21
95.30402930742992
 31
0.0
  0
LINE
  5
2C1
330
1BA
100
AcDbEntity
  8
1外形線
100
AcDbLine
 10
221.5128941704783
 20
65.55529196590088
 30
0.0
 11
221.5128941704785
 21
168.0908258718336
 31
0.0
  0
ARC
  5
2C3
330
1BA
100
AcDbEntity
  8
1外形線
100
AcDbCircle
 10
226.5128941704785
 20
168.0908258718336
 30
0.0
 40
5.0
100
AcDbArc
 50
90.0
 51
180.0
  0
LINE
  5
2C4
330
1BA
100
AcDbEntity
  8
1外形線
100
AcDbLine
 10
295.0484280764111
 20
68.55529196590087
 30
0.0
 11
295.0484280764111
 21
90.55529196590084
 31
0.0
  0
LINE
  5
2D2
330
1BA
100
AcDbEntity
  8
1外形線
100
AcDbLine
 10
368.8952471710653
 20
65.55529196590088
 30
0.0
 11
440.8952471710655
 21
65.55529196590088
 31
0.0
  0
LINE
  5
2D4
330
1BA
100
AcDbEntity
  8
1外形線
100
AcDbLine
 10
367.8952471710652
 20
120.161893683699
 30
0.0
 11
367.8952471710653
 21
68.55529196590089
 31
0.0
  0
LINE
  5
2D5
330
1BA
100
AcDbEntity
  8
1外形線
100
AcDbLine
 10
384.3597132651325
 20
100.4534947546563
 30
0.0
 11
384.3597132651326
 21
65.55529196590088
 31
0.0
  0
LINE
  5
2D6
330
1BA
100
AcDbEntity
  8
1外形線
100
AcDbLine
 10
367.8952471710653
 20
68.55529196590087
 30
0.0
 11
440.8952471710655
 21
68.55529196590085
 31
0.0
  0
LINE
  5
2D8
330
1BA
100
AcDbEntity
  8
1外形線
100
AcDbLine
 10
367.8952471710653
 20
68.55529196590089
 30
0.0
 11
368.8952471710653
 21
65.55529196590088
 31
0.0
  0
LINE
  5
2D9
330
1BA
100
AcDbEntity
  8
1外形線
100
AcDbLine
 10
326.0484280764111
 20
189.5552919659009
 30
0.0
 11
326.0484280764113
 21
99.55529196590099
 31
0.0
  0
LINE
  5
2DB
330
1BA
100
AcDbEntity
  8
1外形線
100
AcDbLine
 10
326.0484280764113
 20
189.5552919659009
 30
0.0
 11
329.0484280764112
 21
188.5552919659009
 31
0.0
  0
LINE
  5
2DD
330
1BA
100
AcDbEntity
  8
1外形線
100
AcDbLine
 10
326.0484280764113
 20
99.55529196590099
 30
0.0
 11
329.0484280764113
 21
100.5552919659009
 31
0.0
  0
LINE
  5
2DE
330
1BA
100
AcDbEntity
  8
1外形線
100
AcDbLine
 10
295.0484280764111
 20
68.55529196590087
 30
0.0
 11
205.0484280764111
 21
68.55529196590087
 31
0.0
  0
LINE
  5
2E0
330
1BA
100
AcDbEntity
  8
1外形線
100
AcDbLine
 10
294.048428076411
 20
65.55529196590088
 30
0.0
 11
295.0484280764111
 21
68.55529196590087
 31
0.0
  0
LINE
  5
2E2
330
1BA
100
AcDbEntity
  8
1外形線
100
AcDbLine
 10
206.0484280764111
 20
65.55529196590088
 30
0.0
 11
205.0484280764111
 21
68.55529196590087
 31
0.0
  0
LINE
  5
2E5
330
1BA
100
AcDbEntity
  8
1外形線
100
AcDbLine
 10
295.0484280764111
 20
90.55529196590084
 30
0.0
 11
304.0484280764113
 21
99.55529196590099
 31
0.0
  0
LINE
  5
2E7
330
1BA
100
AcDbEntity
  8
1外形線
100
AcDbLine
 10
280.0484280764111
 20
98.83956321336263
 30
0.0
 11
295.7641568289492
 21
114.5552919659009
 31
0.0
  0
ARC
  5
2E8
330
1BA
100
AcDbEntity
  8
1外形線
100
AcDbCircle
 10
283.5839619823438
 20
95.30402930742992
 30
0.0
 40
5.0
100
AcDbArc
 50
135.0
 51
180.0
  0
ARC
  5
2E9
330
1BA
100
AcDbEntity
  8
1外形線
100
AcDbCircle
 10
299.2996907348821
 20
111.0197580599682
 30
0.0
 40
5.0
100
AcDbArc
 50
90.0
 51
135.0
  0
LINE
  5
2EB
330
1BA
100
AcDbEntity
  8
1外形線
100
AcDbLine
 10
146.6587242873821
 20
187.3585928248001
 30
0.0
 11
158.7297920992476
 21
175.2875250129344
 31
0.0
  0
LINE
  5
2ED
330
1BA
100
AcDbEntity
  8
1外形線
100
AcDbLine
 10
87.92649124034836
 20
65.55529196590088
 30
0.0
 11
87.92649124034847
 21
189.5552919659008
 31
0.0
  0
LINE
  5
2EE
330
1BA
100
AcDbEntity
  8
1外形線
100
AcDbLine
 10
160.9264912403485
 20
68.55529196590087
 30
0.0
 11
87.92649124034836
 21
68.55529196590087
 31
0.0
  0
LINE
  5
2EF
330
1BA
100
AcDbEntity
  8
1外形線
100
AcDbLine
 10
159.9264912403487
 20
65.55529196590088
 30
0.0
 11
87.92649124034836
 21
65.55529196590088
 31
0.0
  0
LINE
  5
2F3
330
1BA
100
AcDbEntity
  8
1外形線
100
AcDbLine
 10
144.4620251462815
 20
188.8816398743341
 30
0.0
 11
144.4620251462814
 21
65.55529196590088
 31
0.0
  0
LINE
  5
2F4
330
1BA
100
AcDbEntity
  8
1外形線
100
AcDbLine
 10
160.9264912403485
 20
119.1263597777663
 30
0.0
 11
160.9264912403485
 21
68.55529196590089
 31
0.0
  0
LINE
  5
2F5
330
1BA
100
AcDbEntity
  8
1外形線
100
AcDbLine
 10
160.9264912403485
 20
68.55529196590089
 30
0.0
 11
159.9264912403487
 21
65.55529196590088
 31
0.0
  0
LINE
  5
2F7
330
1BA
100
AcDbEntity
  8
1外形線
100
AcDbLine
 10
160.9264912403485
 20
119.1263597777663
 30
0.0
 11
160.9264912403485
 21
144.5552919659008
 31
0.0
  0
LINE
  5
2FF
330
1BA
100
AcDbEntity
  8
1外形線
100
AcDbLine
 10
160.9264912403485
 20
169.9842241540356
 30
0.0
 11
160.9264912403485
 21
144.5552919659008
 31
0.0
  0
ARC
  5
302
330
1BA
100
AcDbEntity
  8
1外形線
100
AcDbCircle
 10
153.4264912403485
 20
169.9842241540356
 30
0.0
 40
7.500000000000111
100
AcDbArc
 50
0.000000000000007
 51
45.00000000000027
  0
LINE
  5
303
330
1BA
100
AcDbEntity
  8
1外形線
100
AcDbLine
 10
141.355423428483
 20
189.5552919659008
 30
0.0
 11
87.92649124034847
 21
189.5552919659008
 31
0.0
  0
ARC
  5
304
330
1BA
100
AcDbEntity
  8
1外形線
100
AcDbCircle
 10
141.355423428483
 20
182.0552919659007
 30
0.0
 40
7.500000000000111
100
AcDbArc
 50
45.00000000000027
 51
90.0
  0
TEXT
  5
312
330
1BA
100
AcDbEntity
  8
1外形線
100
AcDbText
 10
87.36841971011811
 20
222.2904641658693
 30
0.0
 40
10.0
  1
MK-85
  7
KANJI
100
AcDbText
  0
LINE
  5
313
330
1BA
100
AcDbEntity
  8
1外形線
100
AcDbLine
 10
494.8684205049296
 20
30.20624167051926
 30
0.0
 11
37.36842050492986
 21
30.20624167051926
 31
0.0
  0
ARC
  5
68D
330
1BA
100
AcDbEntity
  8
C4
100
AcDbCircle
 10
387.6767873189446
 20
388.9734853621108
 30
0.0
 40
7.0
100
AcDbArc
 50
90.0
 51
135.0000000000016
  0
ARC
  5
68E
330
1BA
100
AcDbEntity
  8
C4
100
AcDbCircle
 10
380.3128262882659
 20
381.6095243314316
 30
0.0
 40
7.0
100
AcDbArc
 50
135.0000000000015
 51
180.0
  0
ARC
  5
68F
330
1BA
100
AcDbEntity
  8
C4
100
AcDbCircle
 10
380.3128262882659
 20
330.3374463927899
 30
0.0
 40
7.0
100
AcDbArc
 50
180.0
 51
224.9999999999991
  0
ARC
  5
690
330
1BA
100
AcDbEntity
  8
C4
100
AcDbCircle
 10
387.6767873189448
 20
322.9734853621108
 30
0.0
 40
7.0
100
AcDbArc
 50
224.9999999999991
 51
269.9999999999999
  0
ARC
  5
69E
330
1BA
100
AcDbEntity
  8
1外形線
100
AcDbCircle
 10
388.5018488888635
 20
109.5552919659009
 30
0.0
 40
10.0
100
AcDbArc
 50
224.9999999999994
 51
270.0
  0
ARC
  5
69F
330
1BA
100
AcDbEntity
  8
1外形線
100
AcDbCircle
 10
377.8952471710656
 20
120.161893683699
 30
0.0
 40
10.0
100
AcDbArc
 50
180.0
 51
224.9999999999994
  0
ARC
  5
6A0
330
1BA
100
AcDbEntity
  8
1外形線
100
AcDbCircle
 10
377.8952471710656
 20
168.9486902481028
 30
0.0
 40
10.0
100
AcDbArc
 50
135.0
 51
180.0
  0
ARC
  5
6A1
330
1BA
100
AcDbEntity
  8
1外形線
100
AcDbCircle
 10
388.5018488888636
 20
179.5552919659008
 30
0.0
 40
10.0
100
AcDbArc
 50
90.0
 51
135.0000000000001
  0
LINE
  5
6D1
330
1BA
100
AcDbEntity
  8
C4
100
AcDbLine
 10
205.7045908028068
 20
388.9734853621108
 30
0.0
 11
205.7045908028068
 21
284.9734853621108
 31
0.0
  0
ARC
  5
70A
330
1BA
100
AcDbEntity
  8
C4
100
AcDbCircle
 10
212.7045908028068
 20
388.9734853621108
 30
0.0
 40
7.0
100
AcDbArc
 50
90.0
 51
180.0
  0
ARC
  5
70B
330
1BA
100
AcDbEntity
  8
1外形線
100
AcDbCircle
 10
215.0484280764111
 20
179.5552919659008
 30
0.0
 40
10.0
100
AcDbArc
 50
90.00000000000005
 51
180.0
  0
LINE
  5
8EA
330
1BA
100
AcDbEntity
  8
1外形線
100
AcDbLine
 10
438.8128262882659
 20
318.4608588172601
 30
0.0
 11
438.8128262882659
 21
393.4734853621105
 31
0.0
  0
LINE
  5
8EB
330
1BA
100
AcDbEntity
  8
1外形線
100
AcDbLine
 10
387.8838941001313
 20
318.4734853621107
 30
0.0
 11
441.312826288266
 21
318.4734853621107
 31
0.0
  0
ARC
  5
8EC
330
1BA
100
AcDbEntity
  8
1外形線
100
AcDbCircle
 10
387.8838941001313
 20
323.4734853621107
 30
0.0
 40
5.0
100
AcDbArc
 50
224.9999999999997
 51
270.0
  0
LINE
  5
8ED
330
1BA
100
AcDbEntity
  8
1外形線
100
AcDbLine
 10
384.3483601941984
 20
319.9379514561782
 30
0.0
 11
377.2772923823333
 21
327.0090192680437
 31
0.0
  0
LINE
  5
8EE
330
1BA
100
AcDbEntity
  8
1外形線
100
AcDbLine
 10
387.8838941001313
 20
393.4734853621107
 30
0.0
 11
441.312826288266
 21
393.4734853621107
 31
0.0
  0
ARC
  5
8EF
330
1BA
100
AcDbEntity
  8
1外形線
100
AcDbCircle
 10
387.8838941001313
 20
388.4734853621107
 30
0.0
 40
5.0
100
AcDbArc
 50
90.0
 51
135.0000000000003
  0
LINE
  5
8F0
330
1BA
100
AcDbEntity
  8
1外形線
100
AcDbLine
 10
375.812826288266
 20
381.4024175502453
 30
0.0
 11
375.812826288266
 21
330.5445531739763
 31
0.0
  0
ARC
  5
8F1
330
1BA
100
AcDbEntity
  8
1外形線
100
AcDbCircle
 10
380.8128262882659
 20
330.5445531739763
 30
0.0
 40
5.0
100
AcDbArc
 50
180.0
 51
224.9999999999997
  0
LINE
  5
8F2
330
1BA
100
AcDbEntity
  8
1外形線
100
AcDbLine
 10
384.3483601941985
 20
392.0090192680435
 30
0.0
 11
377.2772923823333
 21
384.9379514561779
 31
0.0
  0
ARC
  5
8F3
330
1BA
100
AcDbEntity
  8
1外形線
100
AcDbCircle
 10
380.8128262882659
 20
381.4024175502453
 30
0.0
 40
5.0
100
AcDbArc
 50
135.0000000000003
 51
180.0
  0
LINE
  5
8F4
330
1BA
100
AcDbEntity
  8
1外形線
100
AcDbLine
 10
438.3952471710654
 20
102.0552919659009
 30
0.0
 11
438.3952471710654
 21
187.0552919659008
 31
0.0
  0
LINE
  5
8F5
330
1BA
100
AcDbEntity
  8
1外形線
100
AcDbLine
 10
389.9832170426381
 20
102.0552919659009
 30
0.0
 11
440.8952471710655
 21
102.0552919659009
 31
0.0
  0
ARC
  5
8F6
330
1BA
100
AcDbEntity
  8
1外形線
100
AcDbCircle
 10
389.9832170426381
 20
110.0552919659009
 30
0.0
 40
8.0
100
AcDbArc
 50
224.9999897298366
 51
270.0
  0
LINE
  5
8F7
330
1BA
100
AcDbEntity
  8
1外形線
100
AcDbLine
 10
389.9832170426379
 20
187.0552919659008
 30
0.0
 11
440.8952471710654
 21
187.0552919659008
 31
0.0
  0
ARC
  5
8F8
330
1BA
100
AcDbEntity
  8
1外形線
100
AcDbCircle
 10
389.9832170426379
 20
179.0552919659007
 30
0.0
 40
8.0
100
AcDbArc
 50
90.0
 51
135.0000102701634
  0
LINE
  5
8F9
330
1BA
100
AcDbEntity
  8
1外形線
  6
Continuous
370
    15
100
AcDbLine
 10
384.3263617791651
 20
104.3984387303892
 30
0.0
 11
372.7383919075925
 21
115.986412756207
 31
0.0
  0
ARC
  5
8FA
330
1BA
100
AcDbEntity
  8
1外形線
  6
Continuous
370
    15
100
AcDbCircle
 10
378.3952471710654
 20
121.6432659917187
 30
0.0
 40
8.0
100
AcDbArc
 50
180.0
 51
224.9999897298366
  0
LINE
  5
8FB
330
1BA
100
AcDbEntity
  8
1外形線
  6
Continuous
370
    15
100
AcDbLine
 10
370.3952471710654
 20
121.6432659917187
 30
0.0
 11
370.3952471710654
 21
167.4673179400831
 31
0.0
  0
LINE
  5
8FC
330
1BA
100
AcDbEntity
  8
1外形線
  6
Continuous
370
    15
100
AcDbLine
 10
372.7383919075925
 20
173.1241711755948
 30
0.0
 11
384.3263617791649
 21
184.7121452014123
 31
0.0
  0
ARC
  5
8FD
330
1BA
100
AcDbEntity
  8
1外形線
  6
Continuous
370
    15
100
AcDbCircle
 10
378.3952471710654
 20
167.4673179400831
 30
0.0
 40
8.0
100
AcDbArc
 50
135.0000102701634
 51
180.0
  0
ENDSEC
  0
SECTION
  2
OBJECTS
  0
DICTIONARY
  5
1A8
330
0
100
AcDbDictionary
281
     1
  3
ACAD_CIP_PREVIOUS_PRODUCT_INFO
350
36E
  3
ACAD_COLOR
350
352
  3
ACAD_DETAILVIEWSTYLE
350
36B
  3
ACAD_GROUP
350
1A9
  3
ACAD_LAYOUT
350
1B5
  3
ACAD_MATERIAL
350
320
  3
ACAD_MLEADERSTYLE
350
367
  3
ACAD_MLINESTYLE
350
1B2
  3
ACAD_PLOTSETTINGS
350
1B4
  3
ACAD_PLOTSTYLENAME
350
1AA
  3
ACAD_SCALELIST
350
355
  3
ACAD_SECTIONVIEWSTYLE
350
369
  3
ACAD_TABLESTYLE
350
353
  3
ACAD_VISUALSTYLE
350
339
  3
ACDB_RECOMPOSE_DATA
350
904
  3
AcDbVariableDictionary
350
26D
  3
DWGPROPS
350
905
  0
DICTIONARY
  5
43B
330
19E
100
AcDbDictionary
280
     1
281
     1
  3
ACAD_LAYERSTATES
360
43C
  0
DICTIONARY
  5
37D
330
1AC
100
AcDbDictionary
280
     1
281
     1
  3
ADSK_XREC_LAYER_RECONCILED
360
37E
  0
DICTIONARY
  5
37F
330
1BF
100
AcDbDictionary
280
     1
281
     1
  3
ADSK_XREC_LAYER_RECONCILED
360
380
  0
DICTIONARY
  5
381
330
1C0
100
AcDbDictionary
280
     1
281
     1
  3
ADSK_XREC_LAYER_RECONCILED
360
382
  0
DICTIONARY
  5
383
330
1CB
100
AcDbDictionary
280
     1
281
     1
  3
ADSK_XREC_LAYER_RECONCILED
360
384
  0
DICTIONARY
  5
370
330
1BA
100
AcDbDictionary
280
     1
281
     1
  3
ACAD_SORTENTS
360
371
  0
XRECORD
  5
36E
102
{ACAD_REACTORS
330
1A8
102
}
330
1A8
100
AcDbXrecord
280
     1
300
ACDLT
300
2020
300
ACDLT_F_S
  0
DICTIONARY
  5
352
102
{ACAD_REACTORS
330
1A8
102
}
330
1A8
100
AcDbDictionary
281
     1
  0
DICTIONARY
  5
36B
102
{ACAD_REACTORS
330
1A8
102
}
330
1A8
100
AcDbDictionary
281
     1
  3
Imperial24
350
36C
  0
DICTIONARY
  5
1A9
102
{ACAD_REACTORS
330
1A8
102
}
330
1A8
100
AcDbDictionary
281
     1
  0
DICTIONARY
  5
1B5
102
{ACAD_REACTORS
330
1A8
102
}
330
1A8
100
AcDbDictionary
281
     1
  3
Model
350
1BD
  3
\U+FF9A\U+FF72\U+FF71\U+FF73\U+FF841
350
1B9
  0
DICTIONARY
  5
320
102
{ACAD_REACTORS
330
1A8
102
}
330
1A8
100
AcDbDictionary
281
     1
  3
ByBlock
350
329
  3
ByLayer
350
321
  3
Global
350
331
  0
DICTIONARY
  5
367
102
{ACAD_REACTORS
330
1A8
102
}
330
1A8
100
AcDbDictionary
281
     1
  3
Standard
350
368
  0
DICTIONARY
  5
1B2
102
{ACAD_REACTORS
330
1A8
102
}
330
1A8
100
AcDbDictionary
281
     1
  3
Standard
350
1B3
  0
DICTIONARY
  5
1B4
102
{ACAD_REACTORS
330
1A8
102
}
330
1A8
100
AcDbDictionary
281
     1
  0
ACDBDICTIONARYWDFLT
  5
1AA
102
{ACAD_REACTORS
330
1A8
102
}
330
1A8
100
AcDbDictionary
281
     1
  3
Normal
350
1AB
100
AcDbDictionaryWithDefault
340
1AB
  0
DICTIONARY
  5
355
102
{ACAD_REACTORS
330
1A8
102
}
330
1A8
100
AcDbDictionary
281
     1
  3
A0
350
356
  3
A1
350
357
  3
A2
350
358
  3
A3
350
359
  3
A4
350
35A
  3
A5
350
35B
  3
A6
350
35C
  3
A7
350
35D
  3
A8
350
35E
  3
A9
350
35F
  3
B0
350
360
  3
B1
350
361
  3
B2
350
362
  3
B3
350
363
  3
B4
350
364
  3
B5
350
365
  3
B6
350
366
  0
DICTIONARY
  5
369
102
{ACAD_REACTORS
330
1A8
102
}
330
1A8
100
AcDbDictionary
281
     1
  3
Imperial24
350
36A
  0
DICTIONARY
  5
353
102
{ACAD_REACTORS
330
1A8
102
}
330
1A8
100
AcDbDictionary
281
     1
  3
Standard
350
354
  0
DICTIONARY
  5
339
102
{ACAD_REACTORS
330
1A8
102
}
330
1A8
100
AcDbDictionary
281
     1
  3
2dWireframe
350
33F
  3
Basic
350
33E
  3
Brighten
350
345
  3
ColorChange
350
349
  3
Conceptual
350
342
  3
Dim
350
344
  3
EdgeColorOff
350
351
  3
Facepattern
350
348
  3
Flat
350
33A
  3
FlatWithEdges
350
33B
  3
Gouraud
350
33C
  3
GouraudWithEdges
350
33D
  3
Hidden
350
341
  3
JitterOff
350
34F
  3
Linepattern
350
347
  3
OverhangOff
350
350
  3
Realistic
350
343
  3
Shaded
350
34E
  3
Shaded with edges
350
34D
  3
Shades of Gray
350
34A
  3
Sketchy
350
34B
  3
Thicken
350
346
  3
Wireframe
350
340
  3
X-Ray
350
34C
  0
XRECORD
  5
904
102
{ACAD_REACTORS
330
1A8
102
}
330
1A8
100
AcDbXrecord
280
     1
 90
        1
330
354
  0
DICTIONARY
  5
26D
102
{ACAD_REACTORS
330
1A8
102
}
330
1A8
100
AcDbDictionary
281
     1
  3
CANNOSCALE
350
389
  3
CMLEADERSTYLE
350
386
  3
CTABLESTYLE
350
385
  3
CVIEWDETAILSTYLE
350
387
  3
CVIEWSECTIONSTYLE
350
388
  3
DIMASSOC
350
26E
  3
INDEXCTL
350
38B
  3
LAYEREVAL
350
900
  3
LAYERNOTIFY
350
901
  3
LIGHTINGUNITS
350
8FF
  3
MSLTSCALE
350
8FE
  3
SORTENTS
350
38A
  3
XCLIPFRAME
350
902
  0
XRECORD
  5
905
102
{ACAD_REACTORS
330
1A8
102
}
330
1A8
100
AcDbXrecord
280
     1
  1
DWGPROPS COOKIE
  2

  3

  4

  6

  7

  8
takaaki.hirami
  9

300
=
301
=
302
=
303
=
304
=
305
=
306
=
307
=
308
=
309
=
 40
0.3069659837962963
 41
2452263.78380787
 42
2459990.434259259
  1

 90
        0
  0
DICTIONARY
  5
43C
102
{ACAD_REACTORS
330
43B
102
}
330
43B
100
AcDbDictionary
281
     1
  0
XRECORD
  5
37E
102
{ACAD_REACTORS
330
37D
102
}
330
37D
100
AcDbXrecord
280
     1
290
     1
  0
XRECORD
  5
380
102
{ACAD_REACTORS
330
37F
102
}
330
37F
100
AcDbXrecord
280
     1
290
     1
  0
XRECORD
  5
382
102
{ACAD_REACTORS
330
381
102
}
330
381
100
AcDbXrecord
280
     1
290
     1
  0
XRECORD
  5
384
102
{ACAD_REACTORS
330
383
102
}
330
383
100
AcDbXrecord
280
     1
290
     1
  0
SORTENTSTABLE
  5
371
102
{ACAD_REACTORS
330
370
102
}
330
370
100
AcDbSortentsTable
330
1BA
331
1F8
  5
200
331
1FA
  5
205
331
200
  5
209
331
202
  5
214
331
205
  5
216
331
208
  5
22A
331
20C
  5
22B
331
212
  5
23E
331
214
  5
241
331
215
  5
242
331
216
  5
248
331
225
  5
251
331
226
  5
252
331
227
  5
254
331
228
  5
256
331
229
  5
25B
331
22B
  5
25C
331
23B
  5
25E
331
23C
  5
25F
331
23D
  5
261
331
23E
  5
263
331
23F
  5
264
331
240
  5
266
331
241
  5
268
331
243
  5
269
331
245
  5
26B
331
246
  5
26F
331
247
  5
270
331
248
  5
271
331
251
  5
272
331
252
  5
298
331
254
  5
29A
331
256
  5
29B
331
259
  5
29C
331
25B
  5
29E
331
25C
  5
2A3
331
25E
  5
2A4
331
25F
  5
2A5
331
261
  5
2A6
331
263
  5
2A7
331
264
  5
2A8
331
266
  5
2A9
331
268
  5
2AA
331
269
  5
2AC
331
26B
  5
2AD
331
26F
  5
2AF
331
270
  5
2B0
331
271
  5
2B2
331
272
  5
2B3
331
298
  5
2B4
331
29A
  5
2B9
331
29D
  5
2D5
331
2A3
  5
2E5
331
2A9
  5
2E8
331
2AC
  5
2ED
331
2AF
  5
2EF
331
2B7
  5
2F7
331
2B8
  5
2FF
331
2B9
  5
302
331
2BA
  5
304
331
2BB
  5
312
331
2BC
  5
313
331
2BD
  5
36F
331
2C0
  5
372
331
2C1
  5
4FC
331
2C3
  5
4FE
331
2C4
  5
4FF
331
2D2
  5
500
331
2D4
  5
501
331
2D5
  5
502
331
2D6
  5
503
331
2D8
  5
504
331
2D9
  5
505
331
2DB
  5
506
331
2DD
  5
507
331
2DE
  5
508
331
2E0
  5
509
331
2E2
  5
50A
331
2E5
  5
50B
331
2E7
  5
50C
331
2E8
  5
50D
331
2E9
  5
50E
331
2EB
  5
50F
331
2ED
  5
510
331
2EE
  5
511
331
2EF
  5
512
331
2F3
  5
513
331
2F4
  5
514
331
2F5
  5
515
331
2F7
  5
516
331
2FF
  5
517
331
302
  5
518
331
303
  5
519
331
304
  5
51A
331
312
  5
51B
331
313
  5
51C
331
68D
  5
23B
331
68E
  5
227
331
68F
  5
20B
331
690
  5
208
331
69E
  5
2D8
331
69F
  5
2BB
331
6A0
  5
2F3
331
6A1
  5
2E9
331
6D1
  5
245
331
70A
  5
247
331
70B
  5
303
  0
ACDBDETAILVIEWSTYLE
  5
36C
102
{ACAD_XDICTIONARY
360
93D
102
}
102
{ACAD_REACTORS
330
36B
102
}
330
36B
100
AcDbModelDocViewStyle
 70
     0
  3
Imperial24
290
     0
100
AcDbDetailViewStyle
 70
     0
 71
     0
 90
        3
 71
     1
340
1AD
 40
0.24
340
0
 40
0.24
300

 40
0.36
280
     3
 71
     2
340
1B1
 90
       25
 71
     3
340
1AD
 40
0.24
 90
        1
 40
0.75
 90
        1
300
%<\AcVar ViewType \f "%tc1">% %<\AcVar ViewDetailId>%\PSCALE %<\AcVar ViewScale \f "%sn">%
 71
     4
340
1B1
 90
       25
340
1B1
 90
       25
280
     0
  0
LAYOUT
  5
1BD
102
{ACAD_XDICTIONARY
360
908
102
}
102
{ACAD_REACTORS
330
1B5
102
}
330
1B5
100
AcDbPlotSettings
  1

  2
Canon LASER SHOT LBP-1710
  4

  6

 40
0.0
 41
0.0
 42
0.0
 43
0.0
 44
0.0
 45
0.0
 46
0.0
 47
0.0
 48
0.0
 49
0.0
140
0.0
141
0.0
142
1.0
143
1.0
 70
  1712
 72
     0
 73
     0
 74
     0
  7
1mizukoshi.ctb
 75
     0
147
1.0
148
0.0
149
0.0
100
AcDbLayout
  1
Model
 70
     1
 71
     0
 10
0.0
 20
0.0
 11
12.0
 21
9.0
 12
0.0
 22
0.0
 32
0.0
 14
0.0
 24
0.0
 34
0.0
 15
0.0
 25
0.0
 35
0.0
146
0.0
 13
0.0
 23
0.0
 33
0.0
 16
1.0
 26
0.0
 36
0.0
 17
0.0
 27
1.0
 37
0.0
 76
     0
330
1BA
331
31B
  0
LAYOUT
  5
1B9
102
{ACAD_XDICTIONARY
360
906
102
}
102
{ACAD_REACTORS
330
1B5
102
}
330
1B5
100
AcDbPlotSettings
  1

  2
Canon LASER SHOT LBP-1710
  4

  6

 40
0.0
 41
0.0
 42
0.0
 43
0.0
 44
0.0
 45
0.0
 46
0.0
 47
0.0
 48
0.0
 49
0.0
140
0.0
141
0.0
142
1.0
143
1.0
 70
   688
 72
     0
 73
     0
 74
     5
  7
1mizukoshi.ctb
 75
    16
147
1.0
148
0.0
149
0.0
100
AcDbLayout
  1
\U+FF9A\U+FF72\U+FF71\U+FF73\U+FF841
 70
     1
 71
     1
 10
0.0
 20
0.0
 11
420.0
 21
297.0
 12
0.0
 22
0.0
 32
0.0
 14
1.000000000000000E+20
 24
1.000000000000000E+20
 34
1.000000000000000E+20
 15
-1.000000000000000E+20
 25
-1.000000000000000E+20
 35
-1.000000000000000E+20
146
0.0
 13
0.0
 23
0.0
 33
0.0
 16
1.0
 26
0.0
 36
0.0
 17
0.0
 27
1.0
 37
0.0
 76
     0
330
1B6
  0
MATERIAL
  5
329
102
{ACAD_XDICTIONARY
360
32A
102
}
102
{ACAD_REACTORS
330
320
102
}
330
320
100
AcDbMaterial
  1
ByBlock
 72
     0
 43
0.0208333333333333
 43
0.0
 43
0.0
 43
0.0
 43
0.0
 43
0.0208333333333333
 43
0.0
 43
0.0
 43
0.0
 43
0.0
 43
1.0
 43
0.0
 43
0.0
 43
0.0
 43
0.0
 43
1.0
 77
     0
 47
0.0208333333333333
 47
0.0
 47
0.0
 47
0.0
 47
0.0
 47
0.0208333333333333
 47
0.0
 47
0.0
 47
0.0
 47
0.0
 47
1.0
 47
0.0
 47
0.0
 47
0.0
 47
0.0
 47
1.0
171
     0
 49
0.0208333333333333
 49
0.0
 49
0.0
 49
0.0
 49
0.0
 49
0.0208333333333333
 49
0.0
 49
0.0
 49
0.0
 49
0.0
 49
1.0
 49
0.0
 49
0.0
 49
0.0
 49
0.0
 49
1.0
175
     0
142
0.0208333333333333
142
0.0
142
0.0
142
0.0
142
0.0
142
0.0208333333333333
142
0.0
142
0.0
142
0.0
142
0.0
142
1.0
142
0.0
142
0.0
142
0.0
142
0.0
142
1.0
179
     0
144
0.0208333333333333
144
0.0
144
0.0
144
0.0
144
0.0
144
0.0208333333333333
144
0.0
144
0.0
144
0.0
144
0.0
144
1.0
144
0.0
144
0.0
144
0.0
144
0.0
144
1.0
147
0.0208333333333333
147
0.0
147
0.0
147
0.0
147
0.0
147
0.0208333333333333
147
0.0
147
0.0
147
0.0
147
0.0
147
1.0
147
0.0
147
0.0
147
0.0
147
0.0
147
1.0
  0
MATERIAL
  5
321
102
{ACAD_XDICTIONARY
360
322
102
}
102
{ACAD_REACTORS
330
320
102
}
330
320
100
AcDbMaterial
  1
ByLayer
 72
     0
 43
0.0208333333333333
 43
0.0
 43
0.0
 43
0.0
 43
0.0
 43
0.0208333333333333
 43
0.0
 43
0.0
 43
0.0
 43
0.0
 43
1.0
 43
0.0
 43
0.0
 43
0.0
 43
0.0
 43
1.0
 77
     0
 47
0.0208333333333333
 47
0.0
 47
0.0
 47
0.0
 47
0.0
 47
0.0208333333333333
 47
0.0
 47
0.0
 47
0.0
 47
0.0
 47
1.0
 47
0.0
 47
0.0
 47
0.0
 47
0.0
 47
1.0
171
     0
 49
0.0208333333333333
 49
0.0
 49
0.0
 49
0.0
 49
0.0
 49
0.0208333333333333
 49
0.0
 49
0.0
 49
0.0
 49
0.0
 49
1.0
 49
0.0
 49
0.0
 49
0.0
 49
0.0
 49
1.0
175
     0
142
0.0208333333333333
142
0.0
142
0.0
142
0.0
142
0.0
142
0.0208333333333333
142
0.0
142
0.0
142
0.0
142
0.0
142
1.0
142
0.0
142
0.0
142
0.0
142
0.0
142
1.0
179
     0
144
0.0208333333333333
144
0.0
144
0.0
144
0.0
144
0.0
144
0.0208333333333333
144
0.0
144
0.0
144
0.0
144
0.0
144
1.0
144
0.0
144
0.0
144
0.0
144
0.0
144
1.0
147
0.0208333333333333
147
0.0
147
0.0
147
0.0
147
0.0
147
0.0208333333333333
147
0.0
147
0.0
147
0.0
147
0.0
147
1.0
147
0.0
147
0.0
147
0.0
147
0.0
147
1.0
  0
MATERIAL
  5
331
102
{ACAD_XDICTIONARY
360
332
102
}
102
{ACAD_REACTORS
330
320
102
}
330
320
100
AcDbMaterial
  1
Global
 72
     0
 43
0.0208333333333333
 43
0.0
 43
0.0
 43
0.0
 43
0.0
 43
0.0208333333333333
 43
0.0
 43
0.0
 43
0.0
 43
0.0
 43
1.0
 43
0.0
 43
0.0
 43
0.0
 43
0.0
 43
1.0
 77
     0
 47
0.0208333333333333
 47
0.0
 47
0.0
 47
0.0
 47
0.0
 47
0.0208333333333333
 47
0.0
 47
0.0
 47
0.0
 47
0.0
 47
1.0
 47
0.0
 47
0.0
 47
0.0
 47
0.0
 47
1.0
171
     0
 49
0.0208333333333333
 49
0.0
 49
0.0
 49
0.0
 49
0.0
 49
0.0208333333333333
 49
0.0
 49
0.0
 49
0.0
 49
0.0
 49
1.0
 49
0.0
 49
0.0
 49
0.0
 49
0.0
 49
1.0
175
     0
142
0.0208333333333333
142
0.0
142
0.0
142
0.0
142
0.0
142
0.0208333333333333
142
0.0
142
0.0
142
0.0
142
0.0
142
1.0
142
0.0
142
0.0
142
0.0
142
0.0
142
1.0
179
     0
144
0.0208333333333333
144
0.0
144
0.0
144
0.0
144
0.0
144
0.0208333333333333
144
0.0
144
0.0
144
0.0
144
0.0
144
1.0
144
0.0
144
0.0
144
0.0
144
0.0
144
1.0
147
0.0208333333333333
147
0.0
147
0.0
147
0.0
147
0.0
147
0.0208333333333333
147
0.0
147
0.0
147
0.0
147
0.0
147
1.0
147
0.0
147
0.0
147
0.0
147
0.0
147
1.0
  0
MLEADERSTYLE
  5
368
102
{ACAD_REACTORS
330
367
102
}
330
367
100
AcDbMLeaderStyle
170
     2
171
     1
172
     0
 90
        2
 40
0.0
 41
0.0
173
     1
 91
-1056964608
340
1AF
 92
       -2
290
     1
 42
0.09
291
     1
 43
0.36
  3
Standard
 44
0.18
300

342
1AD
174
     1
178
     6
175
     1
176
     0
 93
-1056964608
 45
0.18
292
     0
297
     0
 46
0.18
 94
-1056964608
 47
1.0
 49
1.0
140
1.0
293
     1
141
0.0
294
     1
177
     0
142
1.0
295
     0
296
     0
143
0.125
1001
ACAD_MLEADERVER
1070
     2
  0
MLINESTYLE
  5
1B3
102
{ACAD_REACTORS
330
1B2
102
}
330
1B2
100
AcDbMlineStyle
  2
STANDARD
 70
     0
  3

 62
   256
 51
90.0
 52
90.0
 71
     2
 49
0.5
 62
   256
  6
BYLAYER
 49
-0.5
 62
   256
  6
BYLAYER
  0
ACDBPLACEHOLDER
  5
1AB
102
{ACAD_REACTORS
330
1AA
102
}
330
1AA
  0
SCALE
  5
356
102
{ACAD_REACTORS
330
355
102
}
330
355
100
AcDbScale
 70
     0
300
1:1
140
1.0
141
1.0
290
     1
  0
SCALE
  5
357
102
{ACAD_REACTORS
330
355
102
}
330
355
100
AcDbScale
 70
     0
300
1/128" = 1'-0"
140
0.0078125
141
12.0
290
     0
  0
SCALE
  5
358
102
{ACAD_REACTORS
330
355
102
}
330
355
100
AcDbScale
 70
     0
300
1/64" = 1'-0"
140
0.015625
141
12.0
290
     0
  0
SCALE
  5
359
102
{ACAD_REACTORS
330
355
102
}
330
355
100
AcDbScale
 70
     0
300
1/32" = 1'-0"
140
0.03125
141
12.0
290
     0
  0
SCALE
  5
35A
102
{ACAD_REACTORS
330
355
102
}
330
355
100
AcDbScale
 70
     0
300
1/16" = 1'-0"
140
0.0625
141
12.0
290
     0
  0
SCALE
  5
35B
102
{ACAD_REACTORS
330
355
102
}
330
355
100
AcDbScale
 70
     0
300
3/32" = 1'-0"
140
0.09375
141
12.0
290
     0
  0
SCALE
  5
35C
102
{ACAD_REACTORS
330
355
102
}
330
355
100
AcDbScale
 70
     0
300
1/8" = 1'-0"
140
0.125
141
12.0
290
     0
  0
SCALE
  5
35D
102
{ACAD_REACTORS
330
355
102
}
330
355
100
AcDbScale
 70
     0
300
3/16" = 1'-0"
140
0.1875
141
12.0
290
     0
  0
SCALE
  5
35E
102
{ACAD_REACTORS
330
355
102
}
330
355
100
AcDbScale
 70
     0
300
1/4" = 1'-0"
140
0.25
141
12.0
290
     0
  0
SCALE
  5
35F
102
{ACAD_REACTORS
330
355
102
}
330
355
100
AcDbScale
 70
     0
300
3/8" = 1'-0"
140
0.375
141
12.0
290
     0
  0
SCALE
  5
360
102
{ACAD_REACTORS
330
355
102
}
330
355
100
AcDbScale
 70
     0
300
1/2" = 1'-0"
140
0.5
141
12.0
290
     0
  0
SCALE
  5
361
102
{ACAD_REACTORS
330
355
102
}
330
355
100
AcDbScale
 70
     0
300
3/4" = 1'-0"
140
0.75
141
12.0
290
     0
  0
SCALE
  5
362
102
{ACAD_REACTORS
330
355
102
}
330
355
100
AcDbScale
 70
     0
300
1" = 1'-0"
140
1.0
141
12.0
290
     0
  0
SCALE
  5
363
102
{ACAD_REACTORS
330
355
102
}
330
355
100
AcDbScale
 70
     0
300
1-1/2" = 1'-0"
140
1.5
141
12.0
290
     0
  0
SCALE
  5
364
102
{ACAD_REACTORS
330
355
102
}
330
355
100
AcDbScale
 70
     0
300
3" = 1'-0"
140
3.0
141
12.0
290
     0
  0
SCALE
  5
365
102
{ACAD_REACTORS
330
355
102
}
330
355
100
AcDbScale
 70
     0
300
6" = 1'-0"
140
6.0
141
12.0
290
     0
  0
SCALE
  5
366
102
{ACAD_REACTORS
330
355
102
}
330
355
100
AcDbScale
 70
     0
300
1'-0" = 1'-0"
140
12.0
141
12.0
290
     0
  0
ACDBSECTIONVIEWSTYLE
  5
36A
102
{ACAD_XDICTIONARY
360
93B
102
}
102
{ACAD_REACTORS
330
369
102
}
330
369
100
AcDbModelDocViewStyle
 70
     0
  3
Imperial24
290
     0
100
AcDbSectionViewStyle
 70
     0
 71
     0
 90
       78
 71
     1
340
1AD
 40
0.24
340
0
340
0
 40
0.24
300
I, O, Q, S, X, Z
 40
0.48
 90
        3
 40
0.18
 90
        1
 71
     2
340
1B1
 90
       25
340
1B1
 90
       50
 40
0.24
 40
0.0
 40
0.24
 71
     3
340
1AD
 40
0.24
 90
        1
 40
0.75
 90
        1
300
%<\AcVar ViewType \f "%tc1">% %<\AcVar ViewSectionStartId>%-%<\AcVar ViewSectionEndId>%\PSCALE %<\AcVar ViewScale \f "%sn">%
 71
     4
300
ANSI31
 40
1.0
 90
        0
290
     0
290
     0
 90
        6
 40
0.0
 40
1.570796326794896
 40
0.2617993877991494
 40
1.308996938995747
 40
-0.2617993877991494
 40
1.832595714594044
  0
TABLESTYLE
  5
354
102
{ACAD_XDICTIONARY
360
38D
102
}
102
{ACAD_REACTORS
330
353
102
}
330
353
100
AcDbTableStyle
  3
Standard
 70
     0
 71
     0
 40
0.06
 41
0.06
280
     0
281
     0
  7
STANDARD
140
0.18
170
     2
 62
     0
 63
     7
283
     0
274
    -2
284
     1
 64
     0
275
    -2
285
     1
 65
     0
276
    -2
286
     1
 66
     0
277
    -2
287
     1
 67
     0
278
    -2
288
     1
 68
     0
279
    -2
289
     1
 69
     0
  7
STANDARD
140
0.25
170
     5
 62
     0
 63
     7
283
     0
274
    -2
284
     1
 64
     0
275
    -2
285
     1
 65
     0
276
    -2
286
     1
 66
     0
277
    -2
287
     1
 67
     0
278
    -2
288
     1
 68
     0
279
    -2
289
     1
 69
     0
  7
STANDARD
140
0.18
170
     5
 62
     0
 63
     7
283
     0
274
    -2
284
     1
 64
     0
275
    -2
285
     1
 65
     0
276
    -2
286
     1
 66
     0
277
    -2
287
     1
 67
     0
278
    -2
288
     1
 68
     0
279
    -2
289
     1
 69
     0
  0
VISUALSTYLE
  5
33F
102
{ACAD_XDICTIONARY
360
914
102
}
102
{ACAD_REACTORS
330
339
102
}
330
339
100
AcDbVisualStyle
  2

 70
     4
 71
     0
 72
     2
 73
     0
 90
        0
 40
-0.6
 41
-30.0
 62
     5
 63
     7
 74
     1
 91
        4
 64
     7
 65
   257
 75
     1
175
     1
 42
1.0
 92
        0
 66
   257
 43
1.0
 76
     1
 77
     6
 78
     2
 67
     7
 79
     5
170
     0
171
     0
290
     0
174
     0
 93
        1
 44
0.0
173
     0
291
     0
 45
0.0
1001
ACAD
1000
AcDbSavedByObjectVersion
1070
     0
  0
VISUALSTYLE
  5
33E
102
{ACAD_XDICTIONARY
360
912
102
}
102
{ACAD_REACTORS
330
339
102
}
330
339
100
AcDbVisualStyle
  2

 70
     7
 71
     1
 72
     0
 73
     1
 90
        0
 40
-0.6
 41
-30.0
 62
     5
 63
     7
 74
     0
 91
        4
 64
     7
 65
   257
 75
     1
175
     1
 42
1.0
 92
        8
 66
     7
 43
1.0
 76
     1
 77
     6
 78
     2
 67
     7
 79
     5
170
     0
171
     0
290
     0
174
     0
 93
        1
 44
0.0
173
     0
291
     1
 45
0.0
1001
ACAD
1000
AcDbSavedByObjectVersion
1070
     0
  0
VISUALSTYLE
  5
345
102
{ACAD_XDICTIONARY
360
920
102
}
102
{ACAD_REACTORS
330
339
102
}
330
339
100
AcDbVisualStyle
  2

 70
    12
 71
     2
 72
     2
 73
     0
 90
        0
 40
-0.6
 41
-30.0
 62
     5
 63
     7
 74
     1
 91
        4
 64
     7
 65
   257
 75
     1
175
     1
 42
1.0
 92
        8
 66
     7
 43
1.0
 76
     1
 77
     6
 78
     2
 67
     7
 79
     5
170
     0
171
     0
290
     0
174
     0
 93
        1
 44
50.0
173
     0
291
     1
 45
0.0
1001
ACAD
1000
AcDbSavedByObjectVersion
1070
     0
  0
VISUALSTYLE
  5
349
102
{ACAD_XDICTIONARY
360
928
102
}
102
{ACAD_REACTORS
330
339
102
}
330
339
100
AcDbVisualStyle
  2

 70
    16
 71
     2
 72
     2
 73
     3
 90
        0
 40
-0.6
 41
-30.0
 62
     5
 63
     8
 74
     1
 91
        4
 64
     7
 65
   257
 75
     1
175
     1
 42
1.0
 92
        8
 66
     8
 43
1.0
 76
     1
 77
     6
 78
     2
 67
     7
 79
     5
170
     0
171
     0
290
     0
174
     0
 93
        1
 44
0.0
173
     0
291
     1
 45
0.0
1001
ACAD
1000
AcDbSavedByObjectVersion
1070
     0
  0
VISUALSTYLE
  5
342
102
{ACAD_XDICTIONARY
360
91A
102
}
102
{ACAD_REACTORS
330
339
102
}
330
339
100
AcDbVisualStyle
  2

 70
     9
 71
     3
 72
     2
 73
     0
 90
        0
 40
-0.6
 41
-30.0
 62
     5
 63
     7
 74
     2
 91
        2
 64
     7
 65
   257
 75
     1
175
     1
 42
179.0
 92
        8
 66
     7
 43
1.0
 76
     1
 77
     6
 78
     2
 67
     7
 79
     3
170
     0
171
     0
290
     0
174
     0
 93
        1
 44
0.0
173
     0
291
     0
 45
0.0
1001
ACAD
1000
AcDbSavedByObjectVersion
1070
     0
  0
VISUALSTYLE
  5
344
102
{ACAD_XDICTIONARY
360
91E
102
}
102
{ACAD_REACTORS
330
339
102
}
330
339
100
AcDbVisualStyle
  2

 70
    11
 71
     2
 72
     2
 73
     0
 90
        0
 40
-0.6
 41
-30.0
 62
     5
 63
     7
 74
     1
 91
        4
 64
     7
 65
   257
 75
     1
175
     1
 42
1.0
 92
        8
 66
     7
 43
1.0
 76
     1
 77
     6
 78
     2
 67
     7
 79
     5
170
     0
171
     0
290
     0
174
     0
 93
        1
 44
-50.0
173
     0
291
     1
 45
0.0
1001
ACAD
1000
AcDbSavedByObjectVersion
1070
     0
  0
VISUALSTYLE
  5
351
102
{ACAD_XDICTIONARY
360
938
102
}
102
{ACAD_REACTORS
330
339
102
}
330
339
100
AcDbVisualStyle
  2

 70
    22
 71
     2
 72
     2
 73
     0
 90
        0
 40
-0.6
 41
-30.0
 62
     5
 63
     7
 74
     1
 91
        4
 64
     7
 65
   257
 75
     1
175
     1
 42
1.0
 92
        8
 66
     7
 43
1.0
 76
     1
 77
     6
 78
     2
 67
     7
 79
     5
170
     0
171
     0
290
     0
174
     0
 93
        1
 44
0.0
173
     0
291
     1
 45
0.0
1001
ACAD
1000
AcDbSavedByObjectVersion
1070
     0
  0
VISUALSTYLE
  5
348
102
{ACAD_XDICTIONARY
360
926
102
}
102
{ACAD_REACTORS
330
339
102
}
330
339
100
AcDbVisualStyle
  2

 70
    15
 71
     2
 72
     2
 73
     0
 90
        0
 40
-0.6
 41
-30.0
 62
     5
 63
     7
 74
     1
 91
        4
 64
     7
 65
   257
 75
     1
175
     1
 42
1.0
 92
        8
 66
     7
 43
1.0
 76
     1
 77
     6
 78
     2
 67
     7
 79
     5
170
     0
171
     0
290
     0
174
     0
 93
        1
 44
0.0
173
     0
291
     1
 45
0.0
1001
ACAD
1000
AcDbSavedByObjectVersion
1070
     0
  0
VISUALSTYLE
  5
33A
102
{ACAD_XDICTIONARY
360
90A
102
}
102
{ACAD_REACTORS
330
339
102
}
330
339
100
AcDbVisualStyle
  2

 70
     0
 71
     2
 72
     1
 73
     1
 90
        2
 40
-0.6
 41
30.0
 62
     5
 63
     7
 74
     0
 91
        0
 64
     7
 65
   257
 75
     1
175
     1
 42
1.0
 92
        8
 66
     7
 43
1.0
 76
     1
 77
     6
 78
     2
 67
     7
 79
     5
170
     0
171
     0
290
     0
174
     0
 93
       13
 44
0.0
173
     0
291
     1
 45
0.0
1001
ACAD
1000
AcDbSavedByObjectVersion
1070
     0
  0
VISUALSTYLE
  5
33B
102
{ACAD_XDICTIONARY
360
90C
102
}
102
{ACAD_REACTORS
330
339
102
}
330
339
100
AcDbVisualStyle
  2

 70
     1
 71
     2
 72
     1
 73
     1
 90
        2
 40
-0.6
 41
30.0
 62
     5
 63
     7
 74
     1
 91
        0
 64
     7
 65
   257
 75
     1
175
     1
 42
1.0
 92
        0
 66
   257
 43
1.0
 76
     1
 77
     6
 78
     2
 67
     7
 79
     5
170
     0
171
     0
290
     0
174
     0
 93
       13
 44
0.0
173
     0
291
     1
 45
0.0
1001
ACAD
1000
AcDbSavedByObjectVersion
1070
     0
  0
VISUALSTYLE
  5
33C
102
{ACAD_XDICTIONARY
360
90E
102
}
102
{ACAD_REACTORS
330
339
102
}
330
339
100
AcDbVisualStyle
  2

 70
     2
 71
     2
 72
     2
 73
     1
 90
        2
 40
-0.6
 41
30.0
 62
     5
 63
     7
 74
     0
 91
        0
 64
     7
 65
   257
 75
     1
175
     1
 42
1.0
 92
        0
 66
     7
 43
1.0
 76
     1
 77
     6
 78
     2
 67
     7
 79
     5
170
     0
171
     0
290
     0
174
     0
 93
       13
 44
0.0
173
     0
291
     1
 45
0.0
1001
ACAD
1000
AcDbSavedByObjectVersion
1070
     0
  0
VISUALSTYLE
  5
33D
102
{ACAD_XDICTIONARY
360
910
102
}
102
{ACAD_REACTORS
330
339
102
}
330
339
100
AcDbVisualStyle
  2

 70
     3
 71
     2
 72
     2
 73
     1
 90
        2
 40
-0.6
 41
30.0
 62
     5
 63
     7
 74
     1
 91
        0
 64
     7
 65
   257
 75
     1
175
     1
 42
1.0
 92
        0
 66
   257
 43
1.0
 76
     1
 77
     6
 78
     2
 67
     7
 79
     5
170
     0
171
     0
290
     0
174
     0
 93
       13
 44
0.0
173
     0
291
     1
 45
0.0
1001
ACAD
1000
AcDbSavedByObjectVersion
1070
     0
  0
VISUALSTYLE
  5
341
102
{ACAD_XDICTIONARY
360
918
102
}
102
{ACAD_REACTORS
330
339
102
}
330
339
100
AcDbVisualStyle
  2

 70
     6
 71
     1
 72
     2
 73
     2
 90
        0
 40
-0.6
 41
-30.0
 62
     5
 63
     7
 74
     2
 91
        2
 64
     7
 65
   257
 75
     2
175
     1
 42
40.0
 92
        0
 66
   257
 43
1.0
 76
     1
 77
     6
 78
     2
 67
     7
 79
     3
170
     0
171
     0
290
     0
174
     0
 93
        1
 44
0.0
173
     0
291
     0
 45
0.0
1001
ACAD
1000
AcDbSavedByObjectVersion
1070
     0
  0
VISUALSTYLE
  5
34F
102
{ACAD_XDICTIONARY
360
934
102
}
102
{ACAD_REACTORS
330
339
102
}
330
339
100
AcDbVisualStyle
  2

 70
    20
 71
     2
 72
     2
 73
     0
 90
        0
 40
-0.6
 41
-30.0
 62
     5
 63
     7
 74
     1
 91
        4
 64
     7
 65
   257
 75
     1
175
     1
 42
1.0
 92
       10
 66
     7
 43
1.0
 76
     1
 77
     6
 78
     2
 67
     7
 79
     5
170
     0
171
     0
290
     0
174
     0
 93
        1
 44
0.0
173
     0
291
     1
 45
0.0
1001
ACAD
1000
AcDbSavedByObjectVersion
1070
     0
  0
VISUALSTYLE
  5
347
102
{ACAD_XDICTIONARY
360
924
102
}
102
{ACAD_REACTORS
330
339
102
}
330
339
100
AcDbVisualStyle
  2

 70
    14
 71
     2
 72
     2
 73
     0
 90
        0
 40
-0.6
 41
-30.0
 62
     5
 63
     7
 74
     1
 91
        4
 64
     7
 65
   257
 75
     7
175
     7
 42
1.0
 92
        8
 66
     7
 43
1.0
 76
     1
 77
     6
 78
     2
 67
     7
 79
     5
170
     0
171
     0
290
     0
174
     0
 93
        1
 44
0.0
173
     0
291
     1
 45
0.0
1001
ACAD
1000
AcDbSavedByObjectVersion
1070
     0
  0
VISUALSTYLE
  5
350
102
{ACAD_XDICTIONARY
360
936
102
}
102
{ACAD_REACTORS
330
339
102
}
330
339
100
AcDbVisualStyle
  2

 70
    21
 71
     2
 72
     2
 73
     0
 90
        0
 40
-0.6
 41
-30.0
 62
     5
 63
     7
 74
     1
 91
        4
 64
     7
 65
   257
 75
     1
175
     1
 42
1.0
 92
        9
 66
     7
 43
1.0
 76
     1
 77
     6
 78
     2
 67
     7
 79
     5
170
     0
171
     0
290
     0
174
     0
 93
        1
 44
0.0
173
     0
291
     1
 45
0.0
1001
ACAD
1000
AcDbSavedByObjectVersion
1070
     0
  0
VISUALSTYLE
  5
343
102
{ACAD_XDICTIONARY
360
91C
102
}
102
{ACAD_REACTORS
330
339
102
}
330
339
100
AcDbVisualStyle
  2

 70
     8
 71
     2
 72
     3
 73
     0
 90
        2
 40
-0.6
 41
30.0
 62
     5
 63
     7
 74
     0
 91
        0
 64
     7
 65
   257
 75
     1
175
     1
 42
1.0
 92
        8
 66
   257
 43
1.0
 76
     1
 77
     6
 78
     2
 67
     7
 79
     3
170
     0
171
     0
290
     0
174
     0
 93
       13
 44
0.0
173
     0
291
     0
 45
0.0
1001
ACAD
1000
AcDbSavedByObjectVersion
1070
     0
  0
VISUALSTYLE
  5
34E
102
{ACAD_XDICTIONARY
360
932
102
}
102
{ACAD_REACTORS
330
339
102
}
330
339
100
AcDbVisualStyle
  2

 70
    27
 71
     2
 72
     2
 73
     1
 90
        2
 40
-0.6
 41
30.0
 62
     5
 63
     7
 74
     0
 91
        4
 64
     7
 65
   257
 75
     1
175
     1
 42
1.0
 92
        8
 66
   257
 43
1.0
 76
     1
 77
     6
 78
     2
 67
     8
 79
     3
170
     0
171
     0
290
     0
174
     0
 93
        5
 44
0.0
173
     0
291
     0
 45
0.0
1001
ACAD
1000
AcDbSavedByObjectVersion
1070
     0
  0
VISUALSTYLE
  5
34D
102
{ACAD_XDICTIONARY
360
930
102
}
102
{ACAD_REACTORS
330
339
102
}
330
339
100
AcDbVisualStyle
  2

 70
    26
 71
     2
 72
     2
 73
     1
 90
        2
 40
-0.6
 41
30.0
 62
     5
 63
     7
 74
     1
 91
        2
 64
     7
 65
   257
 75
     2
175
     1
 42
1.0
 92
        8
 66
   257
 43
1.0
 76
     1
 77
     6
 78
     2
 67
     7
 79
     3
170
     0
171
     0
290
     0
174
     0
 93
        5
 44
0.0
173
     0
291
     0
 45
0.0
1001
ACAD
1000
AcDbSavedByObjectVersion
1070
     0
  0
VISUALSTYLE
  5
34A
102
{ACAD_XDICTIONARY
360
92A
102
}
102
{ACAD_REACTORS
330
339
102
}
330
339
100
AcDbVisualStyle
  2

 70
    23
 71
     2
 72
     2
 73
     3
 90
        0
 40
-0.6
 41
-30.0
 62
     5
 63
     7
 74
     2
 91
        2
 64
     7
 65
     7
 75
     1
175
     1
 42
40.0
 92
        8
 66
     7
 43
1.0
 76
     1
 77
     6
 78
     2
 67
     7
 79
     3
170
     0
171
     0
290
     0
174
     0
 93
        1
 44
0.0
173
     0
291
     0
 45
0.0
1001
ACAD
1000
AcDbSavedByObjectVersion
1070
     0
  0
VISUALSTYLE
  5
34B
102
{ACAD_XDICTIONARY
360
92C
102
}
102
{ACAD_REACTORS
330
339
102
}
330
339
100
AcDbVisualStyle
  2

 70
    24
 71
     1
 72
     2
 73
     2
 90
        0
 40
-0.6
 41
-30.0
 62
     5
 63
     7
 74
     2
 91
        2
 64
     7
 65
     7
 75
     1
175
     1
 42
40.0
 92
       11
 66
     7
 43
1.0
 76
     1
 77
     6
 78
     2
 67
     7
 79
     6
170
     0
171
     0
290
     0
174
     0
 93
        1
 44
0.0
173
     0
291
     0
 45
0.0
1001
ACAD
1000
AcDbSavedByObjectVersion
1070
     0
  0
VISUALSTYLE
  5
346
102
{ACAD_XDICTIONARY
360
922
102
}
102
{ACAD_REACTORS
330
339
102
}
330
339
100
AcDbVisualStyle
  2

 70
    13
 71
     2
 72
     2
 73
     0
 90
        0
 40
-0.6
 41
-30.0
 62
     5
 63
     7
 74
     1
 91
        4
 64
     7
 65
   257
 75
     1
175
     1
 42
1.0
 92
       12
 66
     7
 43
1.0
 76
     1
 77
     6
 78
     2
 67
     7
 79
     5
170
     0
171
     0
290
     0
174
     0
 93
        1
 44
0.0
173
     0
291
     1
 45
0.0
1001
ACAD
1000
AcDbSavedByObjectVersion
1070
     0
  0
VISUALSTYLE
  5
340
102
{ACAD_XDICTIONARY
360
916
102
}
102
{ACAD_REACTORS
330
339
102
}
330
339
100
AcDbVisualStyle
  2

 70
     5
 71
     0
 72
     2
 73
     0
 90
        0
 40
-0.6
 41
-30.0
 62
     5
 63
     7
 74
     1
 91
        4
 64
     7
 65
   257
 75
     1
175
     1
 42
1.0
 92
        0
 66
   257
 43
1.0
 76
     1
 77
     6
 78
     2
 67
     7
 79
     3
170
     0
171
     0
290
     0
174
     0
 93
        1
 44
0.0
173
     0
291
     0
 45
0.0
1001
ACAD
1000
AcDbSavedByObjectVersion
1070
     0
  0
VISUALSTYLE
  5
34C
102
{ACAD_XDICTIONARY
360
92E
102
}
102
{ACAD_REACTORS
330
339
102
}
330
339
100
AcDbVisualStyle
  2

 70
    25
 71
     2
 72
     2
 73
     1
 90
        1
 40
0.5
 41
-30.0
 62
     5
 63
     7
 74
     1
 91
        0
 64
     7
 65
   257
 75
     1
175
     1
 42
1.0
 92
        8
 66
     7
 43
1.0
 76
     1
 77
     6
 78
     2
 67
     7
 79
     3
170
     0
171
     0
290
     0
174
     0
 93
       13
 44
0.0
173
     0
291
     0
 45
0.0
1001
ACAD
1000
AcDbSavedByObjectVersion
1070
     0
  0
DICTIONARYVAR
  5
389
102
{ACAD_REACTORS
330
26D
102
}
330
26D
100
DictionaryVariables
280
     0
  1
1:1
  0
DICTIONARYVAR
  5
386
102
{ACAD_REACTORS
330
26D
102
}
330
26D
100
DictionaryVariables
280
     0
  1
STANDARD
  0
DICTIONARYVAR
  5
385
102
{ACAD_REACTORS
330
26D
102
}
330
26D
100
DictionaryVariables
280
     0
  1
STANDARD
  0
DICTIONARYVAR
  5
387
102
{ACAD_REACTORS
330
26D
102
}
330
26D
100
DictionaryVariables
280
     0
  1
Imperial24
  0
DICTIONARYVAR
  5
388
102
{ACAD_REACTORS
330
26D
102
}
330
26D
100
DictionaryVariables
280
     0
  1
Imperial24
  0
DICTIONARYVAR
  5
26E
102
{ACAD_REACTORS
330
26D
102
}
330
26D
100
DictionaryVariables
280
     0
  1
1
  0
DICTIONARYVAR
  5
38B
102
{ACAD_REACTORS
330
26D
102
}
330
26D
100
DictionaryVariables
280
     0
  1
0
  0
DICTIONARYVAR
  5
900
102
{ACAD_REACTORS
330
26D
102
}
330
26D
100
DictionaryVariables
280
     0
  1
1
  0
DICTIONARYVAR
  5
901
102
{ACAD_REACTORS
330
26D
102
}
330
26D
100
DictionaryVariables
280
     0
  1
15
  0
DICTIONARYVAR
  5
8FF
102
{ACAD_REACTORS
330
26D
102
}
330
26D
100
DictionaryVariables
280
     0
  1
0
  0
DICTIONARYVAR
  5
8FE
102
{ACAD_REACTORS
330
26D
102
}
330
26D
100
DictionaryVariables
280
     0
  1
0
  0
DICTIONARYVAR
  5
38A
102
{ACAD_REACTORS
330
26D
102
}
330
26D
100
DictionaryVariables
280
     0
  1
127
  0
DICTIONARYVAR
  5
902
102
{ACAD_REACTORS
330
26D
102
}
330
26D
100
DictionaryVariables
280
     0
  1
2
  0
DICTIONARY
  5
93D
330
36C
100
AcDbDictionary
280
     1
281
     1
  3
ACAD_XREC_ROUNDTRIP
360
93E
  0
DICTIONARY
  5
908
330
1BD
100
AcDbDictionary
280
     1
281
     1
  3
ACAD_XREC_ROUNDTRIP
360
909
  0
DICTIONARY
  5
906
330
1B9
100
AcDbDictionary
280
     1
281
     1
  3
ACAD_XREC_ROUNDTRIP
360
907
  0
DICTIONARY
  5
32A
330
329
100
AcDbDictionary
280
     1
281
     1
  3
ACAD_XREC_ROUNDTRIP
360
396
  3
BUMPTILE
360
32C
  3
DIFFUSETILE
360
32B
  3
OPACITYTILE
360
32F
  3
REFLECTIONTILE
360
32E
  3
REFRACTIONTILE
360
330
  3
SPECULARTILE
360
32D
  0
DICTIONARY
  5
322
330
321
100
AcDbDictionary
280
     1
281
     1
  3
ACAD_XREC_ROUNDTRIP
360
395
  3
BUMPTILE
360
324
  3
DIFFUSETILE
360
323
  3
OPACITYTILE
360
327
  3
REFLECTIONTILE
360
326
  3
REFRACTIONTILE
360
328
  3
SPECULARTILE
360
325
  0
DICTIONARY
  5
332
330
331
100
AcDbDictionary
280
     1
281
     1
  3
ACAD_XREC_ROUNDTRIP
360
397
  3
BUMPTILE
360
334
  3
DIFFUSETILE
360
333
  3
OPACITYTILE
360
337
  3
REFLECTIONTILE
360
336
  3
REFRACTIONTILE
360
338
  3
SPECULARTILE
360
335
  0
DICTIONARY
  5
93B
330
36A
100
AcDbDictionary
280
     1
281
     1
  3
ACAD_XREC_ROUNDTRIP
360
93C
  0
DICTIONARY
  5
38D
330
354
100
AcDbDictionary
280
     1
281
     1
  3
ACAD_ROUNDTRIP_2008_TABLESTYLE_CELLSTYLEMAP
360
903
  3
ACAD_XREC_ROUNDTRIP
360
93A
  0
DICTIONARY
  5
914
330
33F
100
AcDbDictionary
280
     1
281
     1
  3
ACAD_XREC_ROUNDTRIP
360
915
  0
DICTIONARY
  5
912
330
33E
100
AcDbDictionary
280
     1
281
     1
  3
ACAD_XREC_ROUNDTRIP
360
913
  0
DICTIONARY
  5
920
330
345
100
AcDbDictionary
280
     1
281
     1
  3
ACAD_XREC_ROUNDTRIP
360
921
  0
DICTIONARY
  5
928
330
349
100
AcDbDictionary
280
     1
281
     1
  3
ACAD_XREC_ROUNDTRIP
360
929
  0
DICTIONARY
  5
91A
330
342
100
AcDbDictionary
280
     1
281
     1
  3
ACAD_XREC_ROUNDTRIP
360
91B
  0
DICTIONARY
  5
91E
330
344
100
AcDbDictionary
280
     1
281
     1
  3
ACAD_XREC_ROUNDTRIP
360
91F
  0
DICTIONARY
  5
938
330
351
100
AcDbDictionary
280
     1
281
     1
  3
ACAD_XREC_ROUNDTRIP
360
939
  0
DICTIONARY
  5
926
330
348
100
AcDbDictionary
280
     1
281
     1
  3
ACAD_XREC_ROUNDTRIP
360
927
  0
DICTIONARY
  5
90A
330
33A
100
AcDbDictionary
280
     1
281
     1
  3
ACAD_XREC_ROUNDTRIP
360
90B
  0
DICTIONARY
  5
90C
330
33B
100
AcDbDictionary
280
     1
281
     1
  3
ACAD_XREC_ROUNDTRIP
360
90D
  0
DICTIONARY
  5
90E
330
33C
100
AcDbDictionary
280
     1
281
     1
  3
ACAD_XREC_ROUNDTRIP
360
90F
  0
DICTIONARY
  5
910
330
33D
100
AcDbDictionary
280
     1
281
     1
  3
ACAD_XREC_ROUNDTRIP
360
911
  0
DICTIONARY
  5
918
330
341
100
AcDbDictionary
280
     1
281
     1
  3
ACAD_XREC_ROUNDTRIP
360
919
  0
DICTIONARY
  5
934
330
34F
100
AcDbDictionary
280
     1
281
     1
  3
ACAD_XREC_ROUNDTRIP
360
935
  0
DICTIONARY
  5
924
330
347
100
AcDbDictionary
280
     1
281
     1
  3
ACAD_XREC_ROUNDTRIP
360
925
  0
DICTIONARY
  5
936
330
350
100
AcDbDictionary
280
     1
281
     1
  3
ACAD_XREC_ROUNDTRIP
360
937
  0
DICTIONARY
  5
91C
330
343
100
AcDbDictionary
280
     1
281
     1
  3
ACAD_XREC_ROUNDTRIP
360
91D
  0
DICTIONARY
  5
932
330
34E
100
AcDbDictionary
280
     1
281
     1
  3
ACAD_XREC_ROUNDTRIP
360
933
  0
DICTIONARY
  5
930
330
34D
100
AcDbDictionary
280
     1
281
     1
  3
ACAD_XREC_ROUNDTRIP
360
931
  0
DICTIONARY
  5
92A
330
34A
100
AcDbDictionary
280
     1
281
     1
  3
ACAD_XREC_ROUNDTRIP
360
92B
  0
DICTIONARY
  5
92C
330
34B
100
AcDbDictionary
280
     1
281
     1
  3
ACAD_XREC_ROUNDTRIP
360
92D
  0
DICTIONARY
  5
922
330
346
100
AcDbDictionary
280
     1
281
     1
  3
ACAD_XREC_ROUNDTRIP
360
923
  0
DICTIONARY
  5
916
330
340
100
AcDbDictionary
280
     1
281
     1
  3
ACAD_XREC_ROUNDTRIP
360
917
  0
DICTIONARY
  5
92E
330
34C
100
AcDbDictionary
280
     1
281
     1
  3
ACAD_XREC_ROUNDTRIP
360
92F
  0
XRECORD
  5
93E
102
{ACAD_REACTORS
330
93D
102
}
330
93D
100
AcDbXrecord
280
     1
102
DISPLAYNAME
  1
Imperial24
102
FLAGS
 90
        0
  0
XRECORD
  5
909
102
{ACAD_REACTORS
330
908
102
}
330
908
100
AcDbXrecord
280
     1
102
SHADEPLOT
 70
     0
102
SHADEPLOTRESLEVEL
 70
     2
102
SHADEPLOTCUSTOMDPI
 70
   300
  0
XRECORD
  5
907
102
{ACAD_REACTORS
330
906
102
}
330
906
100
AcDbXrecord
280
     1
102
SHADEPLOT
 70
     0
102
SHADEPLOTRESLEVEL
 70
     2
102
SHADEPLOTCUSTOMDPI
 70
   300
  0
XRECORD
  5
396
102
{ACAD_REACTORS
330
32A
102
}
330
32A
100
AcDbXrecord
280
     1
102
MATERIAL
148
0.0
149
0.0
149
0.0
 93
        0
 94
      127
282
     0
 72
     0
 77
     0
171
     0
175
     0
179
     0
273
     0
  0
XRECORD
  5
32C
102
{ACAD_REACTORS
330
32A
102
}
330
32A
100
AcDbXrecord
280
     1
270
     1
271
     1
  0
XRECORD
  5
32B
102
{ACAD_REACTORS
330
32A
102
}
330
32A
100
AcDbXrecord
280
     1
270
     1
271
     1
  0
XRECORD
  5
32F
102
{ACAD_REACTORS
330
32A
102
}
330
32A
100
AcDbXrecord
280
     1
270
     1
271
     1
  0
XRECORD
  5
32E
102
{ACAD_REACTORS
330
32A
102
}
330
32A
100
AcDbXrecord
280
     1
270
     1
271
     1
  0
XRECORD
  5
330
102
{ACAD_REACTORS
330
32A
102
}
330
32A
100
AcDbXrecord
280
     1
270
     1
271
     1
  0
XRECORD
  5
32D
102
{ACAD_REACTORS
330
32A
102
}
330
32A
100
AcDbXrecord
280
     1
270
     1
271
     1
  0
XRECORD
  5
395
102
{ACAD_REACTORS
330
322
102
}
330
322
100
AcDbXrecord
280
     1
102
MATERIAL
148
0.0
149
0.0
149
0.0
 93
        0
 94
      127
282
     0
 72
     0
 77
     0
171
     0
175
     0
179
     0
273
     0
  0
XRECORD
  5
324
102
{ACAD_REACTORS
330
322
102
}
330
322
100
AcDbXrecord
280
     1
270
     1
271
     1
  0
XRECORD
  5
323
102
{ACAD_REACTORS
330
322
102
}
330
322
100
AcDbXrecord
280
     1
270
     1
271
     1
  0
XRECORD
  5
327
102
{ACAD_REACTORS
330
322
102
}
330
322
100
AcDbXrecord
280
     1
270
     1
271
     1
  0
XRECORD
  5
326
102
{ACAD_REACTORS
330
322
102
}
330
322
100
AcDbXrecord
280
     1
270
     1
271
     1
  0
XRECORD
  5
328
102
{ACAD_REACTORS
330
322
102
}
330
322
100
AcDbXrecord
280
     1
270
     1
271
     1
  0
XRECORD
  5
325
102
{ACAD_REACTORS
330
322
102
}
330
322
100
AcDbXrecord
280
     1
270
     1
271
     1
  0
XRECORD
  5
397
102
{ACAD_REACTORS
330
332
102
}
330
332
100
AcDbXrecord
280
     1
102
MATERIAL
148
0.0
149
0.0
149
0.0
 93
        0
 94
      127
282
     0
 72
     0
 77
     0
171
     0
175
     0
179
     0
273
     0
  0
XRECORD
  5
334
102
{ACAD_REACTORS
330
332
102
}
330
332
100
AcDbXrecord
280
     1
270
     1
271
     1
  0
XRECORD
  5
333
102
{ACAD_REACTORS
330
332
102
}
330
332
100
AcDbXrecord
280
     1
270
     1
271
     1
  0
XRECORD
  5
337
102
{ACAD_REACTORS
330
332
102
}
330
332
100
AcDbXrecord
280
     1
270
     1
271
     1
  0
XRECORD
  5
336
102
{ACAD_REACTORS
330
332
102
}
330
332
100
AcDbXrecord
280
     1
270
     1
271
     1
  0
XRECORD
  5
338
102
{ACAD_REACTORS
330
332
102
}
330
332
100
AcDbXrecord
280
     1
270
     1
271
     1
  0
XRECORD
  5
335
102
{ACAD_REACTORS
330
332
102
}
330
332
100
AcDbXrecord
280
     1
270
     1
271
     1
  0
XRECORD
  5
93C
102
{ACAD_REACTORS
330
93B
102
}
330
93B
100
AcDbXrecord
280
     1
102
DISPLAYNAME
  1
Imperial24
102
FLAGS
 90
        0
  0
CELLSTYLEMAP
  5
903
102
{ACAD_REACTORS
330
38D
102
}
330
38D
100
AcDbCellStyleMap
 90
        3
300
CELLSTYLE
  1
TABLEFORMAT_BEGIN
 90
        5
170
     1
 91
        0
 92
    32768
 62
   257
 93
        1
300
CONTENTFORMAT
  1
CONTENTFORMAT_BEGIN
 90
        0
 91
        0
 92
      512
 93
        0
300

 40
0.0
140
1.0
 94
        5
 62
     0
340
1AD
144
0.25
309
CONTENTFORMAT_END
171
     1
301
MARGIN
  1
CELLMARGIN_BEGIN
 40
0.06
 40
0.06
 40
0.06
 40
0.06
 40
0.18
 40
0.18
309
CELLMARGIN_END
 94
        6
 95
        1
302
GRIDFORMAT
  1
GRIDFORMAT_BEGIN
 90
        0
 91
        1
 62
     0
 92
       -2
340
0
 93
        0
 40
0.045
309
GRIDFORMAT_END
 95
        2
302
GRIDFORMAT
  1
GRIDFORMAT_BEGIN
 90
        0
 91
        1
 62
     0
 92
       -2
340
0
 93
        0
 40
0.045
309
GRIDFORMAT_END
 95
        4
302
GRIDFORMAT
  1
GRIDFORMAT_BEGIN
 90
        0
 91
        1
 62
     0
 92
       -2
340
0
 93
        0
 40
0.045
309
GRIDFORMAT_END
 95
        8
302
GRIDFORMAT
  1
GRIDFORMAT_BEGIN
 90
        0
 91
        1
 62
     0
 92
       -2
340
0
 93
        0
 40
0.045
309
GRIDFORMAT_END
 95
       16
302
GRIDFORMAT
  1
GRIDFORMAT_BEGIN
 90
        0
 91
        1
 62
     0
 92
       -2
340
0
 93
        0
 40
0.045
309
GRIDFORMAT_END
 95
       32
302
GRIDFORMAT
  1
GRIDFORMAT_BEGIN
 90
        0
 91
        1
 62
     0
 92
       -2
340
0
 93
        0
 40
0.045
309
GRIDFORMAT_END
309
TABLEFORMAT_END
  1
CELLSTYLE_BEGIN
 90
        1
 91
        1
300
_TITLE
309
CELLSTYLE_END
300
CELLSTYLE
  1
TABLEFORMAT_BEGIN
 90
        5
170
     1
 91
        0
 92
        0
 62
   257
 93
        1
300
CONTENTFORMAT
  1
CONTENTFORMAT_BEGIN
 90
        0
 91
        0
 92
      512
 93
        0
300

 40
0.0
140
1.0
 94
        5
 62
     0
340
1AD
144
0.18
309
CONTENTFORMAT_END
171
     1
301
MARGIN
  1
CELLMARGIN_BEGIN
 40
0.06
 40
0.06
 40
0.06
 40
0.06
 40
0.18
 40
0.18
309
CELLMARGIN_END
 94
        6
 95
        1
302
GRIDFORMAT
  1
GRIDFORMAT_BEGIN
 90
        0
 91
        1
 62
     0
 92
       -2
340
0
 93
        0
 40
0.045
309
GRIDFORMAT_END
 95
        2
302
GRIDFORMAT
  1
GRIDFORMAT_BEGIN
 90
        0
 91
        1
 62
     0
 92
       -2
340
0
 93
        0
 40
0.045
309
GRIDFORMAT_END
 95
        4
302
GRIDFORMAT
  1
GRIDFORMAT_BEGIN
 90
        0
 91
        1
 62
     0
 92
       -2
340
0
 93
        0
 40
0.045
309
GRIDFORMAT_END
 95
        8
302
GRIDFORMAT
  1
GRIDFORMAT_BEGIN
 90
        0
 91
        1
 62
     0
 92
       -2
340
0
 93
        0
 40
0.045
309
GRIDFORMAT_END
 95
       16
302
GRIDFORMAT
  1
GRIDFORMAT_BEGIN
 90
        0
 91
        1
 62
     0
 92
       -2
340
0
 93
        0
 40
0.045
309
GRIDFORMAT_END
 95
       32
302
GRIDFORMAT
  1
GRIDFORMAT_BEGIN
 90
        0
 91
        1
 62
     0
 92
       -2
340
0
 93
        0
 40
0.045
309
GRIDFORMAT_END
309
TABLEFORMAT_END
  1
CELLSTYLE_BEGIN
 90
        2
 91
        1
300
_HEADER
309
CELLSTYLE_END
300
CELLSTYLE
  1
TABLEFORMAT_BEGIN
 90
        5
170
     1
 91
        0
 92
        0
 62
   257
 93
        1
300
CONTENTFORMAT
  1
CONTENTFORMAT_BEGIN
 90
        0
 91
        0
 92
      512
 93
        0
300

 40
0.0
140
1.0
 94
        2
 62
     0
340
1AD
144
0.18
309
CONTENTFORMAT_END
171
     1
301
MARGIN
  1
CELLMARGIN_BEGIN
 40
0.06
 40
0.06
 40
0.06
 40
0.06
 40
0.18
 40
0.18
309
CELLMARGIN_END
 94
        6
 95
        1
302
GRIDFORMAT
  1
GRIDFORMAT_BEGIN
 90
        0
 91
        1
 62
     0
 92
       -2
340
0
 93
        0
 40
0.045
309
GRIDFORMAT_END
 95
        2
302
GRIDFORMAT
  1
GRIDFORMAT_BEGIN
 90
        0
 91
        1
 62
     0
 92
       -2
340
0
 93
        0
 40
0.045
309
GRIDFORMAT_END
 95
        4
302
GRIDFORMAT
  1
GRIDFORMAT_BEGIN
 90
        0
 91
        1
 62
     0
 92
       -2
340
0
 93
        0
 40
0.045
309
GRIDFORMAT_END
 95
        8
302
GRIDFORMAT
  1
GRIDFORMAT_BEGIN
 90
        0
 91
        1
 62
     0
 92
       -2
340
0
 93
        0
 40
0.045
309
GRIDFORMAT_END
 95
       16
302
GRIDFORMAT
  1
GRIDFORMAT_BEGIN
 90
        0
 91
        1
 62
     0
 92
       -2
340
0
 93
        0
 40
0.045
309
GRIDFORMAT_END
 95
       32
302
GRIDFORMAT
  1
GRIDFORMAT_BEGIN
 90
        0
 91
        1
 62
     0
 92
       -2
340
0
 93
        0
 40
0.045
309
GRIDFORMAT_END
309
TABLEFORMAT_END
  1
CELLSTYLE_BEGIN
 90
        3
 91
        2
300
_DATA
309
CELLSTYLE_END
  0
XRECORD
  5
93A
102
{ACAD_REACTORS
330
38D
102
}
330
38D
100
AcDbXrecord
280
     1
102
ACAD_ROUNDTRIP_PRE2007_TABLESTYLE
 90
      512
 91
        0
  1

 92
      512
 93
        0
  2

 94
      512
 95
        0
  3

  0
XRECORD
  5
915
102
{ACAD_REACTORS
330
914
102
}
330
914
100
AcDbXrecord
280
     1
102
RTVSPost2010Prop28
280
     1
102
RTVSPost2010PropOp28
 70
     1
102
RTVSPost2010Prop29
280
     1
102
RTVSPost2010PropOp29
 70
     1
102
RTVSPost2010Prop30
280
     0
102
RTVSPost2010PropOp30
 70
     1
102
RTVSPost2010Prop31
280
     0
102
RTVSPost2010PropOp31
 70
     1
102
RTVSPost2010Prop32
280
     0
102
RTVSPost2010PropOp32
 70
     1
102
RTVSPost2010Prop33
280
     0
102
RTVSPost2010PropOp33
 70
     1
102
RTVSPost2010Prop34
280
     0
102
RTVSPost2010PropOp34
 70
     1
102
RTVSPost2010Prop35
280
     0
102
RTVSPost2010PropOp35
 70
     1
102
RTVSPost2010Prop36
280
     0
102
RTVSPost2010PropOp36
 70
     1
102
RTVSPost2010Prop37
 90
       50
102
RTVSPost2010PropOp37
 70
     1
102
RTVSPost2010Prop38
140
0.0
102
RTVSPost2010PropOp38
 70
     1
102
RTVSPost2010Prop39
140
1.0
102
RTVSPost2010PropOp39
 70
     1
102
RTVSPost2010Prop40
 90
        0
102
RTVSPost2010PropOp40
 70
     1
102
RTVSPost2010Prop41ColorIndex
 90
       18
102
RTVSPost2010Prop41ColorRGB
 90
        0
102
RTVSPost2010PropOp41
 70
     1
102
RTVSPost2010Prop42
 90
       50
102
RTVSPost2010PropOp42
 70
     1
102
RTVSPost2010Prop43
 90
        3
102
RTVSPost2010PropOp43
 70
     1
102
RTVSPost2010Prop44ColorIndex
 90
        5
102
RTVSPost2010Prop44ColorRGB
 90
      255
102
RTVSPost2010PropOp44
 70
     1
102
RTVSPost2010Prop45
280
     0
102
RTVSPost2010PropOp45
 70
     1
102
RTVSPost2010Prop46
 90
       50
102
RTVSPost2010PropOp46
 70
     1
102
RTVSPost2010Prop47
 90
       50
102
RTVSPost2010PropOp47
 70
     1
102
RTVSPost2010Prop48
 90
       50
102
RTVSPost2010PropOp48
 70
     1
102
RTVSPost2010Prop49
280
     0
102
RTVSPost2010PropOp49
 70
     1
102
RTVSPost2010Prop50
 90
       50
102
RTVSPost2010PropOp50
 70
     1
102
RTVSPost2010Prop51ColorIndex
 90
      256
102
RTVSPost2010Prop51ColorRGB
 90
-16777216
102
RTVSPost2010PropOp51
 70
     0
102
RTVSPost2010Prop52
140
1.0
102
RTVSPost2010PropOp52
 70
     0
102
RTVSPost2010Prop53
 90
        2
102
RTVSPost2010PropOp53
 70
     1
102
RTVSPost2010Prop54
  1
strokes_ogs.tif
102
RTVSPost2010PropOp54
 70
     1
102
RTVSPost2010Prop55
280
     0
102
RTVSPost2010PropOp55
 70
     1
102
RTVSPost2010Prop56
140
1.0
102
RTVSPost2010PropOp56
 70
     1
102
RTVSPost2010Prop57
140
1.0
102
RTVSPost2010PropOp57
 70
     1
102
RTVSPropertyOp0
 70
     1
102
RTVSPropertyOp1
 70
     1
102
RTVSPropertyOp2
 70
     1
102
RTVSPropertyOp3
 70
     1
102
RTVSPropertyOp4
 70
     1
102
RTVSPropertyOp5
 70
     1
102
RTVSPropertyOp6
 70
     1
102
RTVSPropertyOp7
 70
     1
102
RTVSPropertyOp8
 70
     1
102
RTVSPropertyOp9
 70
     1
102
RTVSPropertyOp10
 70
     1
102
RTVSPropertyOp11
 70
     1
102
RTVSPropertyOp12
 70
     1
102
RTVSPropertyOp13
 70
     1
102
RTVSPropertyOp14
 70
     1
102
RTVSPropertyOp15
 70
     1
102
RTVSPropertyOp16
 70
     1
102
RTVSPropertyOp17
 70
     1
102
RTVSPropertyOp18
 70
     1
102
RTVSPropertyOp19
 70
     1
102
RTVSPropertyOp20
 70
     1
102
RTVSPropertyOp21
 70
     1
102
RTVSPropertyOp22
 70
     1
102
RTVSPropertyOp23
 70
     1
102
RTVSPropertyOp24
 70
     1
102
RTVSPropertyOp25
 70
     1
102
RTVSPropertyOp26
 70
     1
102
RTVSPropertyOp27
 70
     1
102
RTVSPropertyOp28
 70
     1
102
RTVSPropertyOp29
 70
     1
102
RTVSPropertyOp30
 70
     1
102
RTVSPropertyOp31
 70
     1
102
RTVSPropertyOp32
 70
     1
102
RTVSPropertyOp33
 70
     1
102
RTVSPropertyOp34
 70
     1
102
RTVSPropertyOp35
 70
     1
102
RTVSPropertyOp36
 70
     1
102
RTVSPropertyOp37
 70
     1
102
RTVSPropertyOp38
 70
     1
102
RTVSPropertyOp39
 70
     1
102
RTVSPropertyOp40
 70
     1
102
RTVSPropertyOp41
 70
     1
102
RTVSPropertyOp42
 70
     1
102
RTVSPropertyOp43
 70
     1
102
RTVSPropertyOp44
 70
     1
102
RTVSPropertyOp45
 70
     1
102
RTVSPropertyOp46
 70
     1
102
RTVSPropertyOp47
 70
     1
102
RTVSPropertyOp48
 70
     1
102
RTVSPropertyOp49
 70
     1
102
RTVSPropertyOp50
 70
     1
102
RTVSPropertyOp51
 70
     0
102
RTVSPropertyOp52
 70
     0
102
RTVSPropertyOp53
 70
     1
102
RTVSPropertyOp54
 70
     1
102
RTVSPropertyOp55
 70
     1
102
RTVSPropertyOp56
 70
     1
102
RTVSPropertyOp57
 70
     1
102
RTVSPropertyOp58
 70
     1
102
RTVSPropertyOp59
 70
     1
102
RTVSPropertyOp60
 70
     1
102
RTVSPropertyOp61
 70
     1
102
RTVSPropertyOp62
 70
     1
  0
XRECORD
  5
913
102
{ACAD_REACTORS
330
912
102
}
330
912
100
AcDbXrecord
280
     1
102
RTVSPost2010Prop28
280
     0
102
RTVSPost2010PropOp28
 70
     1
102
RTVSPost2010Prop29
280
     1
102
RTVSPost2010PropOp29
 70
     1
102
RTVSPost2010Prop30
280
     1
102
RTVSPost2010PropOp30
 70
     1
102
RTVSPost2010Prop31
280
     0
102
RTVSPost2010PropOp31
 70
     1
102
RTVSPost2010Prop32
280
     0
102
RTVSPost2010PropOp32
 70
     1
102
RTVSPost2010Prop33
280
     0
102
RTVSPost2010PropOp33
 70
     1
102
RTVSPost2010Prop34
280
     0
102
RTVSPost2010PropOp34
 70
     1
102
RTVSPost2010Prop35
280
     0
102
RTVSPost2010PropOp35
 70
     1
102
RTVSPost2010Prop36
280
     0
102
RTVSPost2010PropOp36
 70
     1
102
RTVSPost2010Prop37
 90
       50
102
RTVSPost2010PropOp37
 70
     1
102
RTVSPost2010Prop38
140
0.0
102
RTVSPost2010PropOp38
 70
     1
102
RTVSPost2010Prop39
140
1.0
102
RTVSPost2010PropOp39
 70
     1
102
RTVSPost2010Prop40
 90
        0
102
RTVSPost2010PropOp40
 70
     1
102
RTVSPost2010Prop41ColorIndex
 90
       18
102
RTVSPost2010Prop41ColorRGB
 90
        0
102
RTVSPost2010PropOp41
 70
     1
102
RTVSPost2010Prop42
 90
       50
102
RTVSPost2010PropOp42
 70
     1
102
RTVSPost2010Prop43
 90
        3
102
RTVSPost2010PropOp43
 70
     1
102
RTVSPost2010Prop44ColorIndex
 90
        5
102
RTVSPost2010Prop44ColorRGB
 90
      255
102
RTVSPost2010PropOp44
 70
     1
102
RTVSPost2010Prop45
280
     0
102
RTVSPost2010PropOp45
 70
     1
102
RTVSPost2010Prop46
 90
       50
102
RTVSPost2010PropOp46
 70
     1
102
RTVSPost2010Prop47
 90
       50
102
RTVSPost2010PropOp47
 70
     1
102
RTVSPost2010Prop48
 90
       50
102
RTVSPost2010PropOp48
 70
     1
102
RTVSPost2010Prop49
280
     0
102
RTVSPost2010PropOp49
 70
     1
102
RTVSPost2010Prop50
 90
       50
102
RTVSPost2010PropOp50
 70
     1
102
RTVSPost2010Prop51ColorIndex
 90
      256
102
RTVSPost2010Prop51ColorRGB
 90
-16777216
102
RTVSPost2010PropOp51
 70
     0
102
RTVSPost2010Prop52
140
1.0
102
RTVSPost2010PropOp52
 70
     0
102
RTVSPost2010Prop53
 90
        2
102
RTVSPost2010PropOp53
 70
     1
102
RTVSPost2010Prop54
  1
strokes_ogs.tif
102
RTVSPost2010PropOp54
 70
     1
102
RTVSPost2010Prop55
280
     0
102
RTVSPost2010PropOp55
 70
     1
102
RTVSPost2010Prop56
140
1.0
102
RTVSPost2010PropOp56
 70
     1
102
RTVSPost2010Prop57
140
1.0
102
RTVSPost2010PropOp57
 70
     1
102
RTVSPropertyOp0
 70
     1
102
RTVSPropertyOp1
 70
     1
102
RTVSPropertyOp2
 70
     1
102
RTVSPropertyOp3
 70
     1
102
RTVSPropertyOp4
 70
     1
102
RTVSPropertyOp5
 70
     1
102
RTVSPropertyOp6
 70
     1
102
RTVSPropertyOp7
 70
     1
102
RTVSPropertyOp8
 70
     1
102
RTVSPropertyOp9
 70
     1
102
RTVSPropertyOp10
 70
     1
102
RTVSPropertyOp11
 70
     1
102
RTVSPropertyOp12
 70
     1
102
RTVSPropertyOp13
 70
     1
102
RTVSPropertyOp14
 70
     1
102
RTVSPropertyOp15
 70
     1
102
RTVSPropertyOp16
 70
     1
102
RTVSPropertyOp17
 70
     1
102
RTVSPropertyOp18
 70
     1
102
RTVSPropertyOp19
 70
     1
102
RTVSPropertyOp20
 70
     1
102
RTVSPropertyOp21
 70
     1
102
RTVSPropertyOp22
 70
     1
102
RTVSPropertyOp23
 70
     1
102
RTVSPropertyOp24
 70
     1
102
RTVSPropertyOp25
 70
     1
102
RTVSPropertyOp26
 70
     1
102
RTVSPropertyOp27
 70
     1
102
RTVSPropertyOp28
 70
     1
102
RTVSPropertyOp29
 70
     1
102
RTVSPropertyOp30
 70
     1
102
RTVSPropertyOp31
 70
     1
102
RTVSPropertyOp32
 70
     1
102
RTVSPropertyOp33
 70
     1
102
RTVSPropertyOp34
 70
     1
102
RTVSPropertyOp35
 70
     1
102
RTVSPropertyOp36
 70
     1
102
RTVSPropertyOp37
 70
     1
102
RTVSPropertyOp38
 70
     1
102
RTVSPropertyOp39
 70
     1
102
RTVSPropertyOp40
 70
     1
102
RTVSPropertyOp41
 70
     1
102
RTVSPropertyOp42
 70
     1
102
RTVSPropertyOp43
 70
     1
102
RTVSPropertyOp44
 70
     1
102
RTVSPropertyOp45
 70
     1
102
RTVSPropertyOp46
 70
     1
102
RTVSPropertyOp47
 70
     1
102
RTVSPropertyOp48
 70
     1
102
RTVSPropertyOp49
 70
     1
102
RTVSPropertyOp50
 70
     1
102
RTVSPropertyOp51
 70
     0
102
RTVSPropertyOp52
 70
     0
102
RTVSPropertyOp53
 70
     1
102
RTVSPropertyOp54
 70
     1
102
RTVSPropertyOp55
 70
     1
102
RTVSPropertyOp56
 70
     1
102
RTVSPropertyOp57
 70
     1
102
RTVSPropertyOp58
 70
     1
102
RTVSPropertyOp59
 70
     1
102
RTVSPropertyOp60
 70
     1
102
RTVSPropertyOp61
 70
     1
102
RTVSPropertyOp62
 70
     1
  0
XRECORD
  5
921
102
{ACAD_REACTORS
330
920
102
}
330
920
100
AcDbXrecord
280
     1
102
RTVSPost2010Prop28
280
     0
102
RTVSPost2010PropOp28
 70
     1
102
RTVSPost2010Prop29
280
     1
102
RTVSPost2010PropOp29
 70
     1
102
RTVSPost2010Prop30
280
     1
102
RTVSPost2010PropOp30
 70
     1
102
RTVSPost2010Prop31
280
     0
102
RTVSPost2010PropOp31
 70
     1
102
RTVSPost2010Prop32
280
     0
102
RTVSPost2010PropOp32
 70
     1
102
RTVSPost2010Prop33
280
     0
102
RTVSPost2010PropOp33
 70
     1
102
RTVSPost2010Prop34
280
     0
102
RTVSPost2010PropOp34
 70
     1
102
RTVSPost2010Prop35
280
     0
102
RTVSPost2010PropOp35
 70
     1
102
RTVSPost2010Prop36
280
     0
102
RTVSPost2010PropOp36
 70
     1
102
RTVSPost2010Prop37
 90
       50
102
RTVSPost2010PropOp37
 70
     1
102
RTVSPost2010Prop38
140
0.0
102
RTVSPost2010PropOp38
 70
     1
102
RTVSPost2010Prop39
140
1.0
102
RTVSPost2010PropOp39
 70
     1
102
RTVSPost2010Prop40
 90
        0
102
RTVSPost2010PropOp40
 70
     1
102
RTVSPost2010Prop41ColorIndex
 90
       18
102
RTVSPost2010Prop41ColorRGB
 90
        0
102
RTVSPost2010PropOp41
 70
     1
102
RTVSPost2010Prop42
 90
       50
102
RTVSPost2010PropOp42
 70
     1
102
RTVSPost2010Prop43
 90
        3
102
RTVSPost2010PropOp43
 70
     1
102
RTVSPost2010Prop44ColorIndex
 90
        5
102
RTVSPost2010Prop44ColorRGB
 90
      255
102
RTVSPost2010PropOp44
 70
     1
102
RTVSPost2010Prop45
280
     0
102
RTVSPost2010PropOp45
 70
     1
102
RTVSPost2010Prop46
 90
       50
102
RTVSPost2010PropOp46
 70
     1
102
RTVSPost2010Prop47
 90
       50
102
RTVSPost2010PropOp47
 70
     1
102
RTVSPost2010Prop48
 90
       50
102
RTVSPost2010PropOp48
 70
     1
102
RTVSPost2010Prop49
280
     0
102
RTVSPost2010PropOp49
 70
     1
102
RTVSPost2010Prop50
 90
       50
102
RTVSPost2010PropOp50
 70
     1
102
RTVSPost2010Prop51ColorIndex
 90
      256
102
RTVSPost2010Prop51ColorRGB
 90
-16777216
102
RTVSPost2010PropOp51
 70
     0
102
RTVSPost2010Prop52
140
1.0
102
RTVSPost2010PropOp52
 70
     0
102
RTVSPost2010Prop53
 90
        2
102
RTVSPost2010PropOp53
 70
     1
102
RTVSPost2010Prop54
  1
strokes_ogs.tif
102
RTVSPost2010PropOp54
 70
     1
102
RTVSPost2010Prop55
280
     0
102
RTVSPost2010PropOp55
 70
     1
102
RTVSPost2010Prop56
140
1.0
102
RTVSPost2010PropOp56
 70
     1
102
RTVSPost2010Prop57
140
1.0
102
RTVSPost2010PropOp57
 70
     1
102
RTVSPropertyOp0
 70
     1
102
RTVSPropertyOp1
 70
     1
102
RTVSPropertyOp2
 70
     1
102
RTVSPropertyOp3
 70
     1
102
RTVSPropertyOp4
 70
     1
102
RTVSPropertyOp5
 70
     1
102
RTVSPropertyOp6
 70
     1
102
RTVSPropertyOp7
 70
     1
102
RTVSPropertyOp8
 70
     1
102
RTVSPropertyOp9
 70
     1
102
RTVSPropertyOp10
 70
     1
102
RTVSPropertyOp11
 70
     1
102
RTVSPropertyOp12
 70
     1
102
RTVSPropertyOp13
 70
     1
102
RTVSPropertyOp14
 70
     1
102
RTVSPropertyOp15
 70
     1
102
RTVSPropertyOp16
 70
     1
102
RTVSPropertyOp17
 70
     1
102
RTVSPropertyOp18
 70
     1
102
RTVSPropertyOp19
 70
     1
102
RTVSPropertyOp20
 70
     1
102
RTVSPropertyOp21
 70
     1
102
RTVSPropertyOp22
 70
     1
102
RTVSPropertyOp23
 70
     1
102
RTVSPropertyOp24
 70
     1
102
RTVSPropertyOp25
 70
     1
102
RTVSPropertyOp26
 70
     1
102
RTVSPropertyOp27
 70
     1
102
RTVSPropertyOp28
 70
     1
102
RTVSPropertyOp29
 70
     1
102
RTVSPropertyOp30
 70
     1
102
RTVSPropertyOp31
 70
     1
102
RTVSPropertyOp32
 70
     1
102
RTVSPropertyOp33
 70
     1
102
RTVSPropertyOp34
 70
     1
102
RTVSPropertyOp35
 70
     1
102
RTVSPropertyOp36
 70
     1
102
RTVSPropertyOp37
 70
     1
102
RTVSPropertyOp38
 70
     1
102
RTVSPropertyOp39
 70
     1
102
RTVSPropertyOp40
 70
     1
102
RTVSPropertyOp41
 70
     1
102
RTVSPropertyOp42
 70
     1
102
RTVSPropertyOp43
 70
     1
102
RTVSPropertyOp44
 70
     1
102
RTVSPropertyOp45
 70
     1
102
RTVSPropertyOp46
 70
     1
102
RTVSPropertyOp47
 70
     1
102
RTVSPropertyOp48
 70
     1
102
RTVSPropertyOp49
 70
     1
102
RTVSPropertyOp50
 70
     1
102
RTVSPropertyOp51
 70
     0
102
RTVSPropertyOp52
 70
     0
102
RTVSPropertyOp53
 70
     1
102
RTVSPropertyOp54
 70
     1
102
RTVSPropertyOp55
 70
     1
102
RTVSPropertyOp56
 70
     1
102
RTVSPropertyOp57
 70
     1
102
RTVSPropertyOp58
 70
     1
102
RTVSPropertyOp59
 70
     1
102
RTVSPropertyOp60
 70
     1
102
RTVSPropertyOp61
 70
     1
102
RTVSPropertyOp62
 70
     1
  0
XRECORD
  5
929
102
{ACAD_REACTORS
330
928
102
}
330
928
100
AcDbXrecord
280
     1
102
RTVSPost2010Prop28
280
     0
102
RTVSPost2010PropOp28
 70
     1
102
RTVSPost2010Prop29
280
     1
102
RTVSPost2010PropOp29
 70
     1
102
RTVSPost2010Prop30
280
     1
102
RTVSPost2010PropOp30
 70
     1
102
RTVSPost2010Prop31
280
     0
102
RTVSPost2010PropOp31
 70
     1
102
RTVSPost2010Prop32
280
     0
102
RTVSPost2010PropOp32
 70
     1
102
RTVSPost2010Prop33
280
     0
102
RTVSPost2010PropOp33
 70
     1
102
RTVSPost2010Prop34
280
     0
102
RTVSPost2010PropOp34
 70
     1
102
RTVSPost2010Prop35
280
     0
102
RTVSPost2010PropOp35
 70
     1
102
RTVSPost2010Prop36
280
     0
102
RTVSPost2010PropOp36
 70
     1
102
RTVSPost2010Prop37
 90
       50
102
RTVSPost2010PropOp37
 70
     1
102
RTVSPost2010Prop38
140
0.0
102
RTVSPost2010PropOp38
 70
     1
102
RTVSPost2010Prop39
140
1.0
102
RTVSPost2010PropOp39
 70
     1
102
RTVSPost2010Prop40
 90
        0
102
RTVSPost2010PropOp40
 70
     1
102
RTVSPost2010Prop41ColorIndex
 90
       18
102
RTVSPost2010Prop41ColorRGB
 90
        0
102
RTVSPost2010PropOp41
 70
     1
102
RTVSPost2010Prop42
 90
       50
102
RTVSPost2010PropOp42
 70
     1
102
RTVSPost2010Prop43
 90
        3
102
RTVSPost2010PropOp43
 70
     1
102
RTVSPost2010Prop44ColorIndex
 90
        5
102
RTVSPost2010Prop44ColorRGB
 90
      255
102
RTVSPost2010PropOp44
 70
     1
102
RTVSPost2010Prop45
280
     0
102
RTVSPost2010PropOp45
 70
     1
102
RTVSPost2010Prop46
 90
       50
102
RTVSPost2010PropOp46
 70
     1
102
RTVSPost2010Prop47
 90
       50
102
RTVSPost2010PropOp47
 70
     1
102
RTVSPost2010Prop48
 90
       50
102
RTVSPost2010PropOp48
 70
     1
102
RTVSPost2010Prop49
280
     0
102
RTVSPost2010PropOp49
 70
     1
102
RTVSPost2010Prop50
 90
       50
102
RTVSPost2010PropOp50
 70
     1
102
RTVSPost2010Prop51ColorIndex
 90
      256
102
RTVSPost2010Prop51ColorRGB
 90
-16777216
102
RTVSPost2010PropOp51
 70
     0
102
RTVSPost2010Prop52
140
1.0
102
RTVSPost2010PropOp52
 70
     0
102
RTVSPost2010Prop53
 90
        2
102
RTVSPost2010PropOp53
 70
     1
102
RTVSPost2010Prop54
  1
strokes_ogs.tif
102
RTVSPost2010PropOp54
 70
     1
102
RTVSPost2010Prop55
280
     0
102
RTVSPost2010PropOp55
 70
     1
102
RTVSPost2010Prop56
140
1.0
102
RTVSPost2010PropOp56
 70
     1
102
RTVSPost2010Prop57
140
1.0
102
RTVSPost2010PropOp57
 70
     1
102
RTVSPropertyOp0
 70
     1
102
RTVSPropertyOp1
 70
     1
102
RTVSPropertyOp2
 70
     1
102
RTVSPropertyOp3
 70
     1
102
RTVSPropertyOp4
 70
     1
102
RTVSPropertyOp5
 70
     1
102
RTVSPropertyOp6
 70
     1
102
RTVSPropertyOp7
 70
     1
102
RTVSPropertyOp8
 70
     1
102
RTVSPropertyOp9
 70
     1
102
RTVSPropertyOp10
 70
     1
102
RTVSPropertyOp11
 70
     1
102
RTVSPropertyOp12
 70
     1
102
RTVSPropertyOp13
 70
     1
102
RTVSPropertyOp14
 70
     1
102
RTVSPropertyOp15
 70
     1
102
RTVSPropertyOp16
 70
     1
102
RTVSPropertyOp17
 70
     1
102
RTVSPropertyOp18
 70
     1
102
RTVSPropertyOp19
 70
     1
102
RTVSPropertyOp20
 70
     1
102
RTVSPropertyOp21
 70
     1
102
RTVSPropertyOp22
 70
     1
102
RTVSPropertyOp23
 70
     1
102
RTVSPropertyOp24
 70
     1
102
RTVSPropertyOp25
 70
     1
102
RTVSPropertyOp26
 70
     1
102
RTVSPropertyOp27
 70
     1
102
RTVSPropertyOp28
 70
     1
102
RTVSPropertyOp29
 70
     1
102
RTVSPropertyOp30
 70
     1
102
RTVSPropertyOp31
 70
     1
102
RTVSPropertyOp32
 70
     1
102
RTVSPropertyOp33
 70
     1
102
RTVSPropertyOp34
 70
     1
102
RTVSPropertyOp35
 70
     1
102
RTVSPropertyOp36
 70
     1
102
RTVSPropertyOp37
 70
     1
102
RTVSPropertyOp38
 70
     1
102
RTVSPropertyOp39
 70
     1
102
RTVSPropertyOp40
 70
     1
102
RTVSPropertyOp41
 70
     1
102
RTVSPropertyOp42
 70
     1
102
RTVSPropertyOp43
 70
     1
102
RTVSPropertyOp44
 70
     1
102
RTVSPropertyOp45
 70
     1
102
RTVSPropertyOp46
 70
     1
102
RTVSPropertyOp47
 70
     1
102
RTVSPropertyOp48
 70
     1
102
RTVSPropertyOp49
 70
     1
102
RTVSPropertyOp50
 70
     1
102
RTVSPropertyOp51
 70
     0
102
RTVSPropertyOp52
 70
     0
102
RTVSPropertyOp53
 70
     1
102
RTVSPropertyOp54
 70
     1
102
RTVSPropertyOp55
 70
     1
102
RTVSPropertyOp56
 70
     1
102
RTVSPropertyOp57
 70
     1
102
RTVSPropertyOp58
 70
     1
102
RTVSPropertyOp59
 70
     1
102
RTVSPropertyOp60
 70
     1
102
RTVSPropertyOp61
 70
     1
102
RTVSPropertyOp62
 70
     1
  0
XRECORD
  5
91B
102
{ACAD_REACTORS
330
91A
102
}
330
91A
100
AcDbXrecord
280
     1
102
RTVSPost2010Prop28
280
     0
102
RTVSPost2010PropOp28
 70
     1
102
RTVSPost2010Prop29
280
     1
102
RTVSPost2010PropOp29
 70
     1
102
RTVSPost2010Prop30
280
     1
102
RTVSPost2010PropOp30
 70
     1
102
RTVSPost2010Prop31
280
     0
102
RTVSPost2010PropOp31
 70
     1
102
RTVSPost2010Prop32
280
     0
102
RTVSPost2010PropOp32
 70
     1
102
RTVSPost2010Prop33
280
     0
102
RTVSPost2010PropOp33
 70
     1
102
RTVSPost2010Prop34
280
     0
102
RTVSPost2010PropOp34
 70
     1
102
RTVSPost2010Prop35
280
     0
102
RTVSPost2010PropOp35
 70
     1
102
RTVSPost2010Prop36
280
     0
102
RTVSPost2010PropOp36
 70
     1
102
RTVSPost2010Prop37
 90
       50
102
RTVSPost2010PropOp37
 70
     1
102
RTVSPost2010Prop38
140
0.0
102
RTVSPost2010PropOp38
 70
     1
102
RTVSPost2010Prop39
140
1.0
102
RTVSPost2010PropOp39
 70
     1
102
RTVSPost2010Prop40
 90
        0
102
RTVSPost2010PropOp40
 70
     1
102
RTVSPost2010Prop41ColorIndex
 90
       18
102
RTVSPost2010Prop41ColorRGB
 90
        0
102
RTVSPost2010PropOp41
 70
     1
102
RTVSPost2010Prop42
 90
       50
102
RTVSPost2010PropOp42
 70
     1
102
RTVSPost2010Prop43
 90
        3
102
RTVSPost2010PropOp43
 70
     1
102
RTVSPost2010Prop44ColorIndex
 90
        5
102
RTVSPost2010Prop44ColorRGB
 90
      255
102
RTVSPost2010PropOp44
 70
     1
102
RTVSPost2010Prop45
280
     0
102
RTVSPost2010PropOp45
 70
     1
102
RTVSPost2010Prop46
 90
       50
102
RTVSPost2010PropOp46
 70
     1
102
RTVSPost2010Prop47
 90
       50
102
RTVSPost2010PropOp47
 70
     1
102
RTVSPost2010Prop48
 90
       50
102
RTVSPost2010PropOp48
 70
     1
102
RTVSPost2010Prop49
280
     0
102
RTVSPost2010PropOp49
 70
     1
102
RTVSPost2010Prop50
 90
       50
102
RTVSPost2010PropOp50
 70
     1
102
RTVSPost2010Prop51ColorIndex
 90
      256
102
RTVSPost2010Prop51ColorRGB
 90
-16777216
102
RTVSPost2010PropOp51
 70
     0
102
RTVSPost2010Prop52
140
1.0
102
RTVSPost2010PropOp52
 70
     0
102
RTVSPost2010Prop53
 90
        2
102
RTVSPost2010PropOp53
 70
     1
102
RTVSPost2010Prop54
  1
strokes_ogs.tif
102
RTVSPost2010PropOp54
 70
     1
102
RTVSPost2010Prop55
280
     0
102
RTVSPost2010PropOp55
 70
     1
102
RTVSPost2010Prop56
140
1.0
102
RTVSPost2010PropOp56
 70
     1
102
RTVSPost2010Prop57
140
1.0
102
RTVSPost2010PropOp57
 70
     1
102
RTVSPropertyOp0
 70
     1
102
RTVSPropertyOp1
 70
     1
102
RTVSPropertyOp2
 70
     1
102
RTVSPropertyOp3
 70
     1
102
RTVSPropertyOp4
 70
     1
102
RTVSPropertyOp5
 70
     1
102
RTVSPropertyOp6
 70
     1
102
RTVSPropertyOp7
 70
     1
102
RTVSPropertyOp8
 70
     1
102
RTVSPropertyOp9
 70
     1
102
RTVSPropertyOp10
 70
     1
102
RTVSPropertyOp11
 70
     1
102
RTVSPropertyOp12
 70
     1
102
RTVSPropertyOp13
 70
     1
102
RTVSPropertyOp14
 70
     1
102
RTVSPropertyOp15
 70
     1
102
RTVSPropertyOp16
 70
     1
102
RTVSPropertyOp17
 70
     1
102
RTVSPropertyOp18
 70
     1
102
RTVSPropertyOp19
 70
     1
102
RTVSPropertyOp20
 70
     1
102
RTVSPropertyOp21
 70
     1
102
RTVSPropertyOp22
 70
     1
102
RTVSPropertyOp23
 70
     1
102
RTVSPropertyOp24
 70
     1
102
RTVSPropertyOp25
 70
     1
102
RTVSPropertyOp26
 70
     1
102
RTVSPropertyOp27
 70
     1
102
RTVSPropertyOp28
 70
     1
102
RTVSPropertyOp29
 70
     1
102
RTVSPropertyOp30
 70
     1
102
RTVSPropertyOp31
 70
     1
102
RTVSPropertyOp32
 70
     1
102
RTVSPropertyOp33
 70
     1
102
RTVSPropertyOp34
 70
     1
102
RTVSPropertyOp35
 70
     1
102
RTVSPropertyOp36
 70
     1
102
RTVSPropertyOp37
 70
     1
102
RTVSPropertyOp38
 70
     1
102
RTVSPropertyOp39
 70
     1
102
RTVSPropertyOp40
 70
     1
102
RTVSPropertyOp41
 70
     1
102
RTVSPropertyOp42
 70
     1
102
RTVSPropertyOp43
 70
     1
102
RTVSPropertyOp44
 70
     1
102
RTVSPropertyOp45
 70
     1
102
RTVSPropertyOp46
 70
     1
102
RTVSPropertyOp47
 70
     1
102
RTVSPropertyOp48
 70
     1
102
RTVSPropertyOp49
 70
     1
102
RTVSPropertyOp50
 70
     1
102
RTVSPropertyOp51
 70
     0
102
RTVSPropertyOp52
 70
     0
102
RTVSPropertyOp53
 70
     1
102
RTVSPropertyOp54
 70
     1
102
RTVSPropertyOp55
 70
     1
102
RTVSPropertyOp56
 70
     1
102
RTVSPropertyOp57
 70
     1
102
RTVSPropertyOp58
 70
     1
102
RTVSPropertyOp59
 70
     1
102
RTVSPropertyOp60
 70
     1
102
RTVSPropertyOp61
 70
     1
102
RTVSPropertyOp62
 70
     1
  0
XRECORD
  5
91F
102
{ACAD_REACTORS
330
91E
102
}
330
91E
100
AcDbXrecord
280
     1
102
RTVSPost2010Prop28
280
     0
102
RTVSPost2010PropOp28
 70
     1
102
RTVSPost2010Prop29
280
     1
102
RTVSPost2010PropOp29
 70
     1
102
RTVSPost2010Prop30
280
     1
102
RTVSPost2010PropOp30
 70
     1
102
RTVSPost2010Prop31
280
     0
102
RTVSPost2010PropOp31
 70
     1
102
RTVSPost2010Prop32
280
     0
102
RTVSPost2010PropOp32
 70
     1
102
RTVSPost2010Prop33
280
     0
102
RTVSPost2010PropOp33
 70
     1
102
RTVSPost2010Prop34
280
     0
102
RTVSPost2010PropOp34
 70
     1
102
RTVSPost2010Prop35
280
     0
102
RTVSPost2010PropOp35
 70
     1
102
RTVSPost2010Prop36
280
     0
102
RTVSPost2010PropOp36
 70
     1
102
RTVSPost2010Prop37
 90
       50
102
RTVSPost2010PropOp37
 70
     1
102
RTVSPost2010Prop38
140
0.0
102
RTVSPost2010PropOp38
 70
     1
102
RTVSPost2010Prop39
140
1.0
102
RTVSPost2010PropOp39
 70
     1
102
RTVSPost2010Prop40
 90
        0
102
RTVSPost2010PropOp40
 70
     1
102
RTVSPost2010Prop41ColorIndex
 90
       18
102
RTVSPost2010Prop41ColorRGB
 90
        0
102
RTVSPost2010PropOp41
 70
     1
102
RTVSPost2010Prop42
 90
       50
102
RTVSPost2010PropOp42
 70
     1
102
RTVSPost2010Prop43
 90
        3
102
RTVSPost2010PropOp43
 70
     1
102
RTVSPost2010Prop44ColorIndex
 90
        5
102
RTVSPost2010Prop44ColorRGB
 90
      255
102
RTVSPost2010PropOp44
 70
     1
102
RTVSPost2010Prop45
280
     0
102
RTVSPost2010PropOp45
 70
     1
102
RTVSPost2010Prop46
 90
       50
102
RTVSPost2010PropOp46
 70
     1
102
RTVSPost2010Prop47
 90
       50
102
RTVSPost2010PropOp47
 70
     1
102
RTVSPost2010Prop48
 90
       50
102
RTVSPost2010PropOp48
 70
     1
102
RTVSPost2010Prop49
280
     0
102
RTVSPost2010PropOp49
 70
     1
102
RTVSPost2010Prop50
 90
       50
102
RTVSPost2010PropOp50
 70
     1
102
RTVSPost2010Prop51ColorIndex
 90
      256
102
RTVSPost2010Prop51ColorRGB
 90
-16777216
102
RTVSPost2010PropOp51
 70
     0
102
RTVSPost2010Prop52
140
1.0
102
RTVSPost2010PropOp52
 70
     0
102
RTVSPost2010Prop53
 90
        2
102
RTVSPost2010PropOp53
 70
     1
102
RTVSPost2010Prop54
  1
strokes_ogs.tif
102
RTVSPost2010PropOp54
 70
     1
102
RTVSPost2010Prop55
280
     0
102
RTVSPost2010PropOp55
 70
     1
102
RTVSPost2010Prop56
140
1.0
102
RTVSPost2010PropOp56
 70
     1
102
RTVSPost2010Prop57
140
1.0
102
RTVSPost2010PropOp57
 70
     1
102
RTVSPropertyOp0
 70
     1
102
RTVSPropertyOp1
 70
     1
102
RTVSPropertyOp2
 70
     1
102
RTVSPropertyOp3
 70
     1
102
RTVSPropertyOp4
 70
     1
102
RTVSPropertyOp5
 70
     1
102
RTVSPropertyOp6
 70
     1
102
RTVSPropertyOp7
 70
     1
102
RTVSPropertyOp8
 70
     1
102
RTVSPropertyOp9
 70
     1
102
RTVSPropertyOp10
 70
     1
102
RTVSPropertyOp11
 70
     1
102
RTVSPropertyOp12
 70
     1
102
RTVSPropertyOp13
 70
     1
102
RTVSPropertyOp14
 70
     1
102
RTVSPropertyOp15
 70
     1
102
RTVSPropertyOp16
 70
     1
102
RTVSPropertyOp17
 70
     1
102
RTVSPropertyOp18
 70
     1
102
RTVSPropertyOp19
 70
     1
102
RTVSPropertyOp20
 70
     1
102
RTVSPropertyOp21
 70
     1
102
RTVSPropertyOp22
 70
     1
102
RTVSPropertyOp23
 70
     1
102
RTVSPropertyOp24
 70
     1
102
RTVSPropertyOp25
 70
     1
102
RTVSPropertyOp26
 70
     1
102
RTVSPropertyOp27
 70
     1
102
RTVSPropertyOp28
 70
     1
102
RTVSPropertyOp29
 70
     1
102
RTVSPropertyOp30
 70
     1
102
RTVSPropertyOp31
 70
     1
102
RTVSPropertyOp32
 70
     1
102
RTVSPropertyOp33
 70
     1
102
RTVSPropertyOp34
 70
     1
102
RTVSPropertyOp35
 70
     1
102
RTVSPropertyOp36
 70
     1
102
RTVSPropertyOp37
 70
     1
102
RTVSPropertyOp38
 70
     1
102
RTVSPropertyOp39
 70
     1
102
RTVSPropertyOp40
 70
     1
102
RTVSPropertyOp41
 70
     1
102
RTVSPropertyOp42
 70
     1
102
RTVSPropertyOp43
 70
     1
102
RTVSPropertyOp44
 70
     1
102
RTVSPropertyOp45
 70
     1
102
RTVSPropertyOp46
 70
     1
102
RTVSPropertyOp47
 70
     1
102
RTVSPropertyOp48
 70
     1
102
RTVSPropertyOp49
 70
     1
102
RTVSPropertyOp50
 70
     1
102
RTVSPropertyOp51
 70
     0
102
RTVSPropertyOp52
 70
     0
102
RTVSPropertyOp53
 70
     1
102
RTVSPropertyOp54
 70
     1
102
RTVSPropertyOp55
 70
     1
102
RTVSPropertyOp56
 70
     1
102
RTVSPropertyOp57
 70
     1
102
RTVSPropertyOp58
 70
     1
102
RTVSPropertyOp59
 70
     1
102
RTVSPropertyOp60
 70
     1
102
RTVSPropertyOp61
 70
     1
102
RTVSPropertyOp62
 70
     1
  0
XRECORD
  5
939
102
{ACAD_REACTORS
330
938
102
}
330
938
100
AcDbXrecord
280
     1
102
RTVSPost2010Prop28
280
     0
102
RTVSPost2010PropOp28
 70
     1
102
RTVSPost2010Prop29
280
     1
102
RTVSPost2010PropOp29
 70
     1
102
RTVSPost2010Prop30
280
     1
102
RTVSPost2010PropOp30
 70
     1
102
RTVSPost2010Prop31
280
     0
102
RTVSPost2010PropOp31
 70
     1
102
RTVSPost2010Prop32
280
     0
102
RTVSPost2010PropOp32
 70
     1
102
RTVSPost2010Prop33
280
     0
102
RTVSPost2010PropOp33
 70
     1
102
RTVSPost2010Prop34
280
     0
102
RTVSPost2010PropOp34
 70
     1
102
RTVSPost2010Prop35
280
     0
102
RTVSPost2010PropOp35
 70
     1
102
RTVSPost2010Prop36
280
     0
102
RTVSPost2010PropOp36
 70
     1
102
RTVSPost2010Prop37
 90
       50
102
RTVSPost2010PropOp37
 70
     0
102
RTVSPost2010Prop38
140
0.0
102
RTVSPost2010PropOp38
 70
     0
102
RTVSPost2010Prop39
140
1.0
102
RTVSPost2010PropOp39
 70
     0
102
RTVSPost2010Prop40
 90
        0
102
RTVSPost2010PropOp40
 70
     0
102
RTVSPost2010Prop41ColorIndex
 90
       18
102
RTVSPost2010Prop41ColorRGB
 90
        0
102
RTVSPost2010PropOp41
 70
     0
102
RTVSPost2010Prop42
 90
       50
102
RTVSPost2010PropOp42
 70
     0
102
RTVSPost2010Prop43
 90
        3
102
RTVSPost2010PropOp43
 70
     0
102
RTVSPost2010Prop44ColorIndex
 90
        5
102
RTVSPost2010Prop44ColorRGB
 90
      255
102
RTVSPost2010PropOp44
 70
     0
102
RTVSPost2010Prop45
280
     0
102
RTVSPost2010PropOp45
 70
     1
102
RTVSPost2010Prop46
 90
       50
102
RTVSPost2010PropOp46
 70
     0
102
RTVSPost2010Prop47
 90
       50
102
RTVSPost2010PropOp47
 70
     0
102
RTVSPost2010Prop48
 90
       50
102
RTVSPost2010PropOp48
 70
     0
102
RTVSPost2010Prop49
280
     0
102
RTVSPost2010PropOp49
 70
     1
102
RTVSPost2010Prop50
 90
       50
102
RTVSPost2010PropOp50
 70
     0
102
RTVSPost2010Prop51ColorIndex
 90
      256
102
RTVSPost2010Prop51ColorRGB
 90
-16777216
102
RTVSPost2010PropOp51
 70
     0
102
RTVSPost2010Prop52
140
1.0
102
RTVSPost2010PropOp52
 70
     0
102
RTVSPost2010Prop53
 90
        2
102
RTVSPost2010PropOp53
 70
     0
102
RTVSPost2010Prop54
  1
strokes_ogs.tif
102
RTVSPost2010PropOp54
 70
     0
102
RTVSPost2010Prop55
280
     0
102
RTVSPost2010PropOp55
 70
     1
102
RTVSPost2010Prop56
140
1.0
102
RTVSPost2010PropOp56
 70
     0
102
RTVSPost2010Prop57
140
1.0
102
RTVSPost2010PropOp57
 70
     0
102
RTVSPropertyOp0
 70
     0
102
RTVSPropertyOp1
 70
     0
102
RTVSPropertyOp2
 70
     0
102
RTVSPropertyOp3
 70
     0
102
RTVSPropertyOp4
 70
     0
102
RTVSPropertyOp5
 70
     0
102
RTVSPropertyOp6
 70
     0
102
RTVSPropertyOp7
 70
     0
102
RTVSPropertyOp8
 70
     0
102
RTVSPropertyOp9
 70
     0
102
RTVSPropertyOp10
 70
     0
102
RTVSPropertyOp11
 70
     0
102
RTVSPropertyOp12
 70
     0
102
RTVSPropertyOp13
 70
     0
102
RTVSPropertyOp14
 70
     2
102
RTVSPropertyOp15
 70
     0
102
RTVSPropertyOp16
 70
     0
102
RTVSPropertyOp17
 70
     0
102
RTVSPropertyOp18
 70
     0
102
RTVSPropertyOp19
 70
     0
102
RTVSPropertyOp20
 70
     0
102
RTVSPropertyOp21
 70
     0
102
RTVSPropertyOp22
 70
     0
102
RTVSPropertyOp23
 70
     0
102
RTVSPropertyOp24
 70
     0
102
RTVSPropertyOp25
 70
     0
102
RTVSPropertyOp26
 70
     0
102
RTVSPropertyOp27
 70
     0
102
RTVSPropertyOp28
 70
     1
102
RTVSPropertyOp29
 70
     1
102
RTVSPropertyOp30
 70
     1
102
RTVSPropertyOp31
 70
     1
102
RTVSPropertyOp32
 70
     1
102
RTVSPropertyOp33
 70
     1
102
RTVSPropertyOp34
 70
     1
102
RTVSPropertyOp35
 70
     1
102
RTVSPropertyOp36
 70
     1
102
RTVSPropertyOp37
 70
     0
102
RTVSPropertyOp38
 70
     0
102
RTVSPropertyOp39
 70
     0
102
RTVSPropertyOp40
 70
     0
102
RTVSPropertyOp41
 70
     0
102
RTVSPropertyOp42
 70
     0
102
RTVSPropertyOp43
 70
     0
102
RTVSPropertyOp44
 70
     0
102
RTVSPropertyOp45
 70
     1
102
RTVSPropertyOp46
 70
     0
102
RTVSPropertyOp47
 70
     0
102
RTVSPropertyOp48
 70
     0
102
RTVSPropertyOp49
 70
     1
102
RTVSPropertyOp50
 70
     0
102
RTVSPropertyOp51
 70
     0
102
RTVSPropertyOp52
 70
     0
102
RTVSPropertyOp53
 70
     0
102
RTVSPropertyOp54
 70
     0
102
RTVSPropertyOp55
 70
     1
102
RTVSPropertyOp56
 70
     0
102
RTVSPropertyOp57
 70
     0
102
RTVSPropertyOp58
 70
     0
102
RTVSPropertyOp59
 70
     0
102
RTVSPropertyOp60
 70
     0
102
RTVSPropertyOp61
 70
     0
102
RTVSPropertyOp62
 70
     0
  0
XRECORD
  5
927
102
{ACAD_REACTORS
330
926
102
}
330
926
100
AcDbXrecord
280
     1
102
RTVSPost2010Prop28
280
     0
102
RTVSPost2010PropOp28
 70
     1
102
RTVSPost2010Prop29
280
     1
102
RTVSPost2010PropOp29
 70
     1
102
RTVSPost2010Prop30
280
     1
102
RTVSPost2010PropOp30
 70
     1
102
RTVSPost2010Prop31
280
     0
102
RTVSPost2010PropOp31
 70
     1
102
RTVSPost2010Prop32
280
     0
102
RTVSPost2010PropOp32
 70
     1
102
RTVSPost2010Prop33
280
     0
102
RTVSPost2010PropOp33
 70
     1
102
RTVSPost2010Prop34
280
     0
102
RTVSPost2010PropOp34
 70
     1
102
RTVSPost2010Prop35
280
     0
102
RTVSPost2010PropOp35
 70
     1
102
RTVSPost2010Prop36
280
     0
102
RTVSPost2010PropOp36
 70
     1
102
RTVSPost2010Prop37
 90
       50
102
RTVSPost2010PropOp37
 70
     1
102
RTVSPost2010Prop38
140
0.0
102
RTVSPost2010PropOp38
 70
     1
102
RTVSPost2010Prop39
140
1.0
102
RTVSPost2010PropOp39
 70
     1
102
RTVSPost2010Prop40
 90
        0
102
RTVSPost2010PropOp40
 70
     1
102
RTVSPost2010Prop41ColorIndex
 90
       18
102
RTVSPost2010Prop41ColorRGB
 90
        0
102
RTVSPost2010PropOp41
 70
     1
102
RTVSPost2010Prop42
 90
       50
102
RTVSPost2010PropOp42
 70
     1
102
RTVSPost2010Prop43
 90
        3
102
RTVSPost2010PropOp43
 70
     1
102
RTVSPost2010Prop44ColorIndex
 90
        5
102
RTVSPost2010Prop44ColorRGB
 90
      255
102
RTVSPost2010PropOp44
 70
     1
102
RTVSPost2010Prop45
280
     0
102
RTVSPost2010PropOp45
 70
     1
102
RTVSPost2010Prop46
 90
       50
102
RTVSPost2010PropOp46
 70
     1
102
RTVSPost2010Prop47
 90
       50
102
RTVSPost2010PropOp47
 70
     1
102
RTVSPost2010Prop48
 90
       50
102
RTVSPost2010PropOp48
 70
     1
102
RTVSPost2010Prop49
280
     0
102
RTVSPost2010PropOp49
 70
     1
102
RTVSPost2010Prop50
 90
       50
102
RTVSPost2010PropOp50
 70
     1
102
RTVSPost2010Prop51ColorIndex
 90
      256
102
RTVSPost2010Prop51ColorRGB
 90
-16777216
102
RTVSPost2010PropOp51
 70
     0
102
RTVSPost2010Prop52
140
1.0
102
RTVSPost2010PropOp52
 70
     0
102
RTVSPost2010Prop53
 90
        2
102
RTVSPost2010PropOp53
 70
     1
102
RTVSPost2010Prop54
  1
strokes_ogs.tif
102
RTVSPost2010PropOp54
 70
     1
102
RTVSPost2010Prop55
280
     0
102
RTVSPost2010PropOp55
 70
     1
102
RTVSPost2010Prop56
140
1.0
102
RTVSPost2010PropOp56
 70
     1
102
RTVSPost2010Prop57
140
1.0
102
RTVSPost2010PropOp57
 70
     1
102
RTVSPropertyOp0
 70
     1
102
RTVSPropertyOp1
 70
     1
102
RTVSPropertyOp2
 70
     1
102
RTVSPropertyOp3
 70
     1
102
RTVSPropertyOp4
 70
     1
102
RTVSPropertyOp5
 70
     1
102
RTVSPropertyOp6
 70
     1
102
RTVSPropertyOp7
 70
     1
102
RTVSPropertyOp8
 70
     1
102
RTVSPropertyOp9
 70
     1
102
RTVSPropertyOp10
 70
     1
102
RTVSPropertyOp11
 70
     1
102
RTVSPropertyOp12
 70
     1
102
RTVSPropertyOp13
 70
     1
102
RTVSPropertyOp14
 70
     1
102
RTVSPropertyOp15
 70
     1
102
RTVSPropertyOp16
 70
     1
102
RTVSPropertyOp17
 70
     1
102
RTVSPropertyOp18
 70
     1
102
RTVSPropertyOp19
 70
     1
102
RTVSPropertyOp20
 70
     1
102
RTVSPropertyOp21
 70
     1
102
RTVSPropertyOp22
 70
     1
102
RTVSPropertyOp23
 70
     1
102
RTVSPropertyOp24
 70
     1
102
RTVSPropertyOp25
 70
     1
102
RTVSPropertyOp26
 70
     1
102
RTVSPropertyOp27
 70
     1
102
RTVSPropertyOp28
 70
     1
102
RTVSPropertyOp29
 70
     1
102
RTVSPropertyOp30
 70
     1
102
RTVSPropertyOp31
 70
     1
102
RTVSPropertyOp32
 70
     1
102
RTVSPropertyOp33
 70
     1
102
RTVSPropertyOp34
 70
     1
102
RTVSPropertyOp35
 70
     1
102
RTVSPropertyOp36
 70
     1
102
RTVSPropertyOp37
 70
     1
102
RTVSPropertyOp38
 70
     1
102
RTVSPropertyOp39
 70
     1
102
RTVSPropertyOp40
 70
     1
102
RTVSPropertyOp41
 70
     1
102
RTVSPropertyOp42
 70
     1
102
RTVSPropertyOp43
 70
     1
102
RTVSPropertyOp44
 70
     1
102
RTVSPropertyOp45
 70
     1
102
RTVSPropertyOp46
 70
     1
102
RTVSPropertyOp47
 70
     1
102
RTVSPropertyOp48
 70
     1
102
RTVSPropertyOp49
 70
     1
102
RTVSPropertyOp50
 70
     1
102
RTVSPropertyOp51
 70
     0
102
RTVSPropertyOp52
 70
     0
102
RTVSPropertyOp53
 70
     1
102
RTVSPropertyOp54
 70
     1
102
RTVSPropertyOp55
 70
     1
102
RTVSPropertyOp56
 70
     1
102
RTVSPropertyOp57
 70
     1
102
RTVSPropertyOp58
 70
     1
102
RTVSPropertyOp59
 70
     1
102
RTVSPropertyOp60
 70
     1
102
RTVSPropertyOp61
 70
     1
102
RTVSPropertyOp62
 70
     1
  0
XRECORD
  5
90B
102
{ACAD_REACTORS
330
90A
102
}
330
90A
100
AcDbXrecord
280
     1
102
RTVSPost2010Prop28
280
     0
102
RTVSPost2010PropOp28
 70
     1
102
RTVSPost2010Prop29
280
     1
102
RTVSPost2010PropOp29
 70
     1
102
RTVSPost2010Prop30
280
     1
102
RTVSPost2010PropOp30
 70
     1
102
RTVSPost2010Prop31
280
     0
102
RTVSPost2010PropOp31
 70
     1
102
RTVSPost2010Prop32
280
     0
102
RTVSPost2010PropOp32
 70
     1
102
RTVSPost2010Prop33
280
     0
102
RTVSPost2010PropOp33
 70
     1
102
RTVSPost2010Prop34
280
     0
102
RTVSPost2010PropOp34
 70
     1
102
RTVSPost2010Prop35
280
     0
102
RTVSPost2010PropOp35
 70
     1
102
RTVSPost2010Prop36
280
     0
102
RTVSPost2010PropOp36
 70
     1
102
RTVSPost2010Prop37
 90
       50
102
RTVSPost2010PropOp37
 70
     1
102
RTVSPost2010Prop38
140
0.0
102
RTVSPost2010PropOp38
 70
     1
102
RTVSPost2010Prop39
140
1.0
102
RTVSPost2010PropOp39
 70
     1
102
RTVSPost2010Prop40
 90
        0
102
RTVSPost2010PropOp40
 70
     1
102
RTVSPost2010Prop41ColorIndex
 90
       18
102
RTVSPost2010Prop41ColorRGB
 90
        0
102
RTVSPost2010PropOp41
 70
     1
102
RTVSPost2010Prop42
 90
       50
102
RTVSPost2010PropOp42
 70
     1
102
RTVSPost2010Prop43
 90
        3
102
RTVSPost2010PropOp43
 70
     1
102
RTVSPost2010Prop44ColorIndex
 90
        5
102
RTVSPost2010Prop44ColorRGB
 90
      255
102
RTVSPost2010PropOp44
 70
     1
102
RTVSPost2010Prop45
280
     0
102
RTVSPost2010PropOp45
 70
     1
102
RTVSPost2010Prop46
 90
       50
102
RTVSPost2010PropOp46
 70
     1
102
RTVSPost2010Prop47
 90
       50
102
RTVSPost2010PropOp47
 70
     1
102
RTVSPost2010Prop48
 90
       50
102
RTVSPost2010PropOp48
 70
     1
102
RTVSPost2010Prop49
280
     0
102
RTVSPost2010PropOp49
 70
     1
102
RTVSPost2010Prop50
 90
       50
102
RTVSPost2010PropOp50
 70
     1
102
RTVSPost2010Prop51ColorIndex
 90
      256
102
RTVSPost2010Prop51ColorRGB
 90
-16777216
102
RTVSPost2010PropOp51
 70
     0
102
RTVSPost2010Prop52
140
1.0
102
RTVSPost2010PropOp52
 70
     0
102
RTVSPost2010Prop53
 90
        2
102
RTVSPost2010PropOp53
 70
     1
102
RTVSPost2010Prop54
  1
strokes_ogs.tif
102
RTVSPost2010PropOp54
 70
     1
102
RTVSPost2010Prop55
280
     0
102
RTVSPost2010PropOp55
 70
     1
102
RTVSPost2010Prop56
140
1.0
102
RTVSPost2010PropOp56
 70
     1
102
RTVSPost2010Prop57
140
1.0
102
RTVSPost2010PropOp57
 70
     1
102
RTVSPropertyOp0
 70
     1
102
RTVSPropertyOp1
 70
     1
102
RTVSPropertyOp2
 70
     1
102
RTVSPropertyOp3
 70
     1
102
RTVSPropertyOp4
 70
     1
102
RTVSPropertyOp5
 70
     1
102
RTVSPropertyOp6
 70
     1
102
RTVSPropertyOp7
 70
     1
102
RTVSPropertyOp8
 70
     1
102
RTVSPropertyOp9
 70
     1
102
RTVSPropertyOp10
 70
     1
102
RTVSPropertyOp11
 70
     1
102
RTVSPropertyOp12
 70
     1
102
RTVSPropertyOp13
 70
     1
102
RTVSPropertyOp14
 70
     1
102
RTVSPropertyOp15
 70
     1
102
RTVSPropertyOp16
 70
     1
102
RTVSPropertyOp17
 70
     1
102
RTVSPropertyOp18
 70
     1
102
RTVSPropertyOp19
 70
     1
102
RTVSPropertyOp20
 70
     1
102
RTVSPropertyOp21
 70
     1
102
RTVSPropertyOp22
 70
     1
102
RTVSPropertyOp23
 70
     1
102
RTVSPropertyOp24
 70
     1
102
RTVSPropertyOp25
 70
     1
102
RTVSPropertyOp26
 70
     1
102
RTVSPropertyOp27
 70
     1
102
RTVSPropertyOp28
 70
     1
102
RTVSPropertyOp29
 70
     1
102
RTVSPropertyOp30
 70
     1
102
RTVSPropertyOp31
 70
     1
102
RTVSPropertyOp32
 70
     1
102
RTVSPropertyOp33
 70
     1
102
RTVSPropertyOp34
 70
     1
102
RTVSPropertyOp35
 70
     1
102
RTVSPropertyOp36
 70
     1
102
RTVSPropertyOp37
 70
     1
102
RTVSPropertyOp38
 70
     1
102
RTVSPropertyOp39
 70
     1
102
RTVSPropertyOp40
 70
     1
102
RTVSPropertyOp41
 70
     1
102
RTVSPropertyOp42
 70
     1
102
RTVSPropertyOp43
 70
     1
102
RTVSPropertyOp44
 70
     1
102
RTVSPropertyOp45
 70
     1
102
RTVSPropertyOp46
 70
     1
102
RTVSPropertyOp47
 70
     1
102
RTVSPropertyOp48
 70
     1
102
RTVSPropertyOp49
 70
     1
102
RTVSPropertyOp50
 70
     1
102
RTVSPropertyOp51
 70
     0
102
RTVSPropertyOp52
 70
     0
102
RTVSPropertyOp53
 70
     1
102
RTVSPropertyOp54
 70
     1
102
RTVSPropertyOp55
 70
     1
102
RTVSPropertyOp56
 70
     1
102
RTVSPropertyOp57
 70
     1
102
RTVSPropertyOp58
 70
     1
102
RTVSPropertyOp59
 70
     1
102
RTVSPropertyOp60
 70
     1
102
RTVSPropertyOp61
 70
     1
102
RTVSPropertyOp62
 70
     1
  0
XRECORD
  5
90D
102
{ACAD_REACTORS
330
90C
102
}
330
90C
100
AcDbXrecord
280
     1
102
RTVSPost2010Prop28
280
     0
102
RTVSPost2010PropOp28
 70
     1
102
RTVSPost2010Prop29
280
     1
102
RTVSPost2010PropOp29
 70
     1
102
RTVSPost2010Prop30
280
     1
102
RTVSPost2010PropOp30
 70
     1
102
RTVSPost2010Prop31
280
     0
102
RTVSPost2010PropOp31
 70
     1
102
RTVSPost2010Prop32
280
     0
102
RTVSPost2010PropOp32
 70
     1
102
RTVSPost2010Prop33
280
     0
102
RTVSPost2010PropOp33
 70
     1
102
RTVSPost2010Prop34
280
     0
102
RTVSPost2010PropOp34
 70
     1
102
RTVSPost2010Prop35
280
     0
102
RTVSPost2010PropOp35
 70
     1
102
RTVSPost2010Prop36
280
     0
102
RTVSPost2010PropOp36
 70
     1
102
RTVSPost2010Prop37
 90
       50
102
RTVSPost2010PropOp37
 70
     1
102
RTVSPost2010Prop38
140
0.0
102
RTVSPost2010PropOp38
 70
     1
102
RTVSPost2010Prop39
140
1.0
102
RTVSPost2010PropOp39
 70
     1
102
RTVSPost2010Prop40
 90
        0
102
RTVSPost2010PropOp40
 70
     1
102
RTVSPost2010Prop41ColorIndex
 90
       18
102
RTVSPost2010Prop41ColorRGB
 90
        0
102
RTVSPost2010PropOp41
 70
     1
102
RTVSPost2010Prop42
 90
       50
102
RTVSPost2010PropOp42
 70
     1
102
RTVSPost2010Prop43
 90
        3
102
RTVSPost2010PropOp43
 70
     1
102
RTVSPost2010Prop44ColorIndex
 90
        5
102
RTVSPost2010Prop44ColorRGB
 90
      255
102
RTVSPost2010PropOp44
 70
     1
102
RTVSPost2010Prop45
280
     0
102
RTVSPost2010PropOp45
 70
     1
102
RTVSPost2010Prop46
 90
       50
102
RTVSPost2010PropOp46
 70
     1
102
RTVSPost2010Prop47
 90
       50
102
RTVSPost2010PropOp47
 70
     1
102
RTVSPost2010Prop48
 90
       50
102
RTVSPost2010PropOp48
 70
     1
102
RTVSPost2010Prop49
280
     0
102
RTVSPost2010PropOp49
 70
     1
102
RTVSPost2010Prop50
 90
       50
102
RTVSPost2010PropOp50
 70
     1
102
RTVSPost2010Prop51ColorIndex
 90
      256
102
RTVSPost2010Prop51ColorRGB
 90
-16777216
102
RTVSPost2010PropOp51
 70
     0
102
RTVSPost2010Prop52
140
1.0
102
RTVSPost2010PropOp52
 70
     0
102
RTVSPost2010Prop53
 90
        2
102
RTVSPost2010PropOp53
 70
     1
102
RTVSPost2010Prop54
  1
strokes_ogs.tif
102
RTVSPost2010PropOp54
 70
     1
102
RTVSPost2010Prop55
280
     0
102
RTVSPost2010PropOp55
 70
     1
102
RTVSPost2010Prop56
140
1.0
102
RTVSPost2010PropOp56
 70
     1
102
RTVSPost2010Prop57
140
1.0
102
RTVSPost2010PropOp57
 70
     1
102
RTVSPropertyOp0
 70
     1
102
RTVSPropertyOp1
 70
     1
102
RTVSPropertyOp2
 70
     1
102
RTVSPropertyOp3
 70
     1
102
RTVSPropertyOp4
 70
     1
102
RTVSPropertyOp5
 70
     1
102
RTVSPropertyOp6
 70
     1
102
RTVSPropertyOp7
 70
     1
102
RTVSPropertyOp8
 70
     1
102
RTVSPropertyOp9
 70
     1
102
RTVSPropertyOp10
 70
     1
102
RTVSPropertyOp11
 70
     1
102
RTVSPropertyOp12
 70
     1
102
RTVSPropertyOp13
 70
     1
102
RTVSPropertyOp14
 70
     1
102
RTVSPropertyOp15
 70
     1
102
RTVSPropertyOp16
 70
     1
102
RTVSPropertyOp17
 70
     1
102
RTVSPropertyOp18
 70
     1
102
RTVSPropertyOp19
 70
     1
102
RTVSPropertyOp20
 70
     1
102
RTVSPropertyOp21
 70
     1
102
RTVSPropertyOp22
 70
     1
102
RTVSPropertyOp23
 70
     1
102
RTVSPropertyOp24
 70
     1
102
RTVSPropertyOp25
 70
     1
102
RTVSPropertyOp26
 70
     1
102
RTVSPropertyOp27
 70
     1
102
RTVSPropertyOp28
 70
     1
102
RTVSPropertyOp29
 70
     1
102
RTVSPropertyOp30
 70
     1
102
RTVSPropertyOp31
 70
     1
102
RTVSPropertyOp32
 70
     1
102
RTVSPropertyOp33
 70
     1
102
RTVSPropertyOp34
 70
     1
102
RTVSPropertyOp35
 70
     1
102
RTVSPropertyOp36
 70
     1
102
RTVSPropertyOp37
 70
     1
102
RTVSPropertyOp38
 70
     1
102
RTVSPropertyOp39
 70
     1
102
RTVSPropertyOp40
 70
     1
102
RTVSPropertyOp41
 70
     1
102
RTVSPropertyOp42
 70
     1
102
RTVSPropertyOp43
 70
     1
102
RTVSPropertyOp44
 70
     1
102
RTVSPropertyOp45
 70
     1
102
RTVSPropertyOp46
 70
     1
102
RTVSPropertyOp47
 70
     1
102
RTVSPropertyOp48
 70
     1
102
RTVSPropertyOp49
 70
     1
102
RTVSPropertyOp50
 70
     1
102
RTVSPropertyOp51
 70
     0
102
RTVSPropertyOp52
 70
     0
102
RTVSPropertyOp53
 70
     1
102
RTVSPropertyOp54
 70
     1
102
RTVSPropertyOp55
 70
     1
102
RTVSPropertyOp56
 70
     1
102
RTVSPropertyOp57
 70
     1
102
RTVSPropertyOp58
 70
     1
102
RTVSPropertyOp59
 70
     1
102
RTVSPropertyOp60
 70
     1
102
RTVSPropertyOp61
 70
     1
102
RTVSPropertyOp62
 70
     1
  0
XRECORD
  5
90F
102
{ACAD_REACTORS
330
90E
102
}
330
90E
100
AcDbXrecord
280
     1
102
RTVSPost2010Prop28
280
     0
102
RTVSPost2010PropOp28
 70
     1
102
RTVSPost2010Prop29
280
     1
102
RTVSPost2010PropOp29
 70
     1
102
RTVSPost2010Prop30
280
     1
102
RTVSPost2010PropOp30
 70
     1
102
RTVSPost2010Prop31
280
     0
102
RTVSPost2010PropOp31
 70
     1
102
RTVSPost2010Prop32
280
     0
102
RTVSPost2010PropOp32
 70
     1
102
RTVSPost2010Prop33
280
     0
102
RTVSPost2010PropOp33
 70
     1
102
RTVSPost2010Prop34
280
     0
102
RTVSPost2010PropOp34
 70
     1
102
RTVSPost2010Prop35
280
     0
102
RTVSPost2010PropOp35
 70
     1
102
RTVSPost2010Prop36
280
     0
102
RTVSPost2010PropOp36
 70
     1
102
RTVSPost2010Prop37
 90
       50
102
RTVSPost2010PropOp37
 70
     1
102
RTVSPost2010Prop38
140
0.0
102
RTVSPost2010PropOp38
 70
     1
102
RTVSPost2010Prop39
140
1.0
102
RTVSPost2010PropOp39
 70
     1
102
RTVSPost2010Prop40
 90
        0
102
RTVSPost2010PropOp40
 70
     1
102
RTVSPost2010Prop41ColorIndex
 90
       18
102
RTVSPost2010Prop41ColorRGB
 90
        0
102
RTVSPost2010PropOp41
 70
     1
102
RTVSPost2010Prop42
 90
       50
102
RTVSPost2010PropOp42
 70
     1
102
RTVSPost2010Prop43
 90
        3
102
RTVSPost2010PropOp43
 70
     1
102
RTVSPost2010Prop44ColorIndex
 90
        5
102
RTVSPost2010Prop44ColorRGB
 90
      255
102
RTVSPost2010PropOp44
 70
     1
102
RTVSPost2010Prop45
280
     0
102
RTVSPost2010PropOp45
 70
     1
102
RTVSPost2010Prop46
 90
       50
102
RTVSPost2010PropOp46
 70
     1
102
RTVSPost2010Prop47
 90
       50
102
RTVSPost2010PropOp47
 70
     1
102
RTVSPost2010Prop48
 90
       50
102
RTVSPost2010PropOp48
 70
     1
102
RTVSPost2010Prop49
280
     0
102
RTVSPost2010PropOp49
 70
     1
102
RTVSPost2010Prop50
 90
       50
102
RTVSPost2010PropOp50
 70
     1
102
RTVSPost2010Prop51ColorIndex
 90
      256
102
RTVSPost2010Prop51ColorRGB
 90
-16777216
102
RTVSPost2010PropOp51
 70
     0
102
RTVSPost2010Prop52
140
1.0
102
RTVSPost2010PropOp52
 70
     0
102
RTVSPost2010Prop53
 90
        2
102
RTVSPost2010PropOp53
 70
     1
102
RTVSPost2010Prop54
  1
strokes_ogs.tif
102
RTVSPost2010PropOp54
 70
     1
102
RTVSPost2010Prop55
280
     0
102
RTVSPost2010PropOp55
 70
     1
102
RTVSPost2010Prop56
140
1.0
102
RTVSPost2010PropOp56
 70
     1
102
RTVSPost2010Prop57
140
1.0
102
RTVSPost2010PropOp57
 70
     1
102
RTVSPropertyOp0
 70
     1
102
RTVSPropertyOp1
 70
     1
102
RTVSPropertyOp2
 70
     1
102
RTVSPropertyOp3
 70
     1
102
RTVSPropertyOp4
 70
     1
102
RTVSPropertyOp5
 70
     1
102
RTVSPropertyOp6
 70
     1
102
RTVSPropertyOp7
 70
     1
102
RTVSPropertyOp8
 70
     1
102
RTVSPropertyOp9
 70
     1
102
RTVSPropertyOp10
 70
     1
102
RTVSPropertyOp11
 70
     1
102
RTVSPropertyOp12
 70
     1
102
RTVSPropertyOp13
 70
     1
102
RTVSPropertyOp14
 70
     1
102
RTVSPropertyOp15
 70
     1
102
RTVSPropertyOp16
 70
     1
102
RTVSPropertyOp17
 70
     1
102
RTVSPropertyOp18
 70
     1
102
RTVSPropertyOp19
 70
     1
102
RTVSPropertyOp20
 70
     1
102
RTVSPropertyOp21
 70
     1
102
RTVSPropertyOp22
 70
     1
102
RTVSPropertyOp23
 70
     1
102
RTVSPropertyOp24
 70
     1
102
RTVSPropertyOp25
 70
     1
102
RTVSPropertyOp26
 70
     1
102
RTVSPropertyOp27
 70
     1
102
RTVSPropertyOp28
 70
     1
102
RTVSPropertyOp29
 70
     1
102
RTVSPropertyOp30
 70
     1
102
RTVSPropertyOp31
 70
     1
102
RTVSPropertyOp32
 70
     1
102
RTVSPropertyOp33
 70
     1
102
RTVSPropertyOp34
 70
     1
102
RTVSPropertyOp35
 70
     1
102
RTVSPropertyOp36
 70
     1
102
RTVSPropertyOp37
 70
     1
102
RTVSPropertyOp38
 70
     1
102
RTVSPropertyOp39
 70
     1
102
RTVSPropertyOp40
 70
     1
102
RTVSPropertyOp41
 70
     1
102
RTVSPropertyOp42
 70
     1
102
RTVSPropertyOp43
 70
     1
102
RTVSPropertyOp44
 70
     1
102
RTVSPropertyOp45
 70
     1
102
RTVSPropertyOp46
 70
     1
102
RTVSPropertyOp47
 70
     1
102
RTVSPropertyOp48
 70
     1
102
RTVSPropertyOp49
 70
     1
102
RTVSPropertyOp50
 70
     1
102
RTVSPropertyOp51
 70
     0
102
RTVSPropertyOp52
 70
     0
102
RTVSPropertyOp53
 70
     1
102
RTVSPropertyOp54
 70
     1
102
RTVSPropertyOp55
 70
     1
102
RTVSPropertyOp56
 70
     1
102
RTVSPropertyOp57
 70
     1
102
RTVSPropertyOp58
 70
     1
102
RTVSPropertyOp59
 70
     1
102
RTVSPropertyOp60
 70
     1
102
RTVSPropertyOp61
 70
     1
102
RTVSPropertyOp62
 70
     1
  0
XRECORD
  5
911
102
{ACAD_REACTORS
330
910
102
}
330
910
100
AcDbXrecord
280
     1
102
RTVSPost2010Prop28
280
     0
102
RTVSPost2010PropOp28
 70
     1
102
RTVSPost2010Prop29
280
     1
102
RTVSPost2010PropOp29
 70
     1
102
RTVSPost2010Prop30
280
     1
102
RTVSPost2010PropOp30
 70
     1
102
RTVSPost2010Prop31
280
     0
102
RTVSPost2010PropOp31
 70
     1
102
RTVSPost2010Prop32
280
     0
102
RTVSPost2010PropOp32
 70
     1
102
RTVSPost2010Prop33
280
     0
102
RTVSPost2010PropOp33
 70
     1
102
RTVSPost2010Prop34
280
     0
102
RTVSPost2010PropOp34
 70
     1
102
RTVSPost2010Prop35
280
     0
102
RTVSPost2010PropOp35
 70
     1
102
RTVSPost2010Prop36
280
     0
102
RTVSPost2010PropOp36
 70
     1
102
RTVSPost2010Prop37
 90
       50
102
RTVSPost2010PropOp37
 70
     1
102
RTVSPost2010Prop38
140
0.0
102
RTVSPost2010PropOp38
 70
     1
102
RTVSPost2010Prop39
140
1.0
102
RTVSPost2010PropOp39
 70
     1
102
RTVSPost2010Prop40
 90
        0
102
RTVSPost2010PropOp40
 70
     1
102
RTVSPost2010Prop41ColorIndex
 90
       18
102
RTVSPost2010Prop41ColorRGB
 90
        0
102
RTVSPost2010PropOp41
 70
     1
102
RTVSPost2010Prop42
 90
       50
102
RTVSPost2010PropOp42
 70
     1
102
RTVSPost2010Prop43
 90
        3
102
RTVSPost2010PropOp43
 70
     1
102
RTVSPost2010Prop44ColorIndex
 90
        5
102
RTVSPost2010Prop44ColorRGB
 90
      255
102
RTVSPost2010PropOp44
 70
     1
102
RTVSPost2010Prop45
280
     0
102
RTVSPost2010PropOp45
 70
     1
102
RTVSPost2010Prop46
 90
       50
102
RTVSPost2010PropOp46
 70
     1
102
RTVSPost2010Prop47
 90
       50
102
RTVSPost2010PropOp47
 70
     1
102
RTVSPost2010Prop48
 90
       50
102
RTVSPost2010PropOp48
 70
     1
102
RTVSPost2010Prop49
280
     0
102
RTVSPost2010PropOp49
 70
     1
102
RTVSPost2010Prop50
 90
       50
102
RTVSPost2010PropOp50
 70
     1
102
RTVSPost2010Prop51ColorIndex
 90
      256
102
RTVSPost2010Prop51ColorRGB
 90
-16777216
102
RTVSPost2010PropOp51
 70
     0
102
RTVSPost2010Prop52
140
1.0
102
RTVSPost2010PropOp52
 70
     0
102
RTVSPost2010Prop53
 90
        2
102
RTVSPost2010PropOp53
 70
     1
102
RTVSPost2010Prop54
  1
strokes_ogs.tif
102
RTVSPost2010PropOp54
 70
     1
102
RTVSPost2010Prop55
280
     0
102
RTVSPost2010PropOp55
 70
     1
102
RTVSPost2010Prop56
140
1.0
102
RTVSPost2010PropOp56
 70
     1
102
RTVSPost2010Prop57
140
1.0
102
RTVSPost2010PropOp57
 70
     1
102
RTVSPropertyOp0
 70
     1
102
RTVSPropertyOp1
 70
     1
102
RTVSPropertyOp2
 70
     1
102
RTVSPropertyOp3
 70
     1
102
RTVSPropertyOp4
 70
     1
102
RTVSPropertyOp5
 70
     1
102
RTVSPropertyOp6
 70
     1
102
RTVSPropertyOp7
 70
     1
102
RTVSPropertyOp8
 70
     1
102
RTVSPropertyOp9
 70
     1
102
RTVSPropertyOp10
 70
     1
102
RTVSPropertyOp11
 70
     1
102
RTVSPropertyOp12
 70
     1
102
RTVSPropertyOp13
 70
     1
102
RTVSPropertyOp14
 70
     1
102
RTVSPropertyOp15
 70
     1
102
RTVSPropertyOp16
 70
     1
102
RTVSPropertyOp17
 70
     1
102
RTVSPropertyOp18
 70
     1
102
RTVSPropertyOp19
 70
     1
102
RTVSPropertyOp20
 70
     1
102
RTVSPropertyOp21
 70
     1
102
RTVSPropertyOp22
 70
     1
102
RTVSPropertyOp23
 70
     1
102
RTVSPropertyOp24
 70
     1
102
RTVSPropertyOp25
 70
     1
102
RTVSPropertyOp26
 70
     1
102
RTVSPropertyOp27
 70
     1
102
RTVSPropertyOp28
 70
     1
102
RTVSPropertyOp29
 70
     1
102
RTVSPropertyOp30
 70
     1
102
RTVSPropertyOp31
 70
     1
102
RTVSPropertyOp32
 70
     1
102
RTVSPropertyOp33
 70
     1
102
RTVSPropertyOp34
 70
     1
102
RTVSPropertyOp35
 70
     1
102
RTVSPropertyOp36
 70
     1
102
RTVSPropertyOp37
 70
     1
102
RTVSPropertyOp38
 70
     1
102
RTVSPropertyOp39
 70
     1
102
RTVSPropertyOp40
 70
     1
102
RTVSPropertyOp41
 70
     1
102
RTVSPropertyOp42
 70
     1
102
RTVSPropertyOp43
 70
     1
102
RTVSPropertyOp44
 70
     1
102
RTVSPropertyOp45
 70
     1
102
RTVSPropertyOp46
 70
     1
102
RTVSPropertyOp47
 70
     1
102
RTVSPropertyOp48
 70
     1
102
RTVSPropertyOp49
 70
     1
102
RTVSPropertyOp50
 70
     1
102
RTVSPropertyOp51
 70
     0
102
RTVSPropertyOp52
 70
     0
102
RTVSPropertyOp53
 70
     1
102
RTVSPropertyOp54
 70
     1
102
RTVSPropertyOp55
 70
     1
102
RTVSPropertyOp56
 70
     1
102
RTVSPropertyOp57
 70
     1
102
RTVSPropertyOp58
 70
     1
102
RTVSPropertyOp59
 70
     1
102
RTVSPropertyOp60
 70
     1
102
RTVSPropertyOp61
 70
     1
102
RTVSPropertyOp62
 70
     1
  0
XRECORD
  5
919
102
{ACAD_REACTORS
330
918
102
}
330
918
100
AcDbXrecord
280
     1
102
RTVSPost2010Prop28
280
     0
102
RTVSPost2010PropOp28
 70
     1
102
RTVSPost2010Prop29
280
     1
102
RTVSPost2010PropOp29
 70
     1
102
RTVSPost2010Prop30
280
     1
102
RTVSPost2010PropOp30
 70
     1
102
RTVSPost2010Prop31
280
     0
102
RTVSPost2010PropOp31
 70
     1
102
RTVSPost2010Prop32
280
     0
102
RTVSPost2010PropOp32
 70
     1
102
RTVSPost2010Prop33
280
     0
102
RTVSPost2010PropOp33
 70
     1
102
RTVSPost2010Prop34
280
     0
102
RTVSPost2010PropOp34
 70
     1
102
RTVSPost2010Prop35
280
     0
102
RTVSPost2010PropOp35
 70
     1
102
RTVSPost2010Prop36
280
     0
102
RTVSPost2010PropOp36
 70
     1
102
RTVSPost2010Prop37
 90
       50
102
RTVSPost2010PropOp37
 70
     1
102
RTVSPost2010Prop38
140
0.0
102
RTVSPost2010PropOp38
 70
     1
102
RTVSPost2010Prop39
140
1.0
102
RTVSPost2010PropOp39
 70
     1
102
RTVSPost2010Prop40
 90
        0
102
RTVSPost2010PropOp40
 70
     1
102
RTVSPost2010Prop41ColorIndex
 90
       18
102
RTVSPost2010Prop41ColorRGB
 90
        0
102
RTVSPost2010PropOp41
 70
     1
102
RTVSPost2010Prop42
 90
       50
102
RTVSPost2010PropOp42
 70
     1
102
RTVSPost2010Prop43
 90
        3
102
RTVSPost2010PropOp43
 70
     1
102
RTVSPost2010Prop44ColorIndex
 90
        5
102
RTVSPost2010Prop44ColorRGB
 90
      255
102
RTVSPost2010PropOp44
 70
     1
102
RTVSPost2010Prop45
280
     0
102
RTVSPost2010PropOp45
 70
     1
102
RTVSPost2010Prop46
 90
       50
102
RTVSPost2010PropOp46
 70
     1
102
RTVSPost2010Prop47
 90
       50
102
RTVSPost2010PropOp47
 70
     1
102
RTVSPost2010Prop48
 90
       50
102
RTVSPost2010PropOp48
 70
     1
102
RTVSPost2010Prop49
280
     0
102
RTVSPost2010PropOp49
 70
     1
102
RTVSPost2010Prop50
 90
       50
102
RTVSPost2010PropOp50
 70
     1
102
RTVSPost2010Prop51ColorIndex
 90
      256
102
RTVSPost2010Prop51ColorRGB
 90
-16777216
102
RTVSPost2010PropOp51
 70
     0
102
RTVSPost2010Prop52
140
1.0
102
RTVSPost2010PropOp52
 70
     0
102
RTVSPost2010Prop53
 90
        2
102
RTVSPost2010PropOp53
 70
     1
102
RTVSPost2010Prop54
  1
strokes_ogs.tif
102
RTVSPost2010PropOp54
 70
     1
102
RTVSPost2010Prop55
280
     0
102
RTVSPost2010PropOp55
 70
     1
102
RTVSPost2010Prop56
140
1.0
102
RTVSPost2010PropOp56
 70
     1
102
RTVSPost2010Prop57
140
1.0
102
RTVSPost2010PropOp57
 70
     1
102
RTVSPropertyOp0
 70
     1
102
RTVSPropertyOp1
 70
     1
102
RTVSPropertyOp2
 70
     1
102
RTVSPropertyOp3
 70
     1
102
RTVSPropertyOp4
 70
     1
102
RTVSPropertyOp5
 70
     1
102
RTVSPropertyOp6
 70
     1
102
RTVSPropertyOp7
 70
     1
102
RTVSPropertyOp8
 70
     1
102
RTVSPropertyOp9
 70
     1
102
RTVSPropertyOp10
 70
     1
102
RTVSPropertyOp11
 70
     1
102
RTVSPropertyOp12
 70
     1
102
RTVSPropertyOp13
 70
     1
102
RTVSPropertyOp14
 70
     1
102
RTVSPropertyOp15
 70
     1
102
RTVSPropertyOp16
 70
     1
102
RTVSPropertyOp17
 70
     1
102
RTVSPropertyOp18
 70
     1
102
RTVSPropertyOp19
 70
     1
102
RTVSPropertyOp20
 70
     1
102
RTVSPropertyOp21
 70
     1
102
RTVSPropertyOp22
 70
     1
102
RTVSPropertyOp23
 70
     1
102
RTVSPropertyOp24
 70
     1
102
RTVSPropertyOp25
 70
     1
102
RTVSPropertyOp26
 70
     1
102
RTVSPropertyOp27
 70
     1
102
RTVSPropertyOp28
 70
     1
102
RTVSPropertyOp29
 70
     1
102
RTVSPropertyOp30
 70
     1
102
RTVSPropertyOp31
 70
     1
102
RTVSPropertyOp32
 70
     1
102
RTVSPropertyOp33
 70
     1
102
RTVSPropertyOp34
 70
     1
102
RTVSPropertyOp35
 70
     1
102
RTVSPropertyOp36
 70
     1
102
RTVSPropertyOp37
 70
     1
102
RTVSPropertyOp38
 70
     1
102
RTVSPropertyOp39
 70
     1
102
RTVSPropertyOp40
 70
     1
102
RTVSPropertyOp41
 70
     1
102
RTVSPropertyOp42
 70
     1
102
RTVSPropertyOp43
 70
     1
102
RTVSPropertyOp44
 70
     1
102
RTVSPropertyOp45
 70
     1
102
RTVSPropertyOp46
 70
     1
102
RTVSPropertyOp47
 70
     1
102
RTVSPropertyOp48
 70
     1
102
RTVSPropertyOp49
 70
     1
102
RTVSPropertyOp50
 70
     1
102
RTVSPropertyOp51
 70
     0
102
RTVSPropertyOp52
 70
     0
102
RTVSPropertyOp53
 70
     1
102
RTVSPropertyOp54
 70
     1
102
RTVSPropertyOp55
 70
     1
102
RTVSPropertyOp56
 70
     1
102
RTVSPropertyOp57
 70
     1
102
RTVSPropertyOp58
 70
     1
102
RTVSPropertyOp59
 70
     1
102
RTVSPropertyOp60
 70
     1
102
RTVSPropertyOp61
 70
     1
102
RTVSPropertyOp62
 70
     1
  0
XRECORD
  5
935
102
{ACAD_REACTORS
330
934
102
}
330
934
100
AcDbXrecord
280
     1
102
RTVSPost2010Prop28
280
     0
102
RTVSPost2010PropOp28
 70
     1
102
RTVSPost2010Prop29
280
     1
102
RTVSPost2010PropOp29
 70
     1
102
RTVSPost2010Prop30
280
     1
102
RTVSPost2010PropOp30
 70
     1
102
RTVSPost2010Prop31
280
     0
102
RTVSPost2010PropOp31
 70
     1
102
RTVSPost2010Prop32
280
     0
102
RTVSPost2010PropOp32
 70
     1
102
RTVSPost2010Prop33
280
     0
102
RTVSPost2010PropOp33
 70
     1
102
RTVSPost2010Prop34
280
     0
102
RTVSPost2010PropOp34
 70
     1
102
RTVSPost2010Prop35
280
     0
102
RTVSPost2010PropOp35
 70
     1
102
RTVSPost2010Prop36
280
     0
102
RTVSPost2010PropOp36
 70
     1
102
RTVSPost2010Prop37
 90
       50
102
RTVSPost2010PropOp37
 70
     0
102
RTVSPost2010Prop38
140
0.0
102
RTVSPost2010PropOp38
 70
     0
102
RTVSPost2010Prop39
140
1.0
102
RTVSPost2010PropOp39
 70
     0
102
RTVSPost2010Prop40
 90
        0
102
RTVSPost2010PropOp40
 70
     0
102
RTVSPost2010Prop41ColorIndex
 90
       18
102
RTVSPost2010Prop41ColorRGB
 90
        0
102
RTVSPost2010PropOp41
 70
     0
102
RTVSPost2010Prop42
 90
       50
102
RTVSPost2010PropOp42
 70
     0
102
RTVSPost2010Prop43
 90
        3
102
RTVSPost2010PropOp43
 70
     0
102
RTVSPost2010Prop44ColorIndex
 90
        5
102
RTVSPost2010Prop44ColorRGB
 90
      255
102
RTVSPost2010PropOp44
 70
     0
102
RTVSPost2010Prop45
280
     0
102
RTVSPost2010PropOp45
 70
     1
102
RTVSPost2010Prop46
 90
       50
102
RTVSPost2010PropOp46
 70
     0
102
RTVSPost2010Prop47
 90
       50
102
RTVSPost2010PropOp47
 70
     0
102
RTVSPost2010Prop48
 90
       50
102
RTVSPost2010PropOp48
 70
     0
102
RTVSPost2010Prop49
280
     0
102
RTVSPost2010PropOp49
 70
     1
102
RTVSPost2010Prop50
 90
       50
102
RTVSPost2010PropOp50
 70
     0
102
RTVSPost2010Prop51ColorIndex
 90
      256
102
RTVSPost2010Prop51ColorRGB
 90
-16777216
102
RTVSPost2010PropOp51
 70
     0
102
RTVSPost2010Prop52
140
1.0
102
RTVSPost2010PropOp52
 70
     0
102
RTVSPost2010Prop53
 90
        2
102
RTVSPost2010PropOp53
 70
     0
102
RTVSPost2010Prop54
  1
strokes_ogs.tif
102
RTVSPost2010PropOp54
 70
     0
102
RTVSPost2010Prop55
280
     0
102
RTVSPost2010PropOp55
 70
     1
102
RTVSPost2010Prop56
140
1.0
102
RTVSPost2010PropOp56
 70
     0
102
RTVSPost2010Prop57
140
1.0
102
RTVSPost2010PropOp57
 70
     0
102
RTVSPropertyOp0
 70
     0
102
RTVSPropertyOp1
 70
     0
102
RTVSPropertyOp2
 70
     0
102
RTVSPropertyOp3
 70
     0
102
RTVSPropertyOp4
 70
     0
102
RTVSPropertyOp5
 70
     0
102
RTVSPropertyOp6
 70
     0
102
RTVSPropertyOp7
 70
     0
102
RTVSPropertyOp8
 70
     0
102
RTVSPropertyOp9
 70
     0
102
RTVSPropertyOp10
 70
     0
102
RTVSPropertyOp11
 70
     0
102
RTVSPropertyOp12
 70
     0
102
RTVSPropertyOp13
 70
     0
102
RTVSPropertyOp14
 70
     2
102
RTVSPropertyOp15
 70
     0
102
RTVSPropertyOp16
 70
     0
102
RTVSPropertyOp17
 70
     0
102
RTVSPropertyOp18
 70
     0
102
RTVSPropertyOp19
 70
     0
102
RTVSPropertyOp20
 70
     0
102
RTVSPropertyOp21
 70
     0
102
RTVSPropertyOp22
 70
     0
102
RTVSPropertyOp23
 70
     0
102
RTVSPropertyOp24
 70
     0
102
RTVSPropertyOp25
 70
     0
102
RTVSPropertyOp26
 70
     0
102
RTVSPropertyOp27
 70
     0
102
RTVSPropertyOp28
 70
     1
102
RTVSPropertyOp29
 70
     1
102
RTVSPropertyOp30
 70
     1
102
RTVSPropertyOp31
 70
     1
102
RTVSPropertyOp32
 70
     1
102
RTVSPropertyOp33
 70
     1
102
RTVSPropertyOp34
 70
     1
102
RTVSPropertyOp35
 70
     1
102
RTVSPropertyOp36
 70
     1
102
RTVSPropertyOp37
 70
     0
102
RTVSPropertyOp38
 70
     0
102
RTVSPropertyOp39
 70
     0
102
RTVSPropertyOp40
 70
     0
102
RTVSPropertyOp41
 70
     0
102
RTVSPropertyOp42
 70
     0
102
RTVSPropertyOp43
 70
     0
102
RTVSPropertyOp44
 70
     0
102
RTVSPropertyOp45
 70
     1
102
RTVSPropertyOp46
 70
     0
102
RTVSPropertyOp47
 70
     0
102
RTVSPropertyOp48
 70
     0
102
RTVSPropertyOp49
 70
     1
102
RTVSPropertyOp50
 70
     0
102
RTVSPropertyOp51
 70
     0
102
RTVSPropertyOp52
 70
     0
102
RTVSPropertyOp53
 70
     0
102
RTVSPropertyOp54
 70
     0
102
RTVSPropertyOp55
 70
     1
102
RTVSPropertyOp56
 70
     0
102
RTVSPropertyOp57
 70
     0
102
RTVSPropertyOp58
 70
     0
102
RTVSPropertyOp59
 70
     0
102
RTVSPropertyOp60
 70
     0
102
RTVSPropertyOp61
 70
     0
102
RTVSPropertyOp62
 70
     0
  0
XRECORD
  5
925
102
{ACAD_REACTORS
330
924
102
}
330
924
100
AcDbXrecord
280
     1
102
RTVSPost2010Prop28
280
     0
102
RTVSPost2010PropOp28
 70
     1
102
RTVSPost2010Prop29
280
     1
102
RTVSPost2010PropOp29
 70
     1
102
RTVSPost2010Prop30
280
     1
102
RTVSPost2010PropOp30
 70
     1
102
RTVSPost2010Prop31
280
     0
102
RTVSPost2010PropOp31
 70
     1
102
RTVSPost2010Prop32
280
     0
102
RTVSPost2010PropOp32
 70
     1
102
RTVSPost2010Prop33
280
     0
102
RTVSPost2010PropOp33
 70
     1
102
RTVSPost2010Prop34
280
     0
102
RTVSPost2010PropOp34
 70
     1
102
RTVSPost2010Prop35
280
     0
102
RTVSPost2010PropOp35
 70
     1
102
RTVSPost2010Prop36
280
     0
102
RTVSPost2010PropOp36
 70
     1
102
RTVSPost2010Prop37
 90
       50
102
RTVSPost2010PropOp37
 70
     1
102
RTVSPost2010Prop38
140
0.0
102
RTVSPost2010PropOp38
 70
     1
102
RTVSPost2010Prop39
140
1.0
102
RTVSPost2010PropOp39
 70
     1
102
RTVSPost2010Prop40
 90
        0
102
RTVSPost2010PropOp40
 70
     1
102
RTVSPost2010Prop41ColorIndex
 90
       18
102
RTVSPost2010Prop41ColorRGB
 90
        0
102
RTVSPost2010PropOp41
 70
     1
102
RTVSPost2010Prop42
 90
       50
102
RTVSPost2010PropOp42
 70
     1
102
RTVSPost2010Prop43
 90
        3
102
RTVSPost2010PropOp43
 70
     1
102
RTVSPost2010Prop44ColorIndex
 90
        5
102
RTVSPost2010Prop44ColorRGB
 90
      255
102
RTVSPost2010PropOp44
 70
     1
102
RTVSPost2010Prop45
280
     0
102
RTVSPost2010PropOp45
 70
     1
102
RTVSPost2010Prop46
 90
       50
102
RTVSPost2010PropOp46
 70
     1
102
RTVSPost2010Prop47
 90
       50
102
RTVSPost2010PropOp47
 70
     1
102
RTVSPost2010Prop48
 90
       50
102
RTVSPost2010PropOp48
 70
     1
102
RTVSPost2010Prop49
280
     0
102
RTVSPost2010PropOp49
 70
     1
102
RTVSPost2010Prop50
 90
       50
102
RTVSPost2010PropOp50
 70
     1
102
RTVSPost2010Prop51ColorIndex
 90
      256
102
RTVSPost2010Prop51ColorRGB
 90
-16777216
102
RTVSPost2010PropOp51
 70
     0
102
RTVSPost2010Prop52
140
1.0
102
RTVSPost2010PropOp52
 70
     0
102
RTVSPost2010Prop53
 90
        2
102
RTVSPost2010PropOp53
 70
     1
102
RTVSPost2010Prop54
  1
strokes_ogs.tif
102
RTVSPost2010PropOp54
 70
     1
102
RTVSPost2010Prop55
280
     0
102
RTVSPost2010PropOp55
 70
     1
102
RTVSPost2010Prop56
140
1.0
102
RTVSPost2010PropOp56
 70
     1
102
RTVSPost2010Prop57
140
1.0
102
RTVSPost2010PropOp57
 70
     1
102
RTVSPropertyOp0
 70
     1
102
RTVSPropertyOp1
 70
     1
102
RTVSPropertyOp2
 70
     1
102
RTVSPropertyOp3
 70
     1
102
RTVSPropertyOp4
 70
     1
102
RTVSPropertyOp5
 70
     1
102
RTVSPropertyOp6
 70
     1
102
RTVSPropertyOp7
 70
     1
102
RTVSPropertyOp8
 70
     1
102
RTVSPropertyOp9
 70
     1
102
RTVSPropertyOp10
 70
     1
102
RTVSPropertyOp11
 70
     1
102
RTVSPropertyOp12
 70
     1
102
RTVSPropertyOp13
 70
     1
102
RTVSPropertyOp14
 70
     1
102
RTVSPropertyOp15
 70
     1
102
RTVSPropertyOp16
 70
     1
102
RTVSPropertyOp17
 70
     1
102
RTVSPropertyOp18
 70
     1
102
RTVSPropertyOp19
 70
     1
102
RTVSPropertyOp20
 70
     1
102
RTVSPropertyOp21
 70
     1
102
RTVSPropertyOp22
 70
     1
102
RTVSPropertyOp23
 70
     1
102
RTVSPropertyOp24
 70
     1
102
RTVSPropertyOp25
 70
     1
102
RTVSPropertyOp26
 70
     1
102
RTVSPropertyOp27
 70
     1
102
RTVSPropertyOp28
 70
     1
102
RTVSPropertyOp29
 70
     1
102
RTVSPropertyOp30
 70
     1
102
RTVSPropertyOp31
 70
     1
102
RTVSPropertyOp32
 70
     1
102
RTVSPropertyOp33
 70
     1
102
RTVSPropertyOp34
 70
     1
102
RTVSPropertyOp35
 70
     1
102
RTVSPropertyOp36
 70
     1
102
RTVSPropertyOp37
 70
     1
102
RTVSPropertyOp38
 70
     1
102
RTVSPropertyOp39
 70
     1
102
RTVSPropertyOp40
 70
     1
102
RTVSPropertyOp41
 70
     1
102
RTVSPropertyOp42
 70
     1
102
RTVSPropertyOp43
 70
     1
102
RTVSPropertyOp44
 70
     1
102
RTVSPropertyOp45
 70
     1
102
RTVSPropertyOp46
 70
     1
102
RTVSPropertyOp47
 70
     1
102
RTVSPropertyOp48
 70
     1
102
RTVSPropertyOp49
 70
     1
102
RTVSPropertyOp50
 70
     1
102
RTVSPropertyOp51
 70
     0
102
RTVSPropertyOp52
 70
     0
102
RTVSPropertyOp53
 70
     1
102
RTVSPropertyOp54
 70
     1
102
RTVSPropertyOp55
 70
     1
102
RTVSPropertyOp56
 70
     1
102
RTVSPropertyOp57
 70
     1
102
RTVSPropertyOp58
 70
     1
102
RTVSPropertyOp59
 70
     1
102
RTVSPropertyOp60
 70
     1
102
RTVSPropertyOp61
 70
     1
102
RTVSPropertyOp62
 70
     1
  0
XRECORD
  5
937
102
{ACAD_REACTORS
330
936
102
}
330
936
100
AcDbXrecord
280
     1
102
RTVSPost2010Prop28
280
     0
102
RTVSPost2010PropOp28
 70
     1
102
RTVSPost2010Prop29
280
     1
102
RTVSPost2010PropOp29
 70
     1
102
RTVSPost2010Prop30
280
     1
102
RTVSPost2010PropOp30
 70
     1
102
RTVSPost2010Prop31
280
     0
102
RTVSPost2010PropOp31
 70
     1
102
RTVSPost2010Prop32
280
     0
102
RTVSPost2010PropOp32
 70
     1
102
RTVSPost2010Prop33
280
     0
102
RTVSPost2010PropOp33
 70
     1
102
RTVSPost2010Prop34
280
     0
102
RTVSPost2010PropOp34
 70
     1
102
RTVSPost2010Prop35
280
     0
102
RTVSPost2010PropOp35
 70
     1
102
RTVSPost2010Prop36
280
     0
102
RTVSPost2010PropOp36
 70
     1
102
RTVSPost2010Prop37
 90
       50
102
RTVSPost2010PropOp37
 70
     0
102
RTVSPost2010Prop38
140
0.0
102
RTVSPost2010PropOp38
 70
     0
102
RTVSPost2010Prop39
140
1.0
102
RTVSPost2010PropOp39
 70
     0
102
RTVSPost2010Prop40
 90
        0
102
RTVSPost2010PropOp40
 70
     0
102
RTVSPost2010Prop41ColorIndex
 90
       18
102
RTVSPost2010Prop41ColorRGB
 90
        0
102
RTVSPost2010PropOp41
 70
     0
102
RTVSPost2010Prop42
 90
       50
102
RTVSPost2010PropOp42
 70
     0
102
RTVSPost2010Prop43
 90
        3
102
RTVSPost2010PropOp43
 70
     0
102
RTVSPost2010Prop44ColorIndex
 90
        5
102
RTVSPost2010Prop44ColorRGB
 90
      255
102
RTVSPost2010PropOp44
 70
     0
102
RTVSPost2010Prop45
280
     0
102
RTVSPost2010PropOp45
 70
     1
102
RTVSPost2010Prop46
 90
       50
102
RTVSPost2010PropOp46
 70
     0
102
RTVSPost2010Prop47
 90
       50
102
RTVSPost2010PropOp47
 70
     0
102
RTVSPost2010Prop48
 90
       50
102
RTVSPost2010PropOp48
 70
     0
102
RTVSPost2010Prop49
280
     0
102
RTVSPost2010PropOp49
 70
     1
102
RTVSPost2010Prop50
 90
       50
102
RTVSPost2010PropOp50
 70
     0
102
RTVSPost2010Prop51ColorIndex
 90
      256
102
RTVSPost2010Prop51ColorRGB
 90
-16777216
102
RTVSPost2010PropOp51
 70
     0
102
RTVSPost2010Prop52
140
1.0
102
RTVSPost2010PropOp52
 70
     0
102
RTVSPost2010Prop53
 90
        2
102
RTVSPost2010PropOp53
 70
     0
102
RTVSPost2010Prop54
  1
strokes_ogs.tif
102
RTVSPost2010PropOp54
 70
     0
102
RTVSPost2010Prop55
280
     0
102
RTVSPost2010PropOp55
 70
     1
102
RTVSPost2010Prop56
140
1.0
102
RTVSPost2010PropOp56
 70
     0
102
RTVSPost2010Prop57
140
1.0
102
RTVSPost2010PropOp57
 70
     0
102
RTVSPropertyOp0
 70
     0
102
RTVSPropertyOp1
 70
     0
102
RTVSPropertyOp2
 70
     0
102
RTVSPropertyOp3
 70
     0
102
RTVSPropertyOp4
 70
     0
102
RTVSPropertyOp5
 70
     0
102
RTVSPropertyOp6
 70
     0
102
RTVSPropertyOp7
 70
     0
102
RTVSPropertyOp8
 70
     0
102
RTVSPropertyOp9
 70
     0
102
RTVSPropertyOp10
 70
     0
102
RTVSPropertyOp11
 70
     0
102
RTVSPropertyOp12
 70
     0
102
RTVSPropertyOp13
 70
     0
102
RTVSPropertyOp14
 70
     2
102
RTVSPropertyOp15
 70
     0
102
RTVSPropertyOp16
 70
     0
102
RTVSPropertyOp17
 70
     0
102
RTVSPropertyOp18
 70
     0
102
RTVSPropertyOp19
 70
     0
102
RTVSPropertyOp20
 70
     0
102
RTVSPropertyOp21
 70
     0
102
RTVSPropertyOp22
 70
     0
102
RTVSPropertyOp23
 70
     0
102
RTVSPropertyOp24
 70
     0
102
RTVSPropertyOp25
 70
     0
102
RTVSPropertyOp26
 70
     0
102
RTVSPropertyOp27
 70
     0
102
RTVSPropertyOp28
 70
     1
102
RTVSPropertyOp29
 70
     1
102
RTVSPropertyOp30
 70
     1
102
RTVSPropertyOp31
 70
     1
102
RTVSPropertyOp32
 70
     1
102
RTVSPropertyOp33
 70
     1
102
RTVSPropertyOp34
 70
     1
102
RTVSPropertyOp35
 70
     1
102
RTVSPropertyOp36
 70
     1
102
RTVSPropertyOp37
 70
     0
102
RTVSPropertyOp38
 70
     0
102
RTVSPropertyOp39
 70
     0
102
RTVSPropertyOp40
 70
     0
102
RTVSPropertyOp41
 70
     0
102
RTVSPropertyOp42
 70
     0
102
RTVSPropertyOp43
 70
     0
102
RTVSPropertyOp44
 70
     0
102
RTVSPropertyOp45
 70
     1
102
RTVSPropertyOp46
 70
     0
102
RTVSPropertyOp47
 70
     0
102
RTVSPropertyOp48
 70
     0
102
RTVSPropertyOp49
 70
     1
102
RTVSPropertyOp50
 70
     0
102
RTVSPropertyOp51
 70
     0
102
RTVSPropertyOp52
 70
     0
102
RTVSPropertyOp53
 70
     0
102
RTVSPropertyOp54
 70
     0
102
RTVSPropertyOp55
 70
     1
102
RTVSPropertyOp56
 70
     0
102
RTVSPropertyOp57
 70
     0
102
RTVSPropertyOp58
 70
     0
102
RTVSPropertyOp59
 70
     0
102
RTVSPropertyOp60
 70
     0
102
RTVSPropertyOp61
 70
     0
102
RTVSPropertyOp62
 70
     0
  0
XRECORD
  5
91D
102
{ACAD_REACTORS
330
91C
102
}
330
91C
100
AcDbXrecord
280
     1
102
RTVSPost2010Prop28
280
     0
102
RTVSPost2010PropOp28
 70
     1
102
RTVSPost2010Prop29
280
     1
102
RTVSPost2010PropOp29
 70
     1
102
RTVSPost2010Prop30
280
     1
102
RTVSPost2010PropOp30
 70
     1
102
RTVSPost2010Prop31
280
     0
102
RTVSPost2010PropOp31
 70
     1
102
RTVSPost2010Prop32
280
     0
102
RTVSPost2010PropOp32
 70
     1
102
RTVSPost2010Prop33
280
     0
102
RTVSPost2010PropOp33
 70
     1
102
RTVSPost2010Prop34
280
     0
102
RTVSPost2010PropOp34
 70
     1
102
RTVSPost2010Prop35
280
     0
102
RTVSPost2010PropOp35
 70
     1
102
RTVSPost2010Prop36
280
     0
102
RTVSPost2010PropOp36
 70
     1
102
RTVSPost2010Prop37
 90
       50
102
RTVSPost2010PropOp37
 70
     1
102
RTVSPost2010Prop38
140
0.0
102
RTVSPost2010PropOp38
 70
     1
102
RTVSPost2010Prop39
140
1.0
102
RTVSPost2010PropOp39
 70
     1
102
RTVSPost2010Prop40
 90
        0
102
RTVSPost2010PropOp40
 70
     1
102
RTVSPost2010Prop41ColorIndex
 90
       18
102
RTVSPost2010Prop41ColorRGB
 90
        0
102
RTVSPost2010PropOp41
 70
     1
102
RTVSPost2010Prop42
 90
       50
102
RTVSPost2010PropOp42
 70
     1
102
RTVSPost2010Prop43
 90
        3
102
RTVSPost2010PropOp43
 70
     1
102
RTVSPost2010Prop44ColorIndex
 90
        5
102
RTVSPost2010Prop44ColorRGB
 90
      255
102
RTVSPost2010PropOp44
 70
     1
102
RTVSPost2010Prop45
280
     0
102
RTVSPost2010PropOp45
 70
     1
102
RTVSPost2010Prop46
 90
       50
102
RTVSPost2010PropOp46
 70
     1
102
RTVSPost2010Prop47
 90
       50
102
RTVSPost2010PropOp47
 70
     1
102
RTVSPost2010Prop48
 90
       50
102
RTVSPost2010PropOp48
 70
     1
102
RTVSPost2010Prop49
280
     0
102
RTVSPost2010PropOp49
 70
     1
102
RTVSPost2010Prop50
 90
       50
102
RTVSPost2010PropOp50
 70
     1
102
RTVSPost2010Prop51ColorIndex
 90
      256
102
RTVSPost2010Prop51ColorRGB
 90
-16777216
102
RTVSPost2010PropOp51
 70
     0
102
RTVSPost2010Prop52
140
1.0
102
RTVSPost2010PropOp52
 70
     0
102
RTVSPost2010Prop53
 90
        2
102
RTVSPost2010PropOp53
 70
     1
102
RTVSPost2010Prop54
  1
strokes_ogs.tif
102
RTVSPost2010PropOp54
 70
     1
102
RTVSPost2010Prop55
280
     0
102
RTVSPost2010PropOp55
 70
     1
102
RTVSPost2010Prop56
140
1.0
102
RTVSPost2010PropOp56
 70
     1
102
RTVSPost2010Prop57
140
1.0
102
RTVSPost2010PropOp57
 70
     1
102
RTVSPropertyOp0
 70
     1
102
RTVSPropertyOp1
 70
     1
102
RTVSPropertyOp2
 70
     1
102
RTVSPropertyOp3
 70
     1
102
RTVSPropertyOp4
 70
     1
102
RTVSPropertyOp5
 70
     1
102
RTVSPropertyOp6
 70
     1
102
RTVSPropertyOp7
 70
     1
102
RTVSPropertyOp8
 70
     1
102
RTVSPropertyOp9
 70
     1
102
RTVSPropertyOp10
 70
     1
102
RTVSPropertyOp11
 70
     1
102
RTVSPropertyOp12
 70
     1
102
RTVSPropertyOp13
 70
     1
102
RTVSPropertyOp14
 70
     1
102
RTVSPropertyOp15
 70
     1
102
RTVSPropertyOp16
 70
     1
102
RTVSPropertyOp17
 70
     1
102
RTVSPropertyOp18
 70
     1
102
RTVSPropertyOp19
 70
     1
102
RTVSPropertyOp20
 70
     1
102
RTVSPropertyOp21
 70
     1
102
RTVSPropertyOp22
 70
     1
102
RTVSPropertyOp23
 70
     1
102
RTVSPropertyOp24
 70
     1
102
RTVSPropertyOp25
 70
     1
102
RTVSPropertyOp26
 70
     1
102
RTVSPropertyOp27
 70
     1
102
RTVSPropertyOp28
 70
     1
102
RTVSPropertyOp29
 70
     1
102
RTVSPropertyOp30
 70
     1
102
RTVSPropertyOp31
 70
     1
102
RTVSPropertyOp32
 70
     1
102
RTVSPropertyOp33
 70
     1
102
RTVSPropertyOp34
 70
     1
102
RTVSPropertyOp35
 70
     1
102
RTVSPropertyOp36
 70
     1
102
RTVSPropertyOp37
 70
     1
102
RTVSPropertyOp38
 70
     1
102
RTVSPropertyOp39
 70
     1
102
RTVSPropertyOp40
 70
     1
102
RTVSPropertyOp41
 70
     1
102
RTVSPropertyOp42
 70
     1
102
RTVSPropertyOp43
 70
     1
102
RTVSPropertyOp44
 70
     1
102
RTVSPropertyOp45
 70
     1
102
RTVSPropertyOp46
 70
     1
102
RTVSPropertyOp47
 70
     1
102
RTVSPropertyOp48
 70
     1
102
RTVSPropertyOp49
 70
     1
102
RTVSPropertyOp50
 70
     1
102
RTVSPropertyOp51
 70
     0
102
RTVSPropertyOp52
 70
     0
102
RTVSPropertyOp53
 70
     1
102
RTVSPropertyOp54
 70
     1
102
RTVSPropertyOp55
 70
     1
102
RTVSPropertyOp56
 70
     1
102
RTVSPropertyOp57
 70
     1
102
RTVSPropertyOp58
 70
     1
102
RTVSPropertyOp59
 70
     1
102
RTVSPropertyOp60
 70
     1
102
RTVSPropertyOp61
 70
     1
102
RTVSPropertyOp62
 70
     1
  0
XRECORD
  5
933
102
{ACAD_REACTORS
330
932
102
}
330
932
100
AcDbXrecord
280
     1
102
RTVSPost2010Prop28
280
     0
102
RTVSPost2010PropOp28
 70
     1
102
RTVSPost2010Prop29
280
     1
102
RTVSPost2010PropOp29
 70
     1
102
RTVSPost2010Prop30
280
     1
102
RTVSPost2010PropOp30
 70
     1
102
RTVSPost2010Prop31
280
     0
102
RTVSPost2010PropOp31
 70
     1
102
RTVSPost2010Prop32
280
     0
102
RTVSPost2010PropOp32
 70
     1
102
RTVSPost2010Prop33
280
     0
102
RTVSPost2010PropOp33
 70
     1
102
RTVSPost2010Prop34
280
     0
102
RTVSPost2010PropOp34
 70
     1
102
RTVSPost2010Prop35
280
     0
102
RTVSPost2010PropOp35
 70
     1
102
RTVSPost2010Prop36
280
     0
102
RTVSPost2010PropOp36
 70
     1
102
RTVSPost2010Prop37
 90
       50
102
RTVSPost2010PropOp37
 70
     1
102
RTVSPost2010Prop38
140
0.0
102
RTVSPost2010PropOp38
 70
     1
102
RTVSPost2010Prop39
140
1.0
102
RTVSPost2010PropOp39
 70
     1
102
RTVSPost2010Prop40
 90
        0
102
RTVSPost2010PropOp40
 70
     1
102
RTVSPost2010Prop41ColorIndex
 90
       18
102
RTVSPost2010Prop41ColorRGB
 90
        0
102
RTVSPost2010PropOp41
 70
     1
102
RTVSPost2010Prop42
 90
       50
102
RTVSPost2010PropOp42
 70
     1
102
RTVSPost2010Prop43
 90
        3
102
RTVSPost2010PropOp43
 70
     1
102
RTVSPost2010Prop44ColorIndex
 90
        5
102
RTVSPost2010Prop44ColorRGB
 90
      255
102
RTVSPost2010PropOp44
 70
     1
102
RTVSPost2010Prop45
280
     0
102
RTVSPost2010PropOp45
 70
     1
102
RTVSPost2010Prop46
 90
       50
102
RTVSPost2010PropOp46
 70
     1
102
RTVSPost2010Prop47
 90
       50
102
RTVSPost2010PropOp47
 70
     1
102
RTVSPost2010Prop48
 90
       50
102
RTVSPost2010PropOp48
 70
     1
102
RTVSPost2010Prop49
280
     0
102
RTVSPost2010PropOp49
 70
     1
102
RTVSPost2010Prop50
 90
       50
102
RTVSPost2010PropOp50
 70
     1
102
RTVSPost2010Prop51ColorIndex
 90
      256
102
RTVSPost2010Prop51ColorRGB
 90
-16777216
102
RTVSPost2010PropOp51
 70
     0
102
RTVSPost2010Prop52
140
1.0
102
RTVSPost2010PropOp52
 70
     0
102
RTVSPost2010Prop53
 90
        2
102
RTVSPost2010PropOp53
 70
     1
102
RTVSPost2010Prop54
  1
strokes_ogs.tif
102
RTVSPost2010PropOp54
 70
     1
102
RTVSPost2010Prop55
280
     0
102
RTVSPost2010PropOp55
 70
     1
102
RTVSPost2010Prop56
140
1.0
102
RTVSPost2010PropOp56
 70
     1
102
RTVSPost2010Prop57
140
1.0
102
RTVSPost2010PropOp57
 70
     1
102
RTVSPropertyOp0
 70
     1
102
RTVSPropertyOp1
 70
     1
102
RTVSPropertyOp2
 70
     1
102
RTVSPropertyOp3
 70
     1
102
RTVSPropertyOp4
 70
     1
102
RTVSPropertyOp5
 70
     1
102
RTVSPropertyOp6
 70
     1
102
RTVSPropertyOp7
 70
     1
102
RTVSPropertyOp8
 70
     1
102
RTVSPropertyOp9
 70
     1
102
RTVSPropertyOp10
 70
     1
102
RTVSPropertyOp11
 70
     1
102
RTVSPropertyOp12
 70
     1
102
RTVSPropertyOp13
 70
     1
102
RTVSPropertyOp14
 70
     1
102
RTVSPropertyOp15
 70
     1
102
RTVSPropertyOp16
 70
     1
102
RTVSPropertyOp17
 70
     1
102
RTVSPropertyOp18
 70
     1
102
RTVSPropertyOp19
 70
     1
102
RTVSPropertyOp20
 70
     1
102
RTVSPropertyOp21
 70
     1
102
RTVSPropertyOp22
 70
     1
102
RTVSPropertyOp23
 70
     1
102
RTVSPropertyOp24
 70
     1
102
RTVSPropertyOp25
 70
     1
102
RTVSPropertyOp26
 70
     1
102
RTVSPropertyOp27
 70
     1
102
RTVSPropertyOp28
 70
     1
102
RTVSPropertyOp29
 70
     1
102
RTVSPropertyOp30
 70
     1
102
RTVSPropertyOp31
 70
     1
102
RTVSPropertyOp32
 70
     1
102
RTVSPropertyOp33
 70
     1
102
RTVSPropertyOp34
 70
     1
102
RTVSPropertyOp35
 70
     1
102
RTVSPropertyOp36
 70
     1
102
RTVSPropertyOp37
 70
     1
102
RTVSPropertyOp38
 70
     1
102
RTVSPropertyOp39
 70
     1
102
RTVSPropertyOp40
 70
     1
102
RTVSPropertyOp41
 70
     1
102
RTVSPropertyOp42
 70
     1
102
RTVSPropertyOp43
 70
     1
102
RTVSPropertyOp44
 70
     1
102
RTVSPropertyOp45
 70
     1
102
RTVSPropertyOp46
 70
     1
102
RTVSPropertyOp47
 70
     1
102
RTVSPropertyOp48
 70
     1
102
RTVSPropertyOp49
 70
     1
102
RTVSPropertyOp50
 70
     1
102
RTVSPropertyOp51
 70
     0
102
RTVSPropertyOp52
 70
     0
102
RTVSPropertyOp53
 70
     1
102
RTVSPropertyOp54
 70
     1
102
RTVSPropertyOp55
 70
     1
102
RTVSPropertyOp56
 70
     1
102
RTVSPropertyOp57
 70
     1
102
RTVSPropertyOp58
 70
     1
102
RTVSPropertyOp59
 70
     1
102
RTVSPropertyOp60
 70
     1
102
RTVSPropertyOp61
 70
     1
102
RTVSPropertyOp62
 70
     1
  0
XRECORD
  5
931
102
{ACAD_REACTORS
330
930
102
}
330
930
100
AcDbXrecord
280
     1
102
RTVSPost2010Prop28
280
     0
102
RTVSPost2010PropOp28
 70
     1
102
RTVSPost2010Prop29
280
     1
102
RTVSPost2010PropOp29
 70
     1
102
RTVSPost2010Prop30
280
     1
102
RTVSPost2010PropOp30
 70
     1
102
RTVSPost2010Prop31
280
     0
102
RTVSPost2010PropOp31
 70
     1
102
RTVSPost2010Prop32
280
     0
102
RTVSPost2010PropOp32
 70
     1
102
RTVSPost2010Prop33
280
     0
102
RTVSPost2010PropOp33
 70
     1
102
RTVSPost2010Prop34
280
     0
102
RTVSPost2010PropOp34
 70
     1
102
RTVSPost2010Prop35
280
     0
102
RTVSPost2010PropOp35
 70
     1
102
RTVSPost2010Prop36
280
     0
102
RTVSPost2010PropOp36
 70
     1
102
RTVSPost2010Prop37
 90
       50
102
RTVSPost2010PropOp37
 70
     1
102
RTVSPost2010Prop38
140
0.0
102
RTVSPost2010PropOp38
 70
     1
102
RTVSPost2010Prop39
140
1.0
102
RTVSPost2010PropOp39
 70
     1
102
RTVSPost2010Prop40
 90
        0
102
RTVSPost2010PropOp40
 70
     1
102
RTVSPost2010Prop41ColorIndex
 90
       18
102
RTVSPost2010Prop41ColorRGB
 90
        0
102
RTVSPost2010PropOp41
 70
     1
102
RTVSPost2010Prop42
 90
       50
102
RTVSPost2010PropOp42
 70
     1
102
RTVSPost2010Prop43
 90
        3
102
RTVSPost2010PropOp43
 70
     1
102
RTVSPost2010Prop44ColorIndex
 90
        5
102
RTVSPost2010Prop44ColorRGB
 90
      255
102
RTVSPost2010PropOp44
 70
     1
102
RTVSPost2010Prop45
280
     0
102
RTVSPost2010PropOp45
 70
     1
102
RTVSPost2010Prop46
 90
       50
102
RTVSPost2010PropOp46
 70
     1
102
RTVSPost2010Prop47
 90
       50
102
RTVSPost2010PropOp47
 70
     1
102
RTVSPost2010Prop48
 90
       50
102
RTVSPost2010PropOp48
 70
     1
102
RTVSPost2010Prop49
280
     0
102
RTVSPost2010PropOp49
 70
     1
102
RTVSPost2010Prop50
 90
       50
102
RTVSPost2010PropOp50
 70
     1
102
RTVSPost2010Prop51ColorIndex
 90
      256
102
RTVSPost2010Prop51ColorRGB
 90
-16777216
102
RTVSPost2010PropOp51
 70
     0
102
RTVSPost2010Prop52
140
1.0
102
RTVSPost2010PropOp52
 70
     0
102
RTVSPost2010Prop53
 90
        2
102
RTVSPost2010PropOp53
 70
     1
102
RTVSPost2010Prop54
  1
strokes_ogs.tif
102
RTVSPost2010PropOp54
 70
     1
102
RTVSPost2010Prop55
280
     0
102
RTVSPost2010PropOp55
 70
     1
102
RTVSPost2010Prop56
140
1.0
102
RTVSPost2010PropOp56
 70
     1
102
RTVSPost2010Prop57
140
1.0
102
RTVSPost2010PropOp57
 70
     1
102
RTVSPropertyOp0
 70
     1
102
RTVSPropertyOp1
 70
     1
102
RTVSPropertyOp2
 70
     1
102
RTVSPropertyOp3
 70
     1
102
RTVSPropertyOp4
 70
     1
102
RTVSPropertyOp5
 70
     1
102
RTVSPropertyOp6
 70
     1
102
RTVSPropertyOp7
 70
     1
102
RTVSPropertyOp8
 70
     1
102
RTVSPropertyOp9
 70
     1
102
RTVSPropertyOp10
 70
     1
102
RTVSPropertyOp11
 70
     1
102
RTVSPropertyOp12
 70
     1
102
RTVSPropertyOp13
 70
     1
102
RTVSPropertyOp14
 70
     1
102
RTVSPropertyOp15
 70
     1
102
RTVSPropertyOp16
 70
     1
102
RTVSPropertyOp17
 70
     1
102
RTVSPropertyOp18
 70
     1
102
RTVSPropertyOp19
 70
     1
102
RTVSPropertyOp20
 70
     1
102
RTVSPropertyOp21
 70
     1
102
RTVSPropertyOp22
 70
     1
102
RTVSPropertyOp23
 70
     1
102
RTVSPropertyOp24
 70
     1
102
RTVSPropertyOp25
 70
     1
102
RTVSPropertyOp26
 70
     1
102
RTVSPropertyOp27
 70
     1
102
RTVSPropertyOp28
 70
     1
102
RTVSPropertyOp29
 70
     1
102
RTVSPropertyOp30
 70
     1
102
RTVSPropertyOp31
 70
     1
102
RTVSPropertyOp32
 70
     1
102
RTVSPropertyOp33
 70
     1
102
RTVSPropertyOp34
 70
     1
102
RTVSPropertyOp35
 70
     1
102
RTVSPropertyOp36
 70
     1
102
RTVSPropertyOp37
 70
     1
102
RTVSPropertyOp38
 70
     1
102
RTVSPropertyOp39
 70
     1
102
RTVSPropertyOp40
 70
     1
102
RTVSPropertyOp41
 70
     1
102
RTVSPropertyOp42
 70
     1
102
RTVSPropertyOp43
 70
     1
102
RTVSPropertyOp44
 70
     1
102
RTVSPropertyOp45
 70
     1
102
RTVSPropertyOp46
 70
     1
102
RTVSPropertyOp47
 70
     1
102
RTVSPropertyOp48
 70
     1
102
RTVSPropertyOp49
 70
     1
102
RTVSPropertyOp50
 70
     1
102
RTVSPropertyOp51
 70
     0
102
RTVSPropertyOp52
 70
     0
102
RTVSPropertyOp53
 70
     1
102
RTVSPropertyOp54
 70
     1
102
RTVSPropertyOp55
 70
     1
102
RTVSPropertyOp56
 70
     1
102
RTVSPropertyOp57
 70
     1
102
RTVSPropertyOp58
 70
     1
102
RTVSPropertyOp59
 70
     1
102
RTVSPropertyOp60
 70
     1
102
RTVSPropertyOp61
 70
     1
102
RTVSPropertyOp62
 70
     1
  0
XRECORD
  5
92B
102
{ACAD_REACTORS
330
92A
102
}
330
92A
100
AcDbXrecord
280
     1
102
RTVSPost2010Prop28
280
     0
102
RTVSPost2010PropOp28
 70
     1
102
RTVSPost2010Prop29
280
     1
102
RTVSPost2010PropOp29
 70
     1
102
RTVSPost2010Prop30
280
     1
102
RTVSPost2010PropOp30
 70
     1
102
RTVSPost2010Prop31
280
     0
102
RTVSPost2010PropOp31
 70
     1
102
RTVSPost2010Prop32
280
     0
102
RTVSPost2010PropOp32
 70
     1
102
RTVSPost2010Prop33
280
     0
102
RTVSPost2010PropOp33
 70
     1
102
RTVSPost2010Prop34
280
     0
102
RTVSPost2010PropOp34
 70
     1
102
RTVSPost2010Prop35
280
     0
102
RTVSPost2010PropOp35
 70
     1
102
RTVSPost2010Prop36
280
     0
102
RTVSPost2010PropOp36
 70
     1
102
RTVSPost2010Prop37
 90
       50
102
RTVSPost2010PropOp37
 70
     1
102
RTVSPost2010Prop38
140
0.0
102
RTVSPost2010PropOp38
 70
     1
102
RTVSPost2010Prop39
140
1.0
102
RTVSPost2010PropOp39
 70
     1
102
RTVSPost2010Prop40
 90
        0
102
RTVSPost2010PropOp40
 70
     1
102
RTVSPost2010Prop41ColorIndex
 90
       18
102
RTVSPost2010Prop41ColorRGB
 90
        0
102
RTVSPost2010PropOp41
 70
     1
102
RTVSPost2010Prop42
 90
       50
102
RTVSPost2010PropOp42
 70
     1
102
RTVSPost2010Prop43
 90
        3
102
RTVSPost2010PropOp43
 70
     1
102
RTVSPost2010Prop44ColorIndex
 90
        5
102
RTVSPost2010Prop44ColorRGB
 90
      255
102
RTVSPost2010PropOp44
 70
     1
102
RTVSPost2010Prop45
280
     0
102
RTVSPost2010PropOp45
 70
     1
102
RTVSPost2010Prop46
 90
       50
102
RTVSPost2010PropOp46
 70
     1
102
RTVSPost2010Prop47
 90
       50
102
RTVSPost2010PropOp47
 70
     1
102
RTVSPost2010Prop48
 90
       50
102
RTVSPost2010PropOp48
 70
     1
102
RTVSPost2010Prop49
280
     0
102
RTVSPost2010PropOp49
 70
     1
102
RTVSPost2010Prop50
 90
       50
102
RTVSPost2010PropOp50
 70
     1
102
RTVSPost2010Prop51ColorIndex
 90
      256
102
RTVSPost2010Prop51ColorRGB
 90
-16777216
102
RTVSPost2010PropOp51
 70
     0
102
RTVSPost2010Prop52
140
1.0
102
RTVSPost2010PropOp52
 70
     0
102
RTVSPost2010Prop53
 90
        2
102
RTVSPost2010PropOp53
 70
     1
102
RTVSPost2010Prop54
  1
strokes_ogs.tif
102
RTVSPost2010PropOp54
 70
     1
102
RTVSPost2010Prop55
280
     0
102
RTVSPost2010PropOp55
 70
     1
102
RTVSPost2010Prop56
140
1.0
102
RTVSPost2010PropOp56
 70
     1
102
RTVSPost2010Prop57
140
1.0
102
RTVSPost2010PropOp57
 70
     1
102
RTVSPropertyOp0
 70
     1
102
RTVSPropertyOp1
 70
     1
102
RTVSPropertyOp2
 70
     1
102
RTVSPropertyOp3
 70
     1
102
RTVSPropertyOp4
 70
     1
102
RTVSPropertyOp5
 70
     1
102
RTVSPropertyOp6
 70
     1
102
RTVSPropertyOp7
 70
     1
102
RTVSPropertyOp8
 70
     1
102
RTVSPropertyOp9
 70
     1
102
RTVSPropertyOp10
 70
     1
102
RTVSPropertyOp11
 70
     1
102
RTVSPropertyOp12
 70
     1
102
RTVSPropertyOp13
 70
     1
102
RTVSPropertyOp14
 70
     1
102
RTVSPropertyOp15
 70
     1
102
RTVSPropertyOp16
 70
     1
102
RTVSPropertyOp17
 70
     1
102
RTVSPropertyOp18
 70
     1
102
RTVSPropertyOp19
 70
     1
102
RTVSPropertyOp20
 70
     1
102
RTVSPropertyOp21
 70
     1
102
RTVSPropertyOp22
 70
     1
102
RTVSPropertyOp23
 70
     1
102
RTVSPropertyOp24
 70
     1
102
RTVSPropertyOp25
 70
     1
102
RTVSPropertyOp26
 70
     1
102
RTVSPropertyOp27
 70
     1
102
RTVSPropertyOp28
 70
     1
102
RTVSPropertyOp29
 70
     1
102
RTVSPropertyOp30
 70
     1
102
RTVSPropertyOp31
 70
     1
102
RTVSPropertyOp32
 70
     1
102
RTVSPropertyOp33
 70
     1
102
RTVSPropertyOp34
 70
     1
102
RTVSPropertyOp35
 70
     1
102
RTVSPropertyOp36
 70
     1
102
RTVSPropertyOp37
 70
     1
102
RTVSPropertyOp38
 70
     1
102
RTVSPropertyOp39
 70
     1
102
RTVSPropertyOp40
 70
     1
102
RTVSPropertyOp41
 70
     1
102
RTVSPropertyOp42
 70
     1
102
RTVSPropertyOp43
 70
     1
102
RTVSPropertyOp44
 70
     1
102
RTVSPropertyOp45
 70
     1
102
RTVSPropertyOp46
 70
     1
102
RTVSPropertyOp47
 70
     1
102
RTVSPropertyOp48
 70
     1
102
RTVSPropertyOp49
 70
     1
102
RTVSPropertyOp50
 70
     1
102
RTVSPropertyOp51
 70
     0
102
RTVSPropertyOp52
 70
     0
102
RTVSPropertyOp53
 70
     1
102
RTVSPropertyOp54
 70
     1
102
RTVSPropertyOp55
 70
     1
102
RTVSPropertyOp56
 70
     1
102
RTVSPropertyOp57
 70
     1
102
RTVSPropertyOp58
 70
     1
102
RTVSPropertyOp59
 70
     1
102
RTVSPropertyOp60
 70
     1
102
RTVSPropertyOp61
 70
     1
102
RTVSPropertyOp62
 70
     1
  0
XRECORD
  5
92D
102
{ACAD_REACTORS
330
92C
102
}
330
92C
100
AcDbXrecord
280
     1
102
RTVSPost2010Prop28
280
     0
102
RTVSPost2010PropOp28
 70
     1
102
RTVSPost2010Prop29
280
     1
102
RTVSPost2010PropOp29
 70
     1
102
RTVSPost2010Prop30
280
     1
102
RTVSPost2010PropOp30
 70
     1
102
RTVSPost2010Prop31
280
     0
102
RTVSPost2010PropOp31
 70
     1
102
RTVSPost2010Prop32
280
     0
102
RTVSPost2010PropOp32
 70
     1
102
RTVSPost2010Prop33
280
     0
102
RTVSPost2010PropOp33
 70
     1
102
RTVSPost2010Prop34
280
     0
102
RTVSPost2010PropOp34
 70
     1
102
RTVSPost2010Prop35
280
     0
102
RTVSPost2010PropOp35
 70
     1
102
RTVSPost2010Prop36
280
     0
102
RTVSPost2010PropOp36
 70
     1
102
RTVSPost2010Prop37
 90
       50
102
RTVSPost2010PropOp37
 70
     1
102
RTVSPost2010Prop38
140
0.0
102
RTVSPost2010PropOp38
 70
     1
102
RTVSPost2010Prop39
140
1.0
102
RTVSPost2010PropOp39
 70
     1
102
RTVSPost2010Prop40
 90
        0
102
RTVSPost2010PropOp40
 70
     1
102
RTVSPost2010Prop41ColorIndex
 90
       18
102
RTVSPost2010Prop41ColorRGB
 90
        0
102
RTVSPost2010PropOp41
 70
     1
102
RTVSPost2010Prop42
 90
       50
102
RTVSPost2010PropOp42
 70
     1
102
RTVSPost2010Prop43
 90
        3
102
RTVSPost2010PropOp43
 70
     1
102
RTVSPost2010Prop44ColorIndex
 90
        5
102
RTVSPost2010Prop44ColorRGB
 90
      255
102
RTVSPost2010PropOp44
 70
     1
102
RTVSPost2010Prop45
280
     0
102
RTVSPost2010PropOp45
 70
     1
102
RTVSPost2010Prop46
 90
       50
102
RTVSPost2010PropOp46
 70
     1
102
RTVSPost2010Prop47
 90
       50
102
RTVSPost2010PropOp47
 70
     1
102
RTVSPost2010Prop48
 90
       50
102
RTVSPost2010PropOp48
 70
     1
102
RTVSPost2010Prop49
280
     0
102
RTVSPost2010PropOp49
 70
     1
102
RTVSPost2010Prop50
 90
       50
102
RTVSPost2010PropOp50
 70
     1
102
RTVSPost2010Prop51ColorIndex
 90
      256
102
RTVSPost2010Prop51ColorRGB
 90
-16777216
102
RTVSPost2010PropOp51
 70
     0
102
RTVSPost2010Prop52
140
1.0
102
RTVSPost2010PropOp52
 70
     0
102
RTVSPost2010Prop53
 90
        2
102
RTVSPost2010PropOp53
 70
     1
102
RTVSPost2010Prop54
  1
strokes_ogs.tif
102
RTVSPost2010PropOp54
 70
     1
102
RTVSPost2010Prop55
280
     0
102
RTVSPost2010PropOp55
 70
     1
102
RTVSPost2010Prop56
140
1.0
102
RTVSPost2010PropOp56
 70
     1
102
RTVSPost2010Prop57
140
1.0
102
RTVSPost2010PropOp57
 70
     1
102
RTVSPropertyOp0
 70
     1
102
RTVSPropertyOp1
 70
     1
102
RTVSPropertyOp2
 70
     1
102
RTVSPropertyOp3
 70
     1
102
RTVSPropertyOp4
 70
     1
102
RTVSPropertyOp5
 70
     1
102
RTVSPropertyOp6
 70
     1
102
RTVSPropertyOp7
 70
     1
102
RTVSPropertyOp8
 70
     1
102
RTVSPropertyOp9
 70
     1
102
RTVSPropertyOp10
 70
     1
102
RTVSPropertyOp11
 70
     1
102
RTVSPropertyOp12
 70
     1
102
RTVSPropertyOp13
 70
     1
102
RTVSPropertyOp14
 70
     1
102
RTVSPropertyOp15
 70
     1
102
RTVSPropertyOp16
 70
     1
102
RTVSPropertyOp17
 70
     1
102
RTVSPropertyOp18
 70
     1
102
RTVSPropertyOp19
 70
     1
102
RTVSPropertyOp20
 70
     1
102
RTVSPropertyOp21
 70
     1
102
RTVSPropertyOp22
 70
     1
102
RTVSPropertyOp23
 70
     1
102
RTVSPropertyOp24
 70
     1
102
RTVSPropertyOp25
 70
     1
102
RTVSPropertyOp26
 70
     1
102
RTVSPropertyOp27
 70
     1
102
RTVSPropertyOp28
 70
     1
102
RTVSPropertyOp29
 70
     1
102
RTVSPropertyOp30
 70
     1
102
RTVSPropertyOp31
 70
     1
102
RTVSPropertyOp32
 70
     1
102
RTVSPropertyOp33
 70
     1
102
RTVSPropertyOp34
 70
     1
102
RTVSPropertyOp35
 70
     1
102
RTVSPropertyOp36
 70
     1
102
RTVSPropertyOp37
 70
     1
102
RTVSPropertyOp38
 70
     1
102
RTVSPropertyOp39
 70
     1
102
RTVSPropertyOp40
 70
     1
102
RTVSPropertyOp41
 70
     1
102
RTVSPropertyOp42
 70
     1
102
RTVSPropertyOp43
 70
     1
102
RTVSPropertyOp44
 70
     1
102
RTVSPropertyOp45
 70
     1
102
RTVSPropertyOp46
 70
     1
102
RTVSPropertyOp47
 70
     1
102
RTVSPropertyOp48
 70
     1
102
RTVSPropertyOp49
 70
     1
102
RTVSPropertyOp50
 70
     1
102
RTVSPropertyOp51
 70
     0
102
RTVSPropertyOp52
 70
     0
102
RTVSPropertyOp53
 70
     1
102
RTVSPropertyOp54
 70
     1
102
RTVSPropertyOp55
 70
     1
102
RTVSPropertyOp56
 70
     1
102
RTVSPropertyOp57
 70
     1
102
RTVSPropertyOp58
 70
     1
102
RTVSPropertyOp59
 70
     1
102
RTVSPropertyOp60
 70
     1
102
RTVSPropertyOp61
 70
     1
102
RTVSPropertyOp62
 70
     1
  0
XRECORD
  5
923
102
{ACAD_REACTORS
330
922
102
}
330
922
100
AcDbXrecord
280
     1
102
RTVSPost2010Prop28
280
     0
102
RTVSPost2010PropOp28
 70
     1
102
RTVSPost2010Prop29
280
     1
102
RTVSPost2010PropOp29
 70
     1
102
RTVSPost2010Prop30
280
     1
102
RTVSPost2010PropOp30
 70
     1
102
RTVSPost2010Prop31
280
     0
102
RTVSPost2010PropOp31
 70
     1
102
RTVSPost2010Prop32
280
     0
102
RTVSPost2010PropOp32
 70
     1
102
RTVSPost2010Prop33
280
     0
102
RTVSPost2010PropOp33
 70
     1
102
RTVSPost2010Prop34
280
     0
102
RTVSPost2010PropOp34
 70
     1
102
RTVSPost2010Prop35
280
     0
102
RTVSPost2010PropOp35
 70
     1
102
RTVSPost2010Prop36
280
     0
102
RTVSPost2010PropOp36
 70
     1
102
RTVSPost2010Prop37
 90
       50
102
RTVSPost2010PropOp37
 70
     1
102
RTVSPost2010Prop38
140
0.0
102
RTVSPost2010PropOp38
 70
     1
102
RTVSPost2010Prop39
140
1.0
102
RTVSPost2010PropOp39
 70
     1
102
RTVSPost2010Prop40
 90
        0
102
RTVSPost2010PropOp40
 70
     1
102
RTVSPost2010Prop41ColorIndex
 90
       18
102
RTVSPost2010Prop41ColorRGB
 90
        0
102
RTVSPost2010PropOp41
 70
     1
102
RTVSPost2010Prop42
 90
       50
102
RTVSPost2010PropOp42
 70
     1
102
RTVSPost2010Prop43
 90
        3
102
RTVSPost2010PropOp43
 70
     1
102
RTVSPost2010Prop44ColorIndex
 90
        5
102
RTVSPost2010Prop44ColorRGB
 90
      255
102
RTVSPost2010PropOp44
 70
     1
102
RTVSPost2010Prop45
280
     0
102
RTVSPost2010PropOp45
 70
     1
102
RTVSPost2010Prop46
 90
       50
102
RTVSPost2010PropOp46
 70
     1
102
RTVSPost2010Prop47
 90
       50
102
RTVSPost2010PropOp47
 70
     1
102
RTVSPost2010Prop48
 90
       50
102
RTVSPost2010PropOp48
 70
     1
102
RTVSPost2010Prop49
280
     0
102
RTVSPost2010PropOp49
 70
     1
102
RTVSPost2010Prop50
 90
       50
102
RTVSPost2010PropOp50
 70
     1
102
RTVSPost2010Prop51ColorIndex
 90
      256
102
RTVSPost2010Prop51ColorRGB
 90
-16777216
102
RTVSPost2010PropOp51
 70
     0
102
RTVSPost2010Prop52
140
1.0
102
RTVSPost2010PropOp52
 70
     0
102
RTVSPost2010Prop53
 90
        2
102
RTVSPost2010PropOp53
 70
     1
102
RTVSPost2010Prop54
  1
strokes_ogs.tif
102
RTVSPost2010PropOp54
 70
     1
102
RTVSPost2010Prop55
280
     0
102
RTVSPost2010PropOp55
 70
     1
102
RTVSPost2010Prop56
140
1.0
102
RTVSPost2010PropOp56
 70
     1
102
RTVSPost2010Prop57
140
1.0
102
RTVSPost2010PropOp57
 70
     1
102
RTVSPropertyOp0
 70
     1
102
RTVSPropertyOp1
 70
     1
102
RTVSPropertyOp2
 70
     1
102
RTVSPropertyOp3
 70
     1
102
RTVSPropertyOp4
 70
     1
102
RTVSPropertyOp5
 70
     1
102
RTVSPropertyOp6
 70
     1
102
RTVSPropertyOp7
 70
     1
102
RTVSPropertyOp8
 70
     1
102
RTVSPropertyOp9
 70
     1
102
RTVSPropertyOp10
 70
     1
102
RTVSPropertyOp11
 70
     1
102
RTVSPropertyOp12
 70
     1
102
RTVSPropertyOp13
 70
     1
102
RTVSPropertyOp14
 70
     1
102
RTVSPropertyOp15
 70
     1
102
RTVSPropertyOp16
 70
     1
102
RTVSPropertyOp17
 70
     1
102
RTVSPropertyOp18
 70
     1
102
RTVSPropertyOp19
 70
     1
102
RTVSPropertyOp20
 70
     1
102
RTVSPropertyOp21
 70
     1
102
RTVSPropertyOp22
 70
     1
102
RTVSPropertyOp23
 70
     1
102
RTVSPropertyOp24
 70
     1
102
RTVSPropertyOp25
 70
     1
102
RTVSPropertyOp26
 70
     1
102
RTVSPropertyOp27
 70
     1
102
RTVSPropertyOp28
 70
     1
102
RTVSPropertyOp29
 70
     1
102
RTVSPropertyOp30
 70
     1
102
RTVSPropertyOp31
 70
     1
102
RTVSPropertyOp32
 70
     1
102
RTVSPropertyOp33
 70
     1
102
RTVSPropertyOp34
 70
     1
102
RTVSPropertyOp35
 70
     1
102
RTVSPropertyOp36
 70
     1
102
RTVSPropertyOp37
 70
     1
102
RTVSPropertyOp38
 70
     1
102
RTVSPropertyOp39
 70
     1
102
RTVSPropertyOp40
 70
     1
102
RTVSPropertyOp41
 70
     1
102
RTVSPropertyOp42
 70
     1
102
RTVSPropertyOp43
 70
     1
102
RTVSPropertyOp44
 70
     1
102
RTVSPropertyOp45
 70
     1
102
RTVSPropertyOp46
 70
     1
102
RTVSPropertyOp47
 70
     1
102
RTVSPropertyOp48
 70
     1
102
RTVSPropertyOp49
 70
     1
102
RTVSPropertyOp50
 70
     1
102
RTVSPropertyOp51
 70
     0
102
RTVSPropertyOp52
 70
     0
102
RTVSPropertyOp53
 70
     1
102
RTVSPropertyOp54
 70
     1
102
RTVSPropertyOp55
 70
     1
102
RTVSPropertyOp56
 70
     1
102
RTVSPropertyOp57
 70
     1
102
RTVSPropertyOp58
 70
     1
102
RTVSPropertyOp59
 70
     1
102
RTVSPropertyOp60
 70
     1
102
RTVSPropertyOp61
 70
     1
102
RTVSPropertyOp62
 70
     1
  0
XRECORD
  5
917
102
{ACAD_REACTORS
330
916
102
}
330
916
100
AcDbXrecord
280
     1
102
RTVSPost2010Prop28
280
     0
102
RTVSPost2010PropOp28
 70
     1
102
RTVSPost2010Prop29
280
     1
102
RTVSPost2010PropOp29
 70
     1
102
RTVSPost2010Prop30
280
     1
102
RTVSPost2010PropOp30
 70
     1
102
RTVSPost2010Prop31
280
     0
102
RTVSPost2010PropOp31
 70
     1
102
RTVSPost2010Prop32
280
     0
102
RTVSPost2010PropOp32
 70
     1
102
RTVSPost2010Prop33
280
     0
102
RTVSPost2010PropOp33
 70
     1
102
RTVSPost2010Prop34
280
     0
102
RTVSPost2010PropOp34
 70
     1
102
RTVSPost2010Prop35
280
     0
102
RTVSPost2010PropOp35
 70
     1
102
RTVSPost2010Prop36
280
     0
102
RTVSPost2010PropOp36
 70
     1
102
RTVSPost2010Prop37
 90
       50
102
RTVSPost2010PropOp37
 70
     1
102
RTVSPost2010Prop38
140
0.0
102
RTVSPost2010PropOp38
 70
     1
102
RTVSPost2010Prop39
140
1.0
102
RTVSPost2010PropOp39
 70
     1
102
RTVSPost2010Prop40
 90
        0
102
RTVSPost2010PropOp40
 70
     1
102
RTVSPost2010Prop41ColorIndex
 90
       18
102
RTVSPost2010Prop41ColorRGB
 90
        0
102
RTVSPost2010PropOp41
 70
     1
102
RTVSPost2010Prop42
 90
       50
102
RTVSPost2010PropOp42
 70
     1
102
RTVSPost2010Prop43
 90
        3
102
RTVSPost2010PropOp43
 70
     1
102
RTVSPost2010Prop44ColorIndex
 90
        5
102
RTVSPost2010Prop44ColorRGB
 90
      255
102
RTVSPost2010PropOp44
 70
     1
102
RTVSPost2010Prop45
280
     0
102
RTVSPost2010PropOp45
 70
     1
102
RTVSPost2010Prop46
 90
       50
102
RTVSPost2010PropOp46
 70
     1
102
RTVSPost2010Prop47
 90
       50
102
RTVSPost2010PropOp47
 70
     1
102
RTVSPost2010Prop48
 90
       50
102
RTVSPost2010PropOp48
 70
     1
102
RTVSPost2010Prop49
280
     0
102
RTVSPost2010PropOp49
 70
     1
102
RTVSPost2010Prop50
 90
       50
102
RTVSPost2010PropOp50
 70
     1
102
RTVSPost2010Prop51ColorIndex
 90
      256
102
RTVSPost2010Prop51ColorRGB
 90
-16777216
102
RTVSPost2010PropOp51
 70
     0
102
RTVSPost2010Prop52
140
1.0
102
RTVSPost2010PropOp52
 70
     0
102
RTVSPost2010Prop53
 90
        2
102
RTVSPost2010PropOp53
 70
     1
102
RTVSPost2010Prop54
  1
strokes_ogs.tif
102
RTVSPost2010PropOp54
 70
     1
102
RTVSPost2010Prop55
280
     0
102
RTVSPost2010PropOp55
 70
     1
102
RTVSPost2010Prop56
140
1.0
102
RTVSPost2010PropOp56
 70
     1
102
RTVSPost2010Prop57
140
1.0
102
RTVSPost2010PropOp57
 70
     1
102
RTVSPropertyOp0
 70
     1
102
RTVSPropertyOp1
 70
     1
102
RTVSPropertyOp2
 70
     1
102
RTVSPropertyOp3
 70
     1
102
RTVSPropertyOp4
 70
     1
102
RTVSPropertyOp5
 70
     1
102
RTVSPropertyOp6
 70
     1
102
RTVSPropertyOp7
 70
     1
102
RTVSPropertyOp8
 70
     1
102
RTVSPropertyOp9
 70
     1
102
RTVSPropertyOp10
 70
     1
102
RTVSPropertyOp11
 70
     1
102
RTVSPropertyOp12
 70
     1
102
RTVSPropertyOp13
 70
     1
102
RTVSPropertyOp14
 70
     1
102
RTVSPropertyOp15
 70
     1
102
RTVSPropertyOp16
 70
     1
102
RTVSPropertyOp17
 70
     1
102
RTVSPropertyOp18
 70
     1
102
RTVSPropertyOp19
 70
     1
102
RTVSPropertyOp20
 70
     1
102
RTVSPropertyOp21
 70
     1
102
RTVSPropertyOp22
 70
     1
102
RTVSPropertyOp23
 70
     1
102
RTVSPropertyOp24
 70
     1
102
RTVSPropertyOp25
 70
     1
102
RTVSPropertyOp26
 70
     1
102
RTVSPropertyOp27
 70
     1
102
RTVSPropertyOp28
 70
     1
102
RTVSPropertyOp29
 70
     1
102
RTVSPropertyOp30
 70
     1
102
RTVSPropertyOp31
 70
     1
102
RTVSPropertyOp32
 70
     1
102
RTVSPropertyOp33
 70
     1
102
RTVSPropertyOp34
 70
     1
102
RTVSPropertyOp35
 70
     1
102
RTVSPropertyOp36
 70
     1
102
RTVSPropertyOp37
 70
     1
102
RTVSPropertyOp38
 70
     1
102
RTVSPropertyOp39
 70
     1
102
RTVSPropertyOp40
 70
     1
102
RTVSPropertyOp41
 70
     1
102
RTVSPropertyOp42
 70
     1
102
RTVSPropertyOp43
 70
     1
102
RTVSPropertyOp44
 70
     1
102
RTVSPropertyOp45
 70
     1
102
RTVSPropertyOp46
 70
     1
102
RTVSPropertyOp47
 70
     1
102
RTVSPropertyOp48
 70
     1
102
RTVSPropertyOp49
 70
     1
102
RTVSPropertyOp50
 70
     1
102
RTVSPropertyOp51
 70
     0
102
RTVSPropertyOp52
 70
     0
102
RTVSPropertyOp53
 70
     1
102
RTVSPropertyOp54
 70
     1
102
RTVSPropertyOp55
 70
     1
102
RTVSPropertyOp56
 70
     1
102
RTVSPropertyOp57
 70
     1
102
RTVSPropertyOp58
 70
     1
102
RTVSPropertyOp59
 70
     1
102
RTVSPropertyOp60
 70
     1
102
RTVSPropertyOp61
 70
     1
102
RTVSPropertyOp62
 70
     1
  0
XRECORD
  5
92F
102
{ACAD_REACTORS
330
92E
102
}
330
92E
100
AcDbXrecord
280
     1
102
RTVSPost2010Prop28
280
     0
102
RTVSPost2010PropOp28
 70
     1
102
RTVSPost2010Prop29
280
     1
102
RTVSPost2010PropOp29
 70
     1
102
RTVSPost2010Prop30
280
     1
102
RTVSPost2010PropOp30
 70
     1
102
RTVSPost2010Prop31
280
     0
102
RTVSPost2010PropOp31
 70
     1
102
RTVSPost2010Prop32
280
     0
102
RTVSPost2010PropOp32
 70
     1
102
RTVSPost2010Prop33
280
     0
102
RTVSPost2010PropOp33
 70
     1
102
RTVSPost2010Prop34
280
     0
102
RTVSPost2010PropOp34
 70
     1
102
RTVSPost2010Prop35
280
     0
102
RTVSPost2010PropOp35
 70
     1
102
RTVSPost2010Prop36
280
     0
102
RTVSPost2010PropOp36
 70
     1
102
RTVSPost2010Prop37
 90
       50
102
RTVSPost2010PropOp37
 70
     1
102
RTVSPost2010Prop38
140
0.0
102
RTVSPost2010PropOp38
 70
     1
102
RTVSPost2010Prop39
140
1.0
102
RTVSPost2010PropOp39
 70
     1
102
RTVSPost2010Prop40
 90
        0
102
RTVSPost2010PropOp40
 70
     1
102
RTVSPost2010Prop41ColorIndex
 90
       18
102
RTVSPost2010Prop41ColorRGB
 90
        0
102
RTVSPost2010PropOp41
 70
     1
102
RTVSPost2010Prop42
 90
       50
102
RTVSPost2010PropOp42
 70
     1
102
RTVSPost2010Prop43
 90
        3
102
RTVSPost2010PropOp43
 70
     1
102
RTVSPost2010Prop44ColorIndex
 90
        5
102
RTVSPost2010Prop44ColorRGB
 90
      255
102
RTVSPost2010PropOp44
 70
     1
102
RTVSPost2010Prop45
280
     0
102
RTVSPost2010PropOp45
 70
     1
102
RTVSPost2010Prop46
 90
       50
102
RTVSPost2010PropOp46
 70
     1
102
RTVSPost2010Prop47
 90
       50
102
RTVSPost2010PropOp47
 70
     1
102
RTVSPost2010Prop48
 90
       50
102
RTVSPost2010PropOp48
 70
     1
102
RTVSPost2010Prop49
280
     0
102
RTVSPost2010PropOp49
 70
     1
102
RTVSPost2010Prop50
 90
       50
102
RTVSPost2010PropOp50
 70
     1
102
RTVSPost2010Prop51ColorIndex
 90
      256
102
RTVSPost2010Prop51ColorRGB
 90
-16777216
102
RTVSPost2010PropOp51
 70
     0
102
RTVSPost2010Prop52
140
1.0
102
RTVSPost2010PropOp52
 70
     0
102
RTVSPost2010Prop53
 90
        2
102
RTVSPost2010PropOp53
 70
     1
102
RTVSPost2010Prop54
  1
strokes_ogs.tif
102
RTVSPost2010PropOp54
 70
     1
102
RTVSPost2010Prop55
280
     0
102
RTVSPost2010PropOp55
 70
     1
102
RTVSPost2010Prop56
140
1.0
102
RTVSPost2010PropOp56
 70
     1
102
RTVSPost2010Prop57
140
1.0
102
RTVSPost2010PropOp57
 70
     1
102
RTVSPropertyOp0
 70
     1
102
RTVSPropertyOp1
 70
     1
102
RTVSPropertyOp2
 70
     1
102
RTVSPropertyOp3
 70
     1
102
RTVSPropertyOp4
 70
     1
102
RTVSPropertyOp5
 70
     1
102
RTVSPropertyOp6
 70
     1
102
RTVSPropertyOp7
 70
     1
102
RTVSPropertyOp8
 70
     1
102
RTVSPropertyOp9
 70
     1
102
RTVSPropertyOp10
 70
     1
102
RTVSPropertyOp11
 70
     1
102
RTVSPropertyOp12
 70
     1
102
RTVSPropertyOp13
 70
     1
102
RTVSPropertyOp14
 70
     1
102
RTVSPropertyOp15
 70
     1
102
RTVSPropertyOp16
 70
     1
102
RTVSPropertyOp17
 70
     1
102
RTVSPropertyOp18
 70
     1
102
RTVSPropertyOp19
 70
     1
102
RTVSPropertyOp20
 70
     1
102
RTVSPropertyOp21
 70
     1
102
RTVSPropertyOp22
 70
     1
102
RTVSPropertyOp23
 70
     1
102
RTVSPropertyOp24
 70
     1
102
RTVSPropertyOp25
 70
     1
102
RTVSPropertyOp26
 70
     1
102
RTVSPropertyOp27
 70
     1
102
RTVSPropertyOp28
 70
     1
102
RTVSPropertyOp29
 70
     1
102
RTVSPropertyOp30
 70
     1
102
RTVSPropertyOp31
 70
     1
102
RTVSPropertyOp32
 70
     1
102
RTVSPropertyOp33
 70
     1
102
RTVSPropertyOp34
 70
     1
102
RTVSPropertyOp35
 70
     1
102
RTVSPropertyOp36
 70
     1
102
RTVSPropertyOp37
 70
     1
102
RTVSPropertyOp38
 70
     1
102
RTVSPropertyOp39
 70
     1
102
RTVSPropertyOp40
 70
     1
102
RTVSPropertyOp41
 70
     1
102
RTVSPropertyOp42
 70
     1
102
RTVSPropertyOp43
 70
     1
102
RTVSPropertyOp44
 70
     1
102
RTVSPropertyOp45
 70
     1
102
RTVSPropertyOp46
 70
     1
102
RTVSPropertyOp47
 70
     1
102
RTVSPropertyOp48
 70
     1
102
RTVSPropertyOp49
 70
     1
102
RTVSPropertyOp50
 70
     1
102
RTVSPropertyOp51
 70
     0
102
RTVSPropertyOp52
 70
     0
102
RTVSPropertyOp53
 70
     1
102
RTVSPropertyOp54
 70
     1
102
RTVSPropertyOp55
 70
     1
102
RTVSPropertyOp56
 70
     1
102
RTVSPropertyOp57
 70
     1
102
RTVSPropertyOp58
 70
     1
102
RTVSPropertyOp59
 70
     1
102
RTVSPropertyOp60
 70
     1
102
RTVSPropertyOp61
 70
     1
102
RTVSPropertyOp62
 70
     1
  0
ENDSEC
  0
EOF
