  0
SECTION
  2
HEADER
  9
$ACADVER
  1
AC1015
  9
$ACADMAINTVER
 70
    20
  9
$DWGCODEPAGE
  3
ANSI_932
  9
$INSBASE
 10
0.0
 20
0.0
 30
0.0
  9
$EXTMIN
 10
38.60025852080672
 20
31.05513219999886
 30
0.0
  9
$EXTMAX
 10
648.6487822856297
 20
678.1803165477578
 30
0.0
  9
$LIMMIN
 10
0.0
 20
0.0
  9
$LIMMAX
 10
420.0
 20
297.0
  9
$ORTHOMODE
 70
     0
  9
$REGENMODE
 70
     1
  9
$FILLMODE
 70
     1
  9
$QTEXTMODE
 70
     0
  9
$MIRRTEXT
 70
     1
  9
$LTSCALE
 40
1.0
  9
$ATTMODE
 70
     1
  9
$TEXTSIZE
 40
2.5
  9
$TRACEWID
 40
1.0
  9
$TEXTSTYLE
  7
STANDARD
  9
$CLAYER
  8
2寸法線
  9
$CELTYPE
  6
BYLAYER
  9
$CECOLOR
 62
   256
  9
$CELTSCALE
 40
1.0
  9
$DISPSILH
 70
     0
  9
$DIMSCALE
 40
1.0
  9
$DIMASZ
 40
2.5
  9
$DIMEXO
 40
0.625
  9
$DIMDLI
 40
3.75
  9
$DIMRND
 40
0.0
  9
$DIMDLE
 40
0.0
  9
$DIMEXE
 40
1.25
  9
$DIMTP
 40
0.0
  9
$DIMTM
 40
0.0
  9
$DIMTXT
 40
2.5
  9
$DIMCEN
 40
2.5
  9
$DIMTSZ
 40
0.0
  9
$DIMTOL
 70
     0
  9
$DIMLIM
 70
     0
  9
$DIMTIH
 70
     0
  9
$DIMTOH
 70
     0
  9
$DIMSE1
 70
     0
  9
$DIMSE2
 70
     0
  9
$DIMTAD
 70
     1
  9
$DIMZIN
 70
     8
  9
$DIMBLK
  1

  9
$DIMASO
 70
     1
  9
$DIMSHO
 70
     1
  9
$DIMPOST
  1

  9
$DIMAPOST
  1

  9
$DIMALT
 70
     0
  9
$DIMALTD
 70
     3
  9
$DIMALTF
 40
0.03937007874016
  9
$DIMLFAC
 40
1.0
  9
$DIMTOFL
 70
     1
  9
$DIMTVP
 40
0.0
  9
$DIMTIX
 70
     0
  9
$DIMSOXD
 70
     0
  9
$DIMSAH
 70
     0
  9
$DIMBLK1
  1

  9
$DIMBLK2
  1

  9
$DIMSTYLE
  2
ISO-25
  9
$DIMCLRD
 70
     0
  9
$DIMCLRE
 70
     0
  9
$DIMCLRT
 70
     0
  9
$DIMTFAC
 40
1.0
  9
$DIMGAP
 40
0.625
  9
$DIMJUST
 70
     0
  9
$DIMSD1
 70
     0
  9
$DIMSD2
 70
     0
  9
$DIMTOLJ
 70
     0
  9
$DIMTZIN
 70
     8
  9
$DIMALTZ
 70
     0
  9
$DIMALTTZ
 70
     0
  9
$DIMUPT
 70
     0
  9
$DIMDEC
 70
     2
  9
$DIMTDEC
 70
     2
  9
$DIMALTU
 70
     2
  9
$DIMALTTD
 70
     3
  9
$DIMTXSTY
  7
STANDARD
  9
$DIMAUNIT
 70
     0
  9
$DIMADEC
 70
     0
  9
$DIMALTRND
 40
0.0
  9
$DIMAZIN
 70
     0
  9
$DIMDSEP
 70
    46
  9
$DIMATFIT
 70
     3
  9
$DIMFRAC
 70
     0
  9
$DIMLDRBLK
  1

  9
$DIMLUNIT
 70
     2
  9
$DIMLWD
 70
    -2
  9
$DIMLWE
 70
    -2
  9
$DIMTMOVE
 70
     0
  9
$LUNITS
 70
     2
  9
$LUPREC
 70
     4
  9
$SKETCHINC
 40
1.0
  9
$FILLETRAD
 40
7.0
  9
$AUNITS
 70
     0
  9
$AUPREC
 70
     0
  9
$MENU
  1
.
  9
$ELEVATION
 40
0.0
  9
$PELEVATION
 40
0.0
  9
$THICKNESS
 40
0.0
  9
$LIMCHECK
 70
     0
  9
$CHAMFERA
 40
10.0
  9
$CHAMFERB
 40
10.0
  9
$CHAMFERC
 40
20.0
  9
$CHAMFERD
 40
0.0
  9
$SKPOLY
 70
     0
  9
$TDCREATE
 40
2452774.428078704
  9
$TDUCREATE
 40
2452774.053086284
  9
$TDUPDATE
 40
2459990.433495370
  9
$TDUUPDATE
 40
2459990.058495371
  9
$TDINDWG
 40
0.3228584954
  9
$TDUSRTIMER
 40
0.3228584954
  9
$USRTIMER
 70
     1
  9
$ANGBASE
 50
0.0
  9
$ANGDIR
 70
     0
  9
$PDMODE
 70
     0
  9
$PDSIZE
 40
0.0
  9
$PLINEWID
 40
0.0
  9
$SPLFRAME
 70
     0
  9
$SPLINETYPE
 70
     6
  9
$SPLINESEGS
 70
     8
  9
$HANDSEED
  5
10FD
  9
$SURFTAB1
 70
     6
  9
$SURFTAB2
 70
     6
  9
$SURFTYPE
 70
     6
  9
$SURFU
 70
     6
  9
$SURFV
 70
     6
  9
$UCSBASE
  2

  9
$UCSNAME
  2

  9
$UCSORG
 10
0.0
 20
0.0
 30
0.0
  9
$UCSXDIR
 10
1.0
 20
0.0
 30
0.0
  9
$UCSYDIR
 10
0.0
 20
1.0
 30
0.0
  9
$UCSORTHOREF
  2

  9
$UCSORTHOVIEW
 70
     0
  9
$UCSORGTOP
 10
0.0
 20
0.0
 30
0.0
  9
$UCSORGBOTTOM
 10
0.0
 20
0.0
 30
0.0
  9
$UCSORGLEFT
 10
0.0
 20
0.0
 30
0.0
  9
$UCSORGRIGHT
 10
0.0
 20
0.0
 30
0.0
  9
$UCSORGFRONT
 10
0.0
 20
0.0
 30
0.0
  9
$UCSORGBACK
 10
0.0
 20
0.0
 30
0.0
  9
$PUCSBASE
  2

  9
$PUCSNAME
  2

  9
$PUCSORG
 10
0.0
 20
0.0
 30
0.0
  9
$PUCSXDIR
 10
1.0
 20
0.0
 30
0.0
  9
$PUCSYDIR
 10
0.0
 20
1.0
 30
0.0
  9
$PUCSORTHOREF
  2

  9
$PUCSORTHOVIEW
 70
     0
  9
$PUCSORGTOP
 10
0.0
 20
0.0
 30
0.0
  9
$PUCSORGBOTTOM
 10
0.0
 20
0.0
 30
0.0
  9
$PUCSORGLEFT
 10
0.0
 20
0.0
 30
0.0
  9
$PUCSORGRIGHT
 10
0.0
 20
0.0
 30
0.0
  9
$PUCSORGFRONT
 10
0.0
 20
0.0
 30
0.0
  9
$PUCSORGBACK
 10
0.0
 20
0.0
 30
0.0
  9
$USERI1
 70
     0
  9
$USERI2
 70
     0
  9
$USERI3
 70
     0
  9
$USERI4
 70
     0
  9
$USERI5
 70
     0
  9
$USERR1
 40
0.0
  9
$USERR2
 40
0.0
  9
$USERR3
 40
0.0
  9
$USERR4
 40
0.0
  9
$USERR5
 40
0.0
  9
$WORLDVIEW
 70
     1
  9
$SHADEDGE
 70
     3
  9
$SHADEDIF
 70
    70
  9
$TILEMODE
 70
     1
  9
$MAXACTVP
 70
    64
  9
$PINSBASE
 10
0.0
 20
0.0
 30
0.0
  9
$PLIMCHECK
 70
     0
  9
$PEXTMIN
 10
1.000000000000000E+20
 20
1.000000000000000E+20
 30
1.000000000000000E+20
  9
$PEXTMAX
 10
-1.000000000000000E+20
 20
-1.000000000000000E+20
 30
-1.000000000000000E+20
  9
$PLIMMIN
 10
0.0
 20
0.0
  9
$PLIMMAX
 10
420.0
 20
297.0
  9
$UNITMODE
 70
     0
  9
$VISRETAIN
 70
     1
  9
$PLINEGEN
 70
     0
  9
$PSLTSCALE
 70
     1
  9
$TREEDEPTH
 70
  3020
  9
$CMLSTYLE
  2
STANDARD
  9
$CMLJUST
 70
     0
  9
$CMLSCALE
 40
20.0
  9
$PROXYGRAPHICS
 70
     1
  9
$MEASUREMENT
 70
     1
  9
$CELWEIGHT
370
    -1
  9
$ENDCAPS
280
     0
  9
$JOINSTYLE
280
     0
  9
$LWDISPLAY
290
     0
  9
$INSUNITS
 70
     4
  9
$HYPERLINKBASE
  1

  9
$STYLESHEET
  1

  9
$XEDIT
290
     1
  9
$CEPSNTYPE
380
     0
  9
$PSTYLEMODE
290
     1
  9
$FINGERPRINTGUID
  2
{E155D2DA-41C5-4FE2-829D-02E8D30BB381}
  9
$VERSIONGUID
  2
{FB7CA76A-2699-2841-9F5F-3A65F8F8D59F}
  9
$EXTNAMES
290
     1
  9
$PSVPSCALE
 40
0.0
  9
$OLESTARTUP
290
     0
  0
ENDSEC
  0
SECTION
  2
CLASSES
  0
CLASS
  1
ACDBDICTIONARYWDFLT
  2
AcDbDictionaryWithDefault
  3
ObjectDBX Classes
 90
        0
280
     0
281
     0
  0
CLASS
  1
ACDBPLACEHOLDER
  2
AcDbPlaceHolder
  3
ObjectDBX Classes
 90
        0
280
     0
281
     0
  0
CLASS
  1
LAYOUT
  2
AcDbLayout
  3
ObjectDBX Classes
 90
        0
280
     0
281
     0
  0
CLASS
  1
DICTIONARYVAR
  2
AcDbDictionaryVar
  3
ObjectDBX Classes
 90
        0
280
     0
281
     0
  0
CLASS
  1
MATERIAL
  2
AcDbMaterial
  3
ObjectDBX Classes
 90
     1153
280
     0
281
     0
  0
CLASS
  1
VISUALSTYLE
  2
AcDbVisualStyle
  3
ObjectDBX Classes
 90
     4095
280
     0
281
     0
  0
CLASS
  1
TABLESTYLE
  2
AcDbTableStyle
  3
ObjectDBX Classes
 90
     4095
280
     0
281
     0
  0
CLASS
  1
SCALE
  2
AcDbScale
  3
ObjectDBX Classes
 90
     1153
280
     0
281
     0
  0
CLASS
  1
MLEADERSTYLE
  2
AcDbMLeaderStyle
  3
ACDB_MLEADERSTYLE_CLASS
 90
     4095
280
     0
281
     0
  0
CLASS
  1
ACDBSECTIONVIEWSTYLE
  2
AcDbSectionViewStyle
  3
ObjectDBX Classes
 90
     1025
280
     0
281
     0
  0
CLASS
  1
ACDBDETAILVIEWSTYLE
  2
AcDbDetailViewStyle
  3
ObjectDBX Classes
 90
     1025
280
     0
281
     0
  0
CLASS
  1
CELLSTYLEMAP
  2
AcDbCellStyleMap
  3
ObjectDBX Classes
 90
     1152
280
     0
281
     0
  0
CLASS
  1
SORTENTSTABLE
  2
AcDbSortentsTable
  3
ObjectDBX Classes
 90
        0
280
     0
281
     0
  0
ENDSEC
  0
SECTION
  2
TABLES
  0
TABLE
  2
VPORT
  5
8
330
0
100
AcDbSymbolTable
 70
     1
  0
VPORT
  5
AD2
330
8
100
AcDbSymbolTableRecord
100
AcDbViewportTableRecord
  2
*Active
 70
     0
 10
0.0
 20
0.0
 11
1.0
 21
1.0
 12
46.78654591364341
 22
327.7599204382651
 13
0.0
 23
0.0
 14
10.0
 24
10.0
 15
10.0
 25
10.0
 16
0.0
 26
0.0
 36
1.0
 17
0.0
 27
0.0
 37
0.0
 40
719.8867235429913
 41
2.209439528023598
 42
50.0
 43
0.0
 44
0.0
 50
0.0
 51
0.0
 71
     0
 72
   100
 73
     1
 74
     3
 75
     0
 76
     0
 77
     0
 78
     0
281
     0
 65
     1
110
0.0
120
0.0
130
0.0
111
1.0
121
0.0
131
0.0
112
0.0
122
1.0
132
0.0
 79
     0
146
0.0
1001
ACAD_NAV_VCDISPLAY
1070
     3
  0
ENDTAB
  0
TABLE
  2
LTYPE
  5
5
330
0
100
AcDbSymbolTable
 70
     2
  0
LTYPE
  5
14
330
5
100
AcDbSymbolTableRecord
100
AcDbLinetypeTableRecord
  2
BYBLOCK
 70
     0
  3

 72
    65
 73
     0
 40
0.0
  0
LTYPE
  5
15
330
5
100
AcDbSymbolTableRecord
100
AcDbLinetypeTableRecord
  2
BYLAYER
 70
     0
  3

 72
    65
 73
     0
 40
0.0
  0
LTYPE
  5
16
330
5
100
AcDbSymbolTableRecord
100
AcDbLinetypeTableRecord
  2
CONTINUOUS
 70
     0
  3
Solid line
 72
    65
 73
     0
 40
0.0
  0
LTYPE
  5
439
330
5
100
AcDbSymbolTableRecord
100
AcDbLinetypeTableRecord
  2
PHANTOM
 70
     0
  3
Phantom ______  __  __  ______  __  __  ______
 72
    65
 73
     6
 40
63.5
 49
31.75
 74
     0
 49
-6.349999999999997
 74
     0
 49
6.349999999999997
 74
     0
 49
-6.349999999999997
 74
     0
 49
6.349999999999997
 74
     0
 49
-6.349999999999997
 74
     0
  0
ENDTAB
  0
TABLE
  2
LAYER
  5
2
102
{ACAD_XDICTIONARY
360
BC2
102
}
330
0
100
AcDbSymbolTable
 70
     4
  0
LAYER
  5
10
102
{ACAD_XDICTIONARY
360
B26
102
}
330
2
100
AcDbSymbolTableRecord
100
AcDbLayerTableRecord
  2
0
 70
     0
 62
     7
  6
CONTINUOUS
370
    -3
390
F
  0
LAYER
  5
2B
102
{ACAD_XDICTIONARY
360
B28
102
}
330
2
100
AcDbSymbolTableRecord
100
AcDbLayerTableRecord
  2
1外形線
 70
     0
 62
     3
  6
CONTINUOUS
370
    -3
390
F
  0
LAYER
  5
197
330
2
100
AcDbSymbolTableRecord
100
AcDbLayerTableRecord
  2
Defpoints
 70
     0
 62
     7
  6
CONTINUOUS
290
     0
370
    -3
390
F
  0
LAYER
  5
1B6
102
{ACAD_XDICTIONARY
360
B2A
102
}
330
2
100
AcDbSymbolTableRecord
100
AcDbLayerTableRecord
  2
2寸法線
 70
     0
 62
     2
  6
CONTINUOUS
370
    -3
390
F
  0
ENDTAB
  0
TABLE
  2
STYLE
  5
3
330
0
100
AcDbSymbolTable
 70
     3
  0
STYLE
  5
11
330
3
100
AcDbSymbolTableRecord
100
AcDbTextStyleTableRecord
  2
STANDARD
 70
     0
 40
0.0
 41
1.0
 50
0.0
 71
     0
 42
2.5
  3
txt
  4

  0
STYLE
  5
2D
330
3
100
AcDbSymbolTableRecord
100
AcDbTextStyleTableRecord
  2
KANJI
 70
     0
 40
0.0
 41
1.0
 50
0.0
 71
     0
 42
2.5
  3
simplex.shx
  4
extfont.shx
  0
STYLE
  5
BBB
330
3
100
AcDbSymbolTableRecord
100
AcDbTextStyleTableRecord
  2
\U+FF7A\U+FF9E\U+FF7C\U+FF6F\U+FF78
 70
     0
 40
0.0
 41
1.0
 50
0.0
 71
     0
 42
2.5
  3

  4

1001
ACAD
1000
MS PGothic
1071
    32818
  0
ENDTAB
  0
TABLE
  2
VIEW
  5
6
330
0
100
AcDbSymbolTable
 70
     0
  0
ENDTAB
  0
TABLE
  2
UCS
  5
7
330
0
100
AcDbSymbolTable
 70
     0
  0
ENDTAB
  0
TABLE
  2
APPID
  5
9
330
0
100
AcDbSymbolTable
 70
     7
  0
APPID
  5
12
330
9
100
AcDbSymbolTableRecord
100
AcDbRegAppTableRecord
  2
ACAD
 70
     0
  0
APPID
  5
B34
330
9
100
AcDbSymbolTableRecord
100
AcDbRegAppTableRecord
  2
ACAD_NAV_VCDISPLAY
 70
     0
  0
APPID
  5
B71
330
9
100
AcDbSymbolTableRecord
100
AcDbRegAppTableRecord
  2
ACAD_MLEADERVER
 70
     0
  0
APPID
  5
BBE
330
9
100
AcDbSymbolTableRecord
100
AcDbRegAppTableRecord
  2
ACAD_PSEXT
 70
     0
  0
APPID
  5
BBF
330
9
100
AcDbSymbolTableRecord
100
AcDbRegAppTableRecord
  2
ACAD_DSTYLE_DIMJAG
 70
     0
  0
APPID
  5
BC0
330
9
100
AcDbSymbolTableRecord
100
AcDbRegAppTableRecord
  2
ACAD_DSTYLE_DIMTALN
 70
     0
  0
APPID
  5
DAC
330
9
100
AcDbSymbolTableRecord
100
AcDbRegAppTableRecord
  2
ACAD_EXEMPT_FROM_CAD_STANDARDS
 70
     0
  0
ENDTAB
  0
TABLE
  2
DIMSTYLE
  5
A
330
0
100
AcDbSymbolTable
 70
     4
100
AcDbDimStyleTable
 71
     1
340
27
  0
DIMSTYLE
105
27
330
A
100
AcDbSymbolTableRecord
100
AcDbDimStyleTableRecord
  2
ISO-25
 70
     0
 41
2.5
 42
0.625
 43
3.75
 44
1.25
 73
     0
 74
     0
 77
     1
 78
     8
140
2.5
141
2.5
143
0.03937007874016
147
0.625
171
     3
172
     1
271
     2
272
     2
274
     3
283
     0
284
     8
340
11
  0
DIMSTYLE
105
43C
330
A
100
AcDbSymbolTableRecord
100
AcDbDimStyleTableRecord
  2
M
 70
     0
 40
0.0
 41
2.0
 42
1.0
 43
0.0
 44
1.0
 73
     0
 74
     0
 77
     1
 78
     8
140
2.5
141
0.0
147
0.5
172
     1
173
     1
284
     8
340
2D
341
2F4
343
2F4
344
2F4
  0
DIMSTYLE
105
BBC
330
A
100
AcDbSymbolTableRecord
100
AcDbDimStyleTableRecord
  2
STANDARD
 70
     0
 41
1.0
 42
1.0
 43
6.0
 44
1.0
 73
     0
 74
     0
 77
     1
 78
     8
140
2.5
141
0.0
147
0.5
172
     1
173
     1
284
     8
285
     8
286
     8
340
2D
341
B7B
343
B7B
344
B7B
  0
DIMSTYLE
105
BBD
330
A
100
AcDbSymbolTableRecord
100
AcDbDimStyleTableRecord
  2
因幡2
 70
     0
 41
2.2
 42
0.2
 43
10.0
 44
0.6
 73
     0
 74
     0
 77
     1
 78
     8
140
3.5
141
2.5
143
0.03937007874016
147
0.7
171
     3
172
     1
176
     2
177
     2
178
     1
271
     2
272
     2
274
     3
283
     0
284
     8
340
BBB
341
2F4
342
2F4
1001
ACAD_DSTYLE_DIMJAG
1070
   388
1040
1.5
1001
ACAD_DSTYLE_DIMTALN
1070
   392
1070
     0
  0
ENDTAB
  0
TABLE
  2
BLOCK_RECORD
  5
1
330
0
100
AcDbSymbolTable
 70
    42
  0
BLOCK_RECORD
  5
1F
102
{ACAD_XDICTIONARY
360
18A
102
}
330
1
100
AcDbSymbolTableRecord
100
AcDbBlockTableRecord
  2
*MODEL_SPACE
340
192
  0
BLOCK_RECORD
  5
1B
102
{ACAD_XDICTIONARY
360
188
102
}
330
1
100
AcDbSymbolTableRecord
100
AcDbBlockTableRecord
  2
*PAPER_SPACE
340
193
  0
BLOCK_RECORD
  5
2F4
330
1
100
AcDbSymbolTableRecord
100
AcDbBlockTableRecord
  2
2
340
0
102
{BLKREFS
331
D1F
331
D20
331
D28
331
D29
331
D31
331
D32
331
D3A
331
D3B
331
D43
331
D44
331
B9C
331
B9D
331
BA8
331
BA9
331
BB4
331
BB5
331
B84
331
B85
331
B90
331
B91
102
}
  0
BLOCK_RECORD
  5
2F8
330
1
100
AcDbSymbolTableRecord
100
AcDbBlockTableRecord
  2
3
340
0
  0
BLOCK_RECORD
  5
B7B
330
1
100
AcDbSymbolTableRecord
100
AcDbBlockTableRecord
  2
Y2
340
0
  0
BLOCK_RECORD
  5
B7F
330
1
100
AcDbSymbolTableRecord
100
AcDbBlockTableRecord
  2
*D3
340
0
  0
BLOCK_RECORD
  5
B8B
330
1
100
AcDbSymbolTableRecord
100
AcDbBlockTableRecord
  2
*D4
340
0
  0
BLOCK_RECORD
  5
B97
330
1
100
AcDbSymbolTableRecord
100
AcDbBlockTableRecord
  2
*D5
340
0
  0
BLOCK_RECORD
  5
BA3
330
1
100
AcDbSymbolTableRecord
100
AcDbBlockTableRecord
  2
*D6
340
0
  0
BLOCK_RECORD
  5
BAF
330
1
100
AcDbSymbolTableRecord
100
AcDbBlockTableRecord
  2
*D7
340
0
  0
BLOCK_RECORD
  5
CE0
330
1
100
AcDbSymbolTableRecord
100
AcDbBlockTableRecord
  2
*D8
340
0
  0
BLOCK_RECORD
  5
CEC
330
1
100
AcDbSymbolTableRecord
100
AcDbBlockTableRecord
  2
*D9
340
0
  0
BLOCK_RECORD
  5
CF8
330
1
100
AcDbSymbolTableRecord
100
AcDbBlockTableRecord
  2
*D10
340
0
  0
BLOCK_RECORD
  5
D04
330
1
100
AcDbSymbolTableRecord
100
AcDbBlockTableRecord
  2
*D11
340
0
  0
BLOCK_RECORD
  5
D10
330
1
100
AcDbSymbolTableRecord
100
AcDbBlockTableRecord
  2
*D12
340
0
  0
BLOCK_RECORD
  5
D4A
330
1
100
AcDbSymbolTableRecord
100
AcDbBlockTableRecord
  2
*D13
340
0
  0
BLOCK_RECORD
  5
D57
330
1
100
AcDbSymbolTableRecord
100
AcDbBlockTableRecord
  2
*D14
340
0
  0
BLOCK_RECORD
  5
D64
330
1
100
AcDbSymbolTableRecord
100
AcDbBlockTableRecord
  2
*D15
340
0
  0
BLOCK_RECORD
  5
D71
330
1
100
AcDbSymbolTableRecord
100
AcDbBlockTableRecord
  2
*D16
340
0
  0
BLOCK_RECORD
  5
DB4
330
1
100
AcDbSymbolTableRecord
100
AcDbBlockTableRecord
  2
*D17
340
0
  0
BLOCK_RECORD
  5
DC5
330
1
100
AcDbSymbolTableRecord
100
AcDbBlockTableRecord
  2
*D18
340
0
  0
BLOCK_RECORD
  5
DE4
330
1
100
AcDbSymbolTableRecord
100
AcDbBlockTableRecord
  2
*D19
340
0
  0
BLOCK_RECORD
  5
DFA
330
1
100
AcDbSymbolTableRecord
100
AcDbBlockTableRecord
  2
*D20
340
0
  0
BLOCK_RECORD
  5
E2C
330
1
100
AcDbSymbolTableRecord
100
AcDbBlockTableRecord
  2
*D21
340
0
  0
BLOCK_RECORD
  5
E39
330
1
100
AcDbSymbolTableRecord
100
AcDbBlockTableRecord
  2
*D22
340
0
  0
BLOCK_RECORD
  5
E46
330
1
100
AcDbSymbolTableRecord
100
AcDbBlockTableRecord
  2
*D23
340
0
  0
BLOCK_RECORD
  5
E53
330
1
100
AcDbSymbolTableRecord
100
AcDbBlockTableRecord
  2
*D24
340
0
  0
BLOCK_RECORD
  5
ECD
330
1
100
AcDbSymbolTableRecord
100
AcDbBlockTableRecord
  2
*D25
340
0
  0
BLOCK_RECORD
  5
ED9
330
1
100
AcDbSymbolTableRecord
100
AcDbBlockTableRecord
  2
*D26
340
0
  0
BLOCK_RECORD
  5
EE5
330
1
100
AcDbSymbolTableRecord
100
AcDbBlockTableRecord
  2
*D27
340
0
  0
BLOCK_RECORD
  5
EF1
330
1
100
AcDbSymbolTableRecord
100
AcDbBlockTableRecord
  2
*D28
340
0
  0
BLOCK_RECORD
  5
EFD
330
1
100
AcDbSymbolTableRecord
100
AcDbBlockTableRecord
  2
*D29
340
0
  0
BLOCK_RECORD
  5
F09
330
1
100
AcDbSymbolTableRecord
100
AcDbBlockTableRecord
  2
*D30
340
0
  0
BLOCK_RECORD
  5
FB5
330
1
100
AcDbSymbolTableRecord
100
AcDbBlockTableRecord
  2
*D32
340
0
  0
BLOCK_RECORD
  5
FC1
330
1
100
AcDbSymbolTableRecord
100
AcDbBlockTableRecord
  2
*D33
340
0
  0
BLOCK_RECORD
  5
FCD
330
1
100
AcDbSymbolTableRecord
100
AcDbBlockTableRecord
  2
*D34
340
0
  0
BLOCK_RECORD
  5
FD9
330
1
100
AcDbSymbolTableRecord
100
AcDbBlockTableRecord
  2
*D35
340
0
  0
BLOCK_RECORD
  5
FE5
330
1
100
AcDbSymbolTableRecord
100
AcDbBlockTableRecord
  2
*D36
340
0
  0
BLOCK_RECORD
  5
FF1
330
1
100
AcDbSymbolTableRecord
100
AcDbBlockTableRecord
  2
*D37
340
0
  0
BLOCK_RECORD
  5
106A
330
1
100
AcDbSymbolTableRecord
100
AcDbBlockTableRecord
  2
*D38
340
0
  0
BLOCK_RECORD
  5
1077
330
1
100
AcDbSymbolTableRecord
100
AcDbBlockTableRecord
  2
*D39
340
0
  0
BLOCK_RECORD
  5
1084
330
1
100
AcDbSymbolTableRecord
100
AcDbBlockTableRecord
  2
*D40
340
0
  0
BLOCK_RECORD
  5
1091
330
1
100
AcDbSymbolTableRecord
100
AcDbBlockTableRecord
  2
*D41
340
0
  0
ENDTAB
  0
ENDSEC
  0
SECTION
  2
BLOCKS
  0
BLOCK
  5
20
330
1F
100
AcDbEntity
  8
0
100
AcDbBlockBegin
  2
*MODEL_SPACE
 70
     0
 10
0.0
 20
0.0
 30
0.0
  3
*MODEL_SPACE
  1

  0
ENDBLK
  5
21
330
1F
100
AcDbEntity
  8
0
100
AcDbBlockEnd
  0
BLOCK
  5
1C
330
1B
100
AcDbEntity
 67
     1
  8
0
100
AcDbBlockBegin
  2
*PAPER_SPACE
 70
     0
 10
0.0
 20
0.0
 30
0.0
  3
*PAPER_SPACE
  1

  0
ENDBLK
  5
1D
330
1B
100
AcDbEntity
 67
     1
  8
0
100
AcDbBlockEnd
  0
BLOCK
  5
2F6
330
2F4
100
AcDbEntity
  8
0
 48
3.0
100
AcDbBlockBegin
  2
2
 70
     0
 10
0.0
 20
0.0
 30
0.0
  3
2
  1

  0
HATCH
  5
2F5
330
2F4
100
AcDbEntity
  8
0
  6
ByBlock
 62
     0
 48
3.0
100
AcDbHatch
 10
0.0
 20
0.0
 30
0.0
210
0.0
220
0.0
230
1.0
  2
SOLID
 70
     1
 71
     0
 91
        1
 92
        1
 93
        3
 72
     1
 10
-0.9999999999983517
 20
0.2679491924306774
 11
0.0
 21
0.0
 72
     1
 10
0.0
 20
0.0
 11
-0.9999999999983517
 21
-0.2679491924306765
 72
     1
 10
-0.9999999999983524
 20
-0.267949192430676
 11
-0.9999999999983524
 21
0.2679491924306774
 97
        0
 75
     0
 76
     1
 98
        1
 10
2.995745117231336
 20
-4.124946096263201
  0
ENDBLK
  5
2F7
330
2F4
100
AcDbEntity
  8
0
 48
3.0
100
AcDbBlockEnd
  0
BLOCK
  5
2FB
330
2F8
100
AcDbEntity
  8
0
 48
3.0
100
AcDbBlockBegin
  2
3
 70
     0
 10
0.0
 20
0.0
 30
0.0
  3
3
  1

  0
HATCH
  5
2F9
330
2F8
100
AcDbEntity
  8
0
  6
ByBlock
 62
     0
 48
3.0
100
AcDbHatch
 10
0.0
 20
0.0
 30
0.0
210
0.0
220
0.0
230
1.0
  2
SOLID
 70
     1
 71
     0
 91
        1
 92
        1
 93
        1
 72
     2
 10
0.0
 20
0.0
 40
0.25
 50
0.0
 51
360.0
 73
     1
 97
        0
 75
     0
 76
     1
 98
        1
 10
2.789654453480292
 20
-4.828347107262324
  0
LINE
  5
2FA
330
2F8
100
AcDbEntity
  8
0
  6
ByBlock
 62
     0
 48
3.0
100
AcDbLine
 10
-1.0
 20
0.0
 30
0.0
 11
0.0
 21
0.0
 31
0.0
  0
ENDBLK
  5
2FC
330
2F8
100
AcDbEntity
  8
0
 48
3.0
100
AcDbBlockEnd
  0
BLOCK
  5
B7C
330
B7B
100
AcDbEntity
  8
0
 48
2.0
100
AcDbBlockBegin
  2
Y2
 70
     0
 10
0.0
 20
0.0
 30
0.0
  3
Y2
  1

  0
SOLID
  5
B7D
330
B7B
100
AcDbEntity
  8
0
  6
ByBlock
 62
     0
100
AcDbTrace
 10
-1.811110924292108
 20
0.485285709567151
 30
0.0
 11
-1.811110924292108
 21
-0.4852857095673784
 31
0.0
 12
-0.0000000000000568
 22
-0.0000000000000142
 32
0.0
 13
-0.0000000000000568
 23
-0.0000000000000142
 33
0.0
  0
ENDBLK
  5
B7E
330
B7B
100
AcDbEntity
  8
0
 48
2.0
100
AcDbBlockEnd
  0
BLOCK
  5
B80
330
B7F
100
AcDbEntity
  8
0
 48
2.0
100
AcDbBlockBegin
  2
*D3
 70
     1
 10
0.0
 20
0.0
 30
0.0
  3
*D3
  1

  0
LINE
  5
B81
330
B7F
100
AcDbEntity
  8
1外形線
 62
     2
370
    -2
100
AcDbLine
 10
1181.259125499669
 20
-121.5434739744631
 30
0.0
 11
1181.259125499669
 21
-137.6127101667682
 31
0.0
  0
LINE
  5
B82
330
B7F
100
AcDbEntity
  8
1外形線
 62
     2
370
    -2
100
AcDbLine
 10
1271.260345531107
 20
-121.5434739744631
 30
0.0
 11
1271.260345531107
 21
-137.6127101667682
 31
0.0
  0
LINE
  5
B83
330
B7F
100
AcDbEntity
  8
1外形線
 62
     2
370
    -2
100
AcDbLine
 10
1185.259125499669
 20
-137.0127101667682
 30
0.0
 11
1267.260345531107
 21
-137.0127101667682
 31
0.0
  0
INSERT
  5
B84
330
B7F
100
AcDbEntity
  8
1外形線
 62
     2
370
    -2
100
AcDbBlockReference
  2
2
 10
1181.259125499669
 20
-137.0127101667682
 30
0.0
 41
4.0
 42
4.0
 43
4.0
 50
180.0
  0
INSERT
  5
B85
330
B7F
100
AcDbEntity
  8
1外形線
 62
     2
370
    -2
100
AcDbBlockReference
  2
2
 10
1271.260345531107
 20
-137.0127101667682
 30
0.0
 41
4.0
 42
4.0
 43
4.0
  0
MTEXT
  5
B86
330
B7F
100
AcDbEntity
  8
1外形線
 62
     1
100
AcDbMText
 10
1226.259735515388
 20
-133.0127101667682
 30
0.0
 40
6.0
 41
0.0
 71
     5
 72
     1
  1
90
  7
\U+FF7A\U+FF9E\U+FF7C\U+FF6F\U+FF78
 73
     1
 44
1.0
1001
ACAD
1000
MTEXTBEGIN
1070
    73
1070
     1
1070
    44
1040
1.0
1070
    74
1070
     0
1000
MTEXTEND
  0
POINT
  5
B87
330
B7F
100
AcDbEntity
  8
Defpoints
 62
     0
100
AcDbPoint
 10
1181.259125499669
 20
-121.3434739744631
 30
0.0
  0
POINT
  5
B88
330
B7F
100
AcDbEntity
  8
Defpoints
 62
     0
100
AcDbPoint
 10
1271.260345531107
 20
-121.3434739744631
 30
0.0
  0
POINT
  5
B89
330
B7F
100
AcDbEntity
  8
Defpoints
 62
     0
100
AcDbPoint
 10
1271.260345531107
 20
-137.0127101667682
 30
0.0
  0
ENDBLK
  5
B8A
330
B7F
100
AcDbEntity
  8
0
 48
2.0
100
AcDbBlockEnd
  0
BLOCK
  5
B8C
330
B8B
100
AcDbEntity
  8
0
 48
2.0
100
AcDbBlockBegin
  2
*D4
 70
     1
 10
0.0
 20
0.0
 30
0.0
  3
*D4
  1

  0
LINE
  5
B8D
330
B8B
100
AcDbEntity
  8
1外形線
 62
     2
370
    -2
100
AcDbLine
 10
1306.821586498724
 20
31.56458667630302
 30
0.0
 11
1306.821586498724
 21
115.1082407881558
 31
0.0
  0
LINE
  5
B8E
330
B8B
100
AcDbEntity
  8
1外形線
 62
     2
370
    -2
100
AcDbLine
 10
1382.621586498724
 20
101.8829615055352
 30
0.0
 11
1382.621586498724
 21
115.1082407881558
 31
0.0
  0
LINE
  5
B8F
330
B8B
100
AcDbEntity
  8
1外形線
 62
     2
370
    -2
100
AcDbLine
 10
1310.821586498724
 20
114.5082407881558
 30
0.0
 11
1378.621586498724
 21
114.5082407881558
 31
0.0
  0
INSERT
  5
B90
330
B8B
100
AcDbEntity
  8
1外形線
 62
     2
370
    -2
100
AcDbBlockReference
  2
2
 10
1306.821586498724
 20
114.5082407881558
 30
0.0
 41
4.0
 42
4.0
 43
4.0
 50
180.0
  0
INSERT
  5
B91
330
B8B
100
AcDbEntity
  8
1外形線
 62
     2
370
    -2
100
AcDbBlockReference
  2
2
 10
1382.621586498724
 20
114.5082407881558
 30
0.0
 41
4.0
 42
4.0
 43
4.0
  0
MTEXT
  5
B92
330
B8B
100
AcDbEntity
  8
1外形線
 62
     1
100
AcDbMText
 10
1345.875927567263
 20
118.5082407881558
 30
0.0
 40
6.0
 41
0.0
 71
     5
 72
     1
  1
76
  7
\U+FF7A\U+FF9E\U+FF7C\U+FF6F\U+FF78
 73
     1
 44
1.0
1001
ACAD
1000
MTEXTBEGIN
1070
    73
1070
     1
1070
    44
1040
1.0
1070
    74
1070
     0
1000
MTEXTEND
  0
POINT
  5
B93
330
B8B
100
AcDbEntity
  8
Defpoints
 62
     0
100
AcDbPoint
 10
1306.821586498724
 20
31.36458667630302
 30
0.0
  0
POINT
  5
B94
330
B8B
100
AcDbEntity
  8
Defpoints
 62
     0
100
AcDbPoint
 10
1382.621586498724
 20
101.6829615055352
 30
0.0
  0
POINT
  5
B95
330
B8B
100
AcDbEntity
  8
Defpoints
 62
     0
100
AcDbPoint
 10
1382.621586498724
 20
114.5082407881558
 30
0.0
  0
ENDBLK
  5
B96
330
B8B
100
AcDbEntity
  8
0
 48
2.0
100
AcDbBlockEnd
  0
BLOCK
  5
B98
330
B97
100
AcDbEntity
  8
0
 48
2.0
100
AcDbBlockBegin
  2
*D5
 70
     1
 10
0.0
 20
0.0
 30
0.0
  3
*D5
  1

  0
LINE
  5
B99
330
B97
100
AcDbEntity
  8
1外形線
 62
     2
370
    -2
100
AcDbLine
 10
1149.413644268737
 20
38.67874121952862
 30
0.0
 11
1149.413644268737
 21
113.3517652012024
 31
0.0
  0
LINE
  5
B9A
330
B97
100
AcDbEntity
  8
1外形線
 62
     2
370
    -2
100
AcDbLine
 10
1272.413644268737
 20
38.67874121952862
 30
0.0
 11
1272.413644268737
 21
113.3517652012024
 31
0.0
  0
LINE
  5
B9B
330
B97
100
AcDbEntity
  8
1外形線
 62
     2
370
    -2
100
AcDbLine
 10
1153.413644268737
 20
112.7517652012024
 30
0.0
 11
1268.413644268737
 21
112.7517652012024
 31
0.0
  0
INSERT
  5
B9C
330
B97
100
AcDbEntity
  8
1外形線
 62
     2
370
    -2
100
AcDbBlockReference
  2
2
 10
1149.413644268737
 20
112.7517652012024
 30
0.0
 41
4.0
 42
4.0
 43
4.0
 50
180.0
  0
INSERT
  5
B9D
330
B97
100
AcDbEntity
  8
1外形線
 62
     2
370
    -2
100
AcDbBlockReference
  2
2
 10
1272.413644268737
 20
112.7517652012024
 30
0.0
 41
4.0
 42
4.0
 43
4.0
  0
MTEXT
  5
B9E
330
B97
100
AcDbEntity
  8
1外形線
 62
     1
100
AcDbMText
 10
1210.913644268737
 20
116.7517652012024
 30
0.0
 40
6.0
 41
0.0
 71
     5
 72
     1
  1
123
  7
\U+FF7A\U+FF9E\U+FF7C\U+FF6F\U+FF78
 73
     1
 44
1.0
1001
ACAD
1000
MTEXTBEGIN
1070
    73
1070
     1
1070
    44
1040
1.0
1070
    74
1070
     0
1000
MTEXTEND
  0
POINT
  5
B9F
330
B97
100
AcDbEntity
  8
Defpoints
 62
     0
100
AcDbPoint
 10
1149.413644268737
 20
38.47874121952862
 30
0.0
  0
POINT
  5
BA0
330
B97
100
AcDbEntity
  8
Defpoints
 62
     0
100
AcDbPoint
 10
1272.413644268737
 20
38.47874121952862
 30
0.0
  0
POINT
  5
BA1
330
B97
100
AcDbEntity
  8
Defpoints
 62
     0
100
AcDbPoint
 10
1272.413644268737
 20
112.7517652012024
 30
0.0
  0
ENDBLK
  5
BA2
330
B97
100
AcDbEntity
  8
0
 48
2.0
100
AcDbBlockEnd
  0
BLOCK
  5
BA4
330
BA3
100
AcDbEntity
  8
0
 48
2.0
100
AcDbBlockBegin
  2
*D6
 70
     1
 10
0.0
 20
0.0
 30
0.0
  3
*D6
  1

  0
LINE
  5
BA5
330
BA3
100
AcDbEntity
  8
1外形線
 62
     2
370
    -2
100
AcDbLine
 10
1211.113644268737
 20
99.97874121952861
 30
0.0
 11
1289.245235327701
 21
99.97874121952861
 31
0.0
  0
LINE
  5
BA6
330
BA3
100
AcDbEntity
  8
1外形線
 62
     2
370
    -2
100
AcDbLine
 10
1255.114254284452
 20
-28.52125878047502
 30
0.0
 11
1289.245235327701
 21
-28.52125878047504
 31
0.0
  0
LINE
  5
BA7
330
BA3
100
AcDbEntity
  8
1外形線
 62
     2
370
    -2
100
AcDbLine
 10
1288.645235327701
 20
95.97874121952861
 30
0.0
 11
1288.645235327701
 21
-24.52125878047504
 31
0.0
  0
INSERT
  5
BA8
330
BA3
100
AcDbEntity
  8
1外形線
 62
     2
370
    -2
100
AcDbBlockReference
  2
2
 10
1288.645235327701
 20
99.97874121952861
 30
0.0
 41
4.0
 42
4.0
 43
4.0
 50
90.0
  0
INSERT
  5
BA9
330
BA3
100
AcDbEntity
  8
1外形線
 62
     2
370
    -2
100
AcDbBlockReference
  2
2
 10
1288.645235327701
 20
-28.52125878047504
 30
0.0
 41
4.0
 42
4.0
 43
4.0
 50
270.0
  0
MTEXT
  5
BAA
330
BA3
100
AcDbEntity
  8
1外形線
 62
     1
100
AcDbMText
 10
1284.645235327701
 20
35.728741219527
 30
0.0
 40
6.0
 41
0.0
 71
     5
 72
     1
  1
128.5
  7
\U+FF7A\U+FF9E\U+FF7C\U+FF6F\U+FF78
 11
0.0000000000000001
 21
1.0
 31
0.0
 73
     1
 44
1.0
1001
ACAD
1000
MTEXTBEGIN
1070
    73
1070
     1
1070
    44
1040
1.0
1070
    74
1070
     0
1000
MTEXTEND
  0
POINT
  5
BAB
330
BA3
100
AcDbEntity
  8
Defpoints
 62
     0
100
AcDbPoint
 10
1210.913644268737
 20
99.97874121952861
 30
0.0
  0
POINT
  5
BAC
330
BA3
100
AcDbEntity
  8
Defpoints
 62
     0
100
AcDbPoint
 10
1254.914254284452
 20
-28.52125878047502
 30
0.0
  0
POINT
  5
BAD
330
BA3
100
AcDbEntity
  8
Defpoints
 62
     0
100
AcDbPoint
 10
1288.645235327701
 20
-28.52125878047504
 30
0.0
  0
ENDBLK
  5
BAE
330
BA3
100
AcDbEntity
  8
0
 48
2.0
100
AcDbBlockEnd
  0
BLOCK
  5
BB0
330
BAF
100
AcDbEntity
  8
0
 48
2.0
100
AcDbBlockBegin
  2
*D7
 70
     1
 10
0.0
 20
0.0
 30
0.0
  3
*D7
  1

  0
LINE
  5
BB1
330
BAF
100
AcDbEntity
  8
1外形線
 62
     2
370
    -2
100
AcDbLine
 10
1202.973444014369
 20
-48.84347397446129
 30
0.0
 11
1151.692304066664
 21
-48.84347397446127
 31
0.0
  0
LINE
  5
BB2
330
BAF
100
AcDbEntity
  8
1外形線
 62
     2
370
    -2
100
AcDbLine
 10
1181.059125499676
 20
-121.3434739744631
 30
0.0
 11
1151.692304066664
 21
-121.3434739744631
 31
0.0
  0
LINE
  5
BB3
330
BAF
100
AcDbEntity
  8
1外形線
 62
     2
370
    -2
100
AcDbLine
 10
1152.292304066664
 20
-52.84347397446127
 30
0.0
 11
1152.292304066664
 21
-117.3434739744631
 31
0.0
  0
INSERT
  5
BB4
330
BAF
100
AcDbEntity
  8
1外形線
 62
     2
370
    -2
100
AcDbBlockReference
  2
2
 10
1152.292304066664
 20
-48.84347397446127
 30
0.0
 41
4.0
 42
4.0
 43
4.0
 50
90.0
  0
INSERT
  5
BB5
330
BAF
100
AcDbEntity
  8
1外形線
 62
     2
370
    -2
100
AcDbBlockReference
  2
2
 10
1152.292304066664
 20
-121.3434739744631
 30
0.0
 41
4.0
 42
4.0
 43
4.0
 50
270.0
  0
MTEXT
  5
BB6
330
BAF
100
AcDbEntity
  8
1外形線
 62
     1
100
AcDbMText
 10
1148.292304066664
 20
-91.22846073305357
 30
0.0
 40
6.0
 41
0.0
 71
     5
 72
     1
  1
72.5
  7
\U+FF7A\U+FF9E\U+FF7C\U+FF6F\U+FF78
 11
0.0000000000000001
 21
1.0
 31
0.0
 73
     1
 44
1.0
1001
ACAD
1000
MTEXTBEGIN
1070
    73
1070
     1
1070
    44
1040
1.0
1070
    74
1070
     0
1000
MTEXTEND
  0
POINT
  5
BB7
330
BAF
100
AcDbEntity
  8
Defpoints
 62
     0
100
AcDbPoint
 10
1203.173444014369
 20
-48.84347397446129
 30
0.0
  0
POINT
  5
BB8
330
BAF
100
AcDbEntity
  8
Defpoints
 62
     0
100
AcDbPoint
 10
1181.259125499676
 20
-121.3434739744631
 30
0.0
  0
POINT
  5
BB9
330
BAF
100
AcDbEntity
  8
Defpoints
 62
     0
100
AcDbPoint
 10
1152.292304066664
 20
-121.3434739744631
 30
0.0
  0
ENDBLK
  5
BBA
330
BAF
100
AcDbEntity
  8
0
 48
2.0
100
AcDbBlockEnd
  0
BLOCK
  5
CE1
330
CE0
100
AcDbEntity
  8
0
100
AcDbBlockBegin
  2
*D8
 70
     1
 10
0.0
 20
0.0
 30
0.0
  3
*D8
  1

  0
LINE
  5
D1C
330
CE0
100
AcDbEntity
  8
1外形線
 62
     2
370
    -2
100
AcDbLine
 10
455.5225150799606
 20
37.74677175232516
 30
0.0
 11
455.5225150799606
 21
21.67753556002006
 31
0.0
  0
LINE
  5
D1D
330
CE0
100
AcDbEntity
  8
1外形線
 62
     2
370
    -2
100
AcDbLine
 10
545.5237351113983
 20
37.74677175232516
 30
0.0
 11
545.5237351113983
 21
21.67753556002006
 31
0.0
  0
LINE
  5
D1E
330
CE0
100
AcDbEntity
  8
1外形線
 62
     2
370
    -2
100
AcDbLine
 10
459.5225150799604
 20
22.27753556002006
 30
0.0
 11
541.5237351113983
 21
22.27753556002006
 31
0.0
  0
INSERT
  5
D1F
330
CE0
100
AcDbEntity
  8
1外形線
 62
     2
370
    -2
100
AcDbBlockReference
  2
2
 10
455.5225150799606
 20
22.27753556002006
 30
0.0
 41
4.0
 42
4.0
 43
4.0
 50
180.0
  0
INSERT
  5
D20
330
CE0
100
AcDbEntity
  8
1外形線
 62
     2
370
    -2
100
AcDbBlockReference
  2
2
 10
545.5237351113983
 20
22.27753556002006
 30
0.0
 41
4.0
 42
4.0
 43
4.0
  0
MTEXT
  5
D21
330
CE0
100
AcDbEntity
  8
1外形線
 62
     1
100
AcDbMText
 10
500.5231250956795
 20
26.27753556002005
 30
0.0
 40
6.0
 41
0.0
 71
     5
 72
     1
  1
90
  7
\U+FF7A\U+FF9E\U+FF7C\U+FF6F\U+FF78
 73
     1
 44
1.0
1001
ACAD
1000
MTEXTBEGIN
1070
    73
1070
     1
1070
    44
1040
1.0
1070
    74
1070
     0
1000
MTEXTEND
  0
POINT
  5
D22
330
CE0
100
AcDbEntity
  8
Defpoints
 62
     0
100
AcDbPoint
 10
455.5225150799606
 20
37.94677175232517
 30
0.0
  0
POINT
  5
D23
330
CE0
100
AcDbEntity
  8
Defpoints
 62
     0
100
AcDbPoint
 10
545.5237351113983
 20
37.94677175232517
 30
0.0
  0
POINT
  5
D24
330
CE0
100
AcDbEntity
  8
Defpoints
 62
     0
100
AcDbPoint
 10
545.5237351113983
 20
22.27753556002006
 30
0.0
  0
ENDBLK
  5
CE2
330
CE0
100
AcDbEntity
  8
0
100
AcDbBlockEnd
  0
BLOCK
  5
CED
330
CEC
100
AcDbEntity
  8
0
100
AcDbBlockBegin
  2
*D9
 70
     1
 10
0.0
 20
0.0
 30
0.0
  3
*D9
  1

  0
LINE
  5
D25
330
CEC
100
AcDbEntity
  8
1外形線
 62
     2
370
    -2
100
AcDbLine
 10
581.084976079016
 20
190.8548324030913
 30
0.0
 11
581.084976079016
 21
274.3984865149441
 31
0.0
  0
LINE
  5
D26
330
CEC
100
AcDbEntity
  8
1外形線
 62
     2
370
    -2
100
AcDbLine
 10
656.8849760790152
 20
261.1732072323235
 30
0.0
 11
656.8849760790152
 21
274.3984865149441
 31
0.0
  0
LINE
  5
D27
330
CEC
100
AcDbEntity
  8
1外形線
 62
     2
370
    -2
100
AcDbLine
 10
585.084976079016
 20
273.7984865149441
 30
0.0
 11
652.8849760790152
 21
273.7984865149441
 31
0.0
  0
INSERT
  5
D28
330
CEC
100
AcDbEntity
  8
1外形線
 62
     2
370
    -2
100
AcDbBlockReference
  2
2
 10
581.084976079016
 20
273.7984865149441
 30
0.0
 41
4.0
 42
4.0
 43
4.0
 50
180.0
  0
INSERT
  5
D29
330
CEC
100
AcDbEntity
  8
1外形線
 62
     2
370
    -2
100
AcDbBlockReference
  2
2
 10
656.8849760790152
 20
273.7984865149441
 30
0.0
 41
4.0
 42
4.0
 43
4.0
  0
MTEXT
  5
D2A
330
CEC
100
AcDbEntity
  8
1外形線
 62
     1
100
AcDbMText
 10
620.1393171475548
 20
277.7984865149441
 30
0.0
 40
6.0
 41
0.0
 71
     5
 72
     1
  1
76
  7
\U+FF7A\U+FF9E\U+FF7C\U+FF6F\U+FF78
 73
     1
 44
1.0
1001
ACAD
1000
MTEXTBEGIN
1070
    73
1070
     1
1070
    44
1040
1.0
1070
    74
1070
     0
1000
MTEXTEND
  0
POINT
  5
D2B
330
CEC
100
AcDbEntity
  8
Defpoints
 62
     0
100
AcDbPoint
 10
581.084976079016
 20
190.6548324030913
 30
0.0
  0
POINT
  5
D2C
330
CEC
100
AcDbEntity
  8
Defpoints
 62
     0
100
AcDbPoint
 10
656.8849760790152
 20
260.9732072323235
 30
0.0
  0
POINT
  5
D2D
330
CEC
100
AcDbEntity
  8
Defpoints
 62
     0
100
AcDbPoint
 10
656.8849760790152
 20
273.7984865149441
 30
0.0
  0
ENDBLK
  5
CEE
330
CEC
100
AcDbEntity
  8
0
100
AcDbBlockEnd
  0
BLOCK
  5
CF9
330
CF8
100
AcDbEntity
  8
0
100
AcDbBlockBegin
  2
*D10
 70
     1
 10
0.0
 20
0.0
 30
0.0
  3
*D10
  1

  0
LINE
  5
D2E
330
CF8
100
AcDbEntity
  8
1外形線
 62
     2
370
    -2
100
AcDbLine
 10
423.6770338490287
 20
197.9689869463168
 30
0.0
 11
423.6770338490287
 21
272.6420109279906
 31
0.0
  0
LINE
  5
D2F
330
CF8
100
AcDbEntity
  8
1外形線
 62
     2
370
    -2
100
AcDbLine
 10
546.6770338490285
 20
197.9689869463168
 30
0.0
 11
546.6770338490285
 21
272.6420109279906
 31
0.0
  0
LINE
  5
D30
330
CF8
100
AcDbEntity
  8
1外形線
 62
     2
370
    -2
100
AcDbLine
 10
427.6770338490287
 20
272.0420109279906
 30
0.0
 11
542.6770338490285
 21
272.0420109279906
 31
0.0
  0
INSERT
  5
D31
330
CF8
100
AcDbEntity
  8
1外形線
 62
     2
370
    -2
100
AcDbBlockReference
  2
2
 10
423.6770338490287
 20
272.0420109279906
 30
0.0
 41
4.0
 42
4.0
 43
4.0
 50
180.0
  0
INSERT
  5
D32
330
CF8
100
AcDbEntity
  8
1外形線
 62
     2
370
    -2
100
AcDbBlockReference
  2
2
 10
546.6770338490285
 20
272.0420109279906
 30
0.0
 41
4.0
 42
4.0
 43
4.0
  0
MTEXT
  5
D33
330
CF8
100
AcDbEntity
  8
1外形線
 62
     1
100
AcDbMText
 10
485.1770338490287
 20
276.0420109279906
 30
0.0
 40
6.0
 41
0.0
 71
     5
 72
     1
  1
123
  7
\U+FF7A\U+FF9E\U+FF7C\U+FF6F\U+FF78
 73
     1
 44
1.0
1001
ACAD
1000
MTEXTBEGIN
1070
    73
1070
     1
1070
    44
1040
1.0
1070
    74
1070
     0
1000
MTEXTEND
  0
POINT
  5
D34
330
CF8
100
AcDbEntity
  8
Defpoints
 62
     0
100
AcDbPoint
 10
423.6770338490287
 20
197.7689869463169
 30
0.0
  0
POINT
  5
D35
330
CF8
100
AcDbEntity
  8
Defpoints
 62
     0
100
AcDbPoint
 10
546.6770338490285
 20
197.7689869463169
 30
0.0
  0
POINT
  5
D36
330
CF8
100
AcDbEntity
  8
Defpoints
 62
     0
100
AcDbPoint
 10
546.6770338490285
 20
272.0420109279906
 30
0.0
  0
ENDBLK
  5
CFA
330
CF8
100
AcDbEntity
  8
0
100
AcDbBlockEnd
  0
BLOCK
  5
D05
330
D04
100
AcDbEntity
  8
0
100
AcDbBlockBegin
  2
*D11
 70
     1
 10
0.0
 20
0.0
 30
0.0
  3
*D11
  1

  0
LINE
  5
D37
330
D04
100
AcDbEntity
  8
1外形線
 62
     2
370
    -2
100
AcDbLine
 10
485.3770338490289
 20
259.268986946317
 30
0.0
 11
563.5086249079928
 21
259.268986946317
 31
0.0
  0
LINE
  5
D38
330
D04
100
AcDbEntity
  8
1外形線
 62
     2
370
    -2
100
AcDbLine
 10
529.3776438647442
 20
130.7689869463133
 30
0.0
 11
563.5086249079931
 21
130.7689869463133
 31
0.0
  0
LINE
  5
D39
330
D04
100
AcDbEntity
  8
1外形線
 62
     2
370
    -2
100
AcDbLine
 10
562.908624907993
 20
255.268986946317
 30
0.0
 11
562.908624907993
 21
134.7689869463133
 31
0.0
  0
INSERT
  5
D3A
330
D04
100
AcDbEntity
  8
1外形線
 62
     2
370
    -2
100
AcDbBlockReference
  2
2
 10
562.9086249079928
 20
259.268986946317
 30
0.0
 41
4.0
 42
4.0
 43
4.0
 50
90.0
  0
INSERT
  5
D3B
330
D04
100
AcDbEntity
  8
1外形線
 62
     2
370
    -2
100
AcDbBlockReference
  2
2
 10
562.908624907993
 20
130.7689869463133
 30
0.0
 41
4.0
 42
4.0
 43
4.0
 50
270.0
  0
MTEXT
  5
D3C
330
D04
100
AcDbEntity
  8
1外形線
 62
     1
100
AcDbMText
 10
558.9086249079928
 20
195.018986946315
 30
0.0
 40
6.0
 41
0.0
 71
     5
 72
     1
  1
128.5
  7
\U+FF7A\U+FF9E\U+FF7C\U+FF6F\U+FF78
 11
0.0000000000000001
 21
1.0
 31
0.0
 73
     1
 44
1.0
1001
ACAD
1000
MTEXTBEGIN
1070
    73
1070
     1
1070
    44
1040
1.0
1070
    74
1070
     0
1000
MTEXTEND
  0
POINT
  5
D3D
330
D04
100
AcDbEntity
  8
Defpoints
 62
     0
100
AcDbPoint
 10
485.1770338490289
 20
259.268986946317
 30
0.0
  0
POINT
  5
D3E
330
D04
100
AcDbEntity
  8
Defpoints
 62
     0
100
AcDbPoint
 10
529.1776438647441
 20
130.7689869463133
 30
0.0
  0
POINT
  5
D3F
330
D04
100
AcDbEntity
  8
Defpoints
 62
     0
100
AcDbPoint
 10
562.908624907993
 20
130.7689869463133
 30
0.0
  0
ENDBLK
  5
D06
330
D04
100
AcDbEntity
  8
0
100
AcDbBlockEnd
  0
BLOCK
  5
D11
330
D10
100
AcDbEntity
  8
0
100
AcDbBlockBegin
  2
*D12
 70
     1
 10
0.0
 20
0.0
 30
0.0
  3
*D12
  1

  0
LINE
  5
D40
330
D10
100
AcDbEntity
  8
1外形線
 62
     2
370
    -2
100
AcDbLine
 10
477.2368335946612
 20
110.446771752327
 30
0.0
 11
425.9556936469556
 21
110.446771752327
 31
0.0
  0
LINE
  5
D41
330
D10
100
AcDbEntity
  8
1外形線
 62
     2
370
    -2
100
AcDbLine
 10
455.3225150799681
 20
37.94677175232518
 30
0.0
 11
425.9556936469556
 21
37.94677175232517
 31
0.0
  0
LINE
  5
D42
330
D10
100
AcDbEntity
  8
1外形線
 62
     2
370
    -2
100
AcDbLine
 10
426.5556936469558
 20
106.446771752327
 30
0.0
 11
426.5556936469558
 21
41.94677175232516
 31
0.0
  0
INSERT
  5
D43
330
D10
100
AcDbEntity
  8
1外形線
 62
     2
370
    -2
100
AcDbBlockReference
  2
2
 10
426.5556936469558
 20
110.446771752327
 30
0.0
 41
4.0
 42
4.0
 43
4.0
 50
90.0
  0
INSERT
  5
D44
330
D10
100
AcDbEntity
  8
1外形線
 62
     2
370
    -2
100
AcDbBlockReference
  2
2
 10
426.5556936469558
 20
37.94677175232517
 30
0.0
 41
4.0
 42
4.0
 43
4.0
 50
270.0
  0
MTEXT
  5
D45
330
D10
100
AcDbEntity
  8
1外形線
 62
     1
100
AcDbMText
 10
422.5556936469557
 20
68.0617849937347
 30
0.0
 40
6.0
 41
0.0
 71
     5
 72
     1
  1
72.5
  7
\U+FF7A\U+FF9E\U+FF7C\U+FF6F\U+FF78
 11
0.0000000000000001
 21
1.0
 31
0.0
 73
     1
 44
1.0
1001
ACAD
1000
MTEXTBEGIN
1070
    73
1070
     1
1070
    44
1040
1.0
1070
    74
1070
     0
1000
MTEXTEND
  0
POINT
  5
D46
330
D10
100
AcDbEntity
  8
Defpoints
 62
     0
100
AcDbPoint
 10
477.4368335946611
 20
110.446771752327
 30
0.0
  0
POINT
  5
D47
330
D10
100
AcDbEntity
  8
Defpoints
 62
     0
100
AcDbPoint
 10
455.5225150799681
 20
37.94677175232518
 30
0.0
  0
POINT
  5
D48
330
D10
100
AcDbEntity
  8
Defpoints
 62
     0
100
AcDbPoint
 10
426.5556936469558
 20
37.94677175232517
 30
0.0
  0
ENDBLK
  5
D12
330
D10
100
AcDbEntity
  8
0
100
AcDbBlockEnd
  0
BLOCK
  5
D4B
330
D4A
100
AcDbEntity
  8
0
100
AcDbBlockBegin
  2
*D13
 70
     1
 10
0.0
 20
0.0
 30
0.0
  3
*D13
  1

  0
LINE
  5
D7D
330
D4A
100
AcDbEntity
  8
2寸法線
 62
     0
370
    -2
100
AcDbLine
 10
124.466613479189
 20
119.0527208713974
 30
0.0
 11
210.8425228883359
 21
119.0527208713974
 31
0.0
  0
LINE
  5
D7E
330
D4A
100
AcDbEntity
  8
2寸法線
 62
     0
370
    -2
100
AcDbLine
 10
124.4666134791891
 20
46.05272087139725
 30
0.0
 11
210.8425228883359
 21
46.05272087139725
 31
0.0
  0
LINE
  5
D7F
330
D4A
100
AcDbEntity
  8
2寸法線
 62
     0
370
    -2
100
AcDbLine
 10
209.5925228883359
 20
116.5527208713974
 30
0.0
 11
209.5925228883359
 21
48.55272087139727
 31
0.0
  0
SOLID
  5
D80
330
D4A
100
AcDbEntity
  8
2寸法線
 62
     0
100
AcDbTrace
 10
209.1758562216692
 20
116.5527208713974
 30
0.0
 11
210.0091895550026
 21
116.5527208713974
 31
0.0
 12
209.5925228883359
 22
119.0527208713974
 32
0.0
 13
209.5925228883359
 23
119.0527208713974
 33
0.0
  0
SOLID
  5
D81
330
D4A
100
AcDbEntity
  8
2寸法線
 62
     0
100
AcDbTrace
 10
209.1758562216693
 20
48.55272087139727
 30
0.0
 11
210.0091895550026
 21
48.55272087139727
 31
0.0
 12
209.5925228883359
 22
46.05272087139725
 32
0.0
 13
209.5925228883359
 23
46.05272087139725
 33
0.0
  0
MTEXT
  5
D82
330
D4A
100
AcDbEntity
  8
2寸法線
 62
     0
100
AcDbMText
 10
207.7175228883359
 20
82.55272087139728
 30
0.0
 40
2.5
 41
0.0
 71
     5
 72
     1
  1
73
 11
0.0000000000000001
 21
1.0
 31
0.0
 73
     1
 44
1.0
1001
ACAD
1000
MTEXTBEGIN
1070
    73
1070
     1
1070
    44
1040
1.0
1070
    74
1070
     0
1000
MTEXTEND
  0
POINT
  5
D83
330
D4A
100
AcDbEntity
  8
Defpoints
 62
     0
100
AcDbPoint
 10
123.841613479189
 20
119.0527208713974
 30
0.0
  0
POINT
  5
D84
330
D4A
100
AcDbEntity
  8
Defpoints
 62
     0
100
AcDbPoint
 10
123.8416134791891
 20
46.05272087139725
 30
0.0
  0
POINT
  5
D85
330
D4A
100
AcDbEntity
  8
Defpoints
 62
     0
100
AcDbPoint
 10
209.5925228883359
 20
46.05272087139725
 30
0.0
  0
ENDBLK
  5
D4C
330
D4A
100
AcDbEntity
  8
0
100
AcDbBlockEnd
  0
BLOCK
  5
D58
330
D57
100
AcDbEntity
  8
0
100
AcDbBlockBegin
  2
*D14
 70
     1
 10
0.0
 20
0.0
 30
0.0
  3
*D14
  1

  0
LINE
  5
D5A
330
D57
100
AcDbEntity
  8
2寸法線
 62
     0
370
    -2
100
AcDbLine
 10
78.84161347918904
 20
45.42772087139717
 30
0.0
 11
78.84161347918904
 21
36.18203100203482
 31
0.0
  0
LINE
  5
D5B
330
D57
100
AcDbEntity
  8
2寸法線
 62
     0
370
    -2
100
AcDbLine
 10
168.841613479189
 20
45.42772087139728
 30
0.0
 11
168.841613479189
 21
36.18203100203482
 31
0.0
  0
LINE
  5
D5C
330
D57
100
AcDbEntity
  8
2寸法線
 62
     0
370
    -2
100
AcDbLine
 10
81.34161347918904
 20
37.43203100203482
 30
0.0
 11
166.341613479189
 21
37.43203100203482
 31
0.0
  0
SOLID
  5
D5D
330
D57
100
AcDbEntity
  8
2寸法線
 62
     0
100
AcDbTrace
 10
81.34161347918904
 20
37.84869766870148
 30
0.0
 11
81.34161347918904
 21
37.01536433536816
 31
0.0
 12
78.84161347918904
 22
37.43203100203482
 32
0.0
 13
78.84161347918904
 23
37.43203100203482
 33
0.0
  0
SOLID
  5
D5E
330
D57
100
AcDbEntity
  8
2寸法線
 62
     0
100
AcDbTrace
 10
166.341613479189
 20
37.84869766870148
 30
0.0
 11
166.341613479189
 21
37.01536433536816
 31
0.0
 12
168.841613479189
 22
37.43203100203482
 32
0.0
 13
168.841613479189
 23
37.43203100203482
 33
0.0
  0
MTEXT
  5
D5F
330
D57
100
AcDbEntity
  8
2寸法線
 62
     0
100
AcDbMText
 10
123.841613479189
 20
39.30703100203482
 30
0.0
 40
2.5
 41
0.0
 71
     5
 72
     1
  1
90
 73
     1
 44
1.0
1001
ACAD
1000
MTEXTBEGIN
1070
    73
1070
     1
1070
    44
1040
1.0
1070
    74
1070
     0
1000
MTEXTEND
  0
POINT
  5
D60
330
D57
100
AcDbEntity
  8
Defpoints
 62
     0
100
AcDbPoint
 10
78.84161347918904
 20
46.05272087139717
 30
0.0
  0
POINT
  5
D61
330
D57
100
AcDbEntity
  8
Defpoints
 62
     0
100
AcDbPoint
 10
168.841613479189
 20
46.05272087139728
 30
0.0
  0
POINT
  5
D62
330
D57
100
AcDbEntity
  8
Defpoints
 62
     0
100
AcDbPoint
 10
168.841613479189
 20
37.43203100203482
 30
0.0
  0
ENDBLK
  5
D59
330
D57
100
AcDbEntity
  8
0
100
AcDbBlockEnd
  0
BLOCK
  5
D65
330
D64
100
AcDbEntity
  8
0
100
AcDbBlockBegin
  2
*D15
 70
     1
 10
0.0
 20
0.0
 30
0.0
  3
*D15
  1

  0
LINE
  5
D67
330
D64
100
AcDbEntity
  8
2寸法線
 62
     0
370
    -2
100
AcDbLine
 10
501.1481250956832
 20
113.7467717523245
 30
0.0
 11
597.7129330153403
 21
113.7467717523245
 31
0.0
  0
LINE
  5
D68
330
D64
100
AcDbEntity
  8
2寸法線
 62
     0
370
    -2
100
AcDbLine
 10
501.1481250956866
 20
37.94677175232699
 30
0.0
 11
597.7129330153403
 21
37.94677175232699
 31
0.0
  0
LINE
  5
D69
330
D64
100
AcDbEntity
  8
2寸法線
 62
     0
370
    -2
100
AcDbLine
 10
596.4629330153403
 20
111.2467717523245
 30
0.0
 11
596.4629330153403
 21
40.44677175232699
 31
0.0
  0
SOLID
  5
D6A
330
D64
100
AcDbEntity
  8
2寸法線
 62
     0
100
AcDbTrace
 10
596.0462663486737
 20
111.2467717523245
 30
0.0
 11
596.8795996820071
 21
111.2467717523245
 31
0.0
 12
596.4629330153403
 22
113.7467717523245
 32
0.0
 13
596.4629330153403
 23
113.7467717523245
 33
0.0
  0
SOLID
  5
D6B
330
D64
100
AcDbEntity
  8
2寸法線
 62
     0
100
AcDbTrace
 10
596.0462663486737
 20
40.44677175232699
 30
0.0
 11
596.8795996820071
 21
40.44677175232699
 31
0.0
 12
596.4629330153403
 22
37.94677175232699
 32
0.0
 13
596.4629330153403
 23
37.94677175232699
 33
0.0
  0
MTEXT
  5
D6C
330
D64
100
AcDbEntity
  8
2寸法線
 62
     0
100
AcDbMText
 10
594.5879330153402
 20
75.84677175232556
 30
0.0
 40
2.5
 41
0.0
 71
     5
 72
     1
  1
75.8
 11
0.0000000000000001
 21
1.0
 31
0.0
 73
     1
 44
1.0
1001
ACAD
1000
MTEXTBEGIN
1070
    73
1070
     1
1070
    44
1040
1.0
1070
    74
1070
     0
1000
MTEXTEND
  0
POINT
  5
D6D
330
D64
100
AcDbEntity
  8
Defpoints
 62
     0
100
AcDbPoint
 10
500.5231250956832
 20
113.7467717523245
 30
0.0
  0
POINT
  5
D6E
330
D64
100
AcDbEntity
  8
Defpoints
 62
     0
100
AcDbPoint
 10
500.5231250956866
 20
37.94677175232699
 30
0.0
  0
POINT
  5
D6F
330
D64
100
AcDbEntity
  8
Defpoints
 62
     0
100
AcDbPoint
 10
596.4629330153403
 20
37.94677175232699
 30
0.0
  0
ENDBLK
  5
D66
330
D64
100
AcDbEntity
  8
0
100
AcDbBlockEnd
  0
BLOCK
  5
D72
330
D71
100
AcDbEntity
  8
0
100
AcDbBlockBegin
  2
*D16
 70
     1
 10
0.0
 20
0.0
 30
0.0
  3
*D16
  1

  0
LINE
  5
D86
330
D71
100
AcDbEntity
  8
2寸法線
 62
     0
370
    -2
100
AcDbLine
 10
124.466613479189
 20
122.0527208713991
 30
0.0
 11
235.7120863833777
 21
122.0527208713991
 31
0.0
  0
LINE
  5
D87
330
D71
100
AcDbEntity
  8
2寸法線
 62
     0
370
    -2
100
AcDbLine
 10
124.4666134791891
 20
46.05272087139725
 30
0.0
 11
235.7120863833777
 21
46.05272087139725
 31
0.0
  0
LINE
  5
D88
330
D71
100
AcDbEntity
  8
2寸法線
 62
     0
370
    -2
100
AcDbLine
 10
234.4620863833777
 20
119.5527208713991
 30
0.0
 11
234.4620863833777
 21
48.55272087139727
 31
0.0
  0
SOLID
  5
D89
330
D71
100
AcDbEntity
  8
2寸法線
 62
     0
100
AcDbTrace
 10
234.045419716711
 20
119.5527208713991
 30
0.0
 11
234.8787530500443
 21
119.5527208713991
 31
0.0
 12
234.4620863833777
 22
122.0527208713991
 32
0.0
 13
234.4620863833777
 23
122.0527208713991
 33
0.0
  0
SOLID
  5
D8A
330
D71
100
AcDbEntity
  8
2寸法線
 62
     0
100
AcDbTrace
 10
234.045419716711
 20
48.55272087139727
 30
0.0
 11
234.8787530500444
 21
48.55272087139727
 31
0.0
 12
234.4620863833777
 22
46.05272087139725
 32
0.0
 13
234.4620863833777
 23
46.05272087139725
 33
0.0
  0
MTEXT
  5
D8B
330
D71
100
AcDbEntity
  8
2寸法線
 62
     0
100
AcDbMText
 10
232.5870863833777
 20
84.05272087139811
 30
0.0
 40
2.5
 41
0.0
 71
     5
 72
     1
  1
76
 11
0.0000000000000001
 21
1.0
 31
0.0
 73
     1
 44
1.0
1001
ACAD
1000
MTEXTBEGIN
1070
    73
1070
     1
1070
    44
1040
1.0
1070
    74
1070
     0
1000
MTEXTEND
  0
POINT
  5
D8C
330
D71
100
AcDbEntity
  8
Defpoints
 62
     0
100
AcDbPoint
 10
123.841613479189
 20
122.0527208713991
 30
0.0
  0
POINT
  5
D8D
330
D71
100
AcDbEntity
  8
Defpoints
 62
     0
100
AcDbPoint
 10
123.8416134791891
 20
46.05272087139725
 30
0.0
  0
POINT
  5
D8E
330
D71
100
AcDbEntity
  8
Defpoints
 62
     0
100
AcDbPoint
 10
234.4620863833777
 20
46.05272087139725
 30
0.0
  0
ENDBLK
  5
D73
330
D71
100
AcDbEntity
  8
0
100
AcDbBlockEnd
  0
BLOCK
  5
DB5
330
DB4
100
AcDbEntity
  8
0
100
AcDbBlockBegin
  2
*D17
 70
     1
 10
0.0
 20
0.0
 30
0.0
  3
*D17
  1

  0
LINE
  5
DDA
330
DB4
100
AcDbEntity
  8
2寸法線
 62
     0
370
    -2
100
AcDbLine
 10
131.8395909985225
 20
361.8027118764638
 30
0.0
 11
217.3050640611752
 21
361.8027118764638
 31
0.0
  0
LINE
  5
DDB
330
DB4
100
AcDbEntity
  8
2寸法線
 62
     0
370
    -2
100
AcDbLine
 10
131.8395909985225
 20
434.8027118764638
 30
0.0
 11
217.3050640611752
 21
434.8027118764638
 31
0.0
  0
LINE
  5
DDC
330
DB4
100
AcDbEntity
  8
2寸法線
 62
     0
370
    -2
100
AcDbLine
 10
216.0550640611752
 20
364.3027118764639
 30
0.0
 11
216.0550640611752
 21
432.3027118764638
 31
0.0
  0
SOLID
  5
DDD
330
DB4
100
AcDbEntity
  8
2寸法線
 62
     0
100
AcDbTrace
 10
215.6383973945086
 20
364.3027118764639
 30
0.0
 11
216.4717307278419
 21
364.3027118764639
 31
0.0
 12
216.0550640611752
 22
361.8027118764638
 32
0.0
 13
216.0550640611752
 23
361.8027118764638
 33
0.0
  0
SOLID
  5
DDE
330
DB4
100
AcDbEntity
  8
2寸法線
 62
     0
100
AcDbTrace
 10
215.6383973945086
 20
432.3027118764638
 30
0.0
 11
216.4717307278419
 21
432.3027118764638
 31
0.0
 12
216.0550640611752
 22
434.8027118764638
 32
0.0
 13
216.0550640611752
 23
434.8027118764638
 33
0.0
  0
MTEXT
  5
DDF
330
DB4
100
AcDbEntity
  8
2寸法線
 62
     0
100
AcDbMText
 10
214.1800640611753
 20
398.3027118764637
 30
0.0
 40
2.5
 41
0.0
 71
     5
 72
     1
  1
73
 11
0.0000000000000001
 21
1.0
 31
0.0
 73
     1
 44
1.0
1001
ACAD
1000
MTEXTBEGIN
1070
    73
1070
     1
1070
    44
1040
1.0
1070
    74
1070
     0
1000
MTEXTEND
  0
POINT
  5
DE0
330
DB4
100
AcDbEntity
  8
Defpoints
 62
     0
100
AcDbPoint
 10
131.2145909985225
 20
361.8027118764638
 30
0.0
  0
POINT
  5
DE1
330
DB4
100
AcDbEntity
  8
Defpoints
 62
     0
100
AcDbPoint
 10
131.2145909985225
 20
434.8027118764638
 30
0.0
  0
POINT
  5
DE2
330
DB4
100
AcDbEntity
  8
Defpoints
 62
     0
100
AcDbPoint
 10
216.0550640611752
 20
434.8027118764638
 30
0.0
  0
ENDBLK
  5
DB6
330
DB4
100
AcDbEntity
  8
0
100
AcDbBlockEnd
  0
BLOCK
  5
DC6
330
DC5
100
AcDbEntity
  8
0
100
AcDbBlockBegin
  2
*D18
 70
     1
 10
0.0
 20
0.0
 30
0.0
  3
*D18
  1

  0
LINE
  5
DD1
330
DC5
100
AcDbEntity
  8
2寸法線
 62
     0
370
    -2
100
AcDbLine
 10
131.8395909985225
 20
429.8027118764638
 30
0.0
 11
205.1395631175094
 21
429.8027118764638
 31
0.0
  0
LINE
  5
DD2
330
DC5
100
AcDbEntity
  8
2寸法線
 62
     0
370
    -2
100
AcDbLine
 10
131.8395909985225
 20
361.8027118764638
 30
0.0
 11
205.1395631175094
 21
361.8027118764638
 31
0.0
  0
LINE
  5
DD3
330
DC5
100
AcDbEntity
  8
2寸法線
 62
     0
370
    -2
100
AcDbLine
 10
203.8895631175094
 20
427.3027118764638
 30
0.0
 11
203.8895631175094
 21
364.3027118764639
 31
0.0
  0
SOLID
  5
DD4
330
DC5
100
AcDbEntity
  8
2寸法線
 62
     0
100
AcDbTrace
 10
203.4728964508427
 20
427.3027118764638
 30
0.0
 11
204.306229784176
 21
427.3027118764638
 31
0.0
 12
203.8895631175094
 22
429.8027118764638
 32
0.0
 13
203.8895631175094
 23
429.8027118764638
 33
0.0
  0
SOLID
  5
DD5
330
DC5
100
AcDbEntity
  8
2寸法線
 62
     0
100
AcDbTrace
 10
203.4728964508427
 20
364.3027118764639
 30
0.0
 11
204.306229784176
 21
364.3027118764639
 31
0.0
 12
203.8895631175094
 22
361.8027118764638
 32
0.0
 13
203.8895631175094
 23
361.8027118764638
 33
0.0
  0
MTEXT
  5
DD6
330
DC5
100
AcDbEntity
  8
2寸法線
 62
     0
100
AcDbMText
 10
202.0145631175095
 20
395.8027118764637
 30
0.0
 40
2.5
 41
0.0
 71
     5
 72
     1
  1
68
 11
0.0000000000000001
 21
1.0
 31
0.0
 73
     1
 44
1.0
1001
ACAD
1000
MTEXTBEGIN
1070
    73
1070
     1
1070
    44
1040
1.0
1070
    74
1070
     0
1000
MTEXTEND
  0
POINT
  5
DD7
330
DC5
100
AcDbEntity
  8
Defpoints
 62
     0
100
AcDbPoint
 10
131.2145909985225
 20
429.8027118764638
 30
0.0
  0
POINT
  5
DD8
330
DC5
100
AcDbEntity
  8
Defpoints
 62
     0
100
AcDbPoint
 10
131.2145909985225
 20
361.8027118764638
 30
0.0
  0
POINT
  5
DD9
330
DC5
100
AcDbEntity
  8
Defpoints
 62
     0
100
AcDbPoint
 10
203.8895631175094
 20
361.8027118764638
 30
0.0
  0
ENDBLK
  5
DC7
330
DC5
100
AcDbEntity
  8
0
100
AcDbBlockEnd
  0
BLOCK
  5
DE5
330
DE4
100
AcDbEntity
  8
0
100
AcDbBlockBegin
  2
*D19
 70
     1
 10
0.0
 20
0.0
 30
0.0
  3
*D19
  1

  0
LINE
  5
E19
330
DE4
100
AcDbEntity
  8
2寸法線
 62
     0
370
    -2
100
AcDbLine
 10
303.6087440225262
 20
467.8898217347032
 30
0.0
 11
303.6087440225262
 21
604.8733734373106
 31
0.0
  0
LINE
  5
E1A
330
DE4
100
AcDbEntity
  8
2寸法線
 62
     0
370
    -2
100
AcDbLine
 10
230.608835004402
 20
522.880088037352
 30
0.0
 11
230.608835004402
 21
604.8733734373106
 31
0.0
  0
LINE
  5
E1B
330
DE4
100
AcDbEntity
  8
2寸法線
 62
     0
370
    -2
100
AcDbLine
 10
301.1087440225262
 20
603.6233734373106
 30
0.0
 11
233.108835004402
 21
603.6233734373106
 31
0.0
  0
SOLID
  5
E1C
330
DE4
100
AcDbEntity
  8
2寸法線
 62
     0
100
AcDbTrace
 10
301.1087440225262
 20
604.0400401039772
 30
0.0
 11
301.1087440225262
 21
603.206706770644
 31
0.0
 12
303.6087440225262
 22
603.6233734373106
 32
0.0
 13
303.6087440225262
 23
603.6233734373106
 33
0.0
  0
SOLID
  5
E1D
330
DE4
100
AcDbEntity
  8
2寸法線
 62
     0
100
AcDbTrace
 10
233.108835004402
 20
604.0400401039772
 30
0.0
 11
233.108835004402
 21
603.206706770644
 31
0.0
 12
230.608835004402
 22
603.6233734373106
 32
0.0
 13
230.608835004402
 23
603.6233734373106
 33
0.0
  0
MTEXT
  5
E1E
330
DE4
100
AcDbEntity
  8
2寸法線
 62
     0
100
AcDbMText
 10
267.1087895134641
 20
605.4983734373106
 30
0.0
 40
2.5
 41
0.0
 71
     5
 72
     1
  1
73
 73
     1
 44
1.0
1001
ACAD
1000
MTEXTBEGIN
1070
    73
1070
     1
1070
    44
1040
1.0
1070
    74
1070
     0
1000
MTEXTEND
  0
POINT
  5
E1F
330
DE4
100
AcDbEntity
  8
Defpoints
 62
     0
100
AcDbPoint
 10
303.6087440225262
 20
467.2648217347032
 30
0.0
  0
POINT
  5
E20
330
DE4
100
AcDbEntity
  8
Defpoints
 62
     0
100
AcDbPoint
 10
230.608835004402
 20
522.255088037352
 30
0.0
  0
POINT
  5
E21
330
DE4
100
AcDbEntity
  8
Defpoints
 62
     0
100
AcDbPoint
 10
230.608835004402
 20
603.6233734373106
 30
0.0
  0
ENDBLK
  5
DE6
330
DE4
100
AcDbEntity
  8
0
100
AcDbBlockEnd
  0
BLOCK
  5
DFB
330
DFA
100
AcDbEntity
  8
0
100
AcDbBlockBegin
  2
*D20
 70
     1
 10
0.0
 20
0.0
 30
0.0
  3
*D20
  1

  0
LINE
  5
E22
330
DFA
100
AcDbEntity
  8
2寸法線
 62
     0
370
    -2
100
AcDbLine
 10
303.6087440225262
 20
466.6398217347031
 30
0.0
 11
303.6087440225262
 21
436.1649115566356
 31
0.0
  0
LINE
  5
E23
330
DFA
100
AcDbEntity
  8
2寸法線
 62
     0
370
    -2
100
AcDbLine
 10
235.608744022526
 20
469.6398217347031
 30
0.0
 11
235.608744022526
 21
436.1649115566356
 31
0.0
  0
LINE
  5
E24
330
DFA
100
AcDbEntity
  8
2寸法線
 62
     0
370
    -2
100
AcDbLine
 10
301.1087440225262
 20
437.4149115566356
 30
0.0
 11
238.108744022526
 21
437.4149115566356
 31
0.0
  0
SOLID
  5
E25
330
DFA
100
AcDbEntity
  8
2寸法線
 62
     0
100
AcDbTrace
 10
301.1087440225262
 20
437.8315782233021
 30
0.0
 11
301.1087440225262
 21
436.9982448899689
 31
0.0
 12
303.6087440225262
 22
437.4149115566356
 32
0.0
 13
303.6087440225262
 23
437.4149115566356
 33
0.0
  0
SOLID
  5
E26
330
DFA
100
AcDbEntity
  8
2寸法線
 62
     0
100
AcDbTrace
 10
238.108744022526
 20
437.8315782233021
 30
0.0
 11
238.108744022526
 21
436.9982448899689
 31
0.0
 12
235.608744022526
 22
437.4149115566356
 32
0.0
 13
235.608744022526
 23
437.4149115566356
 33
0.0
  0
MTEXT
  5
E27
330
DFA
100
AcDbEntity
  8
2寸法線
 62
     0
100
AcDbMText
 10
269.6087440225261
 20
439.2899115566356
 30
0.0
 40
2.5
 41
0.0
 71
     5
 72
     1
  1
68
 73
     1
 44
1.0
1001
ACAD
1000
MTEXTBEGIN
1070
    73
1070
     1
1070
    44
1040
1.0
1070
    74
1070
     0
1000
MTEXTEND
  0
POINT
  5
E28
330
DFA
100
AcDbEntity
  8
Defpoints
 62
     0
100
AcDbPoint
 10
303.6087440225262
 20
467.2648217347032
 30
0.0
  0
POINT
  5
E29
330
DFA
100
AcDbEntity
  8
Defpoints
 62
     0
100
AcDbPoint
 10
235.608744022526
 20
470.2648217347031
 30
0.0
  0
POINT
  5
E2A
330
DFA
100
AcDbEntity
  8
Defpoints
 62
     0
100
AcDbPoint
 10
235.608744022526
 20
437.4149115566356
 30
0.0
  0
ENDBLK
  5
DFC
330
DFA
100
AcDbEntity
  8
0
100
AcDbBlockEnd
  0
BLOCK
  5
E2D
330
E2C
100
AcDbEntity
  8
0
100
AcDbBlockBegin
  2
*D21
 70
     1
 10
0.0
 20
0.0
 30
0.0
  3
*D21
  1

  0
LINE
  5
E7A
330
E2C
100
AcDbEntity
  8
2寸法線
 62
     0
370
    -2
100
AcDbLine
 10
225.2131673579893
 20
210.9425324354137
 30
0.0
 11
225.2131673579893
 21
311.6064222500274
 31
0.0
  0
LINE
  5
E7B
330
E2C
100
AcDbEntity
  8
2寸法線
 62
     0
370
    -2
100
AcDbLine
 10
301.2131673579892
 20
286.7360697626883
 30
0.0
 11
301.2131673579892
 21
311.6064222500274
 31
0.0
  0
LINE
  5
E7C
330
E2C
100
AcDbEntity
  8
2寸法線
 62
     0
370
    -2
100
AcDbLine
 10
227.7131673579893
 20
310.3564222500275
 30
0.0
 11
298.7131673579892
 21
310.3564222500275
 31
0.0
  0
SOLID
  5
E7D
330
E2C
100
AcDbEntity
  8
2寸法線
 62
     0
100
AcDbTrace
 10
227.7131673579893
 20
310.7730889166941
 30
0.0
 11
227.7131673579893
 21
309.9397555833608
 31
0.0
 12
225.2131673579893
 22
310.3564222500275
 32
0.0
 13
225.2131673579893
 23
310.3564222500275
 33
0.0
  0
SOLID
  5
E7E
330
E2C
100
AcDbEntity
  8
2寸法線
 62
     0
100
AcDbTrace
 10
298.7131673579892
 20
310.7730889166941
 30
0.0
 11
298.7131673579892
 21
309.9397555833608
 31
0.0
 12
301.2131673579892
 22
310.3564222500275
 32
0.0
 13
301.2131673579892
 23
310.3564222500275
 33
0.0
  0
MTEXT
  5
E7F
330
E2C
100
AcDbEntity
  8
2寸法線
 62
     0
100
AcDbMText
 10
263.2131673579893
 20
312.2314222500274
 30
0.0
 40
2.5
 41
0.0
 71
     5
 72
     1
  1
76
 73
     1
 44
1.0
1001
ACAD
1000
MTEXTBEGIN
1070
    73
1070
     1
1070
    44
1040
1.0
1070
    74
1070
     0
1000
MTEXTEND
  0
POINT
  5
E80
330
E2C
100
AcDbEntity
  8
Defpoints
 62
     0
100
AcDbPoint
 10
225.2131673579893
 20
210.3175324354137
 30
0.0
  0
POINT
  5
E81
330
E2C
100
AcDbEntity
  8
Defpoints
 62
     0
100
AcDbPoint
 10
301.2131673579892
 20
286.1110697626883
 30
0.0
  0
POINT
  5
E82
330
E2C
100
AcDbEntity
  8
Defpoints
 62
     0
100
AcDbPoint
 10
301.2131673579892
 20
310.3564222500275
 30
0.0
  0
ENDBLK
  5
E2E
330
E2C
100
AcDbEntity
  8
0
100
AcDbBlockEnd
  0
BLOCK
  5
E3A
330
E39
100
AcDbEntity
  8
0
100
AcDbBlockBegin
  2
*D22
 70
     1
 10
0.0
 20
0.0
 30
0.0
  3
*D22
  1

  0
LINE
  5
E3C
330
E39
100
AcDbEntity
  8
2寸法線
 62
     0
370
    -2
100
AcDbLine
 10
124.466613479189
 20
122.0527208713991
 30
0.0
 11
207.9298271679159
 21
122.0527208713991
 31
0.0
  0
LINE
  5
E3D
330
E39
100
AcDbEntity
  8
2寸法線
 62
     0
370
    -2
100
AcDbLine
 10
124.4666134791891
 20
46.05272087139725
 30
0.0
 11
207.929827167916
 21
46.05272087139725
 31
0.0
  0
LINE
  5
E3E
330
E39
100
AcDbEntity
  8
2寸法線
 62
     0
370
    -2
100
AcDbLine
 10
206.6798271679159
 20
119.5527208713991
 30
0.0
 11
206.6798271679159
 21
48.55272087139725
 31
0.0
  0
SOLID
  5
E3F
330
E39
100
AcDbEntity
  8
2寸法線
 62
     0
100
AcDbTrace
 10
206.2631605012493
 20
119.5527208713991
 30
0.0
 11
207.0964938345826
 21
119.5527208713991
 31
0.0
 12
206.6798271679159
 22
122.0527208713991
 32
0.0
 13
206.6798271679159
 23
122.0527208713991
 33
0.0
  0
SOLID
  5
E40
330
E39
100
AcDbEntity
  8
2寸法線
 62
     0
100
AcDbTrace
 10
206.2631605012493
 20
48.55272087139725
 30
0.0
 11
207.0964938345826
 21
48.55272087139725
 31
0.0
 12
206.6798271679159
 22
46.05272087139725
 32
0.0
 13
206.6798271679159
 23
46.05272087139725
 33
0.0
  0
MTEXT
  5
E41
330
E39
100
AcDbEntity
  8
2寸法線
 62
     0
100
AcDbMText
 10
204.8048271679159
 20
84.05272087139811
 30
0.0
 40
2.5
 41
0.0
 71
     5
 72
     1
  1
76
 11
0.0000000000000001
 21
1.0
 31
0.0
 73
     1
 44
1.0
1001
ACAD
1000
MTEXTBEGIN
1070
    73
1070
     1
1070
    44
1040
1.0
1070
    74
1070
     0
1000
MTEXTEND
  0
POINT
  5
E42
330
E39
100
AcDbEntity
  8
Defpoints
 62
     0
100
AcDbPoint
 10
123.841613479189
 20
122.0527208713991
 30
0.0
  0
POINT
  5
E43
330
E39
100
AcDbEntity
  8
Defpoints
 62
     0
100
AcDbPoint
 10
123.8416134791891
 20
46.05272087139725
 30
0.0
  0
POINT
  5
E44
330
E39
100
AcDbEntity
  8
Defpoints
 62
     0
100
AcDbPoint
 10
206.6798271679159
 20
46.05272087139725
 30
0.0
  0
ENDBLK
  5
E3B
330
E39
100
AcDbEntity
  8
0
100
AcDbBlockEnd
  0
BLOCK
  5
E47
330
E46
100
AcDbEntity
  8
0
100
AcDbBlockBegin
  2
*D23
 70
     1
 10
0.0
 20
0.0
 30
0.0
  3
*D23
  1

  0
LINE
  5
E71
330
E46
100
AcDbEntity
  8
2寸法線
 62
     0
370
    -2
100
AcDbLine
 10
228.2131673579893
 20
159.9860697626883
 30
0.0
 11
228.2131673579893
 21
138.2739710709345
 31
0.0
  0
LINE
  5
E72
330
E46
100
AcDbEntity
  8
2寸法線
 62
     0
370
    -2
100
AcDbLine
 10
301.2131673579892
 20
156.9860697626883
 30
0.0
 11
301.2131673579892
 21
138.2739710709345
 31
0.0
  0
LINE
  5
E73
330
E46
100
AcDbEntity
  8
2寸法線
 62
     0
370
    -2
100
AcDbLine
 10
230.7131673579893
 20
139.5239710709345
 30
0.0
 11
298.7131673579892
 21
139.5239710709345
 31
0.0
  0
SOLID
  5
E74
330
E46
100
AcDbEntity
  8
2寸法線
 62
     0
100
AcDbTrace
 10
230.7131673579893
 20
139.9406377376012
 30
0.0
 11
230.7131673579893
 21
139.1073044042677
 31
0.0
 12
228.2131673579893
 22
139.5239710709345
 32
0.0
 13
228.2131673579893
 23
139.5239710709345
 33
0.0
  0
SOLID
  5
E75
330
E46
100
AcDbEntity
  8
2寸法線
 62
     0
100
AcDbTrace
 10
298.7131673579892
 20
139.9406377376012
 30
0.0
 11
298.7131673579892
 21
139.1073044042677
 31
0.0
 12
301.2131673579892
 22
139.5239710709345
 32
0.0
 13
301.2131673579892
 23
139.5239710709345
 33
0.0
  0
MTEXT
  5
E76
330
E46
100
AcDbEntity
  8
2寸法線
 62
     0
100
AcDbMText
 10
264.7131673579893
 20
141.3989710709345
 30
0.0
 40
2.5
 41
0.0
 71
     5
 72
     1
  1
73
 73
     1
 44
1.0
1001
ACAD
1000
MTEXTBEGIN
1070
    73
1070
     1
1070
    44
1040
1.0
1070
    74
1070
     0
1000
MTEXTEND
  0
POINT
  5
E77
330
E46
100
AcDbEntity
  8
Defpoints
 62
     0
100
AcDbPoint
 10
228.2131673579893
 20
160.6110697626883
 30
0.0
  0
POINT
  5
E78
330
E46
100
AcDbEntity
  8
Defpoints
 62
     0
100
AcDbPoint
 10
301.2131673579892
 20
157.6110697626883
 30
0.0
  0
POINT
  5
E79
330
E46
100
AcDbEntity
  8
Defpoints
 62
     0
100
AcDbPoint
 10
301.2131673579892
 20
139.5239710709345
 30
0.0
  0
ENDBLK
  5
E48
330
E46
100
AcDbEntity
  8
0
100
AcDbBlockEnd
  0
BLOCK
  5
E54
330
E53
100
AcDbEntity
  8
0
100
AcDbBlockBegin
  2
*D24
 70
     1
 10
0.0
 20
0.0
 30
0.0
  3
*D24
  1

  0
LINE
  5
E56
330
E53
100
AcDbEntity
  8
2寸法線
 62
     0
370
    -2
100
AcDbLine
 10
124.466613479189
 20
119.0527208713974
 30
0.0
 11
195.2814331006294
 21
119.0527208713974
 31
0.0
  0
LINE
  5
E57
330
E53
100
AcDbEntity
  8
2寸法線
 62
     0
370
    -2
100
AcDbLine
 10
124.4666134791891
 20
46.05272087139725
 30
0.0
 11
195.2814331006294
 21
46.05272087139725
 31
0.0
  0
LINE
  5
E58
330
E53
100
AcDbEntity
  8
2寸法線
 62
     0
370
    -2
100
AcDbLine
 10
194.0314331006294
 20
116.5527208713974
 30
0.0
 11
194.0314331006294
 21
48.55272087139725
 31
0.0
  0
SOLID
  5
E59
330
E53
100
AcDbEntity
  8
2寸法線
 62
     0
100
AcDbTrace
 10
193.6147664339626
 20
116.5527208713974
 30
0.0
 11
194.4480997672961
 21
116.5527208713974
 31
0.0
 12
194.0314331006294
 22
119.0527208713974
 32
0.0
 13
194.0314331006294
 23
119.0527208713974
 33
0.0
  0
SOLID
  5
E5A
330
E53
100
AcDbEntity
  8
2寸法線
 62
     0
100
AcDbTrace
 10
193.6147664339628
 20
48.55272087139725
 30
0.0
 11
194.4480997672961
 21
48.55272087139725
 31
0.0
 12
194.0314331006294
 22
46.05272087139725
 32
0.0
 13
194.0314331006294
 23
46.05272087139725
 33
0.0
  0
MTEXT
  5
E5B
330
E53
100
AcDbEntity
  8
2寸法線
 62
     0
100
AcDbMText
 10
192.1564331006294
 20
82.55272087139728
 30
0.0
 40
2.5
 41
0.0
 71
     5
 72
     1
  1
73
 11
0.0000000000000001
 21
1.0
 31
0.0
 73
     1
 44
1.0
1001
ACAD
1000
MTEXTBEGIN
1070
    73
1070
     1
1070
    44
1040
1.0
1070
    74
1070
     0
1000
MTEXTEND
  0
POINT
  5
E5C
330
E53
100
AcDbEntity
  8
Defpoints
 62
     0
100
AcDbPoint
 10
123.841613479189
 20
119.0527208713974
 30
0.0
  0
POINT
  5
E5D
330
E53
100
AcDbEntity
  8
Defpoints
 62
     0
100
AcDbPoint
 10
123.8416134791891
 20
46.05272087139725
 30
0.0
  0
POINT
  5
E5E
330
E53
100
AcDbEntity
  8
Defpoints
 62
     0
100
AcDbPoint
 10
194.0314331006294
 20
46.05272087139725
 30
0.0
  0
ENDBLK
  5
E55
330
E53
100
AcDbEntity
  8
0
100
AcDbBlockEnd
  0
BLOCK
  5
ECE
330
ECD
100
AcDbEntity
  8
0
100
AcDbBlockBegin
  2
*D25
 70
     1
 10
0.0
 20
0.0
 30
0.0
  3
*D25
  1

  0
LINE
  5
ECF
330
ECD
100
AcDbEntity
  8
2寸法線
 62
     0
370
    -2
100
AcDbLine
 10
479.8978431672715
 20
419.4268393517002
 30
0.0
 11
467.0664938986891
 21
419.4268393517002
 31
0.0
  0
LINE
  5
ED0
330
ECD
100
AcDbEntity
  8
2寸法線
 62
     0
370
    -2
100
AcDbLine
 10
479.8978431672716
 20
484.9268393517002
 30
0.0
 11
467.0664938986891
 21
484.9268393517002
 31
0.0
  0
LINE
  5
ED1
330
ECD
100
AcDbEntity
  8
2寸法線
 62
     0
370
    -2
100
AcDbLine
 10
468.3164938986891
 20
421.9268393517002
 30
0.0
 11
468.3164938986891
 21
482.4268393517002
 31
0.0
  0
SOLID
  5
ED2
330
ECD
100
AcDbEntity
  8
2寸法線
 62
     0
100
AcDbTrace
 10
467.8998272320225
 20
421.9268393517002
 30
0.0
 11
468.7331605653558
 21
421.9268393517002
 31
0.0
 12
468.3164938986891
 22
419.4268393517002
 32
0.0
 13
468.3164938986891
 23
419.4268393517002
 33
0.0
  0
SOLID
  5
ED3
330
ECD
100
AcDbEntity
  8
2寸法線
 62
     0
100
AcDbTrace
 10
467.8998272320225
 20
482.4268393517002
 30
0.0
 11
468.7331605653558
 21
482.4268393517002
 31
0.0
 12
468.3164938986891
 22
484.9268393517002
 32
0.0
 13
468.3164938986891
 23
484.9268393517002
 33
0.0
  0
MTEXT
  5
ED4
330
ECD
100
AcDbEntity
  8
2寸法線
 62
     0
100
AcDbMText
 10
466.4414938986891
 20
452.1768393516999
 30
0.0
 40
2.5
 41
0.0
 71
     5
 72
     1
  1
\A1;65.5
 11
0.0000000000000001
 21
1.0
 31
0.0
 73
     1
 44
1.0
1001
ACAD
1000
MTEXTBEGIN
1070
    73
1070
     1
1070
    44
1040
1.0
1070
    74
1070
     0
1000
MTEXTEND
  0
POINT
  5
ED5
330
ECD
100
AcDbEntity
  8
Defpoints
 62
     0
100
AcDbPoint
 10
480.5228431672714
 20
419.4268393517002
 30
0.0
  0
POINT
  5
ED6
330
ECD
100
AcDbEntity
  8
Defpoints
 62
     0
100
AcDbPoint
 10
480.5228431672715
 20
484.9268393517002
 30
0.0
  0
POINT
  5
ED7
330
ECD
100
AcDbEntity
  8
Defpoints
 62
     0
100
AcDbPoint
 10
468.3164938986891
 20
484.9268393517002
 30
0.0
  0
ENDBLK
  5
ED8
330
ECD
100
AcDbEntity
  8
0
100
AcDbBlockEnd
  0
BLOCK
  5
EDA
330
ED9
100
AcDbEntity
  8
0
100
AcDbBlockBegin
  2
*D26
 70
     1
 10
0.0
 20
0.0
 30
0.0
  3
*D26
  1

  0
LINE
  5
EDB
330
ED9
100
AcDbEntity
  8
2寸法線
 62
     0
370
    -2
100
AcDbLine
 10
556.814691954813
 20
487.4268393517001
 30
0.0
 11
540.7982334465905
 21
487.4268393517001
 31
0.0
  0
LINE
  5
EDC
330
ED9
100
AcDbEntity
  8
2寸法線
 62
     0
370
    -2
100
AcDbLine
 10
556.814691954813
 20
419.4268393517002
 30
0.0
 11
540.7982334465905
 21
419.4268393517002
 31
0.0
  0
LINE
  5
EDD
330
ED9
100
AcDbEntity
  8
2寸法線
 62
     0
370
    -2
100
AcDbLine
 10
542.0482334465905
 20
484.9268393517002
 30
0.0
 11
542.0482334465905
 21
421.9268393517002
 31
0.0
  0
SOLID
  5
EDE
330
ED9
100
AcDbEntity
  8
2寸法線
 62
     0
100
AcDbTrace
 10
541.6315667799239
 20
484.9268393517002
 30
0.0
 11
542.4649001132571
 21
484.9268393517002
 31
0.0
 12
542.0482334465905
 22
487.4268393517001
 32
0.0
 13
542.0482334465905
 23
487.4268393517001
 33
0.0
  0
SOLID
  5
EDF
330
ED9
100
AcDbEntity
  8
2寸法線
 62
     0
100
AcDbTrace
 10
541.6315667799239
 20
421.9268393517002
 30
0.0
 11
542.4649001132571
 21
421.9268393517002
 31
0.0
 12
542.0482334465905
 22
419.4268393517002
 32
0.0
 13
542.0482334465905
 23
419.4268393517002
 33
0.0
  0
MTEXT
  5
EE0
330
ED9
100
AcDbEntity
  8
2寸法線
 62
     0
100
AcDbMText
 10
540.1732334465905
 20
453.4268393516999
 30
0.0
 40
2.5
 41
0.0
 71
     5
 72
     1
  1
\A1;68
 11
0.0000000000000001
 21
1.0
 31
0.0
 73
     1
 44
1.0
1001
ACAD
1000
MTEXTBEGIN
1070
    73
1070
     1
1070
    44
1040
1.0
1070
    74
1070
     0
1000
MTEXTEND
  0
POINT
  5
EE1
330
ED9
100
AcDbEntity
  8
Defpoints
 62
     0
100
AcDbPoint
 10
557.439691954813
 20
487.4268393517001
 30
0.0
  0
POINT
  5
EE2
330
ED9
100
AcDbEntity
  8
Defpoints
 62
     0
100
AcDbPoint
 10
557.439691954813
 20
419.4268393517002
 30
0.0
  0
POINT
  5
EE3
330
ED9
100
AcDbEntity
  8
Defpoints
 62
     0
100
AcDbPoint
 10
542.0482334465905
 20
419.4268393517002
 30
0.0
  0
ENDBLK
  5
EE4
330
ED9
100
AcDbEntity
  8
0
100
AcDbBlockEnd
  0
BLOCK
  5
EE6
330
EE5
100
AcDbEntity
  8
0
100
AcDbBlockBegin
  2
*D27
 70
     1
 10
0.0
 20
0.0
 30
0.0
  3
*D27
  1

  0
LINE
  5
EE7
330
EE5
100
AcDbEntity
  8
2寸法線
 62
     0
370
    -2
100
AcDbLine
 10
520.5228431672714
 20
445.5163054457673
 30
0.0
 11
520.5228431672714
 21
433.7226321645012
 31
0.0
  0
LINE
  5
EE8
330
EE5
100
AcDbEntity
  8
2寸法線
 62
     0
370
    -2
100
AcDbLine
 10
440.5228431672713
 20
445.5163054457673
 30
0.0
 11
440.5228431672713
 21
433.7226321645012
 31
0.0
  0
LINE
  5
EE9
330
EE5
100
AcDbEntity
  8
2寸法線
 62
     0
370
    -2
100
AcDbLine
 10
518.0228431672714
 20
434.9726321645012
 30
0.0
 11
443.0228431672714
 21
434.9726321645012
 31
0.0
  0
SOLID
  5
EEA
330
EE5
100
AcDbEntity
  8
2寸法線
 62
     0
100
AcDbTrace
 10
518.0228431672714
 20
435.3892988311678
 30
0.0
 11
518.0228431672714
 21
434.5559654978345
 31
0.0
 12
520.5228431672714
 22
434.9726321645012
 32
0.0
 13
520.5228431672714
 23
434.9726321645012
 33
0.0
  0
SOLID
  5
EEB
330
EE5
100
AcDbEntity
  8
2寸法線
 62
     0
100
AcDbTrace
 10
443.0228431672714
 20
435.3892988311678
 30
0.0
 11
443.0228431672714
 21
434.5559654978345
 31
0.0
 12
440.5228431672713
 22
434.9726321645012
 32
0.0
 13
440.5228431672713
 23
434.9726321645012
 33
0.0
  0
MTEXT
  5
EEC
330
EE5
100
AcDbEntity
  8
2寸法線
 62
     0
100
AcDbMText
 10
480.5228431672714
 20
436.8476321645012
 30
0.0
 40
2.5
 41
0.0
 71
     5
 72
     1
  1
\A1;80
 73
     1
 44
1.0
1001
ACAD
1000
MTEXTBEGIN
1070
    73
1070
     1
1070
    44
1040
1.0
1070
    74
1070
     0
1000
MTEXTEND
  0
POINT
  5
EED
330
EE5
100
AcDbEntity
  8
Defpoints
 62
     0
100
AcDbPoint
 10
520.5228431672714
 20
446.1413054457673
 30
0.0
  0
POINT
  5
EEE
330
EE5
100
AcDbEntity
  8
Defpoints
 62
     0
100
AcDbPoint
 10
440.5228431672713
 20
446.1413054457673
 30
0.0
  0
POINT
  5
EEF
330
EE5
100
AcDbEntity
  8
Defpoints
 62
     0
100
AcDbPoint
 10
440.5228431672713
 20
434.9726321645012
 30
0.0
  0
ENDBLK
  5
EF0
330
EE5
100
AcDbEntity
  8
0
100
AcDbBlockEnd
  0
BLOCK
  5
EF2
330
EF1
100
AcDbEntity
  8
0
100
AcDbBlockBegin
  2
*D28
 70
     1
 10
0.0
 20
0.0
 30
0.0
  3
*D28
  1

  0
LINE
  5
EF3
330
EF1
100
AcDbEntity
  8
2寸法線
 62
     0
370
    -2
100
AcDbLine
 10
442.9662600246461
 20
250.2165985781489
 30
0.0
 11
442.9662600246461
 21
237.524266160058
 31
0.0
  0
LINE
  5
EF4
330
EF1
100
AcDbEntity
  8
2寸法線
 62
     0
370
    -2
100
AcDbLine
 10
527.966260024646
 20
250.2165985781489
 30
0.0
 11
527.966260024646
 21
237.524266160058
 31
0.0
  0
LINE
  5
EF5
330
EF1
100
AcDbEntity
  8
2寸法線
 62
     0
370
    -2
100
AcDbLine
 10
445.4662600246462
 20
238.774266160058
 30
0.0
 11
525.4662600246461
 21
238.774266160058
 31
0.0
  0
SOLID
  5
EF6
330
EF1
100
AcDbEntity
  8
2寸法線
 62
     0
100
AcDbTrace
 10
445.4662600246462
 20
239.1909328267247
 30
0.0
 11
445.4662600246462
 21
238.3575994933913
 31
0.0
 12
442.9662600246461
 22
238.774266160058
 32
0.0
 13
442.9662600246461
 23
238.774266160058
 33
0.0
  0
SOLID
  5
EF7
330
EF1
100
AcDbEntity
  8
2寸法線
 62
     0
100
AcDbTrace
 10
525.4662600246461
 20
239.1909328267247
 30
0.0
 11
525.4662600246461
 21
238.3575994933913
 31
0.0
 12
527.966260024646
 22
238.774266160058
 32
0.0
 13
527.966260024646
 23
238.774266160058
 33
0.0
  0
MTEXT
  5
EF8
330
EF1
100
AcDbEntity
  8
2寸法線
 62
     0
100
AcDbMText
 10
485.4662600246461
 20
240.649266160058
 30
0.0
 40
2.5
 41
0.0
 71
     5
 72
     1
  1
\A1;85
 73
     1
 44
1.0
1001
ACAD
1000
MTEXTBEGIN
1070
    73
1070
     1
1070
    44
1040
1.0
1070
    74
1070
     0
1000
MTEXTEND
  0
POINT
  5
EF9
330
EF1
100
AcDbEntity
  8
Defpoints
 62
     0
100
AcDbPoint
 10
442.9662600246461
 20
250.8415985781489
 30
0.0
  0
POINT
  5
EFA
330
EF1
100
AcDbEntity
  8
Defpoints
 62
     0
100
AcDbPoint
 10
527.966260024646
 20
250.8415985781489
 30
0.0
  0
POINT
  5
EFB
330
EF1
100
AcDbEntity
  8
Defpoints
 62
     0
100
AcDbPoint
 10
527.966260024646
 20
238.774266160058
 30
0.0
  0
ENDBLK
  5
EFC
330
EF1
100
AcDbEntity
  8
0
100
AcDbBlockEnd
  0
BLOCK
  5
EFE
330
EFD
100
AcDbEntity
  8
0
100
AcDbBlockBegin
  2
*D29
 70
     1
 10
0.0
 20
0.0
 30
0.0
  3
*D29
  1

  0
LINE
  5
EFF
330
EFD
100
AcDbEntity
  8
2寸法線
 62
     0
370
    -2
100
AcDbLine
 10
486.0412600226466
 20
295.3021313297687
 30
0.0
 11
486.6662600226474
 21
295.3021313297687
 31
0.0
  0
LINE
  5
F00
330
EFD
100
AcDbEntity
  8
2寸法線
 62
     0
370
    -2
100
AcDbLine
 10
484.8412600246465
 20
227.3021313297686
 30
0.0
 11
484.1662600226474
 21
227.3021313297686
 31
0.0
  0
LINE
  5
F01
330
EFD
100
AcDbEntity
  8
2寸法線
 62
     0
370
    -2
100
AcDbLine
 10
485.4162600226474
 20
292.8021313297687
 30
0.0
 11
485.4162600226474
 21
229.8021313297686
 31
0.0
  0
SOLID
  5
F02
330
EFD
100
AcDbEntity
  8
2寸法線
 62
     0
100
AcDbTrace
 10
484.9995933559807
 20
292.8021313297687
 30
0.0
 11
485.832926689314
 21
292.8021313297687
 31
0.0
 12
485.4162600226474
 22
295.3021313297687
 32
0.0
 13
485.4162600226474
 23
295.3021313297687
 33
0.0
  0
SOLID
  5
F03
330
EFD
100
AcDbEntity
  8
2寸法線
 62
     0
100
AcDbTrace
 10
484.9995933559807
 20
229.8021313297686
 30
0.0
 11
485.832926689314
 21
229.8021313297686
 31
0.0
 12
485.4162600226474
 22
227.3021313297686
 32
0.0
 13
485.4162600226474
 23
227.3021313297686
 33
0.0
  0
MTEXT
  5
F04
330
EFD
100
AcDbEntity
  8
2寸法線
 62
     0
100
AcDbMText
 10
483.5412600226473
 20
261.3021313297684
 30
0.0
 40
2.5
 41
0.0
 71
     5
 72
     1
  1
\A1;68
 11
0.0000000000000001
 21
1.0
 31
0.0
 73
     1
 44
1.0
1001
ACAD
1000
MTEXTBEGIN
1070
    73
1070
     1
1070
    44
1040
1.0
1070
    74
1070
     0
1000
MTEXTEND
  0
POINT
  5
F05
330
EFD
100
AcDbEntity
  8
Defpoints
 62
     0
100
AcDbPoint
 10
485.4162600226467
 20
295.3021313297687
 30
0.0
  0
POINT
  5
F06
330
EFD
100
AcDbEntity
  8
Defpoints
 62
     0
100
AcDbPoint
 10
485.4662600246465
 20
227.3021313297686
 30
0.0
  0
POINT
  5
F07
330
EFD
100
AcDbEntity
  8
Defpoints
 62
     0
100
AcDbPoint
 10
485.4162600226474
 20
227.3021313297686
 30
0.0
  0
ENDBLK
  5
F08
330
EFD
100
AcDbEntity
  8
0
100
AcDbBlockEnd
  0
BLOCK
  5
F0A
330
F09
100
AcDbEntity
  8
0
100
AcDbBlockBegin
  2
*D30
 70
     1
 10
0.0
 20
0.0
 30
0.0
  3
*D30
  1

  0
LINE
  5
F0B
330
F09
100
AcDbEntity
  8
2寸法線
 62
     0
370
    -2
100
AcDbLine
 10
568.8693387318096
 20
297.8021313297687
 30
0.0
 11
552.5091055550347
 21
297.8021313297687
 31
0.0
  0
LINE
  5
F0C
330
F09
100
AcDbEntity
  8
2寸法線
 62
     0
370
    -2
100
AcDbLine
 10
568.8693387318096
 20
224.8021313297686
 30
0.0
 11
552.5091055550348
 21
224.8021313297686
 31
0.0
  0
LINE
  5
F0D
330
F09
100
AcDbEntity
  8
2寸法線
 62
     0
370
    -2
100
AcDbLine
 10
553.7591055550347
 20
295.3021313297687
 30
0.0
 11
553.7591055550348
 21
227.3021313297686
 31
0.0
  0
SOLID
  5
F0E
330
F09
100
AcDbEntity
  8
2寸法線
 62
     0
100
AcDbTrace
 10
553.342438888368
 20
295.3021313297687
 30
0.0
 11
554.1757722217012
 21
295.3021313297687
 31
0.0
 12
553.7591055550347
 22
297.8021313297687
 32
0.0
 13
553.7591055550347
 23
297.8021313297687
 33
0.0
  0
SOLID
  5
F0F
330
F09
100
AcDbEntity
  8
2寸法線
 62
     0
100
AcDbTrace
 10
553.3424388883681
 20
227.3021313297686
 30
0.0
 11
554.1757722217014
 21
227.3021313297686
 31
0.0
 12
553.7591055550348
 22
224.8021313297686
 32
0.0
 13
553.7591055550348
 23
224.8021313297686
 33
0.0
  0
MTEXT
  5
F10
330
F09
100
AcDbEntity
  8
2寸法線
 62
     0
100
AcDbMText
 10
551.8841055550346
 20
261.3021313297684
 30
0.0
 40
2.5
 41
0.0
 71
     5
 72
     1
  1
\A1;73
 11
0.0000000000000001
 21
1.0
 31
0.0
 73
     1
 44
1.0
1001
ACAD
1000
MTEXTBEGIN
1070
    73
1070
     1
1070
    44
1040
1.0
1070
    74
1070
     0
1000
MTEXTEND
  0
POINT
  5
F11
330
F09
100
AcDbEntity
  8
Defpoints
 62
     0
100
AcDbPoint
 10
569.4943387318097
 20
297.8021313297687
 30
0.0
  0
POINT
  5
F12
330
F09
100
AcDbEntity
  8
Defpoints
 62
     0
100
AcDbPoint
 10
569.4943387318097
 20
224.8021313297686
 30
0.0
  0
POINT
  5
F13
330
F09
100
AcDbEntity
  8
Defpoints
 62
     0
100
AcDbPoint
 10
553.7591055550348
 20
224.8021313297686
 30
0.0
  0
ENDBLK
  5
F14
330
F09
100
AcDbEntity
  8
0
100
AcDbBlockEnd
  0
BLOCK
  5
FB6
330
FB5
100
AcDbEntity
  8
0
100
AcDbBlockBegin
  2
*D32
 70
     1
 10
0.0
 20
0.0
 30
0.0
  3
*D32
  1

  0
LINE
  5
1033
330
FB5
100
AcDbEntity
  8
2寸法線
 62
     0
370
    -2
100
AcDbLine
 10
465.0522867210918
 20
354.5585239247693
 30
0.0
 11
452.2209374525099
 21
354.5585239247693
 31
0.0
  0
LINE
  5
1034
330
FB5
100
AcDbEntity
  8
2寸法線
 62
     0
370
    -2
100
AcDbLine
 10
465.0522867210919
 20
420.0585239247693
 30
0.0
 11
452.2209374525099
 21
420.0585239247693
 31
0.0
  0
LINE
  5
1035
330
FB5
100
AcDbEntity
  8
2寸法線
 62
     0
370
    -2
100
AcDbLine
 10
453.47093745251
 20
357.0585239247693
 30
0.0
 11
453.4709374525099
 21
417.5585239247693
 31
0.0
  0
SOLID
  5
1036
330
FB5
100
AcDbEntity
  8
2寸法線
 62
     0
100
AcDbTrace
 10
453.0542707858432
 20
357.0585239247693
 30
0.0
 11
453.8876041191766
 21
357.0585239247693
 31
0.0
 12
453.47093745251
 22
354.5585239247693
 32
0.0
 13
453.47093745251
 23
354.5585239247693
 33
0.0
  0
SOLID
  5
1037
330
FB5
100
AcDbEntity
  8
2寸法線
 62
     0
100
AcDbTrace
 10
453.0542707858432
 20
417.5585239247693
 30
0.0
 11
453.8876041191766
 21
417.5585239247693
 31
0.0
 12
453.4709374525099
 22
420.0585239247693
 32
0.0
 13
453.4709374525099
 23
420.0585239247693
 33
0.0
  0
MTEXT
  5
1038
330
FB5
100
AcDbEntity
  8
2寸法線
 62
     0
100
AcDbMText
 10
451.5959374525099
 20
387.3085239247691
 30
0.0
 40
2.5
 41
0.0
 71
     5
 72
     1
  1
65.5
 11
0.0000000000000001
 21
1.0
 31
0.0
 73
     1
 44
1.0
1001
ACAD
1000
MTEXTBEGIN
1070
    73
1070
     1
1070
    44
1040
1.0
1070
    74
1070
     0
1000
MTEXTEND
  0
POINT
  5
1039
330
FB5
100
AcDbEntity
  8
Defpoints
 62
     0
100
AcDbPoint
 10
465.6772867210918
 20
354.5585239247693
 30
0.0
  0
POINT
  5
103A
330
FB5
100
AcDbEntity
  8
Defpoints
 62
     0
100
AcDbPoint
 10
465.6772867210919
 20
420.0585239247693
 30
0.0
  0
POINT
  5
103B
330
FB5
100
AcDbEntity
  8
Defpoints
 62
     0
100
AcDbPoint
 10
453.4709374525099
 20
420.0585239247693
 30
0.0
  0
ENDBLK
  5
FB7
330
FB5
100
AcDbEntity
  8
0
100
AcDbBlockEnd
  0
BLOCK
  5
FC2
330
FC1
100
AcDbEntity
  8
0
100
AcDbBlockBegin
  2
*D33
 70
     1
 10
0.0
 20
0.0
 30
0.0
  3
*D33
  1

  0
LINE
  5
103C
330
FC1
100
AcDbEntity
  8
2寸法線
 62
     0
370
    -2
100
AcDbLine
 10
541.9691355086333
 20
422.5585239247693
 30
0.0
 11
525.9526770004113
 21
422.5585239247693
 31
0.0
  0
LINE
  5
103D
330
FC1
100
AcDbEntity
  8
2寸法線
 62
     0
370
    -2
100
AcDbLine
 10
541.9691355086333
 20
354.5585239247693
 30
0.0
 11
525.9526770004113
 21
354.5585239247693
 31
0.0
  0
LINE
  5
103E
330
FC1
100
AcDbEntity
  8
2寸法線
 62
     0
370
    -2
100
AcDbLine
 10
527.2026770004113
 20
420.0585239247693
 30
0.0
 11
527.2026770004113
 21
357.0585239247693
 31
0.0
  0
SOLID
  5
103F
330
FC1
100
AcDbEntity
  8
2寸法線
 62
     0
100
AcDbTrace
 10
526.7860103337446
 20
420.0585239247693
 30
0.0
 11
527.6193436670779
 21
420.0585239247693
 31
0.0
 12
527.2026770004113
 22
422.5585239247693
 32
0.0
 13
527.2026770004113
 23
422.5585239247693
 33
0.0
  0
SOLID
  5
1040
330
FC1
100
AcDbEntity
  8
2寸法線
 62
     0
100
AcDbTrace
 10
526.7860103337446
 20
357.0585239247693
 30
0.0
 11
527.6193436670779
 21
357.0585239247693
 31
0.0
 12
527.2026770004113
 22
354.5585239247693
 32
0.0
 13
527.2026770004113
 23
354.5585239247693
 33
0.0
  0
MTEXT
  5
1041
330
FC1
100
AcDbEntity
  8
2寸法線
 62
     0
100
AcDbMText
 10
525.3276770004113
 20
388.5585239247691
 30
0.0
 40
2.5
 41
0.0
 71
     5
 72
     1
  1
68
 11
0.0000000000000001
 21
1.0
 31
0.0
 73
     1
 44
1.0
1001
ACAD
1000
MTEXTBEGIN
1070
    73
1070
     1
1070
    44
1040
1.0
1070
    74
1070
     0
1000
MTEXTEND
  0
POINT
  5
1042
330
FC1
100
AcDbEntity
  8
Defpoints
 62
     0
100
AcDbPoint
 10
542.5941355086333
 20
422.5585239247693
 30
0.0
  0
POINT
  5
1043
330
FC1
100
AcDbEntity
  8
Defpoints
 62
     0
100
AcDbPoint
 10
542.5941355086333
 20
354.5585239247693
 30
0.0
  0
POINT
  5
1044
330
FC1
100
AcDbEntity
  8
Defpoints
 62
     0
100
AcDbPoint
 10
527.2026770004113
 20
354.5585239247693
 30
0.0
  0
ENDBLK
  5
FC3
330
FC1
100
AcDbEntity
  8
0
100
AcDbBlockEnd
  0
BLOCK
  5
FCE
330
FCD
100
AcDbEntity
  8
0
100
AcDbBlockBegin
  2
*D34
 70
     1
 10
0.0
 20
0.0
 30
0.0
  3
*D34
  1

  0
LINE
  5
1045
330
FCD
100
AcDbEntity
  8
2寸法線
 62
     0
370
    -2
100
AcDbLine
 10
505.6772867210916
 20
380.6479900188365
 30
0.0
 11
505.6772867210916
 21
368.8543167375704
 31
0.0
  0
LINE
  5
1046
330
FCD
100
AcDbEntity
  8
2寸法線
 62
     0
370
    -2
100
AcDbLine
 10
425.6772867210917
 20
380.6479900188365
 30
0.0
 11
425.6772867210917
 21
368.8543167375704
 31
0.0
  0
LINE
  5
1047
330
FCD
100
AcDbEntity
  8
2寸法線
 62
     0
370
    -2
100
AcDbLine
 10
503.1772867210917
 20
370.1043167375703
 30
0.0
 11
428.1772867210917
 21
370.1043167375703
 31
0.0
  0
SOLID
  5
1048
330
FCD
100
AcDbEntity
  8
2寸法線
 62
     0
100
AcDbTrace
 10
503.1772867210917
 20
370.520983404237
 30
0.0
 11
503.1772867210917
 21
369.6876500709036
 31
0.0
 12
505.6772867210916
 22
370.1043167375703
 32
0.0
 13
505.6772867210916
 23
370.1043167375703
 33
0.0
  0
SOLID
  5
1049
330
FCD
100
AcDbEntity
  8
2寸法線
 62
     0
100
AcDbTrace
 10
428.1772867210917
 20
370.520983404237
 30
0.0
 11
428.1772867210917
 21
369.6876500709036
 31
0.0
 12
425.6772867210917
 22
370.1043167375703
 32
0.0
 13
425.6772867210917
 23
370.1043167375703
 33
0.0
  0
MTEXT
  5
104A
330
FCD
100
AcDbEntity
  8
2寸法線
 62
     0
100
AcDbMText
 10
465.6772867210917
 20
371.9793167375704
 30
0.0
 40
2.5
 41
0.0
 71
     5
 72
     1
  1
80
 73
     1
 44
1.0
1001
ACAD
1000
MTEXTBEGIN
1070
    73
1070
     1
1070
    44
1040
1.0
1070
    74
1070
     0
1000
MTEXTEND
  0
POINT
  5
104B
330
FCD
100
AcDbEntity
  8
Defpoints
 62
     0
100
AcDbPoint
 10
505.6772867210916
 20
381.2729900188365
 30
0.0
  0
POINT
  5
104C
330
FCD
100
AcDbEntity
  8
Defpoints
 62
     0
100
AcDbPoint
 10
425.6772867210917
 20
381.2729900188365
 30
0.0
  0
POINT
  5
104D
330
FCD
100
AcDbEntity
  8
Defpoints
 62
     0
100
AcDbPoint
 10
425.6772867210917
 20
370.1043167375703
 30
0.0
  0
ENDBLK
  5
FCF
330
FCD
100
AcDbEntity
  8
0
100
AcDbBlockEnd
  0
BLOCK
  5
FDA
330
FD9
100
AcDbEntity
  8
0
100
AcDbBlockBegin
  2
*D35
 70
     1
 10
0.0
 20
0.0
 30
0.0
  3
*D35
  1

  0
LINE
  5
104E
330
FD9
100
AcDbEntity
  8
2寸法線
 62
     0
370
    -2
100
AcDbLine
 10
428.1207035784665
 20
185.3482831512181
 30
0.0
 11
428.1207035784665
 21
172.6559507331271
 31
0.0
  0
LINE
  5
104F
330
FD9
100
AcDbEntity
  8
2寸法線
 62
     0
370
    -2
100
AcDbLine
 10
513.1207035784663
 20
185.348283151218
 30
0.0
 11
513.1207035784663
 21
172.6559507331271
 31
0.0
  0
LINE
  5
1050
330
FD9
100
AcDbEntity
  8
2寸法線
 62
     0
370
    -2
100
AcDbLine
 10
430.6207035784665
 20
173.9059507331271
 30
0.0
 11
510.6207035784664
 21
173.9059507331271
 31
0.0
  0
SOLID
  5
1051
330
FD9
100
AcDbEntity
  8
2寸法線
 62
     0
100
AcDbTrace
 10
430.6207035784665
 20
174.3226173997938
 30
0.0
 11
430.6207035784665
 21
173.4892840664605
 31
0.0
 12
428.1207035784665
 22
173.9059507331271
 32
0.0
 13
428.1207035784665
 23
173.9059507331271
 33
0.0
  0
SOLID
  5
1052
330
FD9
100
AcDbEntity
  8
2寸法線
 62
     0
100
AcDbTrace
 10
510.6207035784664
 20
174.3226173997938
 30
0.0
 11
510.6207035784664
 21
173.4892840664605
 31
0.0
 12
513.1207035784663
 22
173.9059507331271
 32
0.0
 13
513.1207035784663
 23
173.9059507331271
 33
0.0
  0
MTEXT
  5
1053
330
FD9
100
AcDbEntity
  8
2寸法線
 62
     0
100
AcDbMText
 10
470.6207035784665
 20
175.7809507331271
 30
0.0
 40
2.5
 41
0.0
 71
     5
 72
     1
  1
85
 73
     1
 44
1.0
1001
ACAD
1000
MTEXTBEGIN
1070
    73
1070
     1
1070
    44
1040
1.0
1070
    74
1070
     0
1000
MTEXTEND
  0
POINT
  5
1054
330
FD9
100
AcDbEntity
  8
Defpoints
 62
     0
100
AcDbPoint
 10
428.1207035784665
 20
185.9732831512181
 30
0.0
  0
POINT
  5
1055
330
FD9
100
AcDbEntity
  8
Defpoints
 62
     0
100
AcDbPoint
 10
513.1207035784663
 20
185.973283151218
 30
0.0
  0
POINT
  5
1056
330
FD9
100
AcDbEntity
  8
Defpoints
 62
     0
100
AcDbPoint
 10
513.1207035784663
 20
173.9059507331271
 30
0.0
  0
ENDBLK
  5
FDB
330
FD9
100
AcDbEntity
  8
0
100
AcDbBlockEnd
  0
BLOCK
  5
FE6
330
FE5
100
AcDbEntity
  8
0
100
AcDbBlockBegin
  2
*D36
 70
     1
 10
0.0
 20
0.0
 30
0.0
  3
*D36
  1

  0
LINE
  5
1057
330
FE5
100
AcDbEntity
  8
2寸法線
 62
     0
370
    -2
100
AcDbLine
 10
471.195703576467
 20
230.4338159028379
 30
0.0
 11
471.8207035764682
 21
230.4338159028379
 31
0.0
  0
LINE
  5
1058
330
FE5
100
AcDbEntity
  8
2寸法線
 62
     0
370
    -2
100
AcDbLine
 10
469.9957035784668
 20
162.4338159028377
 30
0.0
 11
469.3207035764682
 21
162.4338159028377
 31
0.0
  0
LINE
  5
1059
330
FE5
100
AcDbEntity
  8
2寸法線
 62
     0
370
    -2
100
AcDbLine
 10
470.5707035764682
 20
227.9338159028378
 30
0.0
 11
470.5707035764682
 21
164.9338159028377
 31
0.0
  0
SOLID
  5
105A
330
FE5
100
AcDbEntity
  8
2寸法線
 62
     0
100
AcDbTrace
 10
470.1540369098014
 20
227.9338159028378
 30
0.0
 11
470.9873702431348
 21
227.9338159028378
 31
0.0
 12
470.5707035764682
 22
230.4338159028379
 32
0.0
 13
470.5707035764682
 23
230.4338159028379
 33
0.0
  0
SOLID
  5
105B
330
FE5
100
AcDbEntity
  8
2寸法線
 62
     0
100
AcDbTrace
 10
470.1540369098014
 20
164.9338159028377
 30
0.0
 11
470.9873702431348
 21
164.9338159028377
 31
0.0
 12
470.5707035764682
 22
162.4338159028377
 32
0.0
 13
470.5707035764682
 23
162.4338159028377
 33
0.0
  0
MTEXT
  5
105C
330
FE5
100
AcDbEntity
  8
2寸法線
 62
     0
100
AcDbMText
 10
468.6957035764681
 20
196.4338159028376
 30
0.0
 40
2.5
 41
0.0
 71
     5
 72
     1
  1
68
 11
0.0000000000000001
 21
1.0
 31
0.0
 73
     1
 44
1.0
1001
ACAD
1000
MTEXTBEGIN
1070
    73
1070
     1
1070
    44
1040
1.0
1070
    74
1070
     0
1000
MTEXTEND
  0
POINT
  5
105D
330
FE5
100
AcDbEntity
  8
Defpoints
 62
     0
100
AcDbPoint
 10
470.570703576467
 20
230.4338159028379
 30
0.0
  0
POINT
  5
105E
330
FE5
100
AcDbEntity
  8
Defpoints
 62
     0
100
AcDbPoint
 10
470.6207035784668
 20
162.4338159028377
 30
0.0
  0
POINT
  5
105F
330
FE5
100
AcDbEntity
  8
Defpoints
 62
     0
100
AcDbPoint
 10
470.5707035764682
 20
162.4338159028377
 30
0.0
  0
ENDBLK
  5
FE7
330
FE5
100
AcDbEntity
  8
0
100
AcDbBlockEnd
  0
BLOCK
  5
FF2
330
FF1
100
AcDbEntity
  8
0
100
AcDbBlockBegin
  2
*D37
 70
     1
 10
0.0
 20
0.0
 30
0.0
  3
*D37
  1

  0
LINE
  5
1060
330
FF1
100
AcDbEntity
  8
2寸法線
 62
     0
370
    -2
100
AcDbLine
 10
554.0237822856299
 20
232.9338159028379
 30
0.0
 11
537.6635491088556
 21
232.9338159028379
 31
0.0
  0
LINE
  5
1061
330
FF1
100
AcDbEntity
  8
2寸法線
 62
     0
370
    -2
100
AcDbLine
 10
554.0237822856299
 20
159.9338159028377
 30
0.0
 11
537.6635491088556
 21
159.9338159028377
 31
0.0
  0
LINE
  5
1062
330
FF1
100
AcDbEntity
  8
2寸法線
 62
     0
370
    -2
100
AcDbLine
 10
538.9135491088556
 20
230.4338159028379
 30
0.0
 11
538.9135491088556
 21
162.4338159028377
 31
0.0
  0
SOLID
  5
1063
330
FF1
100
AcDbEntity
  8
2寸法線
 62
     0
100
AcDbTrace
 10
538.496882442189
 20
230.4338159028379
 30
0.0
 11
539.3302157755223
 21
230.4338159028379
 31
0.0
 12
538.9135491088556
 22
232.9338159028379
 32
0.0
 13
538.9135491088556
 23
232.9338159028379
 33
0.0
  0
SOLID
  5
1064
330
FF1
100
AcDbEntity
  8
2寸法線
 62
     0
100
AcDbTrace
 10
538.496882442189
 20
162.4338159028377
 30
0.0
 11
539.3302157755223
 21
162.4338159028377
 31
0.0
 12
538.9135491088556
 22
159.9338159028377
 32
0.0
 13
538.9135491088556
 23
159.9338159028377
 33
0.0
  0
MTEXT
  5
1065
330
FF1
100
AcDbEntity
  8
2寸法線
 62
     0
100
AcDbMText
 10
537.0385491088556
 20
196.4338159028376
 30
0.0
 40
2.5
 41
0.0
 71
     5
 72
     1
  1
73
 11
0.0000000000000001
 21
1.0
 31
0.0
 73
     1
 44
1.0
1001
ACAD
1000
MTEXTBEGIN
1070
    73
1070
     1
1070
    44
1040
1.0
1070
    74
1070
     0
1000
MTEXTEND
  0
POINT
  5
1066
330
FF1
100
AcDbEntity
  8
Defpoints
 62
     0
100
AcDbPoint
 10
554.6487822856299
 20
232.9338159028379
 30
0.0
  0
POINT
  5
1067
330
FF1
100
AcDbEntity
  8
Defpoints
 62
     0
100
AcDbPoint
 10
554.6487822856299
 20
159.9338159028377
 30
0.0
  0
POINT
  5
1068
330
FF1
100
AcDbEntity
  8
Defpoints
 62
     0
100
AcDbPoint
 10
538.9135491088556
 20
159.9338159028377
 30
0.0
  0
ENDBLK
  5
FF3
330
FF1
100
AcDbEntity
  8
0
100
AcDbBlockEnd
  0
BLOCK
  5
106B
330
106A
100
AcDbEntity
  8
0
100
AcDbBlockBegin
  2
*D38
 70
     1
 10
0.0
 20
0.0
 30
0.0
  3
*D38
  1

  0
LINE
  5
106D
330
106A
100
AcDbEntity
  8
2寸法線
 62
     0
370
    -2
100
AcDbLine
 10
91.21459099852254
 20
390.5792257755805
 30
0.0
 11
91.21459099852254
 21
454.1141865458005
 31
0.0
  0
LINE
  5
106E
330
106A
100
AcDbEntity
  8
2寸法線
 62
     0
370
    -2
100
AcDbLine
 10
171.2145909985226
 20
390.5792257755806
 30
0.0
 11
171.2145909985226
 21
454.1141865458005
 31
0.0
  0
LINE
  5
106F
330
106A
100
AcDbEntity
  8
2寸法線
 62
     0
370
    -2
100
AcDbLine
 10
93.71459099852254
 20
452.8641865458005
 30
0.0
 11
168.7145909985226
 21
452.8641865458005
 31
0.0
  0
SOLID
  5
1070
330
106A
100
AcDbEntity
  8
2寸法線
 62
     0
100
AcDbTrace
 10
93.71459099852254
 20
453.2808532124672
 30
0.0
 11
93.71459099852254
 21
452.4475198791338
 31
0.0
 12
91.21459099852254
 22
452.8641865458005
 32
0.0
 13
91.21459099852254
 23
452.8641865458005
 33
0.0
  0
SOLID
  5
1071
330
106A
100
AcDbEntity
  8
2寸法線
 62
     0
100
AcDbTrace
 10
168.7145909985226
 20
453.2808532124672
 30
0.0
 11
168.7145909985226
 21
452.4475198791338
 31
0.0
 12
171.2145909985226
 22
452.8641865458005
 32
0.0
 13
171.2145909985226
 23
452.8641865458005
 33
0.0
  0
MTEXT
  5
1072
330
106A
100
AcDbEntity
  8
2寸法線
 62
     0
100
AcDbMText
 10
131.2145909985225
 20
454.7391865458005
 30
0.0
 40
2.5
 41
0.0
 71
     5
 72
     1
  1
80
 73
     1
 44
1.0
1001
ACAD
1000
MTEXTBEGIN
1070
    73
1070
     1
1070
    44
1040
1.0
1070
    74
1070
     0
1000
MTEXTEND
  0
POINT
  5
1073
330
106A
100
AcDbEntity
  8
Defpoints
 62
     0
100
AcDbPoint
 10
91.21459099852254
 20
389.9542257755805
 30
0.0
  0
POINT
  5
1074
330
106A
100
AcDbEntity
  8
Defpoints
 62
     0
100
AcDbPoint
 10
171.2145909985226
 20
389.9542257755806
 30
0.0
  0
POINT
  5
1075
330
106A
100
AcDbEntity
  8
Defpoints
 62
     0
100
AcDbPoint
 10
171.2145909985226
 20
452.8641865458005
 30
0.0
  0
ENDBLK
  5
106C
330
106A
100
AcDbEntity
  8
0
100
AcDbBlockEnd
  0
BLOCK
  5
1078
330
1077
100
AcDbEntity
  8
0
100
AcDbBlockBegin
  2
*D39
 70
     1
 10
0.0
 20
0.0
 30
0.0
  3
*D39
  1

  0
LINE
  5
107A
330
1077
100
AcDbEntity
  8
2寸法線
 62
     0
370
    -2
100
AcDbLine
 10
131.8395909985225
 20
429.8027118764639
 30
0.0
 11
200.9336788899483
 21
429.8027118764639
 31
0.0
  0
LINE
  5
107B
330
1077
100
AcDbEntity
  8
2寸法線
 62
     0
370
    -2
100
AcDbLine
 10
131.8395909985225
 20
361.8027118764638
 30
0.0
 11
200.9336788899483
 21
361.8027118764638
 31
0.0
  0
LINE
  5
107C
330
1077
100
AcDbEntity
  8
2寸法線
 62
     0
370
    -2
100
AcDbLine
 10
199.6836788899483
 20
427.3027118764639
 30
0.0
 11
199.6836788899483
 21
364.3027118764639
 31
0.0
  0
SOLID
  5
107D
330
1077
100
AcDbEntity
  8
2寸法線
 62
     0
100
AcDbTrace
 10
199.2670122232816
 20
427.3027118764639
 30
0.0
 11
200.100345556615
 21
427.3027118764639
 31
0.0
 12
199.6836788899483
 22
429.8027118764639
 32
0.0
 13
199.6836788899483
 23
429.8027118764639
 33
0.0
  0
SOLID
  5
107E
330
1077
100
AcDbEntity
  8
2寸法線
 62
     0
100
AcDbTrace
 10
199.2670122232816
 20
364.3027118764639
 30
0.0
 11
200.100345556615
 21
364.3027118764639
 31
0.0
 12
199.6836788899483
 22
361.8027118764638
 32
0.0
 13
199.6836788899483
 23
361.8027118764638
 33
0.0
  0
MTEXT
  5
107F
330
1077
100
AcDbEntity
  8
2寸法線
 62
     0
100
AcDbMText
 10
197.8086788899483
 20
395.8027118764637
 30
0.0
 40
2.5
 41
0.0
 71
     5
 72
     1
  1
68
 11
0.0000000000000001
 21
1.0
 31
0.0
 73
     1
 44
1.0
1001
ACAD
1000
MTEXTBEGIN
1070
    73
1070
     1
1070
    44
1040
1.0
1070
    74
1070
     0
1000
MTEXTEND
  0
POINT
  5
1080
330
1077
100
AcDbEntity
  8
Defpoints
 62
     0
100
AcDbPoint
 10
131.2145909985225
 20
429.8027118764639
 30
0.0
  0
POINT
  5
1081
330
1077
100
AcDbEntity
  8
Defpoints
 62
     0
100
AcDbPoint
 10
131.2145909985225
 20
361.8027118764638
 30
0.0
  0
POINT
  5
1082
330
1077
100
AcDbEntity
  8
Defpoints
 62
     0
100
AcDbPoint
 10
199.6836788899483
 20
361.8027118764638
 30
0.0
  0
ENDBLK
  5
1079
330
1077
100
AcDbEntity
  8
0
100
AcDbBlockEnd
  0
BLOCK
  5
1085
330
1084
100
AcDbEntity
  8
0
100
AcDbBlockBegin
  2
*D40
 70
     1
 10
0.0
 20
0.0
 30
0.0
  3
*D40
  1

  0
LINE
  5
1087
330
1084
100
AcDbEntity
  8
2寸法線
 62
     0
370
    -2
100
AcDbLine
 10
78.84161347918904
 20
74.70340218904144
 30
0.0
 11
78.84161347918904
 21
70.55865135355452
 31
0.0
  0
LINE
  5
1088
330
1084
100
AcDbEntity
  8
2寸法線
 62
     0
370
    -2
100
AcDbLine
 10
168.841613479189
 20
74.70340218904147
 30
0.0
 11
168.841613479189
 21
70.55865135355452
 31
0.0
  0
LINE
  5
1089
330
1084
100
AcDbEntity
  8
2寸法線
 62
     0
370
    -2
100
AcDbLine
 10
81.34161347918904
 20
71.80865135355452
 30
0.0
 11
166.341613479189
 21
71.80865135355452
 31
0.0
  0
SOLID
  5
108A
330
1084
100
AcDbEntity
  8
2寸法線
 62
     0
100
AcDbTrace
 10
81.34161347918904
 20
72.22531802022119
 30
0.0
 11
81.34161347918904
 21
71.39198468688785
 31
0.0
 12
78.84161347918904
 22
71.80865135355452
 32
0.0
 13
78.84161347918904
 23
71.80865135355452
 33
0.0
  0
SOLID
  5
108B
330
1084
100
AcDbEntity
  8
2寸法線
 62
     0
100
AcDbTrace
 10
166.341613479189
 20
72.22531802022119
 30
0.0
 11
166.341613479189
 21
71.39198468688785
 31
0.0
 12
168.841613479189
 22
71.80865135355452
 32
0.0
 13
168.841613479189
 23
71.80865135355452
 33
0.0
  0
MTEXT
  5
108C
330
1084
100
AcDbEntity
  8
2寸法線
 62
     0
100
AcDbMText
 10
123.841613479189
 20
73.68365135355452
 30
0.0
 40
2.5
 41
0.0
 71
     5
 72
     1
  1
90
 73
     1
 44
1.0
1001
ACAD
1000
MTEXTBEGIN
1070
    73
1070
     1
1070
    44
1040
1.0
1070
    74
1070
     0
1000
MTEXTEND
  0
POINT
  5
108D
330
1084
100
AcDbEntity
  8
Defpoints
 62
     0
100
AcDbPoint
 10
78.84161347918904
 20
75.32840218904144
 30
0.0
  0
POINT
  5
108E
330
1084
100
AcDbEntity
  8
Defpoints
 62
     0
100
AcDbPoint
 10
168.841613479189
 20
75.32840218904147
 30
0.0
  0
POINT
  5
108F
330
1084
100
AcDbEntity
  8
Defpoints
 62
     0
100
AcDbPoint
 10
168.841613479189
 20
71.80865135355452
 30
0.0
  0
ENDBLK
  5
1086
330
1084
100
AcDbEntity
  8
0
100
AcDbBlockEnd
  0
BLOCK
  5
1092
330
1091
100
AcDbEntity
  8
0
100
AcDbBlockBegin
  2
*D41
 70
     1
 10
0.0
 20
0.0
 30
0.0
  3
*D41
  1

  0
LINE
  5
1094
330
1091
100
AcDbEntity
  8
2寸法線
 62
     0
370
    -2
100
AcDbLine
 10
124.466613479189
 20
119.0527208713974
 30
0.0
 11
144.0758285680931
 21
119.0527208713974
 31
0.0
  0
LINE
  5
1095
330
1091
100
AcDbEntity
  8
2寸法線
 62
     0
370
    -2
100
AcDbLine
 10
124.4666134791891
 20
46.05272087139725
 30
0.0
 11
144.0758285680932
 21
46.05272087139725
 31
0.0
  0
LINE
  5
1096
330
1091
100
AcDbEntity
  8
2寸法線
 62
     0
370
    -2
100
AcDbLine
 10
142.8258285680931
 20
116.5527208713974
 30
0.0
 11
142.8258285680932
 21
48.55272087139725
 31
0.0
  0
SOLID
  5
1097
330
1091
100
AcDbEntity
  8
2寸法線
 62
     0
100
AcDbTrace
 10
142.4091619014265
 20
116.5527208713974
 30
0.0
 11
143.2424952347598
 21
116.5527208713974
 31
0.0
 12
142.8258285680931
 22
119.0527208713974
 32
0.0
 13
142.8258285680931
 23
119.0527208713974
 33
0.0
  0
SOLID
  5
1098
330
1091
100
AcDbEntity
  8
2寸法線
 62
     0
100
AcDbTrace
 10
142.4091619014265
 20
48.55272087139725
 30
0.0
 11
143.2424952347598
 21
48.55272087139725
 31
0.0
 12
142.8258285680932
 22
46.05272087139725
 32
0.0
 13
142.8258285680932
 23
46.05272087139725
 33
0.0
  0
MTEXT
  5
1099
330
1091
100
AcDbEntity
  8
2寸法線
 62
     0
100
AcDbMText
 10
140.9508285680931
 20
82.55272087139728
 30
0.0
 40
2.5
 41
0.0
 71
     5
 72
     1
  1
73
 11
0.0000000000000001
 21
1.0
 31
0.0
 73
     1
 44
1.0
1001
ACAD
1000
MTEXTBEGIN
1070
    73
1070
     1
1070
    44
1040
1.0
1070
    74
1070
     0
1000
MTEXTEND
  0
POINT
  5
109A
330
1091
100
AcDbEntity
  8
Defpoints
 62
     0
100
AcDbPoint
 10
123.841613479189
 20
119.0527208713974
 30
0.0
  0
POINT
  5
109B
330
1091
100
AcDbEntity
  8
Defpoints
 62
     0
100
AcDbPoint
 10
123.8416134791891
 20
46.05272087139725
 30
0.0
  0
POINT
  5
109C
330
1091
100
AcDbEntity
  8
Defpoints
 62
     0
100
AcDbPoint
 10
142.8258285680932
 20
46.05272087139725
 30
0.0
  0
ENDBLK
  5
1093
330
1091
100
AcDbEntity
  8
0
100
AcDbBlockEnd
  0
ENDSEC
  0
SECTION
  2
ENTITIES
  0
LINE
  5
CD
330
1F
100
AcDbEntity
  8
1外形線
100
AcDbLine
 10
38.60025852080672
 20
331.5959527773445
 30
0.0
 11
345.6410790981526
 21
331.5959527773445
 31
0.0
  0
LINE
  5
CE
330
1F
100
AcDbEntity
  8
1外形線
100
AcDbLine
 10
345.6410790981526
 20
31.05513219999886
 30
0.0
 11
38.60025852080672
 21
31.05513219999886
 31
0.0
  0
LINE
  5
CF
330
1F
100
AcDbEntity
  8
1外形線
100
AcDbLine
 10
38.60025852080672
 20
331.5959527773445
 30
0.0
 11
38.60025852080672
 21
31.05513219999886
 31
0.0
  0
TEXT
  5
146
330
1F
100
AcDbEntity
  8
1外形線
100
AcDbText
 10
88.60025772599497
 20
301.5959536294181
 30
0.0
 40
10.0
  1
MW-85
  7
KANJI
100
AcDbText
  0
LINE
  5
166
330
1F
100
AcDbEntity
  8
1外形線
100
AcDbLine
 10
345.6410790981526
 20
331.5959527773445
 30
0.0
 11
345.6410790981526
 21
31.05513219999886
 31
0.0
  0
LINE
  5
551
330
1F
100
AcDbEntity
  8
1外形線
 48
3.0
100
AcDbLine
 10
118.341613479189
 20
280.1110697626883
 30
0.0
 11
118.341613479189
 21
285.8646410871425
 31
0.0
  0
LINE
  5
552
330
1F
100
AcDbEntity
  8
1外形線
 48
3.0
100
AcDbLine
 10
118.341613479189
 20
280.1110697626883
 30
0.0
 11
118.341613479189
 21
285.8646410871425
 31
0.0
  0
LINE
  5
553
330
1F
100
AcDbEntity
  8
1外形線
 48
3.0
100
AcDbLine
 10
129.341613479189
 20
280.1110697626883
 30
0.0
 11
129.341613479189
 21
285.8646410871425
 31
0.0
  0
LINE
  5
554
330
1F
100
AcDbEntity
  8
1外形線
 48
3.0
100
AcDbLine
 10
129.341613479189
 20
280.1110697626883
 30
0.0
 11
129.341613479189
 21
285.8646410871425
 31
0.0
  0
ARC
  5
556
330
1F
100
AcDbEntity
  8
1外形線
 48
3.0
100
AcDbCircle
 10
123.841613479189
 20
224.6110697626882
 30
0.0
 40
61.5
100
AcDbArc
 50
316.6212348662984
 51
90.0
  0
ARC
  5
559
330
1F
100
AcDbEntity
  8
1外形線
 48
3.0
100
AcDbCircle
 10
123.841613479189
 20
224.6110697626882
 30
0.0
 40
61.5
100
AcDbArc
 50
90.0
 51
223.3787651337015
  0
ARC
  5
55C
330
1F
100
AcDbEntity
  8
1外形線
 48
3.0
100
AcDbCircle
 10
123.841613479189
 20
224.6110697626882
 30
0.0
 40
44.69999999999385
100
AcDbArc
 50
270.0
 51
311.6385753794403
  0
LINE
  5
55D
330
1F
100
AcDbEntity
  8
1外形線
 48
3.0
100
AcDbLine
 10
94.14161347919298
 20
191.2044835857133
 30
0.0
 11
94.14161347919025
 21
157.6110697626874
 31
0.0
  0
LINE
  5
55E
330
1F
100
AcDbEntity
  8
1外形線
 48
3.0
100
AcDbLine
 10
79.1416134791957
 20
224.6110697626882
 30
0.0
 11
79.14161347919026
 21
160.6110697626865
 31
0.0
  0
ARC
  5
55F
330
1F
100
AcDbEntity
  8
1外形線
 48
3.0
100
AcDbCircle
 10
123.841613479189
 20
224.6110697626882
 30
0.0
 40
44.69999999999385
100
AcDbArc
 50
228.3614246205595
 51
270.0
  0
LINE
  5
560
330
1F
100
AcDbEntity
  8
1外形線
 48
3.0
100
AcDbLine
 10
153.5416134791853
 20
191.2044835857133
 30
0.0
 11
153.541613479188
 21
157.6110697626874
 31
0.0
  0
LINE
  5
561
330
1F
100
AcDbEntity
  8
1外形線
 48
3.0
100
AcDbLine
 10
168.5416134791825
 20
224.6110697626882
 30
0.0
 11
168.541613479188
 21
160.6110697626865
 31
0.0
  0
LINE
  5
563
330
1F
100
AcDbEntity
  8
1外形線
 48
3.0
100
AcDbLine
 10
80.14161347918934
 20
157.6110697626883
 30
0.0
 11
123.841613479189
 21
157.6110697626883
 31
0.0
  0
LINE
  5
564
330
1F
100
AcDbEntity
  8
1外形線
 48
3.0
100
AcDbLine
 10
79.14161347918934
 20
160.6110697626874
 30
0.0
 11
123.841613479189
 21
160.6110697626883
 31
0.0
  0
LINE
  5
56A
330
1F
100
AcDbEntity
  8
1外形線
 48
3.0
100
AcDbLine
 10
79.14161347918934
 20
160.6110697626883
 30
0.0
 11
80.14161347918934
 21
157.6110697626883
 31
0.0
  0
LINE
  5
57B
330
1F
100
AcDbEntity
  8
1外形線
 48
3.0
100
AcDbLine
 10
168.5416134791888
 20
160.6110697626874
 30
0.0
 11
123.841613479189
 21
160.6110697626883
 31
0.0
  0
LINE
  5
57C
330
1F
100
AcDbEntity
  8
1外形線
 48
3.0
100
AcDbLine
 10
167.5416134791889
 20
157.6110697626883
 30
0.0
 11
123.841613479189
 21
157.6110697626883
 31
0.0
  0
LINE
  5
586
330
1F
100
AcDbEntity
  8
1外形線
 48
3.0
100
AcDbLine
 10
168.5416134791888
 20
160.6110697626883
 30
0.0
 11
167.5416134791889
 21
157.6110697626883
 31
0.0
  0
ARC
  5
5BE
330
1F
100
AcDbEntity
  8
1外形線
 48
3.0
100
AcDbCircle
 10
123.841613479189
 20
224.6110697626882
 30
0.0
 40
44.69999999999385
100
AcDbArc
 50
0.0
 51
90.0
  0
ARC
  5
5C0
330
1F
100
AcDbEntity
  8
1外形線
 48
3.0
100
AcDbCircle
 10
123.841613479189
 20
224.6110697626882
 30
0.0
 40
44.69999999999385
100
AcDbArc
 50
90.0
 51
180.0
  0
ARC
  5
5C4
330
1F
100
AcDbEntity
  8
1外形線
 48
3.0
100
AcDbCircle
 10
123.841613479189
 20
280.1110697626883
 30
0.0
 40
5.5
100
AcDbArc
 50
270.0
 51
0.0
  0
ARC
  5
5C6
330
1F
100
AcDbEntity
  8
1外形線
 48
3.0
100
AcDbCircle
 10
123.841613479189
 20
280.1110697626883
 30
0.0
 40
5.5
100
AcDbArc
 50
270.0
 51
0.0
  0
ARC
  5
5C9
330
1F
100
AcDbEntity
  8
1外形線
 48
3.0
100
AcDbCircle
 10
123.841613479189
 20
280.1110697626883
 30
0.0
 40
5.5
100
AcDbArc
 50
180.0
 51
270.0
  0
ARC
  5
5CB
330
1F
100
AcDbEntity
  8
1外形線
 48
3.0
100
AcDbCircle
 10
123.841613479189
 20
280.1110697626883
 30
0.0
 40
5.5
100
AcDbArc
 50
180.0
 51
270.0
  0
LINE
  5
5E5
330
1F
100
AcDbEntity
  8
1外形線
 48
3.0
100
AcDbLine
 10
288.6084806922767
 20
269.3306320583871
 30
0.0
 11
289.7805416054893
 21
281.5870404651178
 31
0.0
  0
LINE
  5
5E7
330
1F
100
AcDbEntity
  8
1外形線
 48
3.0
100
AcDbLine
 10
301.2131673579892
 20
157.6110697626883
 30
0.0
 11
301.2131673579892
 21
286.1110697626883
 31
0.0
  0
LINE
  5
5E9
330
1F
100
AcDbEntity
  8
1外形線
 48
3.0
100
AcDbLine
 10
288.6084806922767
 20
199.1521892906713
 30
0.0
 11
289.7805416054893
 21
186.8957808839405
 31
0.0
  0
LINE
  5
5EA
330
1F
100
AcDbEntity
  8
1外形線
 48
3.0
100
AcDbLine
 10
244.7804663195016
 20
157.6110697626891
 30
0.0
 11
244.7804663195016
 21
194.0768796836802
 31
0.0
  0
ARC
  5
5EB
330
1F
100
AcDbEntity
  8
1外形線
 48
3.0
100
AcDbCircle
 10
425.1229454114202
 20
216.6215584731379
 30
0.0
 40
199.9110665373104
100
AcDbArc
 50
172.6095165323489
 51
189.9407219788357
  0
SPLINE
  5
5EC
330
1F
100
AcDbEntity
  8
1外形線
 48
3.0
100
AcDbSpline
210
0.0
220
0.0
230
1.0
 70
  1064
 71
     3
 72
    11
 73
     7
 74
     5
 42
0.000000001
 43
0.0000000001
 44
0.0000000001
 40
0.0
 40
0.0
 40
0.0
 40
0.0
 40
5.913048858635477
 40
14.5060980797152
 40
18.01686912695843
 40
21.32385728440008
 40
21.32385728440008
 40
21.32385728440008
 40
21.32385728440008
 10
228.2131673579893
 20
182.1110697626983
 30
0.0
 10
230.1631664949372
 20
182.4590968401782
 30
0.0
 10
234.9469725165324
 20
183.3128890277646
 30
0.0
 10
240.1225370879692
 20
186.9538540327951
 30
0.0
 10
243.1234415330682
 20
191.1343033196756
 30
0.0
 10
244.2392418178592
 20
193.1157628439133
 30
0.0
 10
244.7804663195016
 20
194.0768796836811
 30
0.0
 11
228.2131673579893
 21
182.1110697626983
 31
0.0
 11
233.960686200168
 21
183.5003767710342
 31
0.0
 11
241.017965414109
 21
188.4029582351585
 31
0.0
 11
243.1069600932738
 21
191.2245915523318
 31
0.0
 11
244.7804663195016
 21
194.0768796836811
 31
0.0
  0
LINE
  5
5ED
330
1F
100
AcDbEntity
  8
1外形線
 48
3.0
100
AcDbLine
 10
301.2131673579892
 20
157.6110697626883
 30
0.0
 11
228.713167357989
 21
157.6110697626883
 31
0.0
  0
LINE
  5
5EE
330
1F
100
AcDbEntity
  8
1外形線
 48
3.0
100
AcDbLine
 10
301.2131673579892
 20
160.6110697626883
 30
0.0
 11
228.2131673579893
 21
160.6110697626883
 31
0.0
  0
ARC
  5
5EF
330
1F
100
AcDbEntity
  8
1外形線
 48
3.0
100
AcDbCircle
 10
294.7578352366131
 20
187.37175158637
 30
0.0
 40
5.0
100
AcDbArc
 50
185.4624938837353
 51
270.0
  0
LINE
  5
5F2
330
1F
100
AcDbEntity
  8
1外形線
 48
3.0
100
AcDbLine
 10
228.2131673579893
 20
160.6110697626883
 30
0.0
 11
228.2131673579893
 21
182.1110697626991
 31
0.0
  0
LINE
  5
5F3
330
1F
100
AcDbEntity
  8
1外形線
 48
3.0
100
AcDbLine
 10
228.2131673579893
 20
160.6110697626883
 30
0.0
 11
228.713167357989
 21
157.6110697626883
 31
0.0
  0
LINE
  5
5F4
330
1F
100
AcDbEntity
  8
1外形線
 48
3.0
100
AcDbLine
 10
294.7578352366131
 20
182.37175158637
 30
0.0
 11
301.2131673579892
 21
182.37175158637
 31
0.0
  0
LINE
  5
5F6
330
1F
100
AcDbEntity
  8
1外形線
 48
3.0
100
AcDbLine
 10
288.6084806922767
 20
269.3306320583871
 30
0.0
 11
288.6084806922767
 21
224.6110697626882
 31
0.0
  0
LINE
  5
5F9
330
1F
100
AcDbEntity
  8
1外形線
 48
3.0
100
AcDbLine
 10
288.6084806922767
 20
224.6110697626882
 30
0.0
 11
288.6084806922767
 21
199.1521892906713
 31
0.0
  0
ARC
  5
5FB
330
1F
100
AcDbEntity
  8
1外形線
 48
3.0
100
AcDbCircle
 10
256.4715305803819
 20
238.9367620997482
 30
0.0
 40
29.7934830596188
100
AcDbArc
 50
91.05586587237649
 51
173.4480949996174
  0
LINE
  5
5FC
330
1F
100
AcDbEntity
  8
1外形線
 48
3.0
100
AcDbLine
 10
287.7154943853988
 20
269.3150449244204
 30
0.0
 11
255.9225173416701
 21
268.7251863160036
 31
0.0
  0
ARC
  5
5FD
330
1F
100
AcDbEntity
  8
1外形線
 48
3.0
100
AcDbCircle
 10
287.6980419789612
 20
270.3148926195764
 30
0.0
 40
1.0
100
AcDbArc
 50
271.0000000000017
 51
354.5375061162381
  0
ARC
  5
5FF
330
1F
100
AcDbEntity
  8
1外形線
 48
3.0
100
AcDbCircle
 10
294.7578352366131
 20
281.1110697626883
 30
0.0
 40
5.0
100
AcDbArc
 50
90.0
 51
174.5375061162645
  0
LINE
  5
600
330
1F
100
AcDbEntity
  8
1外形線
 48
3.0
100
AcDbLine
 10
294.7578352366131
 20
286.1110697626883
 30
0.0
 11
301.2131673579892
 21
286.1110697626883
 31
0.0
  0
ARC
  5
61D
330
1F
100
AcDbEntity
  8
1外形線
 48
3.0
100
AcDbCircle
 10
67.34161347918917
 20
52.50805299277423
 30
0.0
 40
5.0
100
AcDbArc
 50
95.46249388376164
 51
180.0
  0
LINE
  5
61E
330
1F
100
AcDbEntity
  8
1外形線
 48
3.0
100
AcDbLine
 10
62.34161347918917
 20
52.50805299277423
 30
0.0
 11
62.34161347918927
 21
46.05272087139717
 31
0.0
  0
LINE
  5
620
330
1F
100
AcDbEntity
  8
1外形線
 48
3.0
100
AcDbLine
 10
78.84161347918916
 20
58.63058972385761
 30
0.0
 11
66.8656427767596
 21
57.48534662389801
 31
0.0
  0
LINE
  5
A08
330
1F
100
AcDbEntity
  8
1外形線
100
AcDbLine
 10
78.84161347918904
 20
104.6040835066857
 30
0.0
 11
78.84161347918904
 21
46.05272087139717
 31
0.0
  0
LINE
  5
A09
330
1F
100
AcDbEntity
  8
1外形線
100
AcDbLine
 10
168.841613479189
 20
104.6040835066857
 30
0.0
 11
168.841613479189
 21
46.05272087139723
 31
0.0
  0
LINE
  5
A0A
330
1F
100
AcDbEntity
  8
1外形線
100
AcDbLine
 10
62.34161347918927
 20
46.05272087139717
 30
0.0
 11
185.3416134791889
 21
46.0527208713973
 31
0.0
  0
LINE
  5
A0D
330
1F
100
AcDbEntity
  8
1外形線
100
AcDbLine
 10
81.77054566732364
 20
105.5171869654648
 30
0.0
 11
92.37714738512201
 21
116.1237886832629
 31
0.0
  0
LINE
  5
A0F
330
1F
100
AcDbEntity
  8
1外形線
100
AcDbLine
 10
99.44821519698741
 20
119.0527208713974
 30
0.0
 11
123.841613479189
 21
119.0527208713974
 31
0.0
  0
LINE
  5
A10
330
1F
100
AcDbEntity
  8
1外形線
100
AcDbLine
 10
148.2350117613908
 20
119.0527208713974
 30
0.0
 11
123.841613479189
 21
119.0527208713974
 31
0.0
  0
LINE
  5
A12
330
1F
100
AcDbEntity
  8
1外形線
100
AcDbLine
 10
165.9126812910544
 20
105.5171869654649
 30
0.0
 11
155.3060795732563
 21
116.1237886832629
 31
0.0
  0
ARC
  5
A65
330
1F
100
AcDbEntity
  8
1外形線
 48
3.0
100
AcDbCircle
 10
180.3416134791891
 20
52.50805299277423
 30
0.0
 40
5.0
100
AcDbArc
 50
0.000000000000007
 51
84.53750611623837
  0
LINE
  5
A66
330
1F
100
AcDbEntity
  8
1外形線
 48
3.0
100
AcDbLine
 10
185.3416134791891
 20
52.50805299277423
 30
0.0
 11
185.3416134791889
 21
46.0527208713973
 31
0.0
  0
LINE
  5
A67
330
1F
100
AcDbEntity
  8
1外形線
 48
3.0
100
AcDbLine
 10
168.841613479189
 20
58.63058972385761
 30
0.0
 11
180.8175841816185
 21
57.48534662389801
 31
0.0
  0
ARC
  5
A68
330
1F
100
AcDbEntity
  8
1外形線
 48
3.0
100
AcDbCircle
 10
123.841613479189
 20
-77.94727912860094
 30
0.0
 40
200.0
100
AcDbArc
 50
90.0
 51
99.33241818380269
  0
ARC
  5
A6A
330
1F
100
AcDbEntity
  8
1外形線
 48
3.0
100
AcDbCircle
 10
123.841613479189
 20
-77.94727912860094
 30
0.0
 40
200.0
100
AcDbArc
 50
80.66758181619738
 51
90.0
  0
ARC
  5
A6C
330
1F
100
AcDbEntity
  8
1外形線
 48
3.0
100
AcDbCircle
 10
93.84161347918904
 20
104.6040835066857
 30
0.0
 40
15.0
100
AcDbArc
 50
99.33241818380249
 51
180.0
  0
ARC
  5
A6D
330
1F
100
AcDbEntity
  8
1外形線
 48
3.0
100
AcDbCircle
 10
153.841613479189
 20
104.6040835066857
 30
0.0
 40
15.0
100
AcDbArc
 50
0.0
 51
80.66758181619752
  0
LINE
  5
A7B
330
1F
100
AcDbEntity
  8
1外形線
100
AcDbLine
 10
345.6410790981526
 20
331.5959527773445
 30
0.0
 11
38.60025852080672
 21
331.5959527773445
 31
0.0
  0
LINE
  5
A7C
330
1F
100
AcDbEntity
  8
1外形線
100
AcDbLine
 10
38.60025852080672
 20
632.1367733546901
 30
0.0
 11
345.6410790981526
 21
632.1367733546901
 31
0.0
  0
LINE
  5
A7D
330
1F
100
AcDbEntity
  8
1外形線
100
AcDbLine
 10
38.60025852080672
 20
632.1367733546901
 30
0.0
 11
38.60025852080672
 21
331.5959527773445
 31
0.0
  0
LINE
  5
A7E
330
1F
100
AcDbEntity
  8
1外形線
100
AcDbLine
 10
171.2145909985226
 20
418.1057396746973
 30
0.0
 11
171.2145909985226
 21
361.8027118764637
 31
0.0
  0
LINE
  5
A7F
330
1F
100
AcDbEntity
  8
1外形線
100
AcDbLine
 10
91.2145909985225
 20
418.1057396746973
 30
0.0
 11
91.21459099852257
 21
361.8027118764637
 31
0.0
  0
LINE
  5
A80
330
1F
100
AcDbEntity
  8
1外形線
100
AcDbLine
 10
182.7145909985226
 20
363.8027118764637
 30
0.0
 11
182.7145909985226
 21
361.8027118764637
 31
0.0
  0
LINE
  5
A81
330
1F
100
AcDbEntity
  8
1外形線
100
AcDbLine
 10
79.71459099852255
 20
363.8027118764637
 30
0.0
 11
79.71459099852255
 21
361.8027118764637
 31
0.0
  0
LINE
  5
A82
330
1F
100
AcDbEntity
  8
1外形線
100
AcDbLine
 10
182.7145909985226
 20
361.8027118764637
 30
0.0
 11
131.2145909985224
 21
361.8027118764637
 31
0.0
  0
LINE
  5
A83
330
1F
100
AcDbEntity
  8
1外形線
100
AcDbLine
 10
79.71459099852255
 20
361.8027118764637
 30
0.0
 11
131.2145909985224
 21
361.8027118764637
 31
0.0
  0
LINE
  5
A84
330
1F
100
AcDbEntity
  8
1外形線
100
AcDbLine
 10
156.8506299678432
 20
429.8027118764637
 30
0.0
 11
131.2145909985225
 21
429.8027118764637
 31
0.0
  0
ARC
  5
A86
330
1F
100
AcDbEntity
  8
1外形線
100
AcDbCircle
 10
131.2145909985224
 20
234.8027118764637
 30
0.0
 40
200.0
100
AcDbArc
 50
82.23356583148776
 51
90.0
  0
LINE
  5
A89
330
1F
100
AcDbEntity
  8
1外形線
100
AcDbLine
 10
80.71459099852255
 20
364.8027118764638
 30
0.0
 11
91.21459099852264
 21
364.8027118764638
 31
0.0
  0
ARC
  5
A8A
330
1F
100
AcDbEntity
  8
1外形線
100
AcDbCircle
 10
80.71459099852255
 20
363.8027118764637
 30
0.0
 40
1.0
100
AcDbArc
 50
89.99999999999836
 51
180.0000000000006
  0
LINE
  5
A8B
330
1F
100
AcDbEntity
  8
1外形線
100
AcDbLine
 10
105.5785520292016
 20
429.8027118764637
 30
0.0
 11
131.2145909985225
 21
429.8027118764637
 31
0.0
  0
ARC
  5
A8D
330
1F
100
AcDbEntity
  8
1外形線
100
AcDbCircle
 10
131.2145909985225
 20
234.8027118764637
 30
0.0
 40
200.0
100
AcDbArc
 50
90.0
 51
97.76643416851229
  0
LINE
  5
A8E
330
1F
100
AcDbEntity
  8
1外形線
100
AcDbLine
 10
93.26484353021692
 20
420.3884983140908
 30
0.0
 11
100.6288045608959
 21
427.7524593447695
 31
0.0
  0
ARC
  5
A90
330
1F
100
AcDbEntity
  8
1外形線
100
AcDbCircle
 10
106.2145909985225
 20
418.1057396746973
 30
0.0
 40
15.0
100
AcDbArc
 50
97.76643416851236
 51
179.9999999999999
  0
LINE
  5
A96
330
1F
100
AcDbEntity
  8
1外形線
100
AcDbLine
 10
181.7145909985226
 20
364.8027118764638
 30
0.0
 11
171.2145909985224
 21
364.8027118764638
 31
0.0
  0
ARC
  5
A97
330
1F
100
AcDbEntity
  8
1外形線
100
AcDbCircle
 10
181.7145909985226
 20
363.8027118764637
 30
0.0
 40
1.0
100
AcDbArc
 50
359.9999999999992
 51
90.00000000000161
  0
ARC
  5
A9A
330
1F
100
AcDbEntity
  8
1外形線
100
AcDbCircle
 10
156.2145909985224
 20
418.1057396746973
 30
0.0
 40
15.0
100
AcDbArc
 50
0.0
 51
82.23356583148783
  0
LINE
  5
A9C
330
1F
100
AcDbEntity
  8
1外形線
100
AcDbLine
 10
169.1643384668282
 20
420.388498314091
 30
0.0
 11
161.8003774361488
 21
427.7524593447696
 31
0.0
  0
ARC
  5
A9F
330
1F
100
AcDbEntity
  8
1外形線
 48
3.0
100
AcDbCircle
 10
131.2145909985224
 20
522.2648217347032
 30
0.0
 40
51.5
100
AcDbArc
 50
90.0
 51
219.040672636359
  0
ARC
  5
AA0
330
1F
100
AcDbEntity
  8
1外形線
 48
3.0
100
AcDbCircle
 10
131.2145909985224
 20
522.2648217347032
 30
0.0
 40
50.5
100
AcDbArc
 50
90.0
 51
217.619756550587
  0
ARC
  5
AA1
330
1F
100
AcDbEntity
  8
1外形線
 48
3.0
100
AcDbCircle
 10
131.2145909985224
 20
522.2648217347032
 30
0.0
 40
51.5
100
AcDbArc
 50
320.9593273636406
 51
90.0
  0
ARC
  5
AA2
330
1F
100
AcDbEntity
  8
1外形線
 48
3.0
100
AcDbCircle
 10
131.2145909985224
 20
522.2648217347032
 30
0.0
 40
40.00000000000006
100
AcDbArc
 50
0.0
 51
90.0
  0
ARC
  5
AA3
330
1F
100
AcDbEntity
  8
1外形線
 48
3.0
100
AcDbCircle
 10
131.2145909985224
 20
522.2648217347032
 30
0.0
 40
50.5
100
AcDbArc
 50
322.3802434494127
 51
90.0
  0
ARC
  5
AA4
330
1F
100
AcDbEntity
  8
1外形線
 48
3.0
100
AcDbCircle
 10
131.2145909985224
 20
522.2648217347032
 30
0.0
 40
40.00000000000006
100
AcDbArc
 50
90.0
 51
180.0
  0
ARC
  5
AA5
330
1F
100
AcDbEntity
  8
1外形線
 48
3.0
100
AcDbCircle
 10
131.2145909985224
 20
522.2648217347032
 30
0.0
 40
40.00000000000009
100
AcDbArc
 50
270.0
 51
313.2356359849823
  0
LINE
  5
AA6
330
1F
100
AcDbEntity
  8
1外形線
 48
3.0
100
AcDbLine
 10
170.2145909985226
 20
467.2648217347032
 30
0.0
 11
131.2145909985224
 21
467.2648217347032
 31
0.0
  0
LINE
  5
AA7
330
1F
100
AcDbEntity
  8
1外形線
 48
3.0
100
AcDbLine
 10
171.2145909985226
 20
470.2648217347031
 30
0.0
 11
131.2145909985224
 21
470.2648217347031
 31
0.0
  0
LINE
  5
AA8
330
1F
100
AcDbEntity
  8
1外形線
 48
3.0
100
AcDbLine
 10
91.21459099852279
 20
470.2648217347031
 30
0.0
 11
91.21459099852268
 21
522.2648217347031
 31
0.0
  0
LINE
  5
AA9
330
1F
100
AcDbEntity
  8
1外形線
 48
3.0
100
AcDbLine
 10
92.21459099852294
 20
467.2648217347032
 30
0.0
 11
131.2145909985227
 21
467.2648217347032
 31
0.0
  0
ARC
  5
AAA
330
1F
100
AcDbEntity
  8
1外形線
 48
3.0
100
AcDbCircle
 10
131.2145909985224
 20
522.2648217347032
 30
0.0
 40
40.00000000000009
100
AcDbArc
 50
226.7643640150175
 51
270.0
  0
LINE
  5
AAB
330
1F
100
AcDbEntity
  8
1外形線
 48
3.0
100
AcDbLine
 10
91.21459099852279
 20
470.2648217347031
 30
0.0
 11
131.2145909985227
 21
470.2648217347031
 31
0.0
  0
LINE
  5
AAC
330
1F
100
AcDbEntity
  8
1外形線
 48
3.0
100
AcDbLine
 10
103.8145763319879
 20
467.2648217347032
 30
0.0
 11
103.8145763319879
 21
493.1231128576706
 31
0.0
  0
LINE
  5
AAD
330
1F
100
AcDbEntity
  8
1外形線
 48
3.0
100
AcDbLine
 10
92.2145909985228
 20
467.2648217347032
 30
0.0
 11
91.21459099852279
 21
470.2648217347031
 31
0.0
  0
CIRCLE
  5
AAE
330
1F
100
AcDbEntity
  8
1外形線
 48
3.0
100
AcDbCircle
 10
85.71459099852267
 20
522.2648217347032
 30
0.0
 40
2.0
  0
CIRCLE
  5
AAF
330
1F
100
AcDbEntity
  8
1外形線
 48
3.0
100
AcDbCircle
 10
85.71459099852267
 20
522.2648217347032
 30
0.0
 40
3.75
  0
LINE
  5
AB0
330
1F
100
AcDbEntity
  8
1外形線
 48
3.0
100
AcDbLine
 10
171.2145909985226
 20
470.2648217347031
 30
0.0
 11
171.2145909985226
 21
522.2648217347031
 31
0.0
  0
LINE
  5
AB1
330
1F
100
AcDbEntity
  8
1外形線
 48
3.0
100
AcDbLine
 10
158.614605665057
 20
467.2648217347032
 30
0.0
 11
158.614605665057
 21
493.1231128576706
 31
0.0
  0
LINE
  5
AB2
330
1F
100
AcDbEntity
  8
1外形線
 48
3.0
100
AcDbLine
 10
170.2145909985226
 20
467.2648217347032
 30
0.0
 11
171.2145909985226
 21
470.2648217347031
 31
0.0
  0
CIRCLE
  5
AB3
330
1F
100
AcDbEntity
  8
1外形線
 48
3.0
100
AcDbCircle
 10
176.7145909985226
 20
522.2648217347032
 30
0.0
 40
2.0
  0
CIRCLE
  5
AB4
330
1F
100
AcDbEntity
  8
1外形線
 48
3.0
100
AcDbCircle
 10
176.7145909985226
 20
522.2648217347032
 30
0.0
 40
3.75
  0
TEXT
  5
AB5
330
1F
100
AcDbEntity
  8
1外形線
100
AcDbText
 10
88.60025772599493
 20
602.1367742067638
 30
0.0
 40
10.0
  1
MW-75
  7
KANJI
100
AcDbText
  0
LINE
  5
AB6
330
1F
100
AcDbEntity
  8
1外形線
100
AcDbLine
 10
345.6410790981526
 20
632.1367733546901
 30
0.0
 11
345.6410790981526
 21
331.5959527773445
 31
0.0
  0
LINE
  5
AB7
330
1F
100
AcDbEntity
  8
1外形線
 48
3.0
100
AcDbLine
 10
303.6087440225262
 20
467.2648217347032
 30
0.0
 11
303.6087440225262
 21
573.7648217347032
 31
0.0
  0
LINE
  5
AB8
330
1F
100
AcDbEntity
  8
1外形線
 48
3.0
100
AcDbLine
 10
300.6087440225261
 20
490.326418568086
 30
0.0
 11
300.6087440225261
 21
573.2648217347032
 31
0.0
  0
LINE
  5
AB9
330
1F
100
AcDbEntity
  8
1外形線
 48
3.0
100
AcDbLine
 10
300.6087440225261
 20
562.2648217347032
 30
0.0
 11
260.3499759347851
 21
561.5446472588735
 31
0.0
  0
LINE
  5
ABA
330
1F
100
AcDbEntity
  8
1外形線
 48
3.0
100
AcDbLine
 10
303.6087440225262
 20
467.2648217347032
 30
0.0
 11
236.608744022526
 21
467.2648217347032
 31
0.0
  0
LINE
  5
ABB
330
1F
100
AcDbEntity
  8
1外形線
 48
3.0
100
AcDbLine
 10
235.608744022526
 20
470.264821734703
 30
0.0
 11
303.6087440225262
 21
470.2648217347031
 31
0.0
  0
ARC
  5
ABC
330
1F
100
AcDbEntity
  8
1外形線
 48
3.0
100
AcDbCircle
 10
431.4285612393425
 20
525.9762251484082
 30
0.0
 40
200.6391975742104
100
AcDbArc
 50
177.9301093814535
 51
192.5834147762244
  0
SPLINE
  5
ABD
330
1F
100
AcDbEntity
  8
1外形線
 48
3.0
100
AcDbSpline
210
0.0
220
0.0
230
1.0
 70
  1064
 71
     3
 72
     9
 73
     5
 74
     3
 42
0.000000001
 43
0.0000000001
 44
0.0000000001
 40
0.0
 40
0.0
 40
0.0
 40
0.0
 40
7.991496903751529
 40
16.09801737634242
 40
16.09801737634242
 40
16.09801737634242
 40
16.09801737634242
 10
235.608744022526
 20
482.2648217347031
 30
0.0
 10
238.0809437772277
 20
483.4418525802298
 30
0.0
 10
243.0609262621479
 20
485.8128555640242
 30
0.0
 10
245.6708538461006
 20
490.6747806159764
 30
0.0
 10
246.985141866586
 20
493.1231128576706
 30
0.0
 11
235.608744022526
 21
482.2648217347031
 31
0.0
 11
242.4412665705041
 21
486.4097775117943
 31
0.0
 11
246.985141866586
 21
493.1231128576706
 31
0.0
  0
LINE
  5
ABE
330
1F
100
AcDbEntity
  8
1外形線
 48
3.0
100
AcDbLine
 10
235.608744022526
 20
470.264821734703
 30
0.0
 11
235.608744022526
 21
482.2648217347031
 31
0.0
  0
LINE
  5
ABF
330
1F
100
AcDbEntity
  8
1外形線
 48
3.0
100
AcDbLine
 10
235.608744022526
 20
470.2648217347031
 30
0.0
 11
236.608744022526
 21
467.2648217347032
 31
0.0
  0
LINE
  5
AC0
330
1F
100
AcDbEntity
  8
1外形線
 48
3.0
100
AcDbLine
 10
246.985141866586
 20
467.2648217347032
 30
0.0
 11
246.985141866586
 21
493.1231128576706
 31
0.0
  0
ARC
  5
AC1
330
1F
100
AcDbEntity
  8
1外形線
 48
3.0
100
AcDbCircle
 10
260.8735481279035
 20
531.5492164041816
 30
0.0
 40
30.0
100
AcDbArc
 50
90.99999999999971
 51
176.8016063348199
  0
ARC
  5
AC2
330
1F
100
AcDbEntity
  8
1外形線
 48
3.0
100
AcDbCircle
 10
301.1087440225261
 20
490.326418568086
 30
0.0
 40
0.5
100
AcDbArc
 50
180.0
 51
270.0
  0
LINE
  5
AC3
330
1F
100
AcDbEntity
  8
1外形線
 48
3.0
100
AcDbLine
 10
303.6087440225262
 20
489.8264185680861
 30
0.0
 11
301.1087440225261
 21
489.8264185680861
 31
0.0
  0
ARC
  5
AC4
330
1F
100
AcDbEntity
  8
1外形線
 48
3.0
100
AcDbCircle
 10
301.1087440225261
 20
573.2648217347032
 30
0.0
 40
0.5
100
AcDbArc
 50
89.9999999999996
 51
180.0
  0
LINE
  5
AC5
330
1F
100
AcDbEntity
  8
1外形線
 48
3.0
100
AcDbLine
 10
303.6087440225262
 20
573.7648217347032
 30
0.0
 11
301.1087440225261
 21
573.7648217347032
 31
0.0
  0
ARC
  5
D99
330
1F
100
AcDbEntity
  8
1外形線
100
AcDbCircle
 10
88.84161347918904
 20
98.44611915359925
 30
0.0
 40
10.0
100
AcDbArc
 50
134.9999999999994
 51
180.0
  0
ARC
  5
D9A
330
1F
100
AcDbEntity
  8
1外形線
100
AcDbCircle
 10
99.44821519698741
 20
109.0527208713974
 30
0.0
 40
10.0
100
AcDbArc
 50
90.0
 51
134.9999999999994
  0
ARC
  5
D9B
330
1F
100
AcDbEntity
  8
1外形線
100
AcDbCircle
 10
148.2350117613908
 20
109.0527208713974
 30
0.0
 40
10.0
100
AcDbArc
 50
45.00000000000045
 51
90.0
  0
ARC
  5
D9C
330
1F
100
AcDbEntity
  8
1外形線
100
AcDbCircle
 10
158.841613479189
 20
98.44611915359944
 30
0.0
 40
10.0
100
AcDbArc
 50
0.0
 51
45.00000000000047
  0
ARC
  5
DA8
330
1F
100
AcDbEntity
  8
1外形線
100
AcDbCircle
 10
98.21459099852264
 20
415.4387508457848
 30
0.0
 40
7.0
100
AcDbArc
 50
134.9999999999986
 51
179.9999999999999
  0
ARC
  5
DA9
330
1F
100
AcDbEntity
  8
1外形線
100
AcDbCircle
 10
105.5785520292016
 20
422.8027118764637
 30
0.0
 40
7.0
100
AcDbArc
 50
90.0
 51
134.9999999999987
  0
ARC
  5
DAA
330
1F
100
AcDbEntity
  8
1外形線
100
AcDbCircle
 10
156.8506299678432
 20
422.8027118764637
 30
0.0
 40
7.0
100
AcDbArc
 50
45.00000000000254
 51
90.0
  0
ARC
  5
DAB
330
1F
100
AcDbEntity
  8
1外形線
100
AcDbCircle
 10
164.2145909985226
 20
415.4387508457848
 30
0.0
 40
7.0
100
AcDbArc
 50
0.0
 51
45.00000000000259
  0
LINE
  5
109D
330
1F
100
AcDbEntity
  8
1外形線
100
AcDbLine
 10
81.34161347918917
 20
48.5527208713973
 30
0.0
 11
166.341613479189
 21
48.55272087139735
 31
0.0
  0
LINE
  5
109E
330
1F
100
AcDbEntity
  8
1外形線
100
AcDbLine
 10
81.34161347918917
 20
96.96475099982468
 30
0.0
 11
81.34161347918917
 21
46.05272087139718
 31
0.0
  0
ARC
  5
109F
330
1F
100
AcDbEntity
  8
1外形線
100
AcDbCircle
 10
89.34161347918916
 20
96.96475099982468
 30
0.0
 40
8.0
100
AcDbArc
 50
134.99998972984
 51
180.0
  0
LINE
  5
10A0
330
1F
100
AcDbEntity
  8
1外形線
100
AcDbLine
 10
166.341613479189
 20
96.96475099982496
 30
0.0
 11
166.341613479189
 21
46.0527208713973
 31
0.0
  0
ARC
  5
10A1
330
1F
100
AcDbEntity
  8
1外形線
100
AcDbCircle
 10
158.341613479189
 20
96.96475099982496
 30
0.0
 40
8.0
100
AcDbArc
 50
0.0
 51
45.00001027015995
  0
LINE
  5
10A2
330
1F
100
AcDbEntity
  8
1外形線
  6
Continuous
370
    15
100
AcDbLine
 10
83.68476024367749
 20
102.6216062632977
 30
0.0
 11
95.27273426949534
 21
114.2095761348703
 31
0.0
  0
ARC
  5
10A3
330
1F
100
AcDbEntity
  8
1外形線
  6
Continuous
370
    15
100
AcDbCircle
 10
100.929587505007
 20
108.5527208713974
 30
0.0
 40
8.0
100
AcDbArc
 50
90.0
 51
134.99998972984
  0
LINE
  5
10A4
330
1F
100
AcDbEntity
  8
1外形線
  6
Continuous
370
    15
100
AcDbLine
 10
100.929587505007
 20
116.5527208713974
 30
0.0
 11
146.7536394533714
 21
116.5527208713974
 31
0.0
  0
LINE
  5
10A5
330
1F
100
AcDbEntity
  8
1外形線
  6
Continuous
370
    15
100
AcDbLine
 10
152.4104926888831
 20
114.2095761348703
 30
0.0
 11
163.9984667147006
 21
102.6216062632979
 31
0.0
  0
ARC
  5
10A6
330
1F
100
AcDbEntity
  8
1外形線
  6
Continuous
370
    15
100
AcDbCircle
 10
146.7536394533714
 20
108.5527208713974
 30
0.0
 40
8.0
100
AcDbArc
 50
45.00001027015995
 51
90.0
  0
LINE
  5
10AB
330
1F
100
AcDbEntity
  8
1外形線
100
AcDbLine
 10
93.70196445367197
 20
364.3027118764637
 30
0.0
 11
168.7145909985223
 21
364.3027118764637
 31
0.0
  0
LINE
  5
10AC
330
1F
100
AcDbEntity
  8
1外形線
100
AcDbLine
 10
93.71459099852257
 20
415.2316440645984
 30
0.0
 11
93.71459099852257
 21
361.8027118764637
 31
0.0
  0
ARC
  5
10AD
330
1F
100
AcDbEntity
  8
1外形線
100
AcDbCircle
 10
98.71459099852257
 20
415.2316440645984
 30
0.0
 40
5.0
100
AcDbArc
 50
135.0000000000001
 51
180.0
  0
LINE
  5
10AE
330
1F
100
AcDbEntity
  8
1外形線
100
AcDbLine
 10
95.17905709259002
 20
418.7671779705312
 30
0.0
 11
102.2501249044555
 21
425.8382457823964
 31
0.0
  0
LINE
  5
10AF
330
1F
100
AcDbEntity
  8
1外形線
100
AcDbLine
 10
168.7145909985225
 20
415.2316440645984
 30
0.0
 11
168.7145909985225
 21
361.8027118764637
 31
0.0
  0
ARC
  5
10B0
330
1F
100
AcDbEntity
  8
1外形線
100
AcDbCircle
 10
163.7145909985225
 20
415.2316440645984
 30
0.0
 40
5.0
100
AcDbArc
 50
0.0
 51
44.99999999999989
  0
LINE
  5
10B1
330
1F
100
AcDbEntity
  8
1外形線
100
AcDbLine
 10
156.6435231866571
 20
427.3027118764637
 30
0.0
 11
105.7856588103882
 21
427.3027118764637
 31
0.0
  0
ARC
  5
10B2
330
1F
100
AcDbEntity
  8
1外形線
100
AcDbCircle
 10
105.7856588103882
 20
422.3027118764637
 30
0.0
 40
5.0
100
AcDbArc
 50
90.0
 51
135.0000000000001
  0
LINE
  5
10B3
330
1F
100
AcDbEntity
  8
1外形線
100
AcDbLine
 10
167.2501249044553
 20
418.7671779705312
 30
0.0
 11
160.1790570925898
 21
425.8382457823964
 31
0.0
  0
ARC
  5
10B4
330
1F
100
AcDbEntity
  8
1外形線
100
AcDbCircle
 10
156.6435231866571
 20
422.3027118764637
 30
0.0
 40
5.0
100
AcDbArc
 50
44.99999999999989
 51
90.0
  0
ENDSEC
  0
SECTION
  2
OBJECTS
  0
DICTIONARY
  5
C
330
0
100
AcDbDictionary
281
     1
  3
ACAD_CIP_PREVIOUS_PRODUCT_INFO
350
B25
  3
ACAD_COLOR
350
B09
  3
ACAD_DETAILVIEWSTYLE
350
B22
  3
ACAD_GROUP
350
D
  3
ACAD_LAYOUT
350
1A
  3
ACAD_MATERIAL
350
AD7
  3
ACAD_MLEADERSTYLE
350
B1E
  3
ACAD_MLINESTYLE
350
17
  3
ACAD_PLOTSETTINGS
350
19
  3
ACAD_PLOTSTYLENAME
350
E
  3
ACAD_SCALELIST
350
B0C
  3
ACAD_SECTIONVIEWSTYLE
350
B20
  3
ACAD_TABLESTYLE
350
B0A
  3
ACAD_VISUALSTYLE
350
AF0
  3
ACDB_RECOMPOSE_DATA
350
10BC
  3
AcDbVariableDictionary
350
2F1
  3
DWGPROPS
350
10BD
  0
DICTIONARY
  5
BC2
330
2
100
AcDbDictionary
280
     1
281
     1
  3
ACAD_LAYERSTATES
360
BC3
  0
DICTIONARY
  5
B26
330
10
100
AcDbDictionary
280
     1
281
     1
  3
ADSK_XREC_LAYER_RECONCILED
360
B27
  0
DICTIONARY
  5
B28
330
2B
100
AcDbDictionary
280
     1
281
     1
  3
ADSK_XREC_LAYER_RECONCILED
360
B29
  0
DICTIONARY
  5
B2A
330
1B6
100
AcDbDictionary
280
     1
281
     1
  3
ADSK_XREC_LAYER_RECONCILED
360
B2B
  0
DICTIONARY
  5
18A
330
1F
100
AcDbDictionary
280
     1
281
     1
  3
ACAD_LAYOUTSELFREF
360
18B
  3
ACAD_SORTENTS
360
D90
  0
DICTIONARY
  5
188
330
1B
100
AcDbDictionary
280
     1
281
     1
  3
ACAD_LAYOUTSELFREF
360
189
  0
XRECORD
  5
B25
102
{ACAD_REACTORS
330
C
102
}
330
C
100
AcDbXrecord
280
     1
300
ACDLT
300
2020
300
ACDLT_F_S
  0
DICTIONARY
  5
B09
102
{ACAD_REACTORS
330
C
102
}
330
C
100
AcDbDictionary
281
     1
  0
DICTIONARY
  5
B22
102
{ACAD_REACTORS
330
C
102
}
330
C
100
AcDbDictionary
281
     1
  3
Imperial24
350
BC5
  3
Metric50
350
B23
  0
DICTIONARY
  5
D
102
{ACAD_REACTORS
330
C
102
}
330
C
100
AcDbDictionary
281
     1
  0
DICTIONARY
  5
1A
102
{ACAD_REACTORS
330
C
102
}
330
C
100
AcDbDictionary
281
     1
  3
Model
350
192
  3
\U+FF9A\U+FF72\U+FF71\U+FF73\U+FF841
350
193
  0
DICTIONARY
  5
AD7
102
{ACAD_REACTORS
330
C
102
}
330
C
100
AcDbDictionary
281
     1
  3
ByBlock
350
AE0
  3
ByLayer
350
AD8
  3
Global
350
AE8
  0
DICTIONARY
  5
B1E
102
{ACAD_REACTORS
330
C
102
}
330
C
100
AcDbDictionary
281
     1
  3
Standard
350
B1F
  0
DICTIONARY
  5
17
102
{ACAD_REACTORS
330
C
102
}
330
C
100
AcDbDictionary
281
     1
  3
STANDARD
350
18
  0
DICTIONARY
  5
19
102
{ACAD_REACTORS
330
C
102
}
330
C
100
AcDbDictionary
281
     1
  0
ACDBDICTIONARYWDFLT
  5
E
102
{ACAD_REACTORS
330
C
102
}
330
C
100
AcDbDictionary
281
     1
  3
Normal
350
F
100
AcDbDictionaryWithDefault
340
F
  0
DICTIONARY
  5
B0C
102
{ACAD_REACTORS
330
C
102
}
330
C
100
AcDbDictionary
281
     1
  3
A0
350
B0D
  3
A1
350
B0E
  3
A2
350
B0F
  3
A3
350
B10
  3
A4
350
B11
  3
A5
350
B12
  3
A6
350
B13
  3
A7
350
B14
  3
A8
350
B15
  3
A9
350
B16
  3
B0
350
B17
  3
B1
350
B18
  3
B2
350
B19
  3
B3
350
B1A
  3
B4
350
B1B
  3
B5
350
B1C
  3
B6
350
B1D
  0
DICTIONARY
  5
B20
102
{ACAD_REACTORS
330
C
102
}
330
C
100
AcDbDictionary
281
     1
  3
Imperial24
350
BC4
  3
Metric50
350
B21
  0
DICTIONARY
  5
B0A
102
{ACAD_REACTORS
330
C
102
}
330
C
100
AcDbDictionary
281
     1
  3
Standard
350
B0B
  0
DICTIONARY
  5
AF0
102
{ACAD_REACTORS
330
C
102
}
330
C
100
AcDbDictionary
281
     1
  3
2dWireframe
350
AF6
  3
3dWireframe
350
BC1
  3
Basic
350
AF5
  3
Brighten
350
AFC
  3
ColorChange
350
B00
  3
Conceptual
350
AF9
  3
Dim
350
AFB
  3
EdgeColorOff
350
B08
  3
Facepattern
350
AFF
  3
Flat
350
AF1
  3
FlatWithEdges
350
AF2
  3
Gouraud
350
AF3
  3
GouraudWithEdges
350
AF4
  3
Hidden
350
AF8
  3
JitterOff
350
B06
  3
Linepattern
350
AFE
  3
OverhangOff
350
B07
  3
Realistic
350
AFA
  3
Shaded
350
B05
  3
Shaded with edges
350
B04
  3
Shades of Gray
350
B01
  3
Sketchy
350
B02
  3
Thicken
350
AFD
  3
Wireframe
350
AF7
  3
X-Ray
350
B03
  0
XRECORD
  5
10BC
102
{ACAD_REACTORS
330
C
102
}
330
C
100
AcDbXrecord
280
     1
 90
        1
330
B0B
  0
DICTIONARY
  5
2F1
102
{ACAD_REACTORS
330
C
102
}
330
C
100
AcDbDictionary
281
     1
  3
CANNOSCALE
350
B30
  3
CMLEADERSTYLE
350
B2D
  3
CTABLESTYLE
350
B2C
  3
CVIEWDETAILSTYLE
350
B2E
  3
CVIEWSECTIONSTYLE
350
B2F
  3
DIMASSOC
350
2F2
  3
INDEXCTL
350
B32
  3
LAYEREVAL
350
10B7
  3
LAYERNOTIFY
350
10B8
  3
LIGHTINGUNITS
350
10B6
  3
MSLTSCALE
350
10B5
  3
SORTENTS
350
B31
  3
XCLIPFRAME
350
10B9
  0
XRECORD
  5
10BD
102
{ACAD_REACTORS
330
C
102
}
330
C
100
AcDbXrecord
280
     1
  1
DWGPROPS COOKIE
  2

  3

  4

  6

  7

  8
takaaki.hirami
  9

300
=
301
=
302
=
303
=
304
=
305
=
306
=
307
=
308
=
309
=
 40
0.3228584953703704
 41
2452774.428078704
 42
2459990.43349537
  1

 90
        0
  0
DICTIONARY
  5
BC3
102
{ACAD_REACTORS
330
BC2
102
}
330
BC2
100
AcDbDictionary
281
     1
  0
XRECORD
  5
B27
102
{ACAD_REACTORS
330
B26
102
}
330
B26
100
AcDbXrecord
280
     1
290
     1
  0
XRECORD
  5
B29
102
{ACAD_REACTORS
330
B28
102
}
330
B28
100
AcDbXrecord
280
     1
290
     1
  0
XRECORD
  5
B2B
102
{ACAD_REACTORS
330
B2A
102
}
330
B2A
100
AcDbXrecord
280
     1
290
     1
  0
XRECORD
  5
18B
102
{ACAD_REACTORS
330
18A
102
}
330
18A
100
AcDbXrecord
280
     1
340
1F
  0
SORTENTSTABLE
  5
D90
102
{ACAD_REACTORS
330
18A
102
}
330
18A
100
AcDbSortentsTable
330
1F
331
A08
  5
A13
331
A09
  5
A66
331
A0A
  5
A6A
331
A0D
  5
A6D
331
A0F
  5
A7B
331
A10
  5
A7E
331
A12
  5
A7F
331
A65
  5
A82
331
A66
  5
A83
331
A67
  5
A84
331
A68
  5
A85
331
A6A
  5
A86
331
A6C
  5
A87
331
A6D
  5
A88
331
A7B
  5
A89
331
A7C
  5
A8A
331
A7D
  5
A8B
331
A7E
  5
A8C
331
A7F
  5
A8E
331
A80
  5
A8F
331
A81
  5
A90
331
A82
  5
A91
331
A83
  5
A92
331
A84
  5
A94
331
A86
  5
A98
331
A89
  5
A9B
331
A8A
  5
A9F
331
A8B
  5
AA2
331
A8D
  5
AAC
331
A8E
  5
AAD
331
A90
  5
AB0
331
A96
  5
AB5
331
A97
  5
AB6
331
A9A
  5
AB8
331
A9C
  5
AB9
331
A9F
  5
ABB
331
AA0
  5
ABC
331
AA1
  5
ABD
331
AA2
  5
ABE
331
AA3
  5
ABF
331
AA4
  5
AC0
331
AA5
  5
AC1
331
AA6
  5
AC2
331
AA7
  5
AC3
331
AA8
  5
AC4
331
AA9
  5
AC5
331
AAA
  5
C57
331
AAB
  5
C58
331
AAC
  5
C59
331
AAD
  5
C5A
331
AAE
  5
C5B
331
AAF
  5
C5C
331
AB0
  5
C5D
331
AB1
  5
C5E
331
AB2
  5
C5F
331
AB3
  5
C60
331
AB4
  5
C61
331
AB5
  5
C62
331
AB6
  5
C63
331
AB7
  5
C64
331
AB8
  5
C65
331
AB9
  5
C66
331
ABA
  5
C67
331
ABB
  5
C68
331
ABC
  5
C69
331
ABD
  5
C6A
331
ABE
  5
C6B
331
ABF
  5
C6C
331
AC0
  5
C6D
331
AC1
  5
C6E
331
AC2
  5
C6F
331
AC3
  5
C70
331
AC4
  5
C71
331
AC5
  5
C72
331
D99
  5
A65
331
D9A
  5
A7C
331
D9B
  5
A81
331
D9C
  5
A67
331
DA8
  5
AAE
331
DA9
  5
AA3
331
DAA
  5
ABA
331
DAB
  5
A8D
  0
XRECORD
  5
189
102
{ACAD_REACTORS
330
188
102
}
330
188
100
AcDbXrecord
280
     1
340
1B
  0
ACDBDETAILVIEWSTYLE
  5
BC5
102
{ACAD_XDICTIONARY
360
10FB
102
}
102
{ACAD_REACTORS
330
B22
102
}
330
B22
100
AcDbModelDocViewStyle
 70
     0
  3
Imperial24
290
     0
100
AcDbDetailViewStyle
 70
     0
 71
     0
 90
        3
 71
     1
340
11
 40
0.24
340
0
 40
0.24
300

 40
0.36
280
     3
 71
     2
340
16
 90
       25
 71
     3
340
11
 40
0.24
 90
        1
 40
0.75
 90
        1
300
%<\AcVar ViewType \f "%tc1">% %<\AcVar ViewDetailId>%\PSCALE %<\AcVar ViewScale \f "%sn">%
 71
     4
340
16
 90
       25
340
16
 90
       25
280
     0
  0
ACDBDETAILVIEWSTYLE
  5
B23
102
{ACAD_XDICTIONARY
360
10F5
102
}
102
{ACAD_REACTORS
330
B22
102
}
330
B22
100
AcDbModelDocViewStyle
 70
     0
  3
Metric50
290
     0
100
AcDbDetailViewStyle
 70
     0
 71
     0
 90
        3
 71
     1
340
11
 40
5.0
340
0
 40
5.0
300

 40
0.0
280
     1
 71
     2
340
16
 90
       25
 71
     3
340
11
 40
5.0
 90
        0
 40
15.0
 90
        1
300
%<\AcVar ViewDetailId>% (%<\AcVar ViewScale \f "%sn">%)
 71
     4
340
16
 90
       25
340
16
 90
       25
280
     0
  0
LAYOUT
  5
192
102
{ACAD_XDICTIONARY
360
10BE
102
}
102
{ACAD_REACTORS
330
1A
102
}
330
1A
100
AcDbPlotSettings
  1

  2
Canon LASER SHOT LBP-1710
  4

  6

 40
0.0
 41
0.0
 42
0.0
 43
0.0
 44
0.0
 45
0.0
 46
0.0
 47
0.0
 48
0.0
 49
0.0
140
0.0
141
0.0
142
1.0
143
1.0
 70
  1712
 72
     0
 73
     0
 74
     0
  7
1mizukoshi.ctb
 75
     0
147
1.0
148
0.0
149
0.0
100
AcDbLayout
  1
Model
 70
     1
 71
     0
 10
0.0
 20
0.0
 11
12.0
 21
9.0
 12
0.0
 22
0.0
 32
0.0
 14
0.0
 24
0.0
 34
0.0
 15
0.0
 25
0.0
 35
0.0
146
0.0
 13
0.0
 23
0.0
 33
0.0
 16
1.0
 26
0.0
 36
0.0
 17
0.0
 27
1.0
 37
0.0
 76
     0
330
1F
331
AD2
  0
LAYOUT
  5
193
102
{ACAD_XDICTIONARY
360
10C0
102
}
102
{ACAD_REACTORS
330
1A
102
}
330
1A
100
AcDbPlotSettings
  1

  2
Canon LASER SHOT LBP-1710
  4

  6

 40
0.0
 41
0.0
 42
0.0
 43
0.0
 44
0.0
 45
0.0
 46
0.0
 47
0.0
 48
0.0
 49
0.0
140
0.0
141
0.0
142
1.0
143
1.0
 70
   688
 72
     0
 73
     0
 74
     5
  7
1mizukoshi.ctb
 75
    16
147
1.0
148
0.0
149
0.0
100
AcDbLayout
  1
\U+FF9A\U+FF72\U+FF71\U+FF73\U+FF841
 70
     1
 71
     1
 10
0.0
 20
0.0
 11
420.0
 21
297.0
 12
0.0
 22
0.0
 32
0.0
 14
1.000000000000000E+20
 24
1.000000000000000E+20
 34
1.000000000000000E+20
 15
-1.000000000000000E+20
 25
-1.000000000000000E+20
 35
-1.000000000000000E+20
146
0.0
 13
0.0
 23
0.0
 33
0.0
 16
1.0
 26
0.0
 36
0.0
 17
0.0
 27
1.0
 37
0.0
 76
     0
330
1B
  0
MATERIAL
  5
AE0
102
{ACAD_XDICTIONARY
360
AE1
102
}
102
{ACAD_REACTORS
330
AD7
102
}
330
AD7
100
AcDbMaterial
  1
ByBlock
 72
     0
 43
0.0008202099737533
 43
0.0
 43
0.0
 43
0.0
 43
0.0
 43
0.0008202099737533
 43
0.0
 43
0.0
 43
0.0
 43
0.0
 43
1.0
 43
0.0
 43
0.0
 43
0.0
 43
0.0
 43
1.0
 77
     0
 47
0.0008202099737533
 47
0.0
 47
0.0
 47
0.0
 47
0.0
 47
0.0008202099737533
 47
0.0
 47
0.0
 47
0.0
 47
0.0
 47
1.0
 47
0.0
 47
0.0
 47
0.0
 47
0.0
 47
1.0
171
     0
 49
0.0008202099737533
 49
0.0
 49
0.0
 49
0.0
 49
0.0
 49
0.0008202099737533
 49
0.0
 49
0.0
 49
0.0
 49
0.0
 49
1.0
 49
0.0
 49
0.0
 49
0.0
 49
0.0
 49
1.0
175
     0
142
0.0008202099737533
142
0.0
142
0.0
142
0.0
142
0.0
142
0.0008202099737533
142
0.0
142
0.0
142
0.0
142
0.0
142
1.0
142
0.0
142
0.0
142
0.0
142
0.0
142
1.0
179
     0
144
0.0008202099737533
144
0.0
144
0.0
144
0.0
144
0.0
144
0.0008202099737533
144
0.0
144
0.0
144
0.0
144
0.0
144
1.0
144
0.0
144
0.0
144
0.0
144
0.0
144
1.0
147
0.0008202099737533
147
0.0
147
0.0
147
0.0
147
0.0
147
0.0008202099737533
147
0.0
147
0.0
147
0.0
147
0.0
147
1.0
147
0.0
147
0.0
147
0.0
147
0.0
147
1.0
  0
MATERIAL
  5
AD8
102
{ACAD_XDICTIONARY
360
AD9
102
}
102
{ACAD_REACTORS
330
AD7
102
}
330
AD7
100
AcDbMaterial
  1
ByLayer
 72
     0
 43
0.0008202099737533
 43
0.0
 43
0.0
 43
0.0
 43
0.0
 43
0.0008202099737533
 43
0.0
 43
0.0
 43
0.0
 43
0.0
 43
1.0
 43
0.0
 43
0.0
 43
0.0
 43
0.0
 43
1.0
 77
     0
 47
0.0008202099737533
 47
0.0
 47
0.0
 47
0.0
 47
0.0
 47
0.0008202099737533
 47
0.0
 47
0.0
 47
0.0
 47
0.0
 47
1.0
 47
0.0
 47
0.0
 47
0.0
 47
0.0
 47
1.0
171
     0
 49
0.0008202099737533
 49
0.0
 49
0.0
 49
0.0
 49
0.0
 49
0.0008202099737533
 49
0.0
 49
0.0
 49
0.0
 49
0.0
 49
1.0
 49
0.0
 49
0.0
 49
0.0
 49
0.0
 49
1.0
175
     0
142
0.0008202099737533
142
0.0
142
0.0
142
0.0
142
0.0
142
0.0008202099737533
142
0.0
142
0.0
142
0.0
142
0.0
142
1.0
142
0.0
142
0.0
142
0.0
142
0.0
142
1.0
179
     0
144
0.0008202099737533
144
0.0
144
0.0
144
0.0
144
0.0
144
0.0008202099737533
144
0.0
144
0.0
144
0.0
144
0.0
144
1.0
144
0.0
144
0.0
144
0.0
144
0.0
144
1.0
147
0.0008202099737533
147
0.0
147
0.0
147
0.0
147
0.0
147
0.0008202099737533
147
0.0
147
0.0
147
0.0
147
0.0
147
1.0
147
0.0
147
0.0
147
0.0
147
0.0
147
1.0
  0
MATERIAL
  5
AE8
102
{ACAD_XDICTIONARY
360
AE9
102
}
102
{ACAD_REACTORS
330
AD7
102
}
330
AD7
100
AcDbMaterial
  1
Global
 72
     0
 43
0.0008202099737533
 43
0.0
 43
0.0
 43
0.0
 43
0.0
 43
0.0008202099737533
 43
0.0
 43
0.0
 43
0.0
 43
0.0
 43
1.0
 43
0.0
 43
0.0
 43
0.0
 43
0.0
 43
1.0
 77
     0
 47
0.0008202099737533
 47
0.0
 47
0.0
 47
0.0
 47
0.0
 47
0.0008202099737533
 47
0.0
 47
0.0
 47
0.0
 47
0.0
 47
1.0
 47
0.0
 47
0.0
 47
0.0
 47
0.0
 47
1.0
171
     0
 49
0.0008202099737533
 49
0.0
 49
0.0
 49
0.0
 49
0.0
 49
0.0008202099737533
 49
0.0
 49
0.0
 49
0.0
 49
0.0
 49
1.0
 49
0.0
 49
0.0
 49
0.0
 49
0.0
 49
1.0
175
     0
142
0.0008202099737533
142
0.0
142
0.0
142
0.0
142
0.0
142
0.0008202099737533
142
0.0
142
0.0
142
0.0
142
0.0
142
1.0
142
0.0
142
0.0
142
0.0
142
0.0
142
1.0
179
     0
144
0.0008202099737533
144
0.0
144
0.0
144
0.0
144
0.0
144
0.0008202099737533
144
0.0
144
0.0
144
0.0
144
0.0
144
1.0
144
0.0
144
0.0
144
0.0
144
0.0
144
1.0
147
0.0008202099737533
147
0.0
147
0.0
147
0.0
147
0.0
147
0.0008202099737533
147
0.0
147
0.0
147
0.0
147
0.0
147
1.0
147
0.0
147
0.0
147
0.0
147
0.0
147
1.0
  0
MLEADERSTYLE
  5
B1F
102
{ACAD_REACTORS
330
B1E
102
}
330
B1E
100
AcDbMLeaderStyle
170
     2
171
     1
172
     0
 90
        2
 40
0.0
 41
0.0
173
     1
 91
-1056964608
340
14
 92
       -2
290
     1
 42
2.0
291
     1
 43
0.36
  3
Standard
 44
4.0
300

342
11
174
     1
178
     6
175
     1
176
     0
 93
-1056964608
 45
4.0
292
     0
297
     0
 46
4.0
 94
-1056964608
 47
1.0
 49
1.0
140
1.0
293
     1
141
0.0
294
     1
177
     0
142
1.0
295
     0
296
     0
143
0.125
1001
ACAD_MLEADERVER
1070
     2
  0
MLINESTYLE
  5
18
102
{ACAD_REACTORS
330
17
102
}
330
17
100
AcDbMlineStyle
  2
STANDARD
 70
     0
  3

 62
   256
 51
90.0
 52
90.0
 71
     2
 49
0.5
 62
   256
  6
BYLAYER
 49
-0.5
 62
   256
  6
BYLAYER
  0
ACDBPLACEHOLDER
  5
F
102
{ACAD_REACTORS
330
E
102
}
330
E
  0
SCALE
  5
B0D
102
{ACAD_REACTORS
330
B0C
102
}
330
B0C
100
AcDbScale
 70
     0
300
1:1
140
1.0
141
1.0
290
     1
  0
SCALE
  5
B0E
102
{ACAD_REACTORS
330
B0C
102
}
330
B0C
100
AcDbScale
 70
     0
300
1:2
140
1.0
141
2.0
290
     0
  0
SCALE
  5
B0F
102
{ACAD_REACTORS
330
B0C
102
}
330
B0C
100
AcDbScale
 70
     0
300
1:4
140
1.0
141
4.0
290
     0
  0
SCALE
  5
B10
102
{ACAD_REACTORS
330
B0C
102
}
330
B0C
100
AcDbScale
 70
     0
300
1:5
140
1.0
141
5.0
290
     0
  0
SCALE
  5
B11
102
{ACAD_REACTORS
330
B0C
102
}
330
B0C
100
AcDbScale
 70
     0
300
1:8
140
1.0
141
8.0
290
     0
  0
SCALE
  5
B12
102
{ACAD_REACTORS
330
B0C
102
}
330
B0C
100
AcDbScale
 70
     0
300
1:10
140
1.0
141
10.0
290
     0
  0
SCALE
  5
B13
102
{ACAD_REACTORS
330
B0C
102
}
330
B0C
100
AcDbScale
 70
     0
300
1:16
140
1.0
141
16.0
290
     0
  0
SCALE
  5
B14
102
{ACAD_REACTORS
330
B0C
102
}
330
B0C
100
AcDbScale
 70
     0
300
1:20
140
1.0
141
20.0
290
     0
  0
SCALE
  5
B15
102
{ACAD_REACTORS
330
B0C
102
}
330
B0C
100
AcDbScale
 70
     0
300
1:30
140
1.0
141
30.0
290
     0
  0
SCALE
  5
B16
102
{ACAD_REACTORS
330
B0C
102
}
330
B0C
100
AcDbScale
 70
     0
300
1:40
140
1.0
141
40.0
290
     0
  0
SCALE
  5
B17
102
{ACAD_REACTORS
330
B0C
102
}
330
B0C
100
AcDbScale
 70
     0
300
1:50
140
1.0
141
50.0
290
     0
  0
SCALE
  5
B18
102
{ACAD_REACTORS
330
B0C
102
}
330
B0C
100
AcDbScale
 70
     0
300
1:100
140
1.0
141
100.0
290
     0
  0
SCALE
  5
B19
102
{ACAD_REACTORS
330
B0C
102
}
330
B0C
100
AcDbScale
 70
     0
300
2:1
140
2.0
141
1.0
290
     0
  0
SCALE
  5
B1A
102
{ACAD_REACTORS
330
B0C
102
}
330
B0C
100
AcDbScale
 70
     0
300
4:1
140
4.0
141
1.0
290
     0
  0
SCALE
  5
B1B
102
{ACAD_REACTORS
330
B0C
102
}
330
B0C
100
AcDbScale
 70
     0
300
8:1
140
8.0
141
1.0
290
     0
  0
SCALE
  5
B1C
102
{ACAD_REACTORS
330
B0C
102
}
330
B0C
100
AcDbScale
 70
     0
300
10:1
140
10.0
141
1.0
290
     0
  0
SCALE
  5
B1D
102
{ACAD_REACTORS
330
B0C
102
}
330
B0C
100
AcDbScale
 70
     0
300
100:1
140
100.0
141
1.0
290
     0
  0
ACDBSECTIONVIEWSTYLE
  5
BC4
102
{ACAD_XDICTIONARY
360
10F9
102
}
102
{ACAD_REACTORS
330
B20
102
}
330
B20
100
AcDbModelDocViewStyle
 70
     0
  3
Imperial24
290
     0
100
AcDbSectionViewStyle
 70
     0
 71
     0
 90
       78
 71
     1
340
11
 40
0.24
340
0
340
0
 40
0.24
300
I, O, Q, S, X, Z
 40
0.48
 90
        3
 40
0.18
 90
        1
 71
     2
340
16
 90
       25
340
16
 90
       50
 40
0.24
 40
0.0
 40
0.24
 71
     3
340
11
 40
0.24
 90
        1
 40
0.75
 90
        1
300
%<\AcVar ViewType \f "%tc1">% %<\AcVar ViewSectionStartId>%-%<\AcVar ViewSectionEndId>%\PSCALE %<\AcVar ViewScale \f "%sn">%
 71
     4
300
ANSI31
 40
1.0
 90
        0
290
     0
290
     0
 90
        6
 40
0.0
 40
1.570796326794896
 40
0.2617993877991494
 40
1.308996938995747
 40
-0.2617993877991494
 40
1.832595714594045
  0
ACDBSECTIONVIEWSTYLE
  5
B21
102
{ACAD_XDICTIONARY
360
10F3
102
}
102
{ACAD_REACTORS
330
B20
102
}
330
B20
100
AcDbModelDocViewStyle
 70
     0
  3
Metric50
290
     0
100
AcDbSectionViewStyle
 70
     0
 71
     0
 90
      102
 71
     1
340
11
 40
5.0
340
0
340
0
 40
5.0
300
I, O, Q, S, X, Z
 40
10.0
 90
        0
 40
2.5
 90
        0
 71
     2
340
16
 90
       25
340
16
 90
       50
 40
5.0
 40
2.5
 40
5.0
 71
     3
340
11
 40
5.0
 90
        0
 40
15.0
 90
        1
300
%<\AcVar ViewSectionStartId>%-%<\AcVar ViewSectionEndId>% (%<\AcVar ViewScale \f "%sn">%)
 71
     4
300
ANSI31
 40
1.0
 90
        0
290
     0
290
     0
 90
        6
 40
0.0
 40
1.570796326794896
 40
0.2617993877991494
 40
1.308996938995747
 40
-0.2617993877991494
 40
1.832595714594044
  0
TABLESTYLE
  5
B0B
102
{ACAD_XDICTIONARY
360
B35
102
}
102
{ACAD_REACTORS
330
B0A
102
}
330
B0A
100
AcDbTableStyle
  3
Standard
 70
     0
 71
     0
 40
1.5
 41
1.5
280
     0
281
     0
  7
STANDARD
140
4.5
170
     2
 62
     0
 63
     7
283
     0
274
    -2
284
     1
 64
     0
275
    -2
285
     1
 65
     0
276
    -2
286
     1
 66
     0
277
    -2
287
     1
 67
     0
278
    -2
288
     1
 68
     0
279
    -2
289
     1
 69
     0
  7
STANDARD
140
6.0
170
     5
 62
     0
 63
     7
283
     0
274
    -2
284
     1
 64
     0
275
    -2
285
     1
 65
     0
276
    -2
286
     1
 66
     0
277
    -2
287
     1
 67
     0
278
    -2
288
     1
 68
     0
279
    -2
289
     1
 69
     0
  7
STANDARD
140
4.5
170
     5
 62
     0
 63
     7
283
     0
274
    -2
284
     1
 64
     0
275
    -2
285
     1
 65
     0
276
    -2
286
     1
 66
     0
277
    -2
287
     1
 67
     0
278
    -2
288
     1
 68
     0
279
    -2
289
     1
 69
     0
  0
VISUALSTYLE
  5
AF6
102
{ACAD_XDICTIONARY
360
10CC
102
}
102
{ACAD_REACTORS
330
AF0
102
}
330
AF0
100
AcDbVisualStyle
  2

 70
     4
 71
     0
 72
     2
 73
     0
 90
        0
 40
-0.6
 41
-30.0
 62
     5
 63
     7
 74
     1
 91
        4
 64
     7
 65
   257
 75
     1
175
     1
 42
1.0
 92
        0
 66
   257
 43
1.0
 76
     1
 77
     6
 78
     2
 67
     7
 79
     5
170
     0
171
     0
290
     0
174
     0
 93
        1
 44
0.0
173
     0
291
     0
 45
0.0
1001
ACAD
1000
AcDbSavedByObjectVersion
1070
     0
  0
VISUALSTYLE
  5
BC1
102
{ACAD_XDICTIONARY
360
10F7
102
}
102
{ACAD_REACTORS
330
AF0
102
}
330
AF0
100
AcDbVisualStyle
  2

 70
     5
 71
     0
 72
     2
 73
     0
 90
        0
 40
-0.6
 41
-30.0
 62
     5
 63
     7
 74
     1
 91
        4
 64
     7
 65
   257
 75
     1
175
     1
 42
1.0
 92
        0
 66
   257
 43
1.0
 76
     1
 77
     6
 78
     2
 67
     7
 79
     5
170
     0
171
     0
290
     0
174
     0
 93
        1
 44
0.0
173
     0
291
     0
 45
0.0
1001
ACAD
1000
AcRTDxfName
1000
VISUALSTYLE
1000
AcRTDxfName
1000
VISUALSTYLE
1000
AcRTDxfName
1000
VISUALSTYLE
1000
AcRTDxfName
1000
VISUALSTYLE
1000
AcRTDxfName
1000
VISUALSTYLE
1000
AcRTDxfName
1000
VISUALSTYLE
1000
AcRTDxfName
1000
VISUALSTYLE
1000
AcRTDxfName
1000
VISUALSTYLE
1000
AcRTDxfName
1000
VISUALSTYLE
1000
AcDbSavedByObjectVersion
1070
     0
  0
VISUALSTYLE
  5
AF5
102
{ACAD_XDICTIONARY
360
10CA
102
}
102
{ACAD_REACTORS
330
AF0
102
}
330
AF0
100
AcDbVisualStyle
  2

 70
     7
 71
     1
 72
     0
 73
     1
 90
        0
 40
-0.6
 41
-30.0
 62
     5
 63
     7
 74
     0
 91
        4
 64
     7
 65
   257
 75
     1
175
     1
 42
1.0
 92
        8
 66
     7
 43
1.0
 76
     1
 77
     6
 78
     2
 67
     7
 79
     5
170
     0
171
     0
290
     0
174
     0
 93
        1
 44
0.0
173
     0
291
     1
 45
0.0
1001
ACAD
1000
AcDbSavedByObjectVersion
1070
     0
  0
VISUALSTYLE
  5
AFC
102
{ACAD_XDICTIONARY
360
10D8
102
}
102
{ACAD_REACTORS
330
AF0
102
}
330
AF0
100
AcDbVisualStyle
  2

 70
    12
 71
     2
 72
     2
 73
     0
 90
        0
 40
-0.6
 41
-30.0
 62
     5
 63
     7
 74
     1
 91
        4
 64
     7
 65
   257
 75
     1
175
     1
 42
1.0
 92
        8
 66
     7
 43
1.0
 76
     1
 77
     6
 78
     2
 67
     7
 79
     5
170
     0
171
     0
290
     0
174
     0
 93
        1
 44
50.0
173
     0
291
     1
 45
0.0
1001
ACAD
1000
AcDbSavedByObjectVersion
1070
     0
  0
VISUALSTYLE
  5
B00
102
{ACAD_XDICTIONARY
360
10E0
102
}
102
{ACAD_REACTORS
330
AF0
102
}
330
AF0
100
AcDbVisualStyle
  2

 70
    16
 71
     2
 72
     2
 73
     3
 90
        0
 40
-0.6
 41
-30.0
 62
     5
 63
     8
 74
     1
 91
        4
 64
     7
 65
   257
 75
     1
175
     1
 42
1.0
 92
        8
 66
     8
 43
1.0
 76
     1
 77
     6
 78
     2
 67
     7
 79
     5
170
     0
171
     0
290
     0
174
     0
 93
        1
 44
0.0
173
     0
291
     1
 45
0.0
1001
ACAD
1000
AcDbSavedByObjectVersion
1070
     0
  0
VISUALSTYLE
  5
AF9
102
{ACAD_XDICTIONARY
360
10D2
102
}
102
{ACAD_REACTORS
330
AF0
102
}
330
AF0
100
AcDbVisualStyle
  2

 70
     9
 71
     3
 72
     2
 73
     0
 90
        0
 40
-0.6
 41
-30.0
 62
     5
 63
     7
 74
     2
 91
        2
 64
     7
 65
   257
 75
     1
175
     1
 42
179.0
 92
        8
 66
     7
 43
1.0
 76
     1
 77
     6
 78
     2
 67
     7
 79
     3
170
     0
171
     0
290
     0
174
     0
 93
        1
 44
0.0
173
     0
291
     0
 45
0.0
1001
ACAD
1000
AcDbSavedByObjectVersion
1070
     0
  0
VISUALSTYLE
  5
AFB
102
{ACAD_XDICTIONARY
360
10D6
102
}
102
{ACAD_REACTORS
330
AF0
102
}
330
AF0
100
AcDbVisualStyle
  2

 70
    11
 71
     2
 72
     2
 73
     0
 90
        0
 40
-0.6
 41
-30.0
 62
     5
 63
     7
 74
     1
 91
        4
 64
     7
 65
   257
 75
     1
175
     1
 42
1.0
 92
        8
 66
     7
 43
1.0
 76
     1
 77
     6
 78
     2
 67
     7
 79
     5
170
     0
171
     0
290
     0
174
     0
 93
        1
 44
-50.0
173
     0
291
     1
 45
0.0
1001
ACAD
1000
AcDbSavedByObjectVersion
1070
     0
  0
VISUALSTYLE
  5
B08
102
{ACAD_XDICTIONARY
360
10F0
102
}
102
{ACAD_REACTORS
330
AF0
102
}
330
AF0
100
AcDbVisualStyle
  2

 70
    22
 71
     2
 72
     2
 73
     0
 90
        0
 40
-0.6
 41
-30.0
 62
     5
 63
     7
 74
     1
 91
        4
 64
     7
 65
   257
 75
     1
175
     1
 42
1.0
 92
        8
 66
     7
 43
1.0
 76
     1
 77
     6
 78
     2
 67
     7
 79
     5
170
     0
171
     0
290
     0
174
     0
 93
        1
 44
0.0
173
     0
291
     1
 45
0.0
1001
ACAD
1000
AcDbSavedByObjectVersion
1070
     0
  0
VISUALSTYLE
  5
AFF
102
{ACAD_XDICTIONARY
360
10DE
102
}
102
{ACAD_REACTORS
330
AF0
102
}
330
AF0
100
AcDbVisualStyle
  2

 70
    15
 71
     2
 72
     2
 73
     0
 90
        0
 40
-0.6
 41
-30.0
 62
     5
 63
     7
 74
     1
 91
        4
 64
     7
 65
   257
 75
     1
175
     1
 42
1.0
 92
        8
 66
     7
 43
1.0
 76
     1
 77
     6
 78
     2
 67
     7
 79
     5
170
     0
171
     0
290
     0
174
     0
 93
        1
 44
0.0
173
     0
291
     1
 45
0.0
1001
ACAD
1000
AcDbSavedByObjectVersion
1070
     0
  0
VISUALSTYLE
  5
AF1
102
{ACAD_XDICTIONARY
360
10C2
102
}
102
{ACAD_REACTORS
330
AF0
102
}
330
AF0
100
AcDbVisualStyle
  2

 70
     0
 71
     2
 72
     1
 73
     1
 90
        2
 40
-0.6
 41
30.0
 62
     5
 63
     7
 74
     0
 91
        0
 64
     7
 65
   257
 75
     1
175
     1
 42
1.0
 92
        8
 66
     7
 43
1.0
 76
     1
 77
     6
 78
     2
 67
     7
 79
     5
170
     0
171
     0
290
     0
174
     0
 93
       13
 44
0.0
173
     0
291
     1
 45
0.0
1001
ACAD
1000
AcDbSavedByObjectVersion
1070
     0
  0
VISUALSTYLE
  5
AF2
102
{ACAD_XDICTIONARY
360
10C4
102
}
102
{ACAD_REACTORS
330
AF0
102
}
330
AF0
100
AcDbVisualStyle
  2

 70
     1
 71
     2
 72
     1
 73
     1
 90
        2
 40
-0.6
 41
30.0
 62
     5
 63
     7
 74
     1
 91
        0
 64
     7
 65
   257
 75
     1
175
     1
 42
1.0
 92
        0
 66
   257
 43
1.0
 76
     1
 77
     6
 78
     2
 67
     7
 79
     5
170
     0
171
     0
290
     0
174
     0
 93
       13
 44
0.0
173
     0
291
     1
 45
0.0
1001
ACAD
1000
AcDbSavedByObjectVersion
1070
     0
  0
VISUALSTYLE
  5
AF3
102
{ACAD_XDICTIONARY
360
10C6
102
}
102
{ACAD_REACTORS
330
AF0
102
}
330
AF0
100
AcDbVisualStyle
  2

 70
     2
 71
     2
 72
     2
 73
     1
 90
        2
 40
-0.6
 41
30.0
 62
     5
 63
     7
 74
     0
 91
        0
 64
     7
 65
   257
 75
     1
175
     1
 42
1.0
 92
        0
 66
     7
 43
1.0
 76
     1
 77
     6
 78
     2
 67
     7
 79
     5
170
     0
171
     0
290
     0
174
     0
 93
       13
 44
0.0
173
     0
291
     1
 45
0.0
1001
ACAD
1000
AcDbSavedByObjectVersion
1070
     0
  0
VISUALSTYLE
  5
AF4
102
{ACAD_XDICTIONARY
360
10C8
102
}
102
{ACAD_REACTORS
330
AF0
102
}
330
AF0
100
AcDbVisualStyle
  2

 70
     3
 71
     2
 72
     2
 73
     1
 90
        2
 40
-0.6
 41
30.0
 62
     5
 63
     7
 74
     1
 91
        0
 64
     7
 65
   257
 75
     1
175
     1
 42
1.0
 92
        0
 66
   257
 43
1.0
 76
     1
 77
     6
 78
     2
 67
     7
 79
     5
170
     0
171
     0
290
     0
174
     0
 93
       13
 44
0.0
173
     0
291
     1
 45
0.0
1001
ACAD
1000
AcDbSavedByObjectVersion
1070
     0
  0
VISUALSTYLE
  5
AF8
102
{ACAD_XDICTIONARY
360
10D0
102
}
102
{ACAD_REACTORS
330
AF0
102
}
330
AF0
100
AcDbVisualStyle
  2

 70
     6
 71
     1
 72
     2
 73
     2
 90
        0
 40
-0.6
 41
-30.0
 62
     5
 63
     7
 74
     2
 91
        2
 64
     7
 65
   257
 75
     2
175
     1
 42
40.0
 92
        0
 66
   257
 43
1.0
 76
     1
 77
     6
 78
     2
 67
     7
 79
     3
170
     0
171
     0
290
     0
174
     0
 93
        1
 44
0.0
173
     0
291
     0
 45
0.0
1001
ACAD
1000
AcDbSavedByObjectVersion
1070
     0
  0
VISUALSTYLE
  5
B06
102
{ACAD_XDICTIONARY
360
10EC
102
}
102
{ACAD_REACTORS
330
AF0
102
}
330
AF0
100
AcDbVisualStyle
  2

 70
    20
 71
     2
 72
     2
 73
     0
 90
        0
 40
-0.6
 41
-30.0
 62
     5
 63
     7
 74
     1
 91
        4
 64
     7
 65
   257
 75
     1
175
     1
 42
1.0
 92
       10
 66
     7
 43
1.0
 76
     1
 77
     6
 78
     2
 67
     7
 79
     5
170
     0
171
     0
290
     0
174
     0
 93
        1
 44
0.0
173
     0
291
     1
 45
0.0
1001
ACAD
1000
AcDbSavedByObjectVersion
1070
     0
  0
VISUALSTYLE
  5
AFE
102
{ACAD_XDICTIONARY
360
10DC
102
}
102
{ACAD_REACTORS
330
AF0
102
}
330
AF0
100
AcDbVisualStyle
  2

 70
    14
 71
     2
 72
     2
 73
     0
 90
        0
 40
-0.6
 41
-30.0
 62
     5
 63
     7
 74
     1
 91
        4
 64
     7
 65
   257
 75
     7
175
     7
 42
1.0
 92
        8
 66
     7
 43
1.0
 76
     1
 77
     6
 78
     2
 67
     7
 79
     5
170
     0
171
     0
290
     0
174
     0
 93
        1
 44
0.0
173
     0
291
     1
 45
0.0
1001
ACAD
1000
AcDbSavedByObjectVersion
1070
     0
  0
VISUALSTYLE
  5
B07
102
{ACAD_XDICTIONARY
360
10EE
102
}
102
{ACAD_REACTORS
330
AF0
102
}
330
AF0
100
AcDbVisualStyle
  2

 70
    21
 71
     2
 72
     2
 73
     0
 90
        0
 40
-0.6
 41
-30.0
 62
     5
 63
     7
 74
     1
 91
        4
 64
     7
 65
   257
 75
     1
175
     1
 42
1.0
 92
        9
 66
     7
 43
1.0
 76
     1
 77
     6
 78
     2
 67
     7
 79
     5
170
     0
171
     0
290
     0
174
     0
 93
        1
 44
0.0
173
     0
291
     1
 45
0.0
1001
ACAD
1000
AcDbSavedByObjectVersion
1070
     0
  0
VISUALSTYLE
  5
AFA
102
{ACAD_XDICTIONARY
360
10D4
102
}
102
{ACAD_REACTORS
330
AF0
102
}
330
AF0
100
AcDbVisualStyle
  2

 70
     8
 71
     2
 72
     3
 73
     0
 90
        2
 40
-0.6
 41
30.0
 62
     5
 63
     7
 74
     0
 91
        0
 64
     7
 65
   257
 75
     1
175
     1
 42
1.0
 92
        8
 66
   257
 43
1.0
 76
     1
 77
     6
 78
     2
 67
     7
 79
     3
170
     0
171
     0
290
     0
174
     0
 93
       13
 44
0.0
173
     0
291
     0
 45
0.0
1001
ACAD
1000
AcDbSavedByObjectVersion
1070
     0
  0
VISUALSTYLE
  5
B05
102
{ACAD_XDICTIONARY
360
10EA
102
}
102
{ACAD_REACTORS
330
AF0
102
}
330
AF0
100
AcDbVisualStyle
  2

 70
    27
 71
     2
 72
     2
 73
     1
 90
        2
 40
-0.6
 41
30.0
 62
     5
 63
     7
 74
     0
 91
        4
 64
     7
 65
   257
 75
     1
175
     1
 42
1.0
 92
        8
 66
   257
 43
1.0
 76
     1
 77
     6
 78
     2
 67
     8
 79
     3
170
     0
171
     0
290
     0
174
     0
 93
        5
 44
0.0
173
     0
291
     0
 45
0.0
1001
ACAD
1000
AcDbSavedByObjectVersion
1070
     0
  0
VISUALSTYLE
  5
B04
102
{ACAD_XDICTIONARY
360
10E8
102
}
102
{ACAD_REACTORS
330
AF0
102
}
330
AF0
100
AcDbVisualStyle
  2

 70
    26
 71
     2
 72
     2
 73
     1
 90
        2
 40
-0.6
 41
30.0
 62
     5
 63
     7
 74
     1
 91
        2
 64
     7
 65
   257
 75
     2
175
     1
 42
1.0
 92
        8
 66
   257
 43
1.0
 76
     1
 77
     6
 78
     2
 67
     7
 79
     3
170
     0
171
     0
290
     0
174
     0
 93
        5
 44
0.0
173
     0
291
     0
 45
0.0
1001
ACAD
1000
AcDbSavedByObjectVersion
1070
     0
  0
VISUALSTYLE
  5
B01
102
{ACAD_XDICTIONARY
360
10E2
102
}
102
{ACAD_REACTORS
330
AF0
102
}
330
AF0
100
AcDbVisualStyle
  2

 70
    23
 71
     2
 72
     2
 73
     3
 90
        0
 40
-0.6
 41
-30.0
 62
     5
 63
     7
 74
     2
 91
        2
 64
     7
 65
     7
 75
     1
175
     1
 42
40.0
 92
        8
 66
     7
 43
1.0
 76
     1
 77
     6
 78
     2
 67
     7
 79
     3
170
     0
171
     0
290
     0
174
     0
 93
        1
 44
0.0
173
     0
291
     0
 45
0.0
1001
ACAD
1000
AcDbSavedByObjectVersion
1070
     0
  0
VISUALSTYLE
  5
B02
102
{ACAD_XDICTIONARY
360
10E4
102
}
102
{ACAD_REACTORS
330
AF0
102
}
330
AF0
100
AcDbVisualStyle
  2

 70
    24
 71
     1
 72
     2
 73
     2
 90
        0
 40
-0.6
 41
-30.0
 62
     5
 63
     7
 74
     2
 91
        2
 64
     7
 65
     7
 75
     1
175
     1
 42
40.0
 92
       11
 66
     7
 43
1.0
 76
     1
 77
     6
 78
     2
 67
     7
 79
     6
170
     0
171
     0
290
     0
174
     0
 93
        1
 44
0.0
173
     0
291
     0
 45
0.0
1001
ACAD
1000
AcDbSavedByObjectVersion
1070
     0
  0
VISUALSTYLE
  5
AFD
102
{ACAD_XDICTIONARY
360
10DA
102
}
102
{ACAD_REACTORS
330
AF0
102
}
330
AF0
100
AcDbVisualStyle
  2

 70
    13
 71
     2
 72
     2
 73
     0
 90
        0
 40
-0.6
 41
-30.0
 62
     5
 63
     7
 74
     1
 91
        4
 64
     7
 65
   257
 75
     1
175
     1
 42
1.0
 92
       12
 66
     7
 43
1.0
 76
     1
 77
     6
 78
     2
 67
     7
 79
     5
170
     0
171
     0
290
     0
174
     0
 93
        1
 44
0.0
173
     0
291
     1
 45
0.0
1001
ACAD
1000
AcDbSavedByObjectVersion
1070
     0
  0
VISUALSTYLE
  5
AF7
102
{ACAD_XDICTIONARY
360
10CE
102
}
102
{ACAD_REACTORS
330
AF0
102
}
330
AF0
100
AcDbVisualStyle
  2

 70
     5
 71
     0
 72
     2
 73
     0
 90
        0
 40
-0.6
 41
-30.0
 62
     5
 63
     7
 74
     1
 91
        4
 64
     7
 65
   257
 75
     1
175
     1
 42
1.0
 92
        0
 66
   257
 43
1.0
 76
     1
 77
     6
 78
     2
 67
     7
 79
     3
170
     0
171
     0
290
     0
174
     0
 93
        1
 44
0.0
173
     0
291
     0
 45
0.0
1001
ACAD
1000
AcDbSavedByObjectVersion
1070
     0
  0
VISUALSTYLE
  5
B03
102
{ACAD_XDICTIONARY
360
10E6
102
}
102
{ACAD_REACTORS
330
AF0
102
}
330
AF0
100
AcDbVisualStyle
  2

 70
    25
 71
     2
 72
     2
 73
     1
 90
        1
 40
0.5
 41
-30.0
 62
     5
 63
     7
 74
     1
 91
        0
 64
     7
 65
   257
 75
     1
175
     1
 42
1.0
 92
        8
 66
     7
 43
1.0
 76
     1
 77
     6
 78
     2
 67
     7
 79
     3
170
     0
171
     0
290
     0
174
     0
 93
       13
 44
0.0
173
     0
291
     0
 45
0.0
1001
ACAD
1000
AcDbSavedByObjectVersion
1070
     0
  0
DICTIONARYVAR
  5
B30
102
{ACAD_REACTORS
330
2F1
102
}
330
2F1
100
DictionaryVariables
280
     0
  1
1:1
  0
DICTIONARYVAR
  5
B2D
102
{ACAD_REACTORS
330
2F1
102
}
330
2F1
100
DictionaryVariables
280
     0
  1
STANDARD
  0
DICTIONARYVAR
  5
B2C
102
{ACAD_REACTORS
330
2F1
102
}
330
2F1
100
DictionaryVariables
280
     0
  1
STANDARD
  0
DICTIONARYVAR
  5
B2E
102
{ACAD_REACTORS
330
2F1
102
}
330
2F1
100
DictionaryVariables
280
     0
  1
Metric50
  0
DICTIONARYVAR
  5
B2F
102
{ACAD_REACTORS
330
2F1
102
}
330
2F1
100
DictionaryVariables
280
     0
  1
Metric50
  0
DICTIONARYVAR
  5
2F2
102
{ACAD_REACTORS
330
2F1
102
}
330
2F1
100
DictionaryVariables
280
     0
  1
1
  0
DICTIONARYVAR
  5
B32
102
{ACAD_REACTORS
330
2F1
102
}
330
2F1
100
DictionaryVariables
280
     0
  1
0
  0
DICTIONARYVAR
  5
10B7
102
{ACAD_REACTORS
330
2F1
102
}
330
2F1
100
DictionaryVariables
280
     0
  1
1
  0
DICTIONARYVAR
  5
10B8
102
{ACAD_REACTORS
330
2F1
102
}
330
2F1
100
DictionaryVariables
280
     0
  1
15
  0
DICTIONARYVAR
  5
10B6
102
{ACAD_REACTORS
330
2F1
102
}
330
2F1
100
DictionaryVariables
280
     0
  1
0
  0
DICTIONARYVAR
  5
10B5
102
{ACAD_REACTORS
330
2F1
102
}
330
2F1
100
DictionaryVariables
280
     0
  1
0
  0
DICTIONARYVAR
  5
B31
102
{ACAD_REACTORS
330
2F1
102
}
330
2F1
100
DictionaryVariables
280
     0
  1
127
  0
DICTIONARYVAR
  5
10B9
102
{ACAD_REACTORS
330
2F1
102
}
330
2F1
100
DictionaryVariables
280
     0
  1
2
  0
DICTIONARY
  5
10FB
330
BC5
100
AcDbDictionary
280
     1
281
     1
  3
ACAD_XREC_ROUNDTRIP
360
10FC
  0
DICTIONARY
  5
10F5
330
B23
100
AcDbDictionary
280
     1
281
     1
  3
ACAD_XREC_ROUNDTRIP
360
10F6
  0
DICTIONARY
  5
10BE
330
192
100
AcDbDictionary
280
     1
281
     1
  3
ACAD_XREC_ROUNDTRIP
360
10BF
  0
DICTIONARY
  5
10C0
330
193
100
AcDbDictionary
280
     1
281
     1
  3
ACAD_XREC_ROUNDTRIP
360
10C1
  0
DICTIONARY
  5
AE1
330
AE0
100
AcDbDictionary
280
     1
281
     1
  3
ACAD_XREC_ROUNDTRIP
360
B3E
  3
BUMPTILE
360
AE3
  3
DIFFUSETILE
360
AE2
  3
OPACITYTILE
360
AE6
  3
REFLECTIONTILE
360
AE5
  3
REFRACTIONTILE
360
AE7
  3
SPECULARTILE
360
AE4
  0
DICTIONARY
  5
AD9
330
AD8
100
AcDbDictionary
280
     1
281
     1
  3
ACAD_XREC_ROUNDTRIP
360
B3D
  3
BUMPTILE
360
ADB
  3
DIFFUSETILE
360
ADA
  3
OPACITYTILE
360
ADE
  3
REFLECTIONTILE
360
ADD
  3
REFRACTIONTILE
360
ADF
  3
SPECULARTILE
360
ADC
  0
DICTIONARY
  5
AE9
330
AE8
100
AcDbDictionary
280
     1
281
     1
  3
ACAD_XREC_ROUNDTRIP
360
B3F
  3
BUMPTILE
360
AEB
  3
DIFFUSETILE
360
AEA
  3
OPACITYTILE
360
AEE
  3
REFLECTIONTILE
360
AED
  3
REFRACTIONTILE
360
AEF
  3
SPECULARTILE
360
AEC
  0
DICTIONARY
  5
10F9
330
BC4
100
AcDbDictionary
280
     1
281
     1
  3
ACAD_XREC_ROUNDTRIP
360
10FA
  0
DICTIONARY
  5
10F3
330
B21
100
AcDbDictionary
280
     1
281
     1
  3
ACAD_XREC_ROUNDTRIP
360
10F4
  0
DICTIONARY
  5
B35
330
B0B
100
AcDbDictionary
280
     1
281
     1
  3
ACAD_ROUNDTRIP_2008_TABLESTYLE_CELLSTYLEMAP
360
10BA
  3
ACAD_XREC_ROUNDTRIP
360
10F2
  0
DICTIONARY
  5
10CC
330
AF6
100
AcDbDictionary
280
     1
281
     1
  3
ACAD_XREC_ROUNDTRIP
360
10CD
  0
DICTIONARY
  5
10F7
330
BC1
100
AcDbDictionary
280
     1
281
     1
  3
ACAD_XREC_ROUNDTRIP
360
10F8
  0
DICTIONARY
  5
10CA
330
AF5
100
AcDbDictionary
280
     1
281
     1
  3
ACAD_XREC_ROUNDTRIP
360
10CB
  0
DICTIONARY
  5
10D8
330
AFC
100
AcDbDictionary
280
     1
281
     1
  3
ACAD_XREC_ROUNDTRIP
360
10D9
  0
DICTIONARY
  5
10E0
330
B00
100
AcDbDictionary
280
     1
281
     1
  3
ACAD_XREC_ROUNDTRIP
360
10E1
  0
DICTIONARY
  5
10D2
330
AF9
100
AcDbDictionary
280
     1
281
     1
  3
ACAD_XREC_ROUNDTRIP
360
10D3
  0
DICTIONARY
  5
10D6
330
AFB
100
AcDbDictionary
280
     1
281
     1
  3
ACAD_XREC_ROUNDTRIP
360
10D7
  0
DICTIONARY
  5
10F0
330
B08
100
AcDbDictionary
280
     1
281
     1
  3
ACAD_XREC_ROUNDTRIP
360
10F1
  0
DICTIONARY
  5
10DE
330
AFF
100
AcDbDictionary
280
     1
281
     1
  3
ACAD_XREC_ROUNDTRIP
360
10DF
  0
DICTIONARY
  5
10C2
330
AF1
100
AcDbDictionary
280
     1
281
     1
  3
ACAD_XREC_ROUNDTRIP
360
10C3
  0
DICTIONARY
  5
10C4
330
AF2
100
AcDbDictionary
280
     1
281
     1
  3
ACAD_XREC_ROUNDTRIP
360
10C5
  0
DICTIONARY
  5
10C6
330
AF3
100
AcDbDictionary
280
     1
281
     1
  3
ACAD_XREC_ROUNDTRIP
360
10C7
  0
DICTIONARY
  5
10C8
330
AF4
100
AcDbDictionary
280
     1
281
     1
  3
ACAD_XREC_ROUNDTRIP
360
10C9
  0
DICTIONARY
  5
10D0
330
AF8
100
AcDbDictionary
280
     1
281
     1
  3
ACAD_XREC_ROUNDTRIP
360
10D1
  0
DICTIONARY
  5
10EC
330
B06
100
AcDbDictionary
280
     1
281
     1
  3
ACAD_XREC_ROUNDTRIP
360
10ED
  0
DICTIONARY
  5
10DC
330
AFE
100
AcDbDictionary
280
     1
281
     1
  3
ACAD_XREC_ROUNDTRIP
360
10DD
  0
DICTIONARY
  5
10EE
330
B07
100
AcDbDictionary
280
     1
281
     1
  3
ACAD_XREC_ROUNDTRIP
360
10EF
  0
DICTIONARY
  5
10D4
330
AFA
100
AcDbDictionary
280
     1
281
     1
  3
ACAD_XREC_ROUNDTRIP
360
10D5
  0
DICTIONARY
  5
10EA
330
B05
100
AcDbDictionary
280
     1
281
     1
  3
ACAD_XREC_ROUNDTRIP
360
10EB
  0
DICTIONARY
  5
10E8
330
B04
100
AcDbDictionary
280
     1
281
     1
  3
ACAD_XREC_ROUNDTRIP
360
10E9
  0
DICTIONARY
  5
10E2
330
B01
100
AcDbDictionary
280
     1
281
     1
  3
ACAD_XREC_ROUNDTRIP
360
10E3
  0
DICTIONARY
  5
10E4
330
B02
100
AcDbDictionary
280
     1
281
     1
  3
ACAD_XREC_ROUNDTRIP
360
10E5
  0
DICTIONARY
  5
10DA
330
AFD
100
AcDbDictionary
280
     1
281
     1
  3
ACAD_XREC_ROUNDTRIP
360
10DB
  0
DICTIONARY
  5
10CE
330
AF7
100
AcDbDictionary
280
     1
281
     1
  3
ACAD_XREC_ROUNDTRIP
360
10CF
  0
DICTIONARY
  5
10E6
330
B03
100
AcDbDictionary
280
     1
281
     1
  3
ACAD_XREC_ROUNDTRIP
360
10E7
  0
XRECORD
  5
10FC
102
{ACAD_REACTORS
330
10FB
102
}
330
10FB
100
AcDbXrecord
280
     1
102
DISPLAYNAME
  1
Imperial24
102
FLAGS
 90
        0
  0
XRECORD
  5
10F6
102
{ACAD_REACTORS
330
10F5
102
}
330
10F5
100
AcDbXrecord
280
     1
102
DISPLAYNAME
  1
Metric50
102
FLAGS
 90
        0
  0
XRECORD
  5
10BF
102
{ACAD_REACTORS
330
10BE
102
}
330
10BE
100
AcDbXrecord
280
     1
102
SHADEPLOT
 70
     0
102
SHADEPLOTRESLEVEL
 70
     2
102
SHADEPLOTCUSTOMDPI
 70
   300
  0
XRECORD
  5
10C1
102
{ACAD_REACTORS
330
10C0
102
}
330
10C0
100
AcDbXrecord
280
     1
102
SHADEPLOT
 70
     0
102
SHADEPLOTRESLEVEL
 70
     2
102
SHADEPLOTCUSTOMDPI
 70
   300
  0
XRECORD
  5
B3E
102
{ACAD_REACTORS
330
AE1
102
}
330
AE1
100
AcDbXrecord
280
     1
102
MATERIAL
148
0.0
149
0.0
149
0.0
 93
        0
 94
      127
282
     0
 72
     0
 77
     0
171
     0
175
     0
179
     0
273
     0
  0
XRECORD
  5
AE3
102
{ACAD_REACTORS
330
AE1
102
}
330
AE1
100
AcDbXrecord
280
     1
270
     1
271
     1
  0
XRECORD
  5
AE2
102
{ACAD_REACTORS
330
AE1
102
}
330
AE1
100
AcDbXrecord
280
     1
270
     1
271
     1
  0
XRECORD
  5
AE6
102
{ACAD_REACTORS
330
AE1
102
}
330
AE1
100
AcDbXrecord
280
     1
270
     1
271
     1
  0
XRECORD
  5
AE5
102
{ACAD_REACTORS
330
AE1
102
}
330
AE1
100
AcDbXrecord
280
     1
270
     1
271
     1
  0
XRECORD
  5
AE7
102
{ACAD_REACTORS
330
AE1
102
}
330
AE1
100
AcDbXrecord
280
     1
270
     1
271
     1
  0
XRECORD
  5
AE4
102
{ACAD_REACTORS
330
AE1
102
}
330
AE1
100
AcDbXrecord
280
     1
270
     1
271
     1
  0
XRECORD
  5
B3D
102
{ACAD_REACTORS
330
AD9
102
}
330
AD9
100
AcDbXrecord
280
     1
102
MATERIAL
148
0.0
149
0.0
149
0.0
 93
        0
 94
      127
282
     0
 72
     0
 77
     0
171
     0
175
     0
179
     0
273
     0
  0
XRECORD
  5
ADB
102
{ACAD_REACTORS
330
AD9
102
}
330
AD9
100
AcDbXrecord
280
     1
270
     1
271
     1
  0
XRECORD
  5
ADA
102
{ACAD_REACTORS
330
AD9
102
}
330
AD9
100
AcDbXrecord
280
     1
270
     1
271
     1
  0
XRECORD
  5
ADE
102
{ACAD_REACTORS
330
AD9
102
}
330
AD9
100
AcDbXrecord
280
     1
270
     1
271
     1
  0
XRECORD
  5
ADD
102
{ACAD_REACTORS
330
AD9
102
}
330
AD9
100
AcDbXrecord
280
     1
270
     1
271
     1
  0
XRECORD
  5
ADF
102
{ACAD_REACTORS
330
AD9
102
}
330
AD9
100
AcDbXrecord
280
     1
270
     1
271
     1
  0
XRECORD
  5
ADC
102
{ACAD_REACTORS
330
AD9
102
}
330
AD9
100
AcDbXrecord
280
     1
270
     1
271
     1
  0
XRECORD
  5
B3F
102
{ACAD_REACTORS
330
AE9
102
}
330
AE9
100
AcDbXrecord
280
     1
102
MATERIAL
148
0.0
149
0.0
149
0.0
 93
        0
 94
      127
282
     0
 72
     0
 77
     0
171
     0
175
     0
179
     0
273
     0
  0
XRECORD
  5
AEB
102
{ACAD_REACTORS
330
AE9
102
}
330
AE9
100
AcDbXrecord
280
     1
270
     1
271
     1
  0
XRECORD
  5
AEA
102
{ACAD_REACTORS
330
AE9
102
}
330
AE9
100
AcDbXrecord
280
     1
270
     1
271
     1
  0
XRECORD
  5
AEE
102
{ACAD_REACTORS
330
AE9
102
}
330
AE9
100
AcDbXrecord
280
     1
270
     1
271
     1
  0
XRECORD
  5
AED
102
{ACAD_REACTORS
330
AE9
102
}
330
AE9
100
AcDbXrecord
280
     1
270
     1
271
     1
  0
XRECORD
  5
AEF
102
{ACAD_REACTORS
330
AE9
102
}
330
AE9
100
AcDbXrecord
280
     1
270
     1
271
     1
  0
XRECORD
  5
AEC
102
{ACAD_REACTORS
330
AE9
102
}
330
AE9
100
AcDbXrecord
280
     1
270
     1
271
     1
  0
XRECORD
  5
10FA
102
{ACAD_REACTORS
330
10F9
102
}
330
10F9
100
AcDbXrecord
280
     1
102
DISPLAYNAME
  1
Imperial24
102
FLAGS
 90
        0
  0
XRECORD
  5
10F4
102
{ACAD_REACTORS
330
10F3
102
}
330
10F3
100
AcDbXrecord
280
     1
102
DISPLAYNAME
  1
Metric50
102
FLAGS
 90
        0
  0
CELLSTYLEMAP
  5
10BA
102
{ACAD_REACTORS
330
B35
102
}
330
B35
100
AcDbCellStyleMap
 90
        3
300
CELLSTYLE
  1
TABLEFORMAT_BEGIN
 90
        5
170
     1
 91
        0
 92
    32768
 62
   257
 93
        1
300
CONTENTFORMAT
  1
CONTENTFORMAT_BEGIN
 90
        0
 91
        0
 92
      512
 93
        0
300

 40
0.0
140
1.0
 94
        5
 62
     0
340
11
144
6.0
309
CONTENTFORMAT_END
171
     1
301
MARGIN
  1
CELLMARGIN_BEGIN
 40
1.5
 40
1.5
 40
1.5
 40
1.5
 40
0.18
 40
0.18
309
CELLMARGIN_END
 94
        6
 95
        1
302
GRIDFORMAT
  1
GRIDFORMAT_BEGIN
 90
        0
 91
        1
 62
     0
 92
       -2
340
0
 93
        0
 40
1.125
309
GRIDFORMAT_END
 95
        2
302
GRIDFORMAT
  1
GRIDFORMAT_BEGIN
 90
        0
 91
        1
 62
     0
 92
       -2
340
0
 93
        0
 40
1.125
309
GRIDFORMAT_END
 95
        4
302
GRIDFORMAT
  1
GRIDFORMAT_BEGIN
 90
        0
 91
        1
 62
     0
 92
       -2
340
0
 93
        0
 40
1.125
309
GRIDFORMAT_END
 95
        8
302
GRIDFORMAT
  1
GRIDFORMAT_BEGIN
 90
        0
 91
        1
 62
     0
 92
       -2
340
0
 93
        0
 40
1.125
309
GRIDFORMAT_END
 95
       16
302
GRIDFORMAT
  1
GRIDFORMAT_BEGIN
 90
        0
 91
        1
 62
     0
 92
       -2
340
0
 93
        0
 40
1.125
309
GRIDFORMAT_END
 95
       32
302
GRIDFORMAT
  1
GRIDFORMAT_BEGIN
 90
        0
 91
        1
 62
     0
 92
       -2
340
0
 93
        0
 40
1.125
309
GRIDFORMAT_END
309
TABLEFORMAT_END
  1
CELLSTYLE_BEGIN
 90
        1
 91
        1
300
_TITLE
309
CELLSTYLE_END
300
CELLSTYLE
  1
TABLEFORMAT_BEGIN
 90
        5
170
     1
 91
        0
 92
        0
 62
   257
 93
        1
300
CONTENTFORMAT
  1
CONTENTFORMAT_BEGIN
 90
        0
 91
        0
 92
      512
 93
        0
300

 40
0.0
140
1.0
 94
        5
 62
     0
340
11
144
4.5
309
CONTENTFORMAT_END
171
     1
301
MARGIN
  1
CELLMARGIN_BEGIN
 40
1.5
 40
1.5
 40
1.5
 40
1.5
 40
0.18
 40
0.18
309
CELLMARGIN_END
 94
        6
 95
        1
302
GRIDFORMAT
  1
GRIDFORMAT_BEGIN
 90
        0
 91
        1
 62
     0
 92
       -2
340
0
 93
        0
 40
1.125
309
GRIDFORMAT_END
 95
        2
302
GRIDFORMAT
  1
GRIDFORMAT_BEGIN
 90
        0
 91
        1
 62
     0
 92
       -2
340
0
 93
        0
 40
1.125
309
GRIDFORMAT_END
 95
        4
302
GRIDFORMAT
  1
GRIDFORMAT_BEGIN
 90
        0
 91
        1
 62
     0
 92
       -2
340
0
 93
        0
 40
1.125
309
GRIDFORMAT_END
 95
        8
302
GRIDFORMAT
  1
GRIDFORMAT_BEGIN
 90
        0
 91
        1
 62
     0
 92
       -2
340
0
 93
        0
 40
1.125
309
GRIDFORMAT_END
 95
       16
302
GRIDFORMAT
  1
GRIDFORMAT_BEGIN
 90
        0
 91
        1
 62
     0
 92
       -2
340
0
 93
        0
 40
1.125
309
GRIDFORMAT_END
 95
       32
302
GRIDFORMAT
  1
GRIDFORMAT_BEGIN
 90
        0
 91
        1
 62
     0
 92
       -2
340
0
 93
        0
 40
1.125
309
GRIDFORMAT_END
309
TABLEFORMAT_END
  1
CELLSTYLE_BEGIN
 90
        2
 91
        1
300
_HEADER
309
CELLSTYLE_END
300
CELLSTYLE
  1
TABLEFORMAT_BEGIN
 90
        5
170
     1
 91
        0
 92
        0
 62
   257
 93
        1
300
CONTENTFORMAT
  1
CONTENTFORMAT_BEGIN
 90
        0
 91
        0
 92
      512
 93
        0
300

 40
0.0
140
1.0
 94
        2
 62
     0
340
11
144
4.5
309
CONTENTFORMAT_END
171
     1
301
MARGIN
  1
CELLMARGIN_BEGIN
 40
1.5
 40
1.5
 40
1.5
 40
1.5
 40
0.18
 40
0.18
309
CELLMARGIN_END
 94
        6
 95
        1
302
GRIDFORMAT
  1
GRIDFORMAT_BEGIN
 90
        0
 91
        1
 62
     0
 92
       -2
340
0
 93
        0
 40
1.125
309
GRIDFORMAT_END
 95
        2
302
GRIDFORMAT
  1
GRIDFORMAT_BEGIN
 90
        0
 91
        1
 62
     0
 92
       -2
340
0
 93
        0
 40
1.125
309
GRIDFORMAT_END
 95
        4
302
GRIDFORMAT
  1
GRIDFORMAT_BEGIN
 90
        0
 91
        1
 62
     0
 92
       -2
340
0
 93
        0
 40
1.125
309
GRIDFORMAT_END
 95
        8
302
GRIDFORMAT
  1
GRIDFORMAT_BEGIN
 90
        0
 91
        1
 62
     0
 92
       -2
340
0
 93
        0
 40
1.125
309
GRIDFORMAT_END
 95
       16
302
GRIDFORMAT
  1
GRIDFORMAT_BEGIN
 90
        0
 91
        1
 62
     0
 92
       -2
340
0
 93
        0
 40
1.125
309
GRIDFORMAT_END
 95
       32
302
GRIDFORMAT
  1
GRIDFORMAT_BEGIN
 90
        0
 91
        1
 62
     0
 92
       -2
340
0
 93
        0
 40
1.125
309
GRIDFORMAT_END
309
TABLEFORMAT_END
  1
CELLSTYLE_BEGIN
 90
        3
 91
        2
300
_DATA
309
CELLSTYLE_END
  0
XRECORD
  5
10F2
102
{ACAD_REACTORS
330
B35
102
}
330
B35
100
AcDbXrecord
280
     1
102
ACAD_ROUNDTRIP_PRE2007_TABLESTYLE
 90
      512
 91
        0
  1

 92
      512
 93
        0
  2

 94
      512
 95
        0
  3

  0
XRECORD
  5
10CD
102
{ACAD_REACTORS
330
10CC
102
}
330
10CC
100
AcDbXrecord
280
     1
102
RTVSPost2010Prop28
280
     1
102
RTVSPost2010PropOp28
 70
     1
102
RTVSPost2010Prop29
280
     1
102
RTVSPost2010PropOp29
 70
     1
102
RTVSPost2010Prop30
280
     0
102
RTVSPost2010PropOp30
 70
     1
102
RTVSPost2010Prop31
280
     0
102
RTVSPost2010PropOp31
 70
     1
102
RTVSPost2010Prop32
280
     0
102
RTVSPost2010PropOp32
 70
     1
102
RTVSPost2010Prop33
280
     0
102
RTVSPost2010PropOp33
 70
     1
102
RTVSPost2010Prop34
280
     0
102
RTVSPost2010PropOp34
 70
     1
102
RTVSPost2010Prop35
280
     0
102
RTVSPost2010PropOp35
 70
     1
102
RTVSPost2010Prop36
280
     0
102
RTVSPost2010PropOp36
 70
     1
102
RTVSPost2010Prop37
 90
       50
102
RTVSPost2010PropOp37
 70
     1
102
RTVSPost2010Prop38
140
0.0
102
RTVSPost2010PropOp38
 70
     1
102
RTVSPost2010Prop39
140
1.0
102
RTVSPost2010PropOp39
 70
     1
102
RTVSPost2010Prop40
 90
        0
102
RTVSPost2010PropOp40
 70
     1
102
RTVSPost2010Prop41ColorIndex
 90
       18
102
RTVSPost2010Prop41ColorRGB
 90
        0
102
RTVSPost2010PropOp41
 70
     1
102
RTVSPost2010Prop42
 90
       50
102
RTVSPost2010PropOp42
 70
     1
102
RTVSPost2010Prop43
 90
        3
102
RTVSPost2010PropOp43
 70
     1
102
RTVSPost2010Prop44ColorIndex
 90
        5
102
RTVSPost2010Prop44ColorRGB
 90
      255
102
RTVSPost2010PropOp44
 70
     1
102
RTVSPost2010Prop45
280
     0
102
RTVSPost2010PropOp45
 70
     1
102
RTVSPost2010Prop46
 90
       50
102
RTVSPost2010PropOp46
 70
     1
102
RTVSPost2010Prop47
 90
       50
102
RTVSPost2010PropOp47
 70
     1
102
RTVSPost2010Prop48
 90
       50
102
RTVSPost2010PropOp48
 70
     1
102
RTVSPost2010Prop49
280
     0
102
RTVSPost2010PropOp49
 70
     1
102
RTVSPost2010Prop50
 90
       50
102
RTVSPost2010PropOp50
 70
     1
102
RTVSPost2010Prop51ColorIndex
 90
      256
102
RTVSPost2010Prop51ColorRGB
 90
-16777216
102
RTVSPost2010PropOp51
 70
     0
102
RTVSPost2010Prop52
140
1.0
102
RTVSPost2010PropOp52
 70
     0
102
RTVSPost2010Prop53
 90
        2
102
RTVSPost2010PropOp53
 70
     1
102
RTVSPost2010Prop54
  1
strokes_ogs.tif
102
RTVSPost2010PropOp54
 70
     1
102
RTVSPost2010Prop55
280
     0
102
RTVSPost2010PropOp55
 70
     1
102
RTVSPost2010Prop56
140
1.0
102
RTVSPost2010PropOp56
 70
     1
102
RTVSPost2010Prop57
140
1.0
102
RTVSPost2010PropOp57
 70
     1
102
RTVSPropertyOp0
 70
     1
102
RTVSPropertyOp1
 70
     1
102
RTVSPropertyOp2
 70
     1
102
RTVSPropertyOp3
 70
     1
102
RTVSPropertyOp4
 70
     1
102
RTVSPropertyOp5
 70
     1
102
RTVSPropertyOp6
 70
     1
102
RTVSPropertyOp7
 70
     1
102
RTVSPropertyOp8
 70
     1
102
RTVSPropertyOp9
 70
     1
102
RTVSPropertyOp10
 70
     1
102
RTVSPropertyOp11
 70
     1
102
RTVSPropertyOp12
 70
     1
102
RTVSPropertyOp13
 70
     1
102
RTVSPropertyOp14
 70
     1
102
RTVSPropertyOp15
 70
     1
102
RTVSPropertyOp16
 70
     1
102
RTVSPropertyOp17
 70
     1
102
RTVSPropertyOp18
 70
     1
102
RTVSPropertyOp19
 70
     1
102
RTVSPropertyOp20
 70
     1
102
RTVSPropertyOp21
 70
     1
102
RTVSPropertyOp22
 70
     1
102
RTVSPropertyOp23
 70
     1
102
RTVSPropertyOp24
 70
     1
102
RTVSPropertyOp25
 70
     1
102
RTVSPropertyOp26
 70
     1
102
RTVSPropertyOp27
 70
     1
102
RTVSPropertyOp28
 70
     1
102
RTVSPropertyOp29
 70
     1
102
RTVSPropertyOp30
 70
     1
102
RTVSPropertyOp31
 70
     1
102
RTVSPropertyOp32
 70
     1
102
RTVSPropertyOp33
 70
     1
102
RTVSPropertyOp34
 70
     1
102
RTVSPropertyOp35
 70
     1
102
RTVSPropertyOp36
 70
     1
102
RTVSPropertyOp37
 70
     1
102
RTVSPropertyOp38
 70
     1
102
RTVSPropertyOp39
 70
     1
102
RTVSPropertyOp40
 70
     1
102
RTVSPropertyOp41
 70
     1
102
RTVSPropertyOp42
 70
     1
102
RTVSPropertyOp43
 70
     1
102
RTVSPropertyOp44
 70
     1
102
RTVSPropertyOp45
 70
     1
102
RTVSPropertyOp46
 70
     1
102
RTVSPropertyOp47
 70
     1
102
RTVSPropertyOp48
 70
     1
102
RTVSPropertyOp49
 70
     1
102
RTVSPropertyOp50
 70
     1
102
RTVSPropertyOp51
 70
     0
102
RTVSPropertyOp52
 70
     0
102
RTVSPropertyOp53
 70
     1
102
RTVSPropertyOp54
 70
     1
102
RTVSPropertyOp55
 70
     1
102
RTVSPropertyOp56
 70
     1
102
RTVSPropertyOp57
 70
     1
102
RTVSPropertyOp58
 70
     1
102
RTVSPropertyOp59
 70
     1
102
RTVSPropertyOp60
 70
     1
102
RTVSPropertyOp61
 70
     1
102
RTVSPropertyOp62
 70
     1
  0
XRECORD
  5
10F8
102
{ACAD_REACTORS
330
10F7
102
}
330
10F7
100
AcDbXrecord
280
     1
102
RTVSPost2010Prop28
280
     0
102
RTVSPost2010PropOp28
 70
     1
102
RTVSPost2010Prop29
280
     1
102
RTVSPost2010PropOp29
 70
     1
102
RTVSPost2010Prop30
280
     1
102
RTVSPost2010PropOp30
 70
     1
102
RTVSPost2010Prop31
280
     0
102
RTVSPost2010PropOp31
 70
     1
102
RTVSPost2010Prop32
280
     0
102
RTVSPost2010PropOp32
 70
     1
102
RTVSPost2010Prop33
280
     0
102
RTVSPost2010PropOp33
 70
     1
102
RTVSPost2010Prop34
280
     0
102
RTVSPost2010PropOp34
 70
     1
102
RTVSPost2010Prop35
280
     0
102
RTVSPost2010PropOp35
 70
     1
102
RTVSPost2010Prop36
280
     0
102
RTVSPost2010PropOp36
 70
     1
102
RTVSPost2010Prop37
 90
       50
102
RTVSPost2010PropOp37
 70
     1
102
RTVSPost2010Prop38
140
0.0
102
RTVSPost2010PropOp38
 70
     1
102
RTVSPost2010Prop39
140
1.0
102
RTVSPost2010PropOp39
 70
     1
102
RTVSPost2010Prop40
 90
        0
102
RTVSPost2010PropOp40
 70
     1
102
RTVSPost2010Prop41ColorIndex
 90
       18
102
RTVSPost2010Prop41ColorRGB
 90
        0
102
RTVSPost2010PropOp41
 70
     1
102
RTVSPost2010Prop42
 90
       50
102
RTVSPost2010PropOp42
 70
     1
102
RTVSPost2010Prop43
 90
        3
102
RTVSPost2010PropOp43
 70
     1
102
RTVSPost2010Prop44ColorIndex
 90
        5
102
RTVSPost2010Prop44ColorRGB
 90
      255
102
RTVSPost2010PropOp44
 70
     1
102
RTVSPost2010Prop45
280
     0
102
RTVSPost2010PropOp45
 70
     1
102
RTVSPost2010Prop46
 90
       50
102
RTVSPost2010PropOp46
 70
     1
102
RTVSPost2010Prop47
 90
       50
102
RTVSPost2010PropOp47
 70
     1
102
RTVSPost2010Prop48
 90
       50
102
RTVSPost2010PropOp48
 70
     1
102
RTVSPost2010Prop49
280
     0
102
RTVSPost2010PropOp49
 70
     1
102
RTVSPost2010Prop50
 90
       50
102
RTVSPost2010PropOp50
 70
     1
102
RTVSPost2010Prop51ColorIndex
 90
      256
102
RTVSPost2010Prop51ColorRGB
 90
-16777216
102
RTVSPost2010PropOp51
 70
     0
102
RTVSPost2010Prop52
140
1.0
102
RTVSPost2010PropOp52
 70
     0
102
RTVSPost2010Prop53
 90
        2
102
RTVSPost2010PropOp53
 70
     1
102
RTVSPost2010Prop54
  1
strokes_ogs.tif
102
RTVSPost2010PropOp54
 70
     1
102
RTVSPost2010Prop55
280
     0
102
RTVSPost2010PropOp55
 70
     1
102
RTVSPost2010Prop56
140
1.0
102
RTVSPost2010PropOp56
 70
     1
102
RTVSPost2010Prop57
140
1.0
102
RTVSPost2010PropOp57
 70
     1
102
RTVSPropertyOp0
 70
     1
102
RTVSPropertyOp1
 70
     1
102
RTVSPropertyOp2
 70
     1
102
RTVSPropertyOp3
 70
     1
102
RTVSPropertyOp4
 70
     1
102
RTVSPropertyOp5
 70
     1
102
RTVSPropertyOp6
 70
     1
102
RTVSPropertyOp7
 70
     1
102
RTVSPropertyOp8
 70
     1
102
RTVSPropertyOp9
 70
     1
102
RTVSPropertyOp10
 70
     1
102
RTVSPropertyOp11
 70
     1
102
RTVSPropertyOp12
 70
     1
102
RTVSPropertyOp13
 70
     1
102
RTVSPropertyOp14
 70
     1
102
RTVSPropertyOp15
 70
     1
102
RTVSPropertyOp16
 70
     1
102
RTVSPropertyOp17
 70
     1
102
RTVSPropertyOp18
 70
     1
102
RTVSPropertyOp19
 70
     1
102
RTVSPropertyOp20
 70
     1
102
RTVSPropertyOp21
 70
     1
102
RTVSPropertyOp22
 70
     1
102
RTVSPropertyOp23
 70
     1
102
RTVSPropertyOp24
 70
     1
102
RTVSPropertyOp25
 70
     1
102
RTVSPropertyOp26
 70
     1
102
RTVSPropertyOp27
 70
     1
102
RTVSPropertyOp28
 70
     1
102
RTVSPropertyOp29
 70
     1
102
RTVSPropertyOp30
 70
     1
102
RTVSPropertyOp31
 70
     1
102
RTVSPropertyOp32
 70
     1
102
RTVSPropertyOp33
 70
     1
102
RTVSPropertyOp34
 70
     1
102
RTVSPropertyOp35
 70
     1
102
RTVSPropertyOp36
 70
     1
102
RTVSPropertyOp37
 70
     1
102
RTVSPropertyOp38
 70
     1
102
RTVSPropertyOp39
 70
     1
102
RTVSPropertyOp40
 70
     1
102
RTVSPropertyOp41
 70
     1
102
RTVSPropertyOp42
 70
     1
102
RTVSPropertyOp43
 70
     1
102
RTVSPropertyOp44
 70
     1
102
RTVSPropertyOp45
 70
     1
102
RTVSPropertyOp46
 70
     1
102
RTVSPropertyOp47
 70
     1
102
RTVSPropertyOp48
 70
     1
102
RTVSPropertyOp49
 70
     1
102
RTVSPropertyOp50
 70
     1
102
RTVSPropertyOp51
 70
     0
102
RTVSPropertyOp52
 70
     0
102
RTVSPropertyOp53
 70
     1
102
RTVSPropertyOp54
 70
     1
102
RTVSPropertyOp55
 70
     1
102
RTVSPropertyOp56
 70
     1
102
RTVSPropertyOp57
 70
     1
102
RTVSPropertyOp58
 70
     1
102
RTVSPropertyOp59
 70
     1
102
RTVSPropertyOp60
 70
     1
102
RTVSPropertyOp61
 70
     1
102
RTVSPropertyOp62
 70
     1
  0
XRECORD
  5
10CB
102
{ACAD_REACTORS
330
10CA
102
}
330
10CA
100
AcDbXrecord
280
     1
102
RTVSPost2010Prop28
280
     0
102
RTVSPost2010PropOp28
 70
     1
102
RTVSPost2010Prop29
280
     1
102
RTVSPost2010PropOp29
 70
     1
102
RTVSPost2010Prop30
280
     1
102
RTVSPost2010PropOp30
 70
     1
102
RTVSPost2010Prop31
280
     0
102
RTVSPost2010PropOp31
 70
     1
102
RTVSPost2010Prop32
280
     0
102
RTVSPost2010PropOp32
 70
     1
102
RTVSPost2010Prop33
280
     0
102
RTVSPost2010PropOp33
 70
     1
102
RTVSPost2010Prop34
280
     0
102
RTVSPost2010PropOp34
 70
     1
102
RTVSPost2010Prop35
280
     0
102
RTVSPost2010PropOp35
 70
     1
102
RTVSPost2010Prop36
280
     0
102
RTVSPost2010PropOp36
 70
     1
102
RTVSPost2010Prop37
 90
       50
102
RTVSPost2010PropOp37
 70
     1
102
RTVSPost2010Prop38
140
0.0
102
RTVSPost2010PropOp38
 70
     1
102
RTVSPost2010Prop39
140
1.0
102
RTVSPost2010PropOp39
 70
     1
102
RTVSPost2010Prop40
 90
        0
102
RTVSPost2010PropOp40
 70
     1
102
RTVSPost2010Prop41ColorIndex
 90
       18
102
RTVSPost2010Prop41ColorRGB
 90
        0
102
RTVSPost2010PropOp41
 70
     1
102
RTVSPost2010Prop42
 90
       50
102
RTVSPost2010PropOp42
 70
     1
102
RTVSPost2010Prop43
 90
        3
102
RTVSPost2010PropOp43
 70
     1
102
RTVSPost2010Prop44ColorIndex
 90
        5
102
RTVSPost2010Prop44ColorRGB
 90
      255
102
RTVSPost2010PropOp44
 70
     1
102
RTVSPost2010Prop45
280
     0
102
RTVSPost2010PropOp45
 70
     1
102
RTVSPost2010Prop46
 90
       50
102
RTVSPost2010PropOp46
 70
     1
102
RTVSPost2010Prop47
 90
       50
102
RTVSPost2010PropOp47
 70
     1
102
RTVSPost2010Prop48
 90
       50
102
RTVSPost2010PropOp48
 70
     1
102
RTVSPost2010Prop49
280
     0
102
RTVSPost2010PropOp49
 70
     1
102
RTVSPost2010Prop50
 90
       50
102
RTVSPost2010PropOp50
 70
     1
102
RTVSPost2010Prop51ColorIndex
 90
      256
102
RTVSPost2010Prop51ColorRGB
 90
-16777216
102
RTVSPost2010PropOp51
 70
     0
102
RTVSPost2010Prop52
140
1.0
102
RTVSPost2010PropOp52
 70
     0
102
RTVSPost2010Prop53
 90
        2
102
RTVSPost2010PropOp53
 70
     1
102
RTVSPost2010Prop54
  1
strokes_ogs.tif
102
RTVSPost2010PropOp54
 70
     1
102
RTVSPost2010Prop55
280
     0
102
RTVSPost2010PropOp55
 70
     1
102
RTVSPost2010Prop56
140
1.0
102
RTVSPost2010PropOp56
 70
     1
102
RTVSPost2010Prop57
140
1.0
102
RTVSPost2010PropOp57
 70
     1
102
RTVSPropertyOp0
 70
     1
102
RTVSPropertyOp1
 70
     1
102
RTVSPropertyOp2
 70
     1
102
RTVSPropertyOp3
 70
     1
102
RTVSPropertyOp4
 70
     1
102
RTVSPropertyOp5
 70
     1
102
RTVSPropertyOp6
 70
     1
102
RTVSPropertyOp7
 70
     1
102
RTVSPropertyOp8
 70
     1
102
RTVSPropertyOp9
 70
     1
102
RTVSPropertyOp10
 70
     1
102
RTVSPropertyOp11
 70
     1
102
RTVSPropertyOp12
 70
     1
102
RTVSPropertyOp13
 70
     1
102
RTVSPropertyOp14
 70
     1
102
RTVSPropertyOp15
 70
     1
102
RTVSPropertyOp16
 70
     1
102
RTVSPropertyOp17
 70
     1
102
RTVSPropertyOp18
 70
     1
102
RTVSPropertyOp19
 70
     1
102
RTVSPropertyOp20
 70
     1
102
RTVSPropertyOp21
 70
     1
102
RTVSPropertyOp22
 70
     1
102
RTVSPropertyOp23
 70
     1
102
RTVSPropertyOp24
 70
     1
102
RTVSPropertyOp25
 70
     1
102
RTVSPropertyOp26
 70
     1
102
RTVSPropertyOp27
 70
     1
102
RTVSPropertyOp28
 70
     1
102
RTVSPropertyOp29
 70
     1
102
RTVSPropertyOp30
 70
     1
102
RTVSPropertyOp31
 70
     1
102
RTVSPropertyOp32
 70
     1
102
RTVSPropertyOp33
 70
     1
102
RTVSPropertyOp34
 70
     1
102
RTVSPropertyOp35
 70
     1
102
RTVSPropertyOp36
 70
     1
102
RTVSPropertyOp37
 70
     1
102
RTVSPropertyOp38
 70
     1
102
RTVSPropertyOp39
 70
     1
102
RTVSPropertyOp40
 70
     1
102
RTVSPropertyOp41
 70
     1
102
RTVSPropertyOp42
 70
     1
102
RTVSPropertyOp43
 70
     1
102
RTVSPropertyOp44
 70
     1
102
RTVSPropertyOp45
 70
     1
102
RTVSPropertyOp46
 70
     1
102
RTVSPropertyOp47
 70
     1
102
RTVSPropertyOp48
 70
     1
102
RTVSPropertyOp49
 70
     1
102
RTVSPropertyOp50
 70
     1
102
RTVSPropertyOp51
 70
     0
102
RTVSPropertyOp52
 70
     0
102
RTVSPropertyOp53
 70
     1
102
RTVSPropertyOp54
 70
     1
102
RTVSPropertyOp55
 70
     1
102
RTVSPropertyOp56
 70
     1
102
RTVSPropertyOp57
 70
     1
102
RTVSPropertyOp58
 70
     1
102
RTVSPropertyOp59
 70
     1
102
RTVSPropertyOp60
 70
     1
102
RTVSPropertyOp61
 70
     1
102
RTVSPropertyOp62
 70
     1
  0
XRECORD
  5
10D9
102
{ACAD_REACTORS
330
10D8
102
}
330
10D8
100
AcDbXrecord
280
     1
102
RTVSPost2010Prop28
280
     0
102
RTVSPost2010PropOp28
 70
     1
102
RTVSPost2010Prop29
280
     1
102
RTVSPost2010PropOp29
 70
     1
102
RTVSPost2010Prop30
280
     1
102
RTVSPost2010PropOp30
 70
     1
102
RTVSPost2010Prop31
280
     0
102
RTVSPost2010PropOp31
 70
     1
102
RTVSPost2010Prop32
280
     0
102
RTVSPost2010PropOp32
 70
     1
102
RTVSPost2010Prop33
280
     0
102
RTVSPost2010PropOp33
 70
     1
102
RTVSPost2010Prop34
280
     0
102
RTVSPost2010PropOp34
 70
     1
102
RTVSPost2010Prop35
280
     0
102
RTVSPost2010PropOp35
 70
     1
102
RTVSPost2010Prop36
280
     0
102
RTVSPost2010PropOp36
 70
     1
102
RTVSPost2010Prop37
 90
       50
102
RTVSPost2010PropOp37
 70
     1
102
RTVSPost2010Prop38
140
0.0
102
RTVSPost2010PropOp38
 70
     1
102
RTVSPost2010Prop39
140
1.0
102
RTVSPost2010PropOp39
 70
     1
102
RTVSPost2010Prop40
 90
        0
102
RTVSPost2010PropOp40
 70
     1
102
RTVSPost2010Prop41ColorIndex
 90
       18
102
RTVSPost2010Prop41ColorRGB
 90
        0
102
RTVSPost2010PropOp41
 70
     1
102
RTVSPost2010Prop42
 90
       50
102
RTVSPost2010PropOp42
 70
     1
102
RTVSPost2010Prop43
 90
        3
102
RTVSPost2010PropOp43
 70
     1
102
RTVSPost2010Prop44ColorIndex
 90
        5
102
RTVSPost2010Prop44ColorRGB
 90
      255
102
RTVSPost2010PropOp44
 70
     1
102
RTVSPost2010Prop45
280
     0
102
RTVSPost2010PropOp45
 70
     1
102
RTVSPost2010Prop46
 90
       50
102
RTVSPost2010PropOp46
 70
     1
102
RTVSPost2010Prop47
 90
       50
102
RTVSPost2010PropOp47
 70
     1
102
RTVSPost2010Prop48
 90
       50
102
RTVSPost2010PropOp48
 70
     1
102
RTVSPost2010Prop49
280
     0
102
RTVSPost2010PropOp49
 70
     1
102
RTVSPost2010Prop50
 90
       50
102
RTVSPost2010PropOp50
 70
     1
102
RTVSPost2010Prop51ColorIndex
 90
      256
102
RTVSPost2010Prop51ColorRGB
 90
-16777216
102
RTVSPost2010PropOp51
 70
     0
102
RTVSPost2010Prop52
140
1.0
102
RTVSPost2010PropOp52
 70
     0
102
RTVSPost2010Prop53
 90
        2
102
RTVSPost2010PropOp53
 70
     1
102
RTVSPost2010Prop54
  1
strokes_ogs.tif
102
RTVSPost2010PropOp54
 70
     1
102
RTVSPost2010Prop55
280
     0
102
RTVSPost2010PropOp55
 70
     1
102
RTVSPost2010Prop56
140
1.0
102
RTVSPost2010PropOp56
 70
     1
102
RTVSPost2010Prop57
140
1.0
102
RTVSPost2010PropOp57
 70
     1
102
RTVSPropertyOp0
 70
     1
102
RTVSPropertyOp1
 70
     1
102
RTVSPropertyOp2
 70
     1
102
RTVSPropertyOp3
 70
     1
102
RTVSPropertyOp4
 70
     1
102
RTVSPropertyOp5
 70
     1
102
RTVSPropertyOp6
 70
     1
102
RTVSPropertyOp7
 70
     1
102
RTVSPropertyOp8
 70
     1
102
RTVSPropertyOp9
 70
     1
102
RTVSPropertyOp10
 70
     1
102
RTVSPropertyOp11
 70
     1
102
RTVSPropertyOp12
 70
     1
102
RTVSPropertyOp13
 70
     1
102
RTVSPropertyOp14
 70
     1
102
RTVSPropertyOp15
 70
     1
102
RTVSPropertyOp16
 70
     1
102
RTVSPropertyOp17
 70
     1
102
RTVSPropertyOp18
 70
     1
102
RTVSPropertyOp19
 70
     1
102
RTVSPropertyOp20
 70
     1
102
RTVSPropertyOp21
 70
     1
102
RTVSPropertyOp22
 70
     1
102
RTVSPropertyOp23
 70
     1
102
RTVSPropertyOp24
 70
     1
102
RTVSPropertyOp25
 70
     1
102
RTVSPropertyOp26
 70
     1
102
RTVSPropertyOp27
 70
     1
102
RTVSPropertyOp28
 70
     1
102
RTVSPropertyOp29
 70
     1
102
RTVSPropertyOp30
 70
     1
102
RTVSPropertyOp31
 70
     1
102
RTVSPropertyOp32
 70
     1
102
RTVSPropertyOp33
 70
     1
102
RTVSPropertyOp34
 70
     1
102
RTVSPropertyOp35
 70
     1
102
RTVSPropertyOp36
 70
     1
102
RTVSPropertyOp37
 70
     1
102
RTVSPropertyOp38
 70
     1
102
RTVSPropertyOp39
 70
     1
102
RTVSPropertyOp40
 70
     1
102
RTVSPropertyOp41
 70
     1
102
RTVSPropertyOp42
 70
     1
102
RTVSPropertyOp43
 70
     1
102
RTVSPropertyOp44
 70
     1
102
RTVSPropertyOp45
 70
     1
102
RTVSPropertyOp46
 70
     1
102
RTVSPropertyOp47
 70
     1
102
RTVSPropertyOp48
 70
     1
102
RTVSPropertyOp49
 70
     1
102
RTVSPropertyOp50
 70
     1
102
RTVSPropertyOp51
 70
     0
102
RTVSPropertyOp52
 70
     0
102
RTVSPropertyOp53
 70
     1
102
RTVSPropertyOp54
 70
     1
102
RTVSPropertyOp55
 70
     1
102
RTVSPropertyOp56
 70
     1
102
RTVSPropertyOp57
 70
     1
102
RTVSPropertyOp58
 70
     1
102
RTVSPropertyOp59
 70
     1
102
RTVSPropertyOp60
 70
     1
102
RTVSPropertyOp61
 70
     1
102
RTVSPropertyOp62
 70
     1
  0
XRECORD
  5
10E1
102
{ACAD_REACTORS
330
10E0
102
}
330
10E0
100
AcDbXrecord
280
     1
102
RTVSPost2010Prop28
280
     0
102
RTVSPost2010PropOp28
 70
     1
102
RTVSPost2010Prop29
280
     1
102
RTVSPost2010PropOp29
 70
     1
102
RTVSPost2010Prop30
280
     1
102
RTVSPost2010PropOp30
 70
     1
102
RTVSPost2010Prop31
280
     0
102
RTVSPost2010PropOp31
 70
     1
102
RTVSPost2010Prop32
280
     0
102
RTVSPost2010PropOp32
 70
     1
102
RTVSPost2010Prop33
280
     0
102
RTVSPost2010PropOp33
 70
     1
102
RTVSPost2010Prop34
280
     0
102
RTVSPost2010PropOp34
 70
     1
102
RTVSPost2010Prop35
280
     0
102
RTVSPost2010PropOp35
 70
     1
102
RTVSPost2010Prop36
280
     0
102
RTVSPost2010PropOp36
 70
     1
102
RTVSPost2010Prop37
 90
       50
102
RTVSPost2010PropOp37
 70
     1
102
RTVSPost2010Prop38
140
0.0
102
RTVSPost2010PropOp38
 70
     1
102
RTVSPost2010Prop39
140
1.0
102
RTVSPost2010PropOp39
 70
     1
102
RTVSPost2010Prop40
 90
        0
102
RTVSPost2010PropOp40
 70
     1
102
RTVSPost2010Prop41ColorIndex
 90
       18
102
RTVSPost2010Prop41ColorRGB
 90
        0
102
RTVSPost2010PropOp41
 70
     1
102
RTVSPost2010Prop42
 90
       50
102
RTVSPost2010PropOp42
 70
     1
102
RTVSPost2010Prop43
 90
        3
102
RTVSPost2010PropOp43
 70
     1
102
RTVSPost2010Prop44ColorIndex
 90
        5
102
RTVSPost2010Prop44ColorRGB
 90
      255
102
RTVSPost2010PropOp44
 70
     1
102
RTVSPost2010Prop45
280
     0
102
RTVSPost2010PropOp45
 70
     1
102
RTVSPost2010Prop46
 90
       50
102
RTVSPost2010PropOp46
 70
     1
102
RTVSPost2010Prop47
 90
       50
102
RTVSPost2010PropOp47
 70
     1
102
RTVSPost2010Prop48
 90
       50
102
RTVSPost2010PropOp48
 70
     1
102
RTVSPost2010Prop49
280
     0
102
RTVSPost2010PropOp49
 70
     1
102
RTVSPost2010Prop50
 90
       50
102
RTVSPost2010PropOp50
 70
     1
102
RTVSPost2010Prop51ColorIndex
 90
      256
102
RTVSPost2010Prop51ColorRGB
 90
-16777216
102
RTVSPost2010PropOp51
 70
     0
102
RTVSPost2010Prop52
140
1.0
102
RTVSPost2010PropOp52
 70
     0
102
RTVSPost2010Prop53
 90
        2
102
RTVSPost2010PropOp53
 70
     1
102
RTVSPost2010Prop54
  1
strokes_ogs.tif
102
RTVSPost2010PropOp54
 70
     1
102
RTVSPost2010Prop55
280
     0
102
RTVSPost2010PropOp55
 70
     1
102
RTVSPost2010Prop56
140
1.0
102
RTVSPost2010PropOp56
 70
     1
102
RTVSPost2010Prop57
140
1.0
102
RTVSPost2010PropOp57
 70
     1
102
RTVSPropertyOp0
 70
     1
102
RTVSPropertyOp1
 70
     1
102
RTVSPropertyOp2
 70
     1
102
RTVSPropertyOp3
 70
     1
102
RTVSPropertyOp4
 70
     1
102
RTVSPropertyOp5
 70
     1
102
RTVSPropertyOp6
 70
     1
102
RTVSPropertyOp7
 70
     1
102
RTVSPropertyOp8
 70
     1
102
RTVSPropertyOp9
 70
     1
102
RTVSPropertyOp10
 70
     1
102
RTVSPropertyOp11
 70
     1
102
RTVSPropertyOp12
 70
     1
102
RTVSPropertyOp13
 70
     1
102
RTVSPropertyOp14
 70
     1
102
RTVSPropertyOp15
 70
     1
102
RTVSPropertyOp16
 70
     1
102
RTVSPropertyOp17
 70
     1
102
RTVSPropertyOp18
 70
     1
102
RTVSPropertyOp19
 70
     1
102
RTVSPropertyOp20
 70
     1
102
RTVSPropertyOp21
 70
     1
102
RTVSPropertyOp22
 70
     1
102
RTVSPropertyOp23
 70
     1
102
RTVSPropertyOp24
 70
     1
102
RTVSPropertyOp25
 70
     1
102
RTVSPropertyOp26
 70
     1
102
RTVSPropertyOp27
 70
     1
102
RTVSPropertyOp28
 70
     1
102
RTVSPropertyOp29
 70
     1
102
RTVSPropertyOp30
 70
     1
102
RTVSPropertyOp31
 70
     1
102
RTVSPropertyOp32
 70
     1
102
RTVSPropertyOp33
 70
     1
102
RTVSPropertyOp34
 70
     1
102
RTVSPropertyOp35
 70
     1
102
RTVSPropertyOp36
 70
     1
102
RTVSPropertyOp37
 70
     1
102
RTVSPropertyOp38
 70
     1
102
RTVSPropertyOp39
 70
     1
102
RTVSPropertyOp40
 70
     1
102
RTVSPropertyOp41
 70
     1
102
RTVSPropertyOp42
 70
     1
102
RTVSPropertyOp43
 70
     1
102
RTVSPropertyOp44
 70
     1
102
RTVSPropertyOp45
 70
     1
102
RTVSPropertyOp46
 70
     1
102
RTVSPropertyOp47
 70
     1
102
RTVSPropertyOp48
 70
     1
102
RTVSPropertyOp49
 70
     1
102
RTVSPropertyOp50
 70
     1
102
RTVSPropertyOp51
 70
     0
102
RTVSPropertyOp52
 70
     0
102
RTVSPropertyOp53
 70
     1
102
RTVSPropertyOp54
 70
     1
102
RTVSPropertyOp55
 70
     1
102
RTVSPropertyOp56
 70
     1
102
RTVSPropertyOp57
 70
     1
102
RTVSPropertyOp58
 70
     1
102
RTVSPropertyOp59
 70
     1
102
RTVSPropertyOp60
 70
     1
102
RTVSPropertyOp61
 70
     1
102
RTVSPropertyOp62
 70
     1
  0
XRECORD
  5
10D3
102
{ACAD_REACTORS
330
10D2
102
}
330
10D2
100
AcDbXrecord
280
     1
102
RTVSPost2010Prop28
280
     0
102
RTVSPost2010PropOp28
 70
     1
102
RTVSPost2010Prop29
280
     1
102
RTVSPost2010PropOp29
 70
     1
102
RTVSPost2010Prop30
280
     1
102
RTVSPost2010PropOp30
 70
     1
102
RTVSPost2010Prop31
280
     0
102
RTVSPost2010PropOp31
 70
     1
102
RTVSPost2010Prop32
280
     0
102
RTVSPost2010PropOp32
 70
     1
102
RTVSPost2010Prop33
280
     0
102
RTVSPost2010PropOp33
 70
     1
102
RTVSPost2010Prop34
280
     0
102
RTVSPost2010PropOp34
 70
     1
102
RTVSPost2010Prop35
280
     0
102
RTVSPost2010PropOp35
 70
     1
102
RTVSPost2010Prop36
280
     0
102
RTVSPost2010PropOp36
 70
     1
102
RTVSPost2010Prop37
 90
       50
102
RTVSPost2010PropOp37
 70
     1
102
RTVSPost2010Prop38
140
0.0
102
RTVSPost2010PropOp38
 70
     1
102
RTVSPost2010Prop39
140
1.0
102
RTVSPost2010PropOp39
 70
     1
102
RTVSPost2010Prop40
 90
        0
102
RTVSPost2010PropOp40
 70
     1
102
RTVSPost2010Prop41ColorIndex
 90
       18
102
RTVSPost2010Prop41ColorRGB
 90
        0
102
RTVSPost2010PropOp41
 70
     1
102
RTVSPost2010Prop42
 90
       50
102
RTVSPost2010PropOp42
 70
     1
102
RTVSPost2010Prop43
 90
        3
102
RTVSPost2010PropOp43
 70
     1
102
RTVSPost2010Prop44ColorIndex
 90
        5
102
RTVSPost2010Prop44ColorRGB
 90
      255
102
RTVSPost2010PropOp44
 70
     1
102
RTVSPost2010Prop45
280
     0
102
RTVSPost2010PropOp45
 70
     1
102
RTVSPost2010Prop46
 90
       50
102
RTVSPost2010PropOp46
 70
     1
102
RTVSPost2010Prop47
 90
       50
102
RTVSPost2010PropOp47
 70
     1
102
RTVSPost2010Prop48
 90
       50
102
RTVSPost2010PropOp48
 70
     1
102
RTVSPost2010Prop49
280
     0
102
RTVSPost2010PropOp49
 70
     1
102
RTVSPost2010Prop50
 90
       50
102
RTVSPost2010PropOp50
 70
     1
102
RTVSPost2010Prop51ColorIndex
 90
      256
102
RTVSPost2010Prop51ColorRGB
 90
-16777216
102
RTVSPost2010PropOp51
 70
     0
102
RTVSPost2010Prop52
140
1.0
102
RTVSPost2010PropOp52
 70
     0
102
RTVSPost2010Prop53
 90
        2
102
RTVSPost2010PropOp53
 70
     1
102
RTVSPost2010Prop54
  1
strokes_ogs.tif
102
RTVSPost2010PropOp54
 70
     1
102
RTVSPost2010Prop55
280
     0
102
RTVSPost2010PropOp55
 70
     1
102
RTVSPost2010Prop56
140
1.0
102
RTVSPost2010PropOp56
 70
     1
102
RTVSPost2010Prop57
140
1.0
102
RTVSPost2010PropOp57
 70
     1
102
RTVSPropertyOp0
 70
     1
102
RTVSPropertyOp1
 70
     1
102
RTVSPropertyOp2
 70
     1
102
RTVSPropertyOp3
 70
     1
102
RTVSPropertyOp4
 70
     1
102
RTVSPropertyOp5
 70
     1
102
RTVSPropertyOp6
 70
     1
102
RTVSPropertyOp7
 70
     1
102
RTVSPropertyOp8
 70
     1
102
RTVSPropertyOp9
 70
     1
102
RTVSPropertyOp10
 70
     1
102
RTVSPropertyOp11
 70
     1
102
RTVSPropertyOp12
 70
     1
102
RTVSPropertyOp13
 70
     1
102
RTVSPropertyOp14
 70
     1
102
RTVSPropertyOp15
 70
     1
102
RTVSPropertyOp16
 70
     1
102
RTVSPropertyOp17
 70
     1
102
RTVSPropertyOp18
 70
     1
102
RTVSPropertyOp19
 70
     1
102
RTVSPropertyOp20
 70
     1
102
RTVSPropertyOp21
 70
     1
102
RTVSPropertyOp22
 70
     1
102
RTVSPropertyOp23
 70
     1
102
RTVSPropertyOp24
 70
     1
102
RTVSPropertyOp25
 70
     1
102
RTVSPropertyOp26
 70
     1
102
RTVSPropertyOp27
 70
     1
102
RTVSPropertyOp28
 70
     1
102
RTVSPropertyOp29
 70
     1
102
RTVSPropertyOp30
 70
     1
102
RTVSPropertyOp31
 70
     1
102
RTVSPropertyOp32
 70
     1
102
RTVSPropertyOp33
 70
     1
102
RTVSPropertyOp34
 70
     1
102
RTVSPropertyOp35
 70
     1
102
RTVSPropertyOp36
 70
     1
102
RTVSPropertyOp37
 70
     1
102
RTVSPropertyOp38
 70
     1
102
RTVSPropertyOp39
 70
     1
102
RTVSPropertyOp40
 70
     1
102
RTVSPropertyOp41
 70
     1
102
RTVSPropertyOp42
 70
     1
102
RTVSPropertyOp43
 70
     1
102
RTVSPropertyOp44
 70
     1
102
RTVSPropertyOp45
 70
     1
102
RTVSPropertyOp46
 70
     1
102
RTVSPropertyOp47
 70
     1
102
RTVSPropertyOp48
 70
     1
102
RTVSPropertyOp49
 70
     1
102
RTVSPropertyOp50
 70
     1
102
RTVSPropertyOp51
 70
     0
102
RTVSPropertyOp52
 70
     0
102
RTVSPropertyOp53
 70
     1
102
RTVSPropertyOp54
 70
     1
102
RTVSPropertyOp55
 70
     1
102
RTVSPropertyOp56
 70
     1
102
RTVSPropertyOp57
 70
     1
102
RTVSPropertyOp58
 70
     1
102
RTVSPropertyOp59
 70
     1
102
RTVSPropertyOp60
 70
     1
102
RTVSPropertyOp61
 70
     1
102
RTVSPropertyOp62
 70
     1
  0
XRECORD
  5
10D7
102
{ACAD_REACTORS
330
10D6
102
}
330
10D6
100
AcDbXrecord
280
     1
102
RTVSPost2010Prop28
280
     0
102
RTVSPost2010PropOp28
 70
     1
102
RTVSPost2010Prop29
280
     1
102
RTVSPost2010PropOp29
 70
     1
102
RTVSPost2010Prop30
280
     1
102
RTVSPost2010PropOp30
 70
     1
102
RTVSPost2010Prop31
280
     0
102
RTVSPost2010PropOp31
 70
     1
102
RTVSPost2010Prop32
280
     0
102
RTVSPost2010PropOp32
 70
     1
102
RTVSPost2010Prop33
280
     0
102
RTVSPost2010PropOp33
 70
     1
102
RTVSPost2010Prop34
280
     0
102
RTVSPost2010PropOp34
 70
     1
102
RTVSPost2010Prop35
280
     0
102
RTVSPost2010PropOp35
 70
     1
102
RTVSPost2010Prop36
280
     0
102
RTVSPost2010PropOp36
 70
     1
102
RTVSPost2010Prop37
 90
       50
102
RTVSPost2010PropOp37
 70
     1
102
RTVSPost2010Prop38
140
0.0
102
RTVSPost2010PropOp38
 70
     1
102
RTVSPost2010Prop39
140
1.0
102
RTVSPost2010PropOp39
 70
     1
102
RTVSPost2010Prop40
 90
        0
102
RTVSPost2010PropOp40
 70
     1
102
RTVSPost2010Prop41ColorIndex
 90
       18
102
RTVSPost2010Prop41ColorRGB
 90
        0
102
RTVSPost2010PropOp41
 70
     1
102
RTVSPost2010Prop42
 90
       50
102
RTVSPost2010PropOp42
 70
     1
102
RTVSPost2010Prop43
 90
        3
102
RTVSPost2010PropOp43
 70
     1
102
RTVSPost2010Prop44ColorIndex
 90
        5
102
RTVSPost2010Prop44ColorRGB
 90
      255
102
RTVSPost2010PropOp44
 70
     1
102
RTVSPost2010Prop45
280
     0
102
RTVSPost2010PropOp45
 70
     1
102
RTVSPost2010Prop46
 90
       50
102
RTVSPost2010PropOp46
 70
     1
102
RTVSPost2010Prop47
 90
       50
102
RTVSPost2010PropOp47
 70
     1
102
RTVSPost2010Prop48
 90
       50
102
RTVSPost2010PropOp48
 70
     1
102
RTVSPost2010Prop49
280
     0
102
RTVSPost2010PropOp49
 70
     1
102
RTVSPost2010Prop50
 90
       50
102
RTVSPost2010PropOp50
 70
     1
102
RTVSPost2010Prop51ColorIndex
 90
      256
102
RTVSPost2010Prop51ColorRGB
 90
-16777216
102
RTVSPost2010PropOp51
 70
     0
102
RTVSPost2010Prop52
140
1.0
102
RTVSPost2010PropOp52
 70
     0
102
RTVSPost2010Prop53
 90
        2
102
RTVSPost2010PropOp53
 70
     1
102
RTVSPost2010Prop54
  1
strokes_ogs.tif
102
RTVSPost2010PropOp54
 70
     1
102
RTVSPost2010Prop55
280
     0
102
RTVSPost2010PropOp55
 70
     1
102
RTVSPost2010Prop56
140
1.0
102
RTVSPost2010PropOp56
 70
     1
102
RTVSPost2010Prop57
140
1.0
102
RTVSPost2010PropOp57
 70
     1
102
RTVSPropertyOp0
 70
     1
102
RTVSPropertyOp1
 70
     1
102
RTVSPropertyOp2
 70
     1
102
RTVSPropertyOp3
 70
     1
102
RTVSPropertyOp4
 70
     1
102
RTVSPropertyOp5
 70
     1
102
RTVSPropertyOp6
 70
     1
102
RTVSPropertyOp7
 70
     1
102
RTVSPropertyOp8
 70
     1
102
RTVSPropertyOp9
 70
     1
102
RTVSPropertyOp10
 70
     1
102
RTVSPropertyOp11
 70
     1
102
RTVSPropertyOp12
 70
     1
102
RTVSPropertyOp13
 70
     1
102
RTVSPropertyOp14
 70
     1
102
RTVSPropertyOp15
 70
     1
102
RTVSPropertyOp16
 70
     1
102
RTVSPropertyOp17
 70
     1
102
RTVSPropertyOp18
 70
     1
102
RTVSPropertyOp19
 70
     1
102
RTVSPropertyOp20
 70
     1
102
RTVSPropertyOp21
 70
     1
102
RTVSPropertyOp22
 70
     1
102
RTVSPropertyOp23
 70
     1
102
RTVSPropertyOp24
 70
     1
102
RTVSPropertyOp25
 70
     1
102
RTVSPropertyOp26
 70
     1
102
RTVSPropertyOp27
 70
     1
102
RTVSPropertyOp28
 70
     1
102
RTVSPropertyOp29
 70
     1
102
RTVSPropertyOp30
 70
     1
102
RTVSPropertyOp31
 70
     1
102
RTVSPropertyOp32
 70
     1
102
RTVSPropertyOp33
 70
     1
102
RTVSPropertyOp34
 70
     1
102
RTVSPropertyOp35
 70
     1
102
RTVSPropertyOp36
 70
     1
102
RTVSPropertyOp37
 70
     1
102
RTVSPropertyOp38
 70
     1
102
RTVSPropertyOp39
 70
     1
102
RTVSPropertyOp40
 70
     1
102
RTVSPropertyOp41
 70
     1
102
RTVSPropertyOp42
 70
     1
102
RTVSPropertyOp43
 70
     1
102
RTVSPropertyOp44
 70
     1
102
RTVSPropertyOp45
 70
     1
102
RTVSPropertyOp46
 70
     1
102
RTVSPropertyOp47
 70
     1
102
RTVSPropertyOp48
 70
     1
102
RTVSPropertyOp49
 70
     1
102
RTVSPropertyOp50
 70
     1
102
RTVSPropertyOp51
 70
     0
102
RTVSPropertyOp52
 70
     0
102
RTVSPropertyOp53
 70
     1
102
RTVSPropertyOp54
 70
     1
102
RTVSPropertyOp55
 70
     1
102
RTVSPropertyOp56
 70
     1
102
RTVSPropertyOp57
 70
     1
102
RTVSPropertyOp58
 70
     1
102
RTVSPropertyOp59
 70
     1
102
RTVSPropertyOp60
 70
     1
102
RTVSPropertyOp61
 70
     1
102
RTVSPropertyOp62
 70
     1
  0
XRECORD
  5
10F1
102
{ACAD_REACTORS
330
10F0
102
}
330
10F0
100
AcDbXrecord
280
     1
102
RTVSPost2010Prop28
280
     0
102
RTVSPost2010PropOp28
 70
     1
102
RTVSPost2010Prop29
280
     1
102
RTVSPost2010PropOp29
 70
     1
102
RTVSPost2010Prop30
280
     1
102
RTVSPost2010PropOp30
 70
     1
102
RTVSPost2010Prop31
280
     0
102
RTVSPost2010PropOp31
 70
     1
102
RTVSPost2010Prop32
280
     0
102
RTVSPost2010PropOp32
 70
     1
102
RTVSPost2010Prop33
280
     0
102
RTVSPost2010PropOp33
 70
     1
102
RTVSPost2010Prop34
280
     0
102
RTVSPost2010PropOp34
 70
     1
102
RTVSPost2010Prop35
280
     0
102
RTVSPost2010PropOp35
 70
     1
102
RTVSPost2010Prop36
280
     0
102
RTVSPost2010PropOp36
 70
     1
102
RTVSPost2010Prop37
 90
       50
102
RTVSPost2010PropOp37
 70
     0
102
RTVSPost2010Prop38
140
0.0
102
RTVSPost2010PropOp38
 70
     0
102
RTVSPost2010Prop39
140
1.0
102
RTVSPost2010PropOp39
 70
     0
102
RTVSPost2010Prop40
 90
        0
102
RTVSPost2010PropOp40
 70
     0
102
RTVSPost2010Prop41ColorIndex
 90
       18
102
RTVSPost2010Prop41ColorRGB
 90
        0
102
RTVSPost2010PropOp41
 70
     0
102
RTVSPost2010Prop42
 90
       50
102
RTVSPost2010PropOp42
 70
     0
102
RTVSPost2010Prop43
 90
        3
102
RTVSPost2010PropOp43
 70
     0
102
RTVSPost2010Prop44ColorIndex
 90
        5
102
RTVSPost2010Prop44ColorRGB
 90
      255
102
RTVSPost2010PropOp44
 70
     0
102
RTVSPost2010Prop45
280
     0
102
RTVSPost2010PropOp45
 70
     1
102
RTVSPost2010Prop46
 90
       50
102
RTVSPost2010PropOp46
 70
     0
102
RTVSPost2010Prop47
 90
       50
102
RTVSPost2010PropOp47
 70
     0
102
RTVSPost2010Prop48
 90
       50
102
RTVSPost2010PropOp48
 70
     0
102
RTVSPost2010Prop49
280
     0
102
RTVSPost2010PropOp49
 70
     1
102
RTVSPost2010Prop50
 90
       50
102
RTVSPost2010PropOp50
 70
     0
102
RTVSPost2010Prop51ColorIndex
 90
      256
102
RTVSPost2010Prop51ColorRGB
 90
-16777216
102
RTVSPost2010PropOp51
 70
     0
102
RTVSPost2010Prop52
140
1.0
102
RTVSPost2010PropOp52
 70
     0
102
RTVSPost2010Prop53
 90
        2
102
RTVSPost2010PropOp53
 70
     0
102
RTVSPost2010Prop54
  1
strokes_ogs.tif
102
RTVSPost2010PropOp54
 70
     0
102
RTVSPost2010Prop55
280
     0
102
RTVSPost2010PropOp55
 70
     1
102
RTVSPost2010Prop56
140
1.0
102
RTVSPost2010PropOp56
 70
     0
102
RTVSPost2010Prop57
140
1.0
102
RTVSPost2010PropOp57
 70
     0
102
RTVSPropertyOp0
 70
     0
102
RTVSPropertyOp1
 70
     0
102
RTVSPropertyOp2
 70
     0
102
RTVSPropertyOp3
 70
     0
102
RTVSPropertyOp4
 70
     0
102
RTVSPropertyOp5
 70
     0
102
RTVSPropertyOp6
 70
     0
102
RTVSPropertyOp7
 70
     0
102
RTVSPropertyOp8
 70
     0
102
RTVSPropertyOp9
 70
     0
102
RTVSPropertyOp10
 70
     0
102
RTVSPropertyOp11
 70
     0
102
RTVSPropertyOp12
 70
     0
102
RTVSPropertyOp13
 70
     0
102
RTVSPropertyOp14
 70
     2
102
RTVSPropertyOp15
 70
     0
102
RTVSPropertyOp16
 70
     0
102
RTVSPropertyOp17
 70
     0
102
RTVSPropertyOp18
 70
     0
102
RTVSPropertyOp19
 70
     0
102
RTVSPropertyOp20
 70
     0
102
RTVSPropertyOp21
 70
     0
102
RTVSPropertyOp22
 70
     0
102
RTVSPropertyOp23
 70
     0
102
RTVSPropertyOp24
 70
     0
102
RTVSPropertyOp25
 70
     0
102
RTVSPropertyOp26
 70
     0
102
RTVSPropertyOp27
 70
     0
102
RTVSPropertyOp28
 70
     1
102
RTVSPropertyOp29
 70
     1
102
RTVSPropertyOp30
 70
     1
102
RTVSPropertyOp31
 70
     1
102
RTVSPropertyOp32
 70
     1
102
RTVSPropertyOp33
 70
     1
102
RTVSPropertyOp34
 70
     1
102
RTVSPropertyOp35
 70
     1
102
RTVSPropertyOp36
 70
     1
102
RTVSPropertyOp37
 70
     0
102
RTVSPropertyOp38
 70
     0
102
RTVSPropertyOp39
 70
     0
102
RTVSPropertyOp40
 70
     0
102
RTVSPropertyOp41
 70
     0
102
RTVSPropertyOp42
 70
     0
102
RTVSPropertyOp43
 70
     0
102
RTVSPropertyOp44
 70
     0
102
RTVSPropertyOp45
 70
     1
102
RTVSPropertyOp46
 70
     0
102
RTVSPropertyOp47
 70
     0
102
RTVSPropertyOp48
 70
     0
102
RTVSPropertyOp49
 70
     1
102
RTVSPropertyOp50
 70
     0
102
RTVSPropertyOp51
 70
     0
102
RTVSPropertyOp52
 70
     0
102
RTVSPropertyOp53
 70
     0
102
RTVSPropertyOp54
 70
     0
102
RTVSPropertyOp55
 70
     1
102
RTVSPropertyOp56
 70
     0
102
RTVSPropertyOp57
 70
     0
102
RTVSPropertyOp58
 70
     0
102
RTVSPropertyOp59
 70
     0
102
RTVSPropertyOp60
 70
     0
102
RTVSPropertyOp61
 70
     0
102
RTVSPropertyOp62
 70
     0
  0
XRECORD
  5
10DF
102
{ACAD_REACTORS
330
10DE
102
}
330
10DE
100
AcDbXrecord
280
     1
102
RTVSPost2010Prop28
280
     0
102
RTVSPost2010PropOp28
 70
     1
102
RTVSPost2010Prop29
280
     1
102
RTVSPost2010PropOp29
 70
     1
102
RTVSPost2010Prop30
280
     1
102
RTVSPost2010PropOp30
 70
     1
102
RTVSPost2010Prop31
280
     0
102
RTVSPost2010PropOp31
 70
     1
102
RTVSPost2010Prop32
280
     0
102
RTVSPost2010PropOp32
 70
     1
102
RTVSPost2010Prop33
280
     0
102
RTVSPost2010PropOp33
 70
     1
102
RTVSPost2010Prop34
280
     0
102
RTVSPost2010PropOp34
 70
     1
102
RTVSPost2010Prop35
280
     0
102
RTVSPost2010PropOp35
 70
     1
102
RTVSPost2010Prop36
280
     0
102
RTVSPost2010PropOp36
 70
     1
102
RTVSPost2010Prop37
 90
       50
102
RTVSPost2010PropOp37
 70
     1
102
RTVSPost2010Prop38
140
0.0
102
RTVSPost2010PropOp38
 70
     1
102
RTVSPost2010Prop39
140
1.0
102
RTVSPost2010PropOp39
 70
     1
102
RTVSPost2010Prop40
 90
        0
102
RTVSPost2010PropOp40
 70
     1
102
RTVSPost2010Prop41ColorIndex
 90
       18
102
RTVSPost2010Prop41ColorRGB
 90
        0
102
RTVSPost2010PropOp41
 70
     1
102
RTVSPost2010Prop42
 90
       50
102
RTVSPost2010PropOp42
 70
     1
102
RTVSPost2010Prop43
 90
        3
102
RTVSPost2010PropOp43
 70
     1
102
RTVSPost2010Prop44ColorIndex
 90
        5
102
RTVSPost2010Prop44ColorRGB
 90
      255
102
RTVSPost2010PropOp44
 70
     1
102
RTVSPost2010Prop45
280
     0
102
RTVSPost2010PropOp45
 70
     1
102
RTVSPost2010Prop46
 90
       50
102
RTVSPost2010PropOp46
 70
     1
102
RTVSPost2010Prop47
 90
       50
102
RTVSPost2010PropOp47
 70
     1
102
RTVSPost2010Prop48
 90
       50
102
RTVSPost2010PropOp48
 70
     1
102
RTVSPost2010Prop49
280
     0
102
RTVSPost2010PropOp49
 70
     1
102
RTVSPost2010Prop50
 90
       50
102
RTVSPost2010PropOp50
 70
     1
102
RTVSPost2010Prop51ColorIndex
 90
      256
102
RTVSPost2010Prop51ColorRGB
 90
-16777216
102
RTVSPost2010PropOp51
 70
     0
102
RTVSPost2010Prop52
140
1.0
102
RTVSPost2010PropOp52
 70
     0
102
RTVSPost2010Prop53
 90
        2
102
RTVSPost2010PropOp53
 70
     1
102
RTVSPost2010Prop54
  1
strokes_ogs.tif
102
RTVSPost2010PropOp54
 70
     1
102
RTVSPost2010Prop55
280
     0
102
RTVSPost2010PropOp55
 70
     1
102
RTVSPost2010Prop56
140
1.0
102
RTVSPost2010PropOp56
 70
     1
102
RTVSPost2010Prop57
140
1.0
102
RTVSPost2010PropOp57
 70
     1
102
RTVSPropertyOp0
 70
     1
102
RTVSPropertyOp1
 70
     1
102
RTVSPropertyOp2
 70
     1
102
RTVSPropertyOp3
 70
     1
102
RTVSPropertyOp4
 70
     1
102
RTVSPropertyOp5
 70
     1
102
RTVSPropertyOp6
 70
     1
102
RTVSPropertyOp7
 70
     1
102
RTVSPropertyOp8
 70
     1
102
RTVSPropertyOp9
 70
     1
102
RTVSPropertyOp10
 70
     1
102
RTVSPropertyOp11
 70
     1
102
RTVSPropertyOp12
 70
     1
102
RTVSPropertyOp13
 70
     1
102
RTVSPropertyOp14
 70
     1
102
RTVSPropertyOp15
 70
     1
102
RTVSPropertyOp16
 70
     1
102
RTVSPropertyOp17
 70
     1
102
RTVSPropertyOp18
 70
     1
102
RTVSPropertyOp19
 70
     1
102
RTVSPropertyOp20
 70
     1
102
RTVSPropertyOp21
 70
     1
102
RTVSPropertyOp22
 70
     1
102
RTVSPropertyOp23
 70
     1
102
RTVSPropertyOp24
 70
     1
102
RTVSPropertyOp25
 70
     1
102
RTVSPropertyOp26
 70
     1
102
RTVSPropertyOp27
 70
     1
102
RTVSPropertyOp28
 70
     1
102
RTVSPropertyOp29
 70
     1
102
RTVSPropertyOp30
 70
     1
102
RTVSPropertyOp31
 70
     1
102
RTVSPropertyOp32
 70
     1
102
RTVSPropertyOp33
 70
     1
102
RTVSPropertyOp34
 70
     1
102
RTVSPropertyOp35
 70
     1
102
RTVSPropertyOp36
 70
     1
102
RTVSPropertyOp37
 70
     1
102
RTVSPropertyOp38
 70
     1
102
RTVSPropertyOp39
 70
     1
102
RTVSPropertyOp40
 70
     1
102
RTVSPropertyOp41
 70
     1
102
RTVSPropertyOp42
 70
     1
102
RTVSPropertyOp43
 70
     1
102
RTVSPropertyOp44
 70
     1
102
RTVSPropertyOp45
 70
     1
102
RTVSPropertyOp46
 70
     1
102
RTVSPropertyOp47
 70
     1
102
RTVSPropertyOp48
 70
     1
102
RTVSPropertyOp49
 70
     1
102
RTVSPropertyOp50
 70
     1
102
RTVSPropertyOp51
 70
     0
102
RTVSPropertyOp52
 70
     0
102
RTVSPropertyOp53
 70
     1
102
RTVSPropertyOp54
 70
     1
102
RTVSPropertyOp55
 70
     1
102
RTVSPropertyOp56
 70
     1
102
RTVSPropertyOp57
 70
     1
102
RTVSPropertyOp58
 70
     1
102
RTVSPropertyOp59
 70
     1
102
RTVSPropertyOp60
 70
     1
102
RTVSPropertyOp61
 70
     1
102
RTVSPropertyOp62
 70
     1
  0
XRECORD
  5
10C3
102
{ACAD_REACTORS
330
10C2
102
}
330
10C2
100
AcDbXrecord
280
     1
102
RTVSPost2010Prop28
280
     0
102
RTVSPost2010PropOp28
 70
     1
102
RTVSPost2010Prop29
280
     1
102
RTVSPost2010PropOp29
 70
     1
102
RTVSPost2010Prop30
280
     1
102
RTVSPost2010PropOp30
 70
     1
102
RTVSPost2010Prop31
280
     0
102
RTVSPost2010PropOp31
 70
     1
102
RTVSPost2010Prop32
280
     0
102
RTVSPost2010PropOp32
 70
     1
102
RTVSPost2010Prop33
280
     0
102
RTVSPost2010PropOp33
 70
     1
102
RTVSPost2010Prop34
280
     0
102
RTVSPost2010PropOp34
 70
     1
102
RTVSPost2010Prop35
280
     0
102
RTVSPost2010PropOp35
 70
     1
102
RTVSPost2010Prop36
280
     0
102
RTVSPost2010PropOp36
 70
     1
102
RTVSPost2010Prop37
 90
       50
102
RTVSPost2010PropOp37
 70
     1
102
RTVSPost2010Prop38
140
0.0
102
RTVSPost2010PropOp38
 70
     1
102
RTVSPost2010Prop39
140
1.0
102
RTVSPost2010PropOp39
 70
     1
102
RTVSPost2010Prop40
 90
        0
102
RTVSPost2010PropOp40
 70
     1
102
RTVSPost2010Prop41ColorIndex
 90
       18
102
RTVSPost2010Prop41ColorRGB
 90
        0
102
RTVSPost2010PropOp41
 70
     1
102
RTVSPost2010Prop42
 90
       50
102
RTVSPost2010PropOp42
 70
     1
102
RTVSPost2010Prop43
 90
        3
102
RTVSPost2010PropOp43
 70
     1
102
RTVSPost2010Prop44ColorIndex
 90
        5
102
RTVSPost2010Prop44ColorRGB
 90
      255
102
RTVSPost2010PropOp44
 70
     1
102
RTVSPost2010Prop45
280
     0
102
RTVSPost2010PropOp45
 70
     1
102
RTVSPost2010Prop46
 90
       50
102
RTVSPost2010PropOp46
 70
     1
102
RTVSPost2010Prop47
 90
       50
102
RTVSPost2010PropOp47
 70
     1
102
RTVSPost2010Prop48
 90
       50
102
RTVSPost2010PropOp48
 70
     1
102
RTVSPost2010Prop49
280
     0
102
RTVSPost2010PropOp49
 70
     1
102
RTVSPost2010Prop50
 90
       50
102
RTVSPost2010PropOp50
 70
     1
102
RTVSPost2010Prop51ColorIndex
 90
      256
102
RTVSPost2010Prop51ColorRGB
 90
-16777216
102
RTVSPost2010PropOp51
 70
     0
102
RTVSPost2010Prop52
140
1.0
102
RTVSPost2010PropOp52
 70
     0
102
RTVSPost2010Prop53
 90
        2
102
RTVSPost2010PropOp53
 70
     1
102
RTVSPost2010Prop54
  1
strokes_ogs.tif
102
RTVSPost2010PropOp54
 70
     1
102
RTVSPost2010Prop55
280
     0
102
RTVSPost2010PropOp55
 70
     1
102
RTVSPost2010Prop56
140
1.0
102
RTVSPost2010PropOp56
 70
     1
102
RTVSPost2010Prop57
140
1.0
102
RTVSPost2010PropOp57
 70
     1
102
RTVSPropertyOp0
 70
     1
102
RTVSPropertyOp1
 70
     1
102
RTVSPropertyOp2
 70
     1
102
RTVSPropertyOp3
 70
     1
102
RTVSPropertyOp4
 70
     1
102
RTVSPropertyOp5
 70
     1
102
RTVSPropertyOp6
 70
     1
102
RTVSPropertyOp7
 70
     1
102
RTVSPropertyOp8
 70
     1
102
RTVSPropertyOp9
 70
     1
102
RTVSPropertyOp10
 70
     1
102
RTVSPropertyOp11
 70
     1
102
RTVSPropertyOp12
 70
     1
102
RTVSPropertyOp13
 70
     1
102
RTVSPropertyOp14
 70
     1
102
RTVSPropertyOp15
 70
     1
102
RTVSPropertyOp16
 70
     1
102
RTVSPropertyOp17
 70
     1
102
RTVSPropertyOp18
 70
     1
102
RTVSPropertyOp19
 70
     1
102
RTVSPropertyOp20
 70
     1
102
RTVSPropertyOp21
 70
     1
102
RTVSPropertyOp22
 70
     1
102
RTVSPropertyOp23
 70
     1
102
RTVSPropertyOp24
 70
     1
102
RTVSPropertyOp25
 70
     1
102
RTVSPropertyOp26
 70
     1
102
RTVSPropertyOp27
 70
     1
102
RTVSPropertyOp28
 70
     1
102
RTVSPropertyOp29
 70
     1
102
RTVSPropertyOp30
 70
     1
102
RTVSPropertyOp31
 70
     1
102
RTVSPropertyOp32
 70
     1
102
RTVSPropertyOp33
 70
     1
102
RTVSPropertyOp34
 70
     1
102
RTVSPropertyOp35
 70
     1
102
RTVSPropertyOp36
 70
     1
102
RTVSPropertyOp37
 70
     1
102
RTVSPropertyOp38
 70
     1
102
RTVSPropertyOp39
 70
     1
102
RTVSPropertyOp40
 70
     1
102
RTVSPropertyOp41
 70
     1
102
RTVSPropertyOp42
 70
     1
102
RTVSPropertyOp43
 70
     1
102
RTVSPropertyOp44
 70
     1
102
RTVSPropertyOp45
 70
     1
102
RTVSPropertyOp46
 70
     1
102
RTVSPropertyOp47
 70
     1
102
RTVSPropertyOp48
 70
     1
102
RTVSPropertyOp49
 70
     1
102
RTVSPropertyOp50
 70
     1
102
RTVSPropertyOp51
 70
     0
102
RTVSPropertyOp52
 70
     0
102
RTVSPropertyOp53
 70
     1
102
RTVSPropertyOp54
 70
     1
102
RTVSPropertyOp55
 70
     1
102
RTVSPropertyOp56
 70
     1
102
RTVSPropertyOp57
 70
     1
102
RTVSPropertyOp58
 70
     1
102
RTVSPropertyOp59
 70
     1
102
RTVSPropertyOp60
 70
     1
102
RTVSPropertyOp61
 70
     1
102
RTVSPropertyOp62
 70
     1
  0
XRECORD
  5
10C5
102
{ACAD_REACTORS
330
10C4
102
}
330
10C4
100
AcDbXrecord
280
     1
102
RTVSPost2010Prop28
280
     0
102
RTVSPost2010PropOp28
 70
     1
102
RTVSPost2010Prop29
280
     1
102
RTVSPost2010PropOp29
 70
     1
102
RTVSPost2010Prop30
280
     1
102
RTVSPost2010PropOp30
 70
     1
102
RTVSPost2010Prop31
280
     0
102
RTVSPost2010PropOp31
 70
     1
102
RTVSPost2010Prop32
280
     0
102
RTVSPost2010PropOp32
 70
     1
102
RTVSPost2010Prop33
280
     0
102
RTVSPost2010PropOp33
 70
     1
102
RTVSPost2010Prop34
280
     0
102
RTVSPost2010PropOp34
 70
     1
102
RTVSPost2010Prop35
280
     0
102
RTVSPost2010PropOp35
 70
     1
102
RTVSPost2010Prop36
280
     0
102
RTVSPost2010PropOp36
 70
     1
102
RTVSPost2010Prop37
 90
       50
102
RTVSPost2010PropOp37
 70
     1
102
RTVSPost2010Prop38
140
0.0
102
RTVSPost2010PropOp38
 70
     1
102
RTVSPost2010Prop39
140
1.0
102
RTVSPost2010PropOp39
 70
     1
102
RTVSPost2010Prop40
 90
        0
102
RTVSPost2010PropOp40
 70
     1
102
RTVSPost2010Prop41ColorIndex
 90
       18
102
RTVSPost2010Prop41ColorRGB
 90
        0
102
RTVSPost2010PropOp41
 70
     1
102
RTVSPost2010Prop42
 90
       50
102
RTVSPost2010PropOp42
 70
     1
102
RTVSPost2010Prop43
 90
        3
102
RTVSPost2010PropOp43
 70
     1
102
RTVSPost2010Prop44ColorIndex
 90
        5
102
RTVSPost2010Prop44ColorRGB
 90
      255
102
RTVSPost2010PropOp44
 70
     1
102
RTVSPost2010Prop45
280
     0
102
RTVSPost2010PropOp45
 70
     1
102
RTVSPost2010Prop46
 90
       50
102
RTVSPost2010PropOp46
 70
     1
102
RTVSPost2010Prop47
 90
       50
102
RTVSPost2010PropOp47
 70
     1
102
RTVSPost2010Prop48
 90
       50
102
RTVSPost2010PropOp48
 70
     1
102
RTVSPost2010Prop49
280
     0
102
RTVSPost2010PropOp49
 70
     1
102
RTVSPost2010Prop50
 90
       50
102
RTVSPost2010PropOp50
 70
     1
102
RTVSPost2010Prop51ColorIndex
 90
      256
102
RTVSPost2010Prop51ColorRGB
 90
-16777216
102
RTVSPost2010PropOp51
 70
     0
102
RTVSPost2010Prop52
140
1.0
102
RTVSPost2010PropOp52
 70
     0
102
RTVSPost2010Prop53
 90
        2
102
RTVSPost2010PropOp53
 70
     1
102
RTVSPost2010Prop54
  1
strokes_ogs.tif
102
RTVSPost2010PropOp54
 70
     1
102
RTVSPost2010Prop55
280
     0
102
RTVSPost2010PropOp55
 70
     1
102
RTVSPost2010Prop56
140
1.0
102
RTVSPost2010PropOp56
 70
     1
102
RTVSPost2010Prop57
140
1.0
102
RTVSPost2010PropOp57
 70
     1
102
RTVSPropertyOp0
 70
     1
102
RTVSPropertyOp1
 70
     1
102
RTVSPropertyOp2
 70
     1
102
RTVSPropertyOp3
 70
     1
102
RTVSPropertyOp4
 70
     1
102
RTVSPropertyOp5
 70
     1
102
RTVSPropertyOp6
 70
     1
102
RTVSPropertyOp7
 70
     1
102
RTVSPropertyOp8
 70
     1
102
RTVSPropertyOp9
 70
     1
102
RTVSPropertyOp10
 70
     1
102
RTVSPropertyOp11
 70
     1
102
RTVSPropertyOp12
 70
     1
102
RTVSPropertyOp13
 70
     1
102
RTVSPropertyOp14
 70
     1
102
RTVSPropertyOp15
 70
     1
102
RTVSPropertyOp16
 70
     1
102
RTVSPropertyOp17
 70
     1
102
RTVSPropertyOp18
 70
     1
102
RTVSPropertyOp19
 70
     1
102
RTVSPropertyOp20
 70
     1
102
RTVSPropertyOp21
 70
     1
102
RTVSPropertyOp22
 70
     1
102
RTVSPropertyOp23
 70
     1
102
RTVSPropertyOp24
 70
     1
102
RTVSPropertyOp25
 70
     1
102
RTVSPropertyOp26
 70
     1
102
RTVSPropertyOp27
 70
     1
102
RTVSPropertyOp28
 70
     1
102
RTVSPropertyOp29
 70
     1
102
RTVSPropertyOp30
 70
     1
102
RTVSPropertyOp31
 70
     1
102
RTVSPropertyOp32
 70
     1
102
RTVSPropertyOp33
 70
     1
102
RTVSPropertyOp34
 70
     1
102
RTVSPropertyOp35
 70
     1
102
RTVSPropertyOp36
 70
     1
102
RTVSPropertyOp37
 70
     1
102
RTVSPropertyOp38
 70
     1
102
RTVSPropertyOp39
 70
     1
102
RTVSPropertyOp40
 70
     1
102
RTVSPropertyOp41
 70
     1
102
RTVSPropertyOp42
 70
     1
102
RTVSPropertyOp43
 70
     1
102
RTVSPropertyOp44
 70
     1
102
RTVSPropertyOp45
 70
     1
102
RTVSPropertyOp46
 70
     1
102
RTVSPropertyOp47
 70
     1
102
RTVSPropertyOp48
 70
     1
102
RTVSPropertyOp49
 70
     1
102
RTVSPropertyOp50
 70
     1
102
RTVSPropertyOp51
 70
     0
102
RTVSPropertyOp52
 70
     0
102
RTVSPropertyOp53
 70
     1
102
RTVSPropertyOp54
 70
     1
102
RTVSPropertyOp55
 70
     1
102
RTVSPropertyOp56
 70
     1
102
RTVSPropertyOp57
 70
     1
102
RTVSPropertyOp58
 70
     1
102
RTVSPropertyOp59
 70
     1
102
RTVSPropertyOp60
 70
     1
102
RTVSPropertyOp61
 70
     1
102
RTVSPropertyOp62
 70
     1
  0
XRECORD
  5
10C7
102
{ACAD_REACTORS
330
10C6
102
}
330
10C6
100
AcDbXrecord
280
     1
102
RTVSPost2010Prop28
280
     0
102
RTVSPost2010PropOp28
 70
     1
102
RTVSPost2010Prop29
280
     1
102
RTVSPost2010PropOp29
 70
     1
102
RTVSPost2010Prop30
280
     1
102
RTVSPost2010PropOp30
 70
     1
102
RTVSPost2010Prop31
280
     0
102
RTVSPost2010PropOp31
 70
     1
102
RTVSPost2010Prop32
280
     0
102
RTVSPost2010PropOp32
 70
     1
102
RTVSPost2010Prop33
280
     0
102
RTVSPost2010PropOp33
 70
     1
102
RTVSPost2010Prop34
280
     0
102
RTVSPost2010PropOp34
 70
     1
102
RTVSPost2010Prop35
280
     0
102
RTVSPost2010PropOp35
 70
     1
102
RTVSPost2010Prop36
280
     0
102
RTVSPost2010PropOp36
 70
     1
102
RTVSPost2010Prop37
 90
       50
102
RTVSPost2010PropOp37
 70
     1
102
RTVSPost2010Prop38
140
0.0
102
RTVSPost2010PropOp38
 70
     1
102
RTVSPost2010Prop39
140
1.0
102
RTVSPost2010PropOp39
 70
     1
102
RTVSPost2010Prop40
 90
        0
102
RTVSPost2010PropOp40
 70
     1
102
RTVSPost2010Prop41ColorIndex
 90
       18
102
RTVSPost2010Prop41ColorRGB
 90
        0
102
RTVSPost2010PropOp41
 70
     1
102
RTVSPost2010Prop42
 90
       50
102
RTVSPost2010PropOp42
 70
     1
102
RTVSPost2010Prop43
 90
        3
102
RTVSPost2010PropOp43
 70
     1
102
RTVSPost2010Prop44ColorIndex
 90
        5
102
RTVSPost2010Prop44ColorRGB
 90
      255
102
RTVSPost2010PropOp44
 70
     1
102
RTVSPost2010Prop45
280
     0
102
RTVSPost2010PropOp45
 70
     1
102
RTVSPost2010Prop46
 90
       50
102
RTVSPost2010PropOp46
 70
     1
102
RTVSPost2010Prop47
 90
       50
102
RTVSPost2010PropOp47
 70
     1
102
RTVSPost2010Prop48
 90
       50
102
RTVSPost2010PropOp48
 70
     1
102
RTVSPost2010Prop49
280
     0
102
RTVSPost2010PropOp49
 70
     1
102
RTVSPost2010Prop50
 90
       50
102
RTVSPost2010PropOp50
 70
     1
102
RTVSPost2010Prop51ColorIndex
 90
      256
102
RTVSPost2010Prop51ColorRGB
 90
-16777216
102
RTVSPost2010PropOp51
 70
     0
102
RTVSPost2010Prop52
140
1.0
102
RTVSPost2010PropOp52
 70
     0
102
RTVSPost2010Prop53
 90
        2
102
RTVSPost2010PropOp53
 70
     1
102
RTVSPost2010Prop54
  1
strokes_ogs.tif
102
RTVSPost2010PropOp54
 70
     1
102
RTVSPost2010Prop55
280
     0
102
RTVSPost2010PropOp55
 70
     1
102
RTVSPost2010Prop56
140
1.0
102
RTVSPost2010PropOp56
 70
     1
102
RTVSPost2010Prop57
140
1.0
102
RTVSPost2010PropOp57
 70
     1
102
RTVSPropertyOp0
 70
     1
102
RTVSPropertyOp1
 70
     1
102
RTVSPropertyOp2
 70
     1
102
RTVSPropertyOp3
 70
     1
102
RTVSPropertyOp4
 70
     1
102
RTVSPropertyOp5
 70
     1
102
RTVSPropertyOp6
 70
     1
102
RTVSPropertyOp7
 70
     1
102
RTVSPropertyOp8
 70
     1
102
RTVSPropertyOp9
 70
     1
102
RTVSPropertyOp10
 70
     1
102
RTVSPropertyOp11
 70
     1
102
RTVSPropertyOp12
 70
     1
102
RTVSPropertyOp13
 70
     1
102
RTVSPropertyOp14
 70
     1
102
RTVSPropertyOp15
 70
     1
102
RTVSPropertyOp16
 70
     1
102
RTVSPropertyOp17
 70
     1
102
RTVSPropertyOp18
 70
     1
102
RTVSPropertyOp19
 70
     1
102
RTVSPropertyOp20
 70
     1
102
RTVSPropertyOp21
 70
     1
102
RTVSPropertyOp22
 70
     1
102
RTVSPropertyOp23
 70
     1
102
RTVSPropertyOp24
 70
     1
102
RTVSPropertyOp25
 70
     1
102
RTVSPropertyOp26
 70
     1
102
RTVSPropertyOp27
 70
     1
102
RTVSPropertyOp28
 70
     1
102
RTVSPropertyOp29
 70
     1
102
RTVSPropertyOp30
 70
     1
102
RTVSPropertyOp31
 70
     1
102
RTVSPropertyOp32
 70
     1
102
RTVSPropertyOp33
 70
     1
102
RTVSPropertyOp34
 70
     1
102
RTVSPropertyOp35
 70
     1
102
RTVSPropertyOp36
 70
     1
102
RTVSPropertyOp37
 70
     1
102
RTVSPropertyOp38
 70
     1
102
RTVSPropertyOp39
 70
     1
102
RTVSPropertyOp40
 70
     1
102
RTVSPropertyOp41
 70
     1
102
RTVSPropertyOp42
 70
     1
102
RTVSPropertyOp43
 70
     1
102
RTVSPropertyOp44
 70
     1
102
RTVSPropertyOp45
 70
     1
102
RTVSPropertyOp46
 70
     1
102
RTVSPropertyOp47
 70
     1
102
RTVSPropertyOp48
 70
     1
102
RTVSPropertyOp49
 70
     1
102
RTVSPropertyOp50
 70
     1
102
RTVSPropertyOp51
 70
     0
102
RTVSPropertyOp52
 70
     0
102
RTVSPropertyOp53
 70
     1
102
RTVSPropertyOp54
 70
     1
102
RTVSPropertyOp55
 70
     1
102
RTVSPropertyOp56
 70
     1
102
RTVSPropertyOp57
 70
     1
102
RTVSPropertyOp58
 70
     1
102
RTVSPropertyOp59
 70
     1
102
RTVSPropertyOp60
 70
     1
102
RTVSPropertyOp61
 70
     1
102
RTVSPropertyOp62
 70
     1
  0
XRECORD
  5
10C9
102
{ACAD_REACTORS
330
10C8
102
}
330
10C8
100
AcDbXrecord
280
     1
102
RTVSPost2010Prop28
280
     0
102
RTVSPost2010PropOp28
 70
     1
102
RTVSPost2010Prop29
280
     1
102
RTVSPost2010PropOp29
 70
     1
102
RTVSPost2010Prop30
280
     1
102
RTVSPost2010PropOp30
 70
     1
102
RTVSPost2010Prop31
280
     0
102
RTVSPost2010PropOp31
 70
     1
102
RTVSPost2010Prop32
280
     0
102
RTVSPost2010PropOp32
 70
     1
102
RTVSPost2010Prop33
280
     0
102
RTVSPost2010PropOp33
 70
     1
102
RTVSPost2010Prop34
280
     0
102
RTVSPost2010PropOp34
 70
     1
102
RTVSPost2010Prop35
280
     0
102
RTVSPost2010PropOp35
 70
     1
102
RTVSPost2010Prop36
280
     0
102
RTVSPost2010PropOp36
 70
     1
102
RTVSPost2010Prop37
 90
       50
102
RTVSPost2010PropOp37
 70
     1
102
RTVSPost2010Prop38
140
0.0
102
RTVSPost2010PropOp38
 70
     1
102
RTVSPost2010Prop39
140
1.0
102
RTVSPost2010PropOp39
 70
     1
102
RTVSPost2010Prop40
 90
        0
102
RTVSPost2010PropOp40
 70
     1
102
RTVSPost2010Prop41ColorIndex
 90
       18
102
RTVSPost2010Prop41ColorRGB
 90
        0
102
RTVSPost2010PropOp41
 70
     1
102
RTVSPost2010Prop42
 90
       50
102
RTVSPost2010PropOp42
 70
     1
102
RTVSPost2010Prop43
 90
        3
102
RTVSPost2010PropOp43
 70
     1
102
RTVSPost2010Prop44ColorIndex
 90
        5
102
RTVSPost2010Prop44ColorRGB
 90
      255
102
RTVSPost2010PropOp44
 70
     1
102
RTVSPost2010Prop45
280
     0
102
RTVSPost2010PropOp45
 70
     1
102
RTVSPost2010Prop46
 90
       50
102
RTVSPost2010PropOp46
 70
     1
102
RTVSPost2010Prop47
 90
       50
102
RTVSPost2010PropOp47
 70
     1
102
RTVSPost2010Prop48
 90
       50
102
RTVSPost2010PropOp48
 70
     1
102
RTVSPost2010Prop49
280
     0
102
RTVSPost2010PropOp49
 70
     1
102
RTVSPost2010Prop50
 90
       50
102
RTVSPost2010PropOp50
 70
     1
102
RTVSPost2010Prop51ColorIndex
 90
      256
102
RTVSPost2010Prop51ColorRGB
 90
-16777216
102
RTVSPost2010PropOp51
 70
     0
102
RTVSPost2010Prop52
140
1.0
102
RTVSPost2010PropOp52
 70
     0
102
RTVSPost2010Prop53
 90
        2
102
RTVSPost2010PropOp53
 70
     1
102
RTVSPost2010Prop54
  1
strokes_ogs.tif
102
RTVSPost2010PropOp54
 70
     1
102
RTVSPost2010Prop55
280
     0
102
RTVSPost2010PropOp55
 70
     1
102
RTVSPost2010Prop56
140
1.0
102
RTVSPost2010PropOp56
 70
     1
102
RTVSPost2010Prop57
140
1.0
102
RTVSPost2010PropOp57
 70
     1
102
RTVSPropertyOp0
 70
     1
102
RTVSPropertyOp1
 70
     1
102
RTVSPropertyOp2
 70
     1
102
RTVSPropertyOp3
 70
     1
102
RTVSPropertyOp4
 70
     1
102
RTVSPropertyOp5
 70
     1
102
RTVSPropertyOp6
 70
     1
102
RTVSPropertyOp7
 70
     1
102
RTVSPropertyOp8
 70
     1
102
RTVSPropertyOp9
 70
     1
102
RTVSPropertyOp10
 70
     1
102
RTVSPropertyOp11
 70
     1
102
RTVSPropertyOp12
 70
     1
102
RTVSPropertyOp13
 70
     1
102
RTVSPropertyOp14
 70
     1
102
RTVSPropertyOp15
 70
     1
102
RTVSPropertyOp16
 70
     1
102
RTVSPropertyOp17
 70
     1
102
RTVSPropertyOp18
 70
     1
102
RTVSPropertyOp19
 70
     1
102
RTVSPropertyOp20
 70
     1
102
RTVSPropertyOp21
 70
     1
102
RTVSPropertyOp22
 70
     1
102
RTVSPropertyOp23
 70
     1
102
RTVSPropertyOp24
 70
     1
102
RTVSPropertyOp25
 70
     1
102
RTVSPropertyOp26
 70
     1
102
RTVSPropertyOp27
 70
     1
102
RTVSPropertyOp28
 70
     1
102
RTVSPropertyOp29
 70
     1
102
RTVSPropertyOp30
 70
     1
102
RTVSPropertyOp31
 70
     1
102
RTVSPropertyOp32
 70
     1
102
RTVSPropertyOp33
 70
     1
102
RTVSPropertyOp34
 70
     1
102
RTVSPropertyOp35
 70
     1
102
RTVSPropertyOp36
 70
     1
102
RTVSPropertyOp37
 70
     1
102
RTVSPropertyOp38
 70
     1
102
RTVSPropertyOp39
 70
     1
102
RTVSPropertyOp40
 70
     1
102
RTVSPropertyOp41
 70
     1
102
RTVSPropertyOp42
 70
     1
102
RTVSPropertyOp43
 70
     1
102
RTVSPropertyOp44
 70
     1
102
RTVSPropertyOp45
 70
     1
102
RTVSPropertyOp46
 70
     1
102
RTVSPropertyOp47
 70
     1
102
RTVSPropertyOp48
 70
     1
102
RTVSPropertyOp49
 70
     1
102
RTVSPropertyOp50
 70
     1
102
RTVSPropertyOp51
 70
     0
102
RTVSPropertyOp52
 70
     0
102
RTVSPropertyOp53
 70
     1
102
RTVSPropertyOp54
 70
     1
102
RTVSPropertyOp55
 70
     1
102
RTVSPropertyOp56
 70
     1
102
RTVSPropertyOp57
 70
     1
102
RTVSPropertyOp58
 70
     1
102
RTVSPropertyOp59
 70
     1
102
RTVSPropertyOp60
 70
     1
102
RTVSPropertyOp61
 70
     1
102
RTVSPropertyOp62
 70
     1
  0
XRECORD
  5
10D1
102
{ACAD_REACTORS
330
10D0
102
}
330
10D0
100
AcDbXrecord
280
     1
102
RTVSPost2010Prop28
280
     0
102
RTVSPost2010PropOp28
 70
     1
102
RTVSPost2010Prop29
280
     1
102
RTVSPost2010PropOp29
 70
     1
102
RTVSPost2010Prop30
280
     1
102
RTVSPost2010PropOp30
 70
     1
102
RTVSPost2010Prop31
280
     0
102
RTVSPost2010PropOp31
 70
     1
102
RTVSPost2010Prop32
280
     0
102
RTVSPost2010PropOp32
 70
     1
102
RTVSPost2010Prop33
280
     0
102
RTVSPost2010PropOp33
 70
     1
102
RTVSPost2010Prop34
280
     0
102
RTVSPost2010PropOp34
 70
     1
102
RTVSPost2010Prop35
280
     0
102
RTVSPost2010PropOp35
 70
     1
102
RTVSPost2010Prop36
280
     0
102
RTVSPost2010PropOp36
 70
     1
102
RTVSPost2010Prop37
 90
       50
102
RTVSPost2010PropOp37
 70
     1
102
RTVSPost2010Prop38
140
0.0
102
RTVSPost2010PropOp38
 70
     1
102
RTVSPost2010Prop39
140
1.0
102
RTVSPost2010PropOp39
 70
     1
102
RTVSPost2010Prop40
 90
        0
102
RTVSPost2010PropOp40
 70
     1
102
RTVSPost2010Prop41ColorIndex
 90
       18
102
RTVSPost2010Prop41ColorRGB
 90
        0
102
RTVSPost2010PropOp41
 70
     1
102
RTVSPost2010Prop42
 90
       50
102
RTVSPost2010PropOp42
 70
     1
102
RTVSPost2010Prop43
 90
        3
102
RTVSPost2010PropOp43
 70
     1
102
RTVSPost2010Prop44ColorIndex
 90
        5
102
RTVSPost2010Prop44ColorRGB
 90
      255
102
RTVSPost2010PropOp44
 70
     1
102
RTVSPost2010Prop45
280
     0
102
RTVSPost2010PropOp45
 70
     1
102
RTVSPost2010Prop46
 90
       50
102
RTVSPost2010PropOp46
 70
     1
102
RTVSPost2010Prop47
 90
       50
102
RTVSPost2010PropOp47
 70
     1
102
RTVSPost2010Prop48
 90
       50
102
RTVSPost2010PropOp48
 70
     1
102
RTVSPost2010Prop49
280
     0
102
RTVSPost2010PropOp49
 70
     1
102
RTVSPost2010Prop50
 90
       50
102
RTVSPost2010PropOp50
 70
     1
102
RTVSPost2010Prop51ColorIndex
 90
      256
102
RTVSPost2010Prop51ColorRGB
 90
-16777216
102
RTVSPost2010PropOp51
 70
     0
102
RTVSPost2010Prop52
140
1.0
102
RTVSPost2010PropOp52
 70
     0
102
RTVSPost2010Prop53
 90
        2
102
RTVSPost2010PropOp53
 70
     1
102
RTVSPost2010Prop54
  1
strokes_ogs.tif
102
RTVSPost2010PropOp54
 70
     1
102
RTVSPost2010Prop55
280
     0
102
RTVSPost2010PropOp55
 70
     1
102
RTVSPost2010Prop56
140
1.0
102
RTVSPost2010PropOp56
 70
     1
102
RTVSPost2010Prop57
140
1.0
102
RTVSPost2010PropOp57
 70
     1
102
RTVSPropertyOp0
 70
     1
102
RTVSPropertyOp1
 70
     1
102
RTVSPropertyOp2
 70
     1
102
RTVSPropertyOp3
 70
     1
102
RTVSPropertyOp4
 70
     1
102
RTVSPropertyOp5
 70
     1
102
RTVSPropertyOp6
 70
     1
102
RTVSPropertyOp7
 70
     1
102
RTVSPropertyOp8
 70
     1
102
RTVSPropertyOp9
 70
     1
102
RTVSPropertyOp10
 70
     1
102
RTVSPropertyOp11
 70
     1
102
RTVSPropertyOp12
 70
     1
102
RTVSPropertyOp13
 70
     1
102
RTVSPropertyOp14
 70
     1
102
RTVSPropertyOp15
 70
     1
102
RTVSPropertyOp16
 70
     1
102
RTVSPropertyOp17
 70
     1
102
RTVSPropertyOp18
 70
     1
102
RTVSPropertyOp19
 70
     1
102
RTVSPropertyOp20
 70
     1
102
RTVSPropertyOp21
 70
     1
102
RTVSPropertyOp22
 70
     1
102
RTVSPropertyOp23
 70
     1
102
RTVSPropertyOp24
 70
     1
102
RTVSPropertyOp25
 70
     1
102
RTVSPropertyOp26
 70
     1
102
RTVSPropertyOp27
 70
     1
102
RTVSPropertyOp28
 70
     1
102
RTVSPropertyOp29
 70
     1
102
RTVSPropertyOp30
 70
     1
102
RTVSPropertyOp31
 70
     1
102
RTVSPropertyOp32
 70
     1
102
RTVSPropertyOp33
 70
     1
102
RTVSPropertyOp34
 70
     1
102
RTVSPropertyOp35
 70
     1
102
RTVSPropertyOp36
 70
     1
102
RTVSPropertyOp37
 70
     1
102
RTVSPropertyOp38
 70
     1
102
RTVSPropertyOp39
 70
     1
102
RTVSPropertyOp40
 70
     1
102
RTVSPropertyOp41
 70
     1
102
RTVSPropertyOp42
 70
     1
102
RTVSPropertyOp43
 70
     1
102
RTVSPropertyOp44
 70
     1
102
RTVSPropertyOp45
 70
     1
102
RTVSPropertyOp46
 70
     1
102
RTVSPropertyOp47
 70
     1
102
RTVSPropertyOp48
 70
     1
102
RTVSPropertyOp49
 70
     1
102
RTVSPropertyOp50
 70
     1
102
RTVSPropertyOp51
 70
     0
102
RTVSPropertyOp52
 70
     0
102
RTVSPropertyOp53
 70
     1
102
RTVSPropertyOp54
 70
     1
102
RTVSPropertyOp55
 70
     1
102
RTVSPropertyOp56
 70
     1
102
RTVSPropertyOp57
 70
     1
102
RTVSPropertyOp58
 70
     1
102
RTVSPropertyOp59
 70
     1
102
RTVSPropertyOp60
 70
     1
102
RTVSPropertyOp61
 70
     1
102
RTVSPropertyOp62
 70
     1
  0
XRECORD
  5
10ED
102
{ACAD_REACTORS
330
10EC
102
}
330
10EC
100
AcDbXrecord
280
     1
102
RTVSPost2010Prop28
280
     0
102
RTVSPost2010PropOp28
 70
     1
102
RTVSPost2010Prop29
280
     1
102
RTVSPost2010PropOp29
 70
     1
102
RTVSPost2010Prop30
280
     1
102
RTVSPost2010PropOp30
 70
     1
102
RTVSPost2010Prop31
280
     0
102
RTVSPost2010PropOp31
 70
     1
102
RTVSPost2010Prop32
280
     0
102
RTVSPost2010PropOp32
 70
     1
102
RTVSPost2010Prop33
280
     0
102
RTVSPost2010PropOp33
 70
     1
102
RTVSPost2010Prop34
280
     0
102
RTVSPost2010PropOp34
 70
     1
102
RTVSPost2010Prop35
280
     0
102
RTVSPost2010PropOp35
 70
     1
102
RTVSPost2010Prop36
280
     0
102
RTVSPost2010PropOp36
 70
     1
102
RTVSPost2010Prop37
 90
       50
102
RTVSPost2010PropOp37
 70
     0
102
RTVSPost2010Prop38
140
0.0
102
RTVSPost2010PropOp38
 70
     0
102
RTVSPost2010Prop39
140
1.0
102
RTVSPost2010PropOp39
 70
     0
102
RTVSPost2010Prop40
 90
        0
102
RTVSPost2010PropOp40
 70
     0
102
RTVSPost2010Prop41ColorIndex
 90
       18
102
RTVSPost2010Prop41ColorRGB
 90
        0
102
RTVSPost2010PropOp41
 70
     0
102
RTVSPost2010Prop42
 90
       50
102
RTVSPost2010PropOp42
 70
     0
102
RTVSPost2010Prop43
 90
        3
102
RTVSPost2010PropOp43
 70
     0
102
RTVSPost2010Prop44ColorIndex
 90
        5
102
RTVSPost2010Prop44ColorRGB
 90
      255
102
RTVSPost2010PropOp44
 70
     0
102
RTVSPost2010Prop45
280
     0
102
RTVSPost2010PropOp45
 70
     1
102
RTVSPost2010Prop46
 90
       50
102
RTVSPost2010PropOp46
 70
     0
102
RTVSPost2010Prop47
 90
       50
102
RTVSPost2010PropOp47
 70
     0
102
RTVSPost2010Prop48
 90
       50
102
RTVSPost2010PropOp48
 70
     0
102
RTVSPost2010Prop49
280
     0
102
RTVSPost2010PropOp49
 70
     1
102
RTVSPost2010Prop50
 90
       50
102
RTVSPost2010PropOp50
 70
     0
102
RTVSPost2010Prop51ColorIndex
 90
      256
102
RTVSPost2010Prop51ColorRGB
 90
-16777216
102
RTVSPost2010PropOp51
 70
     0
102
RTVSPost2010Prop52
140
1.0
102
RTVSPost2010PropOp52
 70
     0
102
RTVSPost2010Prop53
 90
        2
102
RTVSPost2010PropOp53
 70
     0
102
RTVSPost2010Prop54
  1
strokes_ogs.tif
102
RTVSPost2010PropOp54
 70
     0
102
RTVSPost2010Prop55
280
     0
102
RTVSPost2010PropOp55
 70
     1
102
RTVSPost2010Prop56
140
1.0
102
RTVSPost2010PropOp56
 70
     0
102
RTVSPost2010Prop57
140
1.0
102
RTVSPost2010PropOp57
 70
     0
102
RTVSPropertyOp0
 70
     0
102
RTVSPropertyOp1
 70
     0
102
RTVSPropertyOp2
 70
     0
102
RTVSPropertyOp3
 70
     0
102
RTVSPropertyOp4
 70
     0
102
RTVSPropertyOp5
 70
     0
102
RTVSPropertyOp6
 70
     0
102
RTVSPropertyOp7
 70
     0
102
RTVSPropertyOp8
 70
     0
102
RTVSPropertyOp9
 70
     0
102
RTVSPropertyOp10
 70
     0
102
RTVSPropertyOp11
 70
     0
102
RTVSPropertyOp12
 70
     0
102
RTVSPropertyOp13
 70
     0
102
RTVSPropertyOp14
 70
     2
102
RTVSPropertyOp15
 70
     0
102
RTVSPropertyOp16
 70
     0
102
RTVSPropertyOp17
 70
     0
102
RTVSPropertyOp18
 70
     0
102
RTVSPropertyOp19
 70
     0
102
RTVSPropertyOp20
 70
     0
102
RTVSPropertyOp21
 70
     0
102
RTVSPropertyOp22
 70
     0
102
RTVSPropertyOp23
 70
     0
102
RTVSPropertyOp24
 70
     0
102
RTVSPropertyOp25
 70
     0
102
RTVSPropertyOp26
 70
     0
102
RTVSPropertyOp27
 70
     0
102
RTVSPropertyOp28
 70
     1
102
RTVSPropertyOp29
 70
     1
102
RTVSPropertyOp30
 70
     1
102
RTVSPropertyOp31
 70
     1
102
RTVSPropertyOp32
 70
     1
102
RTVSPropertyOp33
 70
     1
102
RTVSPropertyOp34
 70
     1
102
RTVSPropertyOp35
 70
     1
102
RTVSPropertyOp36
 70
     1
102
RTVSPropertyOp37
 70
     0
102
RTVSPropertyOp38
 70
     0
102
RTVSPropertyOp39
 70
     0
102
RTVSPropertyOp40
 70
     0
102
RTVSPropertyOp41
 70
     0
102
RTVSPropertyOp42
 70
     0
102
RTVSPropertyOp43
 70
     0
102
RTVSPropertyOp44
 70
     0
102
RTVSPropertyOp45
 70
     1
102
RTVSPropertyOp46
 70
     0
102
RTVSPropertyOp47
 70
     0
102
RTVSPropertyOp48
 70
     0
102
RTVSPropertyOp49
 70
     1
102
RTVSPropertyOp50
 70
     0
102
RTVSPropertyOp51
 70
     0
102
RTVSPropertyOp52
 70
     0
102
RTVSPropertyOp53
 70
     0
102
RTVSPropertyOp54
 70
     0
102
RTVSPropertyOp55
 70
     1
102
RTVSPropertyOp56
 70
     0
102
RTVSPropertyOp57
 70
     0
102
RTVSPropertyOp58
 70
     0
102
RTVSPropertyOp59
 70
     0
102
RTVSPropertyOp60
 70
     0
102
RTVSPropertyOp61
 70
     0
102
RTVSPropertyOp62
 70
     0
  0
XRECORD
  5
10DD
102
{ACAD_REACTORS
330
10DC
102
}
330
10DC
100
AcDbXrecord
280
     1
102
RTVSPost2010Prop28
280
     0
102
RTVSPost2010PropOp28
 70
     1
102
RTVSPost2010Prop29
280
     1
102
RTVSPost2010PropOp29
 70
     1
102
RTVSPost2010Prop30
280
     1
102
RTVSPost2010PropOp30
 70
     1
102
RTVSPost2010Prop31
280
     0
102
RTVSPost2010PropOp31
 70
     1
102
RTVSPost2010Prop32
280
     0
102
RTVSPost2010PropOp32
 70
     1
102
RTVSPost2010Prop33
280
     0
102
RTVSPost2010PropOp33
 70
     1
102
RTVSPost2010Prop34
280
     0
102
RTVSPost2010PropOp34
 70
     1
102
RTVSPost2010Prop35
280
     0
102
RTVSPost2010PropOp35
 70
     1
102
RTVSPost2010Prop36
280
     0
102
RTVSPost2010PropOp36
 70
     1
102
RTVSPost2010Prop37
 90
       50
102
RTVSPost2010PropOp37
 70
     1
102
RTVSPost2010Prop38
140
0.0
102
RTVSPost2010PropOp38
 70
     1
102
RTVSPost2010Prop39
140
1.0
102
RTVSPost2010PropOp39
 70
     1
102
RTVSPost2010Prop40
 90
        0
102
RTVSPost2010PropOp40
 70
     1
102
RTVSPost2010Prop41ColorIndex
 90
       18
102
RTVSPost2010Prop41ColorRGB
 90
        0
102
RTVSPost2010PropOp41
 70
     1
102
RTVSPost2010Prop42
 90
       50
102
RTVSPost2010PropOp42
 70
     1
102
RTVSPost2010Prop43
 90
        3
102
RTVSPost2010PropOp43
 70
     1
102
RTVSPost2010Prop44ColorIndex
 90
        5
102
RTVSPost2010Prop44ColorRGB
 90
      255
102
RTVSPost2010PropOp44
 70
     1
102
RTVSPost2010Prop45
280
     0
102
RTVSPost2010PropOp45
 70
     1
102
RTVSPost2010Prop46
 90
       50
102
RTVSPost2010PropOp46
 70
     1
102
RTVSPost2010Prop47
 90
       50
102
RTVSPost2010PropOp47
 70
     1
102
RTVSPost2010Prop48
 90
       50
102
RTVSPost2010PropOp48
 70
     1
102
RTVSPost2010Prop49
280
     0
102
RTVSPost2010PropOp49
 70
     1
102
RTVSPost2010Prop50
 90
       50
102
RTVSPost2010PropOp50
 70
     1
102
RTVSPost2010Prop51ColorIndex
 90
      256
102
RTVSPost2010Prop51ColorRGB
 90
-16777216
102
RTVSPost2010PropOp51
 70
     0
102
RTVSPost2010Prop52
140
1.0
102
RTVSPost2010PropOp52
 70
     0
102
RTVSPost2010Prop53
 90
        2
102
RTVSPost2010PropOp53
 70
     1
102
RTVSPost2010Prop54
  1
strokes_ogs.tif
102
RTVSPost2010PropOp54
 70
     1
102
RTVSPost2010Prop55
280
     0
102
RTVSPost2010PropOp55
 70
     1
102
RTVSPost2010Prop56
140
1.0
102
RTVSPost2010PropOp56
 70
     1
102
RTVSPost2010Prop57
140
1.0
102
RTVSPost2010PropOp57
 70
     1
102
RTVSPropertyOp0
 70
     1
102
RTVSPropertyOp1
 70
     1
102
RTVSPropertyOp2
 70
     1
102
RTVSPropertyOp3
 70
     1
102
RTVSPropertyOp4
 70
     1
102
RTVSPropertyOp5
 70
     1
102
RTVSPropertyOp6
 70
     1
102
RTVSPropertyOp7
 70
     1
102
RTVSPropertyOp8
 70
     1
102
RTVSPropertyOp9
 70
     1
102
RTVSPropertyOp10
 70
     1
102
RTVSPropertyOp11
 70
     1
102
RTVSPropertyOp12
 70
     1
102
RTVSPropertyOp13
 70
     1
102
RTVSPropertyOp14
 70
     1
102
RTVSPropertyOp15
 70
     1
102
RTVSPropertyOp16
 70
     1
102
RTVSPropertyOp17
 70
     1
102
RTVSPropertyOp18
 70
     1
102
RTVSPropertyOp19
 70
     1
102
RTVSPropertyOp20
 70
     1
102
RTVSPropertyOp21
 70
     1
102
RTVSPropertyOp22
 70
     1
102
RTVSPropertyOp23
 70
     1
102
RTVSPropertyOp24
 70
     1
102
RTVSPropertyOp25
 70
     1
102
RTVSPropertyOp26
 70
     1
102
RTVSPropertyOp27
 70
     1
102
RTVSPropertyOp28
 70
     1
102
RTVSPropertyOp29
 70
     1
102
RTVSPropertyOp30
 70
     1
102
RTVSPropertyOp31
 70
     1
102
RTVSPropertyOp32
 70
     1
102
RTVSPropertyOp33
 70
     1
102
RTVSPropertyOp34
 70
     1
102
RTVSPropertyOp35
 70
     1
102
RTVSPropertyOp36
 70
     1
102
RTVSPropertyOp37
 70
     1
102
RTVSPropertyOp38
 70
     1
102
RTVSPropertyOp39
 70
     1
102
RTVSPropertyOp40
 70
     1
102
RTVSPropertyOp41
 70
     1
102
RTVSPropertyOp42
 70
     1
102
RTVSPropertyOp43
 70
     1
102
RTVSPropertyOp44
 70
     1
102
RTVSPropertyOp45
 70
     1
102
RTVSPropertyOp46
 70
     1
102
RTVSPropertyOp47
 70
     1
102
RTVSPropertyOp48
 70
     1
102
RTVSPropertyOp49
 70
     1
102
RTVSPropertyOp50
 70
     1
102
RTVSPropertyOp51
 70
     0
102
RTVSPropertyOp52
 70
     0
102
RTVSPropertyOp53
 70
     1
102
RTVSPropertyOp54
 70
     1
102
RTVSPropertyOp55
 70
     1
102
RTVSPropertyOp56
 70
     1
102
RTVSPropertyOp57
 70
     1
102
RTVSPropertyOp58
 70
     1
102
RTVSPropertyOp59
 70
     1
102
RTVSPropertyOp60
 70
     1
102
RTVSPropertyOp61
 70
     1
102
RTVSPropertyOp62
 70
     1
  0
XRECORD
  5
10EF
102
{ACAD_REACTORS
330
10EE
102
}
330
10EE
100
AcDbXrecord
280
     1
102
RTVSPost2010Prop28
280
     0
102
RTVSPost2010PropOp28
 70
     1
102
RTVSPost2010Prop29
280
     1
102
RTVSPost2010PropOp29
 70
     1
102
RTVSPost2010Prop30
280
     1
102
RTVSPost2010PropOp30
 70
     1
102
RTVSPost2010Prop31
280
     0
102
RTVSPost2010PropOp31
 70
     1
102
RTVSPost2010Prop32
280
     0
102
RTVSPost2010PropOp32
 70
     1
102
RTVSPost2010Prop33
280
     0
102
RTVSPost2010PropOp33
 70
     1
102
RTVSPost2010Prop34
280
     0
102
RTVSPost2010PropOp34
 70
     1
102
RTVSPost2010Prop35
280
     0
102
RTVSPost2010PropOp35
 70
     1
102
RTVSPost2010Prop36
280
     0
102
RTVSPost2010PropOp36
 70
     1
102
RTVSPost2010Prop37
 90
       50
102
RTVSPost2010PropOp37
 70
     0
102
RTVSPost2010Prop38
140
0.0
102
RTVSPost2010PropOp38
 70
     0
102
RTVSPost2010Prop39
140
1.0
102
RTVSPost2010PropOp39
 70
     0
102
RTVSPost2010Prop40
 90
        0
102
RTVSPost2010PropOp40
 70
     0
102
RTVSPost2010Prop41ColorIndex
 90
       18
102
RTVSPost2010Prop41ColorRGB
 90
        0
102
RTVSPost2010PropOp41
 70
     0
102
RTVSPost2010Prop42
 90
       50
102
RTVSPost2010PropOp42
 70
     0
102
RTVSPost2010Prop43
 90
        3
102
RTVSPost2010PropOp43
 70
     0
102
RTVSPost2010Prop44ColorIndex
 90
        5
102
RTVSPost2010Prop44ColorRGB
 90
      255
102
RTVSPost2010PropOp44
 70
     0
102
RTVSPost2010Prop45
280
     0
102
RTVSPost2010PropOp45
 70
     1
102
RTVSPost2010Prop46
 90
       50
102
RTVSPost2010PropOp46
 70
     0
102
RTVSPost2010Prop47
 90
       50
102
RTVSPost2010PropOp47
 70
     0
102
RTVSPost2010Prop48
 90
       50
102
RTVSPost2010PropOp48
 70
     0
102
RTVSPost2010Prop49
280
     0
102
RTVSPost2010PropOp49
 70
     1
102
RTVSPost2010Prop50
 90
       50
102
RTVSPost2010PropOp50
 70
     0
102
RTVSPost2010Prop51ColorIndex
 90
      256
102
RTVSPost2010Prop51ColorRGB
 90
-16777216
102
RTVSPost2010PropOp51
 70
     0
102
RTVSPost2010Prop52
140
1.0
102
RTVSPost2010PropOp52
 70
     0
102
RTVSPost2010Prop53
 90
        2
102
RTVSPost2010PropOp53
 70
     0
102
RTVSPost2010Prop54
  1
strokes_ogs.tif
102
RTVSPost2010PropOp54
 70
     0
102
RTVSPost2010Prop55
280
     0
102
RTVSPost2010PropOp55
 70
     1
102
RTVSPost2010Prop56
140
1.0
102
RTVSPost2010PropOp56
 70
     0
102
RTVSPost2010Prop57
140
1.0
102
RTVSPost2010PropOp57
 70
     0
102
RTVSPropertyOp0
 70
     0
102
RTVSPropertyOp1
 70
     0
102
RTVSPropertyOp2
 70
     0
102
RTVSPropertyOp3
 70
     0
102
RTVSPropertyOp4
 70
     0
102
RTVSPropertyOp5
 70
     0
102
RTVSPropertyOp6
 70
     0
102
RTVSPropertyOp7
 70
     0
102
RTVSPropertyOp8
 70
     0
102
RTVSPropertyOp9
 70
     0
102
RTVSPropertyOp10
 70
     0
102
RTVSPropertyOp11
 70
     0
102
RTVSPropertyOp12
 70
     0
102
RTVSPropertyOp13
 70
     0
102
RTVSPropertyOp14
 70
     2
102
RTVSPropertyOp15
 70
     0
102
RTVSPropertyOp16
 70
     0
102
RTVSPropertyOp17
 70
     0
102
RTVSPropertyOp18
 70
     0
102
RTVSPropertyOp19
 70
     0
102
RTVSPropertyOp20
 70
     0
102
RTVSPropertyOp21
 70
     0
102
RTVSPropertyOp22
 70
     0
102
RTVSPropertyOp23
 70
     0
102
RTVSPropertyOp24
 70
     0
102
RTVSPropertyOp25
 70
     0
102
RTVSPropertyOp26
 70
     0
102
RTVSPropertyOp27
 70
     0
102
RTVSPropertyOp28
 70
     1
102
RTVSPropertyOp29
 70
     1
102
RTVSPropertyOp30
 70
     1
102
RTVSPropertyOp31
 70
     1
102
RTVSPropertyOp32
 70
     1
102
RTVSPropertyOp33
 70
     1
102
RTVSPropertyOp34
 70
     1
102
RTVSPropertyOp35
 70
     1
102
RTVSPropertyOp36
 70
     1
102
RTVSPropertyOp37
 70
     0
102
RTVSPropertyOp38
 70
     0
102
RTVSPropertyOp39
 70
     0
102
RTVSPropertyOp40
 70
     0
102
RTVSPropertyOp41
 70
     0
102
RTVSPropertyOp42
 70
     0
102
RTVSPropertyOp43
 70
     0
102
RTVSPropertyOp44
 70
     0
102
RTVSPropertyOp45
 70
     1
102
RTVSPropertyOp46
 70
     0
102
RTVSPropertyOp47
 70
     0
102
RTVSPropertyOp48
 70
     0
102
RTVSPropertyOp49
 70
     1
102
RTVSPropertyOp50
 70
     0
102
RTVSPropertyOp51
 70
     0
102
RTVSPropertyOp52
 70
     0
102
RTVSPropertyOp53
 70
     0
102
RTVSPropertyOp54
 70
     0
102
RTVSPropertyOp55
 70
     1
102
RTVSPropertyOp56
 70
     0
102
RTVSPropertyOp57
 70
     0
102
RTVSPropertyOp58
 70
     0
102
RTVSPropertyOp59
 70
     0
102
RTVSPropertyOp60
 70
     0
102
RTVSPropertyOp61
 70
     0
102
RTVSPropertyOp62
 70
     0
  0
XRECORD
  5
10D5
102
{ACAD_REACTORS
330
10D4
102
}
330
10D4
100
AcDbXrecord
280
     1
102
RTVSPost2010Prop28
280
     0
102
RTVSPost2010PropOp28
 70
     1
102
RTVSPost2010Prop29
280
     1
102
RTVSPost2010PropOp29
 70
     1
102
RTVSPost2010Prop30
280
     1
102
RTVSPost2010PropOp30
 70
     1
102
RTVSPost2010Prop31
280
     0
102
RTVSPost2010PropOp31
 70
     1
102
RTVSPost2010Prop32
280
     0
102
RTVSPost2010PropOp32
 70
     1
102
RTVSPost2010Prop33
280
     0
102
RTVSPost2010PropOp33
 70
     1
102
RTVSPost2010Prop34
280
     0
102
RTVSPost2010PropOp34
 70
     1
102
RTVSPost2010Prop35
280
     0
102
RTVSPost2010PropOp35
 70
     1
102
RTVSPost2010Prop36
280
     0
102
RTVSPost2010PropOp36
 70
     1
102
RTVSPost2010Prop37
 90
       50
102
RTVSPost2010PropOp37
 70
     1
102
RTVSPost2010Prop38
140
0.0
102
RTVSPost2010PropOp38
 70
     1
102
RTVSPost2010Prop39
140
1.0
102
RTVSPost2010PropOp39
 70
     1
102
RTVSPost2010Prop40
 90
        0
102
RTVSPost2010PropOp40
 70
     1
102
RTVSPost2010Prop41ColorIndex
 90
       18
102
RTVSPost2010Prop41ColorRGB
 90
        0
102
RTVSPost2010PropOp41
 70
     1
102
RTVSPost2010Prop42
 90
       50
102
RTVSPost2010PropOp42
 70
     1
102
RTVSPost2010Prop43
 90
        3
102
RTVSPost2010PropOp43
 70
     1
102
RTVSPost2010Prop44ColorIndex
 90
        5
102
RTVSPost2010Prop44ColorRGB
 90
      255
102
RTVSPost2010PropOp44
 70
     1
102
RTVSPost2010Prop45
280
     0
102
RTVSPost2010PropOp45
 70
     1
102
RTVSPost2010Prop46
 90
       50
102
RTVSPost2010PropOp46
 70
     1
102
RTVSPost2010Prop47
 90
       50
102
RTVSPost2010PropOp47
 70
     1
102
RTVSPost2010Prop48
 90
       50
102
RTVSPost2010PropOp48
 70
     1
102
RTVSPost2010Prop49
280
     0
102
RTVSPost2010PropOp49
 70
     1
102
RTVSPost2010Prop50
 90
       50
102
RTVSPost2010PropOp50
 70
     1
102
RTVSPost2010Prop51ColorIndex
 90
      256
102
RTVSPost2010Prop51ColorRGB
 90
-16777216
102
RTVSPost2010PropOp51
 70
     0
102
RTVSPost2010Prop52
140
1.0
102
RTVSPost2010PropOp52
 70
     0
102
RTVSPost2010Prop53
 90
        2
102
RTVSPost2010PropOp53
 70
     1
102
RTVSPost2010Prop54
  1
strokes_ogs.tif
102
RTVSPost2010PropOp54
 70
     1
102
RTVSPost2010Prop55
280
     0
102
RTVSPost2010PropOp55
 70
     1
102
RTVSPost2010Prop56
140
1.0
102
RTVSPost2010PropOp56
 70
     1
102
RTVSPost2010Prop57
140
1.0
102
RTVSPost2010PropOp57
 70
     1
102
RTVSPropertyOp0
 70
     1
102
RTVSPropertyOp1
 70
     1
102
RTVSPropertyOp2
 70
     1
102
RTVSPropertyOp3
 70
     1
102
RTVSPropertyOp4
 70
     1
102
RTVSPropertyOp5
 70
     1
102
RTVSPropertyOp6
 70
     1
102
RTVSPropertyOp7
 70
     1
102
RTVSPropertyOp8
 70
     1
102
RTVSPropertyOp9
 70
     1
102
RTVSPropertyOp10
 70
     1
102
RTVSPropertyOp11
 70
     1
102
RTVSPropertyOp12
 70
     1
102
RTVSPropertyOp13
 70
     1
102
RTVSPropertyOp14
 70
     1
102
RTVSPropertyOp15
 70
     1
102
RTVSPropertyOp16
 70
     1
102
RTVSPropertyOp17
 70
     1
102
RTVSPropertyOp18
 70
     1
102
RTVSPropertyOp19
 70
     1
102
RTVSPropertyOp20
 70
     1
102
RTVSPropertyOp21
 70
     1
102
RTVSPropertyOp22
 70
     1
102
RTVSPropertyOp23
 70
     1
102
RTVSPropertyOp24
 70
     1
102
RTVSPropertyOp25
 70
     1
102
RTVSPropertyOp26
 70
     1
102
RTVSPropertyOp27
 70
     1
102
RTVSPropertyOp28
 70
     1
102
RTVSPropertyOp29
 70
     1
102
RTVSPropertyOp30
 70
     1
102
RTVSPropertyOp31
 70
     1
102
RTVSPropertyOp32
 70
     1
102
RTVSPropertyOp33
 70
     1
102
RTVSPropertyOp34
 70
     1
102
RTVSPropertyOp35
 70
     1
102
RTVSPropertyOp36
 70
     1
102
RTVSPropertyOp37
 70
     1
102
RTVSPropertyOp38
 70
     1
102
RTVSPropertyOp39
 70
     1
102
RTVSPropertyOp40
 70
     1
102
RTVSPropertyOp41
 70
     1
102
RTVSPropertyOp42
 70
     1
102
RTVSPropertyOp43
 70
     1
102
RTVSPropertyOp44
 70
     1
102
RTVSPropertyOp45
 70
     1
102
RTVSPropertyOp46
 70
     1
102
RTVSPropertyOp47
 70
     1
102
RTVSPropertyOp48
 70
     1
102
RTVSPropertyOp49
 70
     1
102
RTVSPropertyOp50
 70
     1
102
RTVSPropertyOp51
 70
     0
102
RTVSPropertyOp52
 70
     0
102
RTVSPropertyOp53
 70
     1
102
RTVSPropertyOp54
 70
     1
102
RTVSPropertyOp55
 70
     1
102
RTVSPropertyOp56
 70
     1
102
RTVSPropertyOp57
 70
     1
102
RTVSPropertyOp58
 70
     1
102
RTVSPropertyOp59
 70
     1
102
RTVSPropertyOp60
 70
     1
102
RTVSPropertyOp61
 70
     1
102
RTVSPropertyOp62
 70
     1
  0
XRECORD
  5
10EB
102
{ACAD_REACTORS
330
10EA
102
}
330
10EA
100
AcDbXrecord
280
     1
102
RTVSPost2010Prop28
280
     0
102
RTVSPost2010PropOp28
 70
     1
102
RTVSPost2010Prop29
280
     1
102
RTVSPost2010PropOp29
 70
     1
102
RTVSPost2010Prop30
280
     1
102
RTVSPost2010PropOp30
 70
     1
102
RTVSPost2010Prop31
280
     0
102
RTVSPost2010PropOp31
 70
     1
102
RTVSPost2010Prop32
280
     0
102
RTVSPost2010PropOp32
 70
     1
102
RTVSPost2010Prop33
280
     0
102
RTVSPost2010PropOp33
 70
     1
102
RTVSPost2010Prop34
280
     0
102
RTVSPost2010PropOp34
 70
     1
102
RTVSPost2010Prop35
280
     0
102
RTVSPost2010PropOp35
 70
     1
102
RTVSPost2010Prop36
280
     0
102
RTVSPost2010PropOp36
 70
     1
102
RTVSPost2010Prop37
 90
       50
102
RTVSPost2010PropOp37
 70
     1
102
RTVSPost2010Prop38
140
0.0
102
RTVSPost2010PropOp38
 70
     1
102
RTVSPost2010Prop39
140
1.0
102
RTVSPost2010PropOp39
 70
     1
102
RTVSPost2010Prop40
 90
        0
102
RTVSPost2010PropOp40
 70
     1
102
RTVSPost2010Prop41ColorIndex
 90
       18
102
RTVSPost2010Prop41ColorRGB
 90
        0
102
RTVSPost2010PropOp41
 70
     1
102
RTVSPost2010Prop42
 90
       50
102
RTVSPost2010PropOp42
 70
     1
102
RTVSPost2010Prop43
 90
        3
102
RTVSPost2010PropOp43
 70
     1
102
RTVSPost2010Prop44ColorIndex
 90
        5
102
RTVSPost2010Prop44ColorRGB
 90
      255
102
RTVSPost2010PropOp44
 70
     1
102
RTVSPost2010Prop45
280
     0
102
RTVSPost2010PropOp45
 70
     1
102
RTVSPost2010Prop46
 90
       50
102
RTVSPost2010PropOp46
 70
     1
102
RTVSPost2010Prop47
 90
       50
102
RTVSPost2010PropOp47
 70
     1
102
RTVSPost2010Prop48
 90
       50
102
RTVSPost2010PropOp48
 70
     1
102
RTVSPost2010Prop49
280
     0
102
RTVSPost2010PropOp49
 70
     1
102
RTVSPost2010Prop50
 90
       50
102
RTVSPost2010PropOp50
 70
     1
102
RTVSPost2010Prop51ColorIndex
 90
      256
102
RTVSPost2010Prop51ColorRGB
 90
-16777216
102
RTVSPost2010PropOp51
 70
     0
102
RTVSPost2010Prop52
140
1.0
102
RTVSPost2010PropOp52
 70
     0
102
RTVSPost2010Prop53
 90
        2
102
RTVSPost2010PropOp53
 70
     1
102
RTVSPost2010Prop54
  1
strokes_ogs.tif
102
RTVSPost2010PropOp54
 70
     1
102
RTVSPost2010Prop55
280
     0
102
RTVSPost2010PropOp55
 70
     1
102
RTVSPost2010Prop56
140
1.0
102
RTVSPost2010PropOp56
 70
     1
102
RTVSPost2010Prop57
140
1.0
102
RTVSPost2010PropOp57
 70
     1
102
RTVSPropertyOp0
 70
     1
102
RTVSPropertyOp1
 70
     1
102
RTVSPropertyOp2
 70
     1
102
RTVSPropertyOp3
 70
     1
102
RTVSPropertyOp4
 70
     1
102
RTVSPropertyOp5
 70
     1
102
RTVSPropertyOp6
 70
     1
102
RTVSPropertyOp7
 70
     1
102
RTVSPropertyOp8
 70
     1
102
RTVSPropertyOp9
 70
     1
102
RTVSPropertyOp10
 70
     1
102
RTVSPropertyOp11
 70
     1
102
RTVSPropertyOp12
 70
     1
102
RTVSPropertyOp13
 70
     1
102
RTVSPropertyOp14
 70
     1
102
RTVSPropertyOp15
 70
     1
102
RTVSPropertyOp16
 70
     1
102
RTVSPropertyOp17
 70
     1
102
RTVSPropertyOp18
 70
     1
102
RTVSPropertyOp19
 70
     1
102
RTVSPropertyOp20
 70
     1
102
RTVSPropertyOp21
 70
     1
102
RTVSPropertyOp22
 70
     1
102
RTVSPropertyOp23
 70
     1
102
RTVSPropertyOp24
 70
     1
102
RTVSPropertyOp25
 70
     1
102
RTVSPropertyOp26
 70
     1
102
RTVSPropertyOp27
 70
     1
102
RTVSPropertyOp28
 70
     1
102
RTVSPropertyOp29
 70
     1
102
RTVSPropertyOp30
 70
     1
102
RTVSPropertyOp31
 70
     1
102
RTVSPropertyOp32
 70
     1
102
RTVSPropertyOp33
 70
     1
102
RTVSPropertyOp34
 70
     1
102
RTVSPropertyOp35
 70
     1
102
RTVSPropertyOp36
 70
     1
102
RTVSPropertyOp37
 70
     1
102
RTVSPropertyOp38
 70
     1
102
RTVSPropertyOp39
 70
     1
102
RTVSPropertyOp40
 70
     1
102
RTVSPropertyOp41
 70
     1
102
RTVSPropertyOp42
 70
     1
102
RTVSPropertyOp43
 70
     1
102
RTVSPropertyOp44
 70
     1
102
RTVSPropertyOp45
 70
     1
102
RTVSPropertyOp46
 70
     1
102
RTVSPropertyOp47
 70
     1
102
RTVSPropertyOp48
 70
     1
102
RTVSPropertyOp49
 70
     1
102
RTVSPropertyOp50
 70
     1
102
RTVSPropertyOp51
 70
     0
102
RTVSPropertyOp52
 70
     0
102
RTVSPropertyOp53
 70
     1
102
RTVSPropertyOp54
 70
     1
102
RTVSPropertyOp55
 70
     1
102
RTVSPropertyOp56
 70
     1
102
RTVSPropertyOp57
 70
     1
102
RTVSPropertyOp58
 70
     1
102
RTVSPropertyOp59
 70
     1
102
RTVSPropertyOp60
 70
     1
102
RTVSPropertyOp61
 70
     1
102
RTVSPropertyOp62
 70
     1
  0
XRECORD
  5
10E9
102
{ACAD_REACTORS
330
10E8
102
}
330
10E8
100
AcDbXrecord
280
     1
102
RTVSPost2010Prop28
280
     0
102
RTVSPost2010PropOp28
 70
     1
102
RTVSPost2010Prop29
280
     1
102
RTVSPost2010PropOp29
 70
     1
102
RTVSPost2010Prop30
280
     1
102
RTVSPost2010PropOp30
 70
     1
102
RTVSPost2010Prop31
280
     0
102
RTVSPost2010PropOp31
 70
     1
102
RTVSPost2010Prop32
280
     0
102
RTVSPost2010PropOp32
 70
     1
102
RTVSPost2010Prop33
280
     0
102
RTVSPost2010PropOp33
 70
     1
102
RTVSPost2010Prop34
280
     0
102
RTVSPost2010PropOp34
 70
     1
102
RTVSPost2010Prop35
280
     0
102
RTVSPost2010PropOp35
 70
     1
102
RTVSPost2010Prop36
280
     0
102
RTVSPost2010PropOp36
 70
     1
102
RTVSPost2010Prop37
 90
       50
102
RTVSPost2010PropOp37
 70
     1
102
RTVSPost2010Prop38
140
0.0
102
RTVSPost2010PropOp38
 70
     1
102
RTVSPost2010Prop39
140
1.0
102
RTVSPost2010PropOp39
 70
     1
102
RTVSPost2010Prop40
 90
        0
102
RTVSPost2010PropOp40
 70
     1
102
RTVSPost2010Prop41ColorIndex
 90
       18
102
RTVSPost2010Prop41ColorRGB
 90
        0
102
RTVSPost2010PropOp41
 70
     1
102
RTVSPost2010Prop42
 90
       50
102
RTVSPost2010PropOp42
 70
     1
102
RTVSPost2010Prop43
 90
        3
102
RTVSPost2010PropOp43
 70
     1
102
RTVSPost2010Prop44ColorIndex
 90
        5
102
RTVSPost2010Prop44ColorRGB
 90
      255
102
RTVSPost2010PropOp44
 70
     1
102
RTVSPost2010Prop45
280
     0
102
RTVSPost2010PropOp45
 70
     1
102
RTVSPost2010Prop46
 90
       50
102
RTVSPost2010PropOp46
 70
     1
102
RTVSPost2010Prop47
 90
       50
102
RTVSPost2010PropOp47
 70
     1
102
RTVSPost2010Prop48
 90
       50
102
RTVSPost2010PropOp48
 70
     1
102
RTVSPost2010Prop49
280
     0
102
RTVSPost2010PropOp49
 70
     1
102
RTVSPost2010Prop50
 90
       50
102
RTVSPost2010PropOp50
 70
     1
102
RTVSPost2010Prop51ColorIndex
 90
      256
102
RTVSPost2010Prop51ColorRGB
 90
-16777216
102
RTVSPost2010PropOp51
 70
     0
102
RTVSPost2010Prop52
140
1.0
102
RTVSPost2010PropOp52
 70
     0
102
RTVSPost2010Prop53
 90
        2
102
RTVSPost2010PropOp53
 70
     1
102
RTVSPost2010Prop54
  1
strokes_ogs.tif
102
RTVSPost2010PropOp54
 70
     1
102
RTVSPost2010Prop55
280
     0
102
RTVSPost2010PropOp55
 70
     1
102
RTVSPost2010Prop56
140
1.0
102
RTVSPost2010PropOp56
 70
     1
102
RTVSPost2010Prop57
140
1.0
102
RTVSPost2010PropOp57
 70
     1
102
RTVSPropertyOp0
 70
     1
102
RTVSPropertyOp1
 70
     1
102
RTVSPropertyOp2
 70
     1
102
RTVSPropertyOp3
 70
     1
102
RTVSPropertyOp4
 70
     1
102
RTVSPropertyOp5
 70
     1
102
RTVSPropertyOp6
 70
     1
102
RTVSPropertyOp7
 70
     1
102
RTVSPropertyOp8
 70
     1
102
RTVSPropertyOp9
 70
     1
102
RTVSPropertyOp10
 70
     1
102
RTVSPropertyOp11
 70
     1
102
RTVSPropertyOp12
 70
     1
102
RTVSPropertyOp13
 70
     1
102
RTVSPropertyOp14
 70
     1
102
RTVSPropertyOp15
 70
     1
102
RTVSPropertyOp16
 70
     1
102
RTVSPropertyOp17
 70
     1
102
RTVSPropertyOp18
 70
     1
102
RTVSPropertyOp19
 70
     1
102
RTVSPropertyOp20
 70
     1
102
RTVSPropertyOp21
 70
     1
102
RTVSPropertyOp22
 70
     1
102
RTVSPropertyOp23
 70
     1
102
RTVSPropertyOp24
 70
     1
102
RTVSPropertyOp25
 70
     1
102
RTVSPropertyOp26
 70
     1
102
RTVSPropertyOp27
 70
     1
102
RTVSPropertyOp28
 70
     1
102
RTVSPropertyOp29
 70
     1
102
RTVSPropertyOp30
 70
     1
102
RTVSPropertyOp31
 70
     1
102
RTVSPropertyOp32
 70
     1
102
RTVSPropertyOp33
 70
     1
102
RTVSPropertyOp34
 70
     1
102
RTVSPropertyOp35
 70
     1
102
RTVSPropertyOp36
 70
     1
102
RTVSPropertyOp37
 70
     1
102
RTVSPropertyOp38
 70
     1
102
RTVSPropertyOp39
 70
     1
102
RTVSPropertyOp40
 70
     1
102
RTVSPropertyOp41
 70
     1
102
RTVSPropertyOp42
 70
     1
102
RTVSPropertyOp43
 70
     1
102
RTVSPropertyOp44
 70
     1
102
RTVSPropertyOp45
 70
     1
102
RTVSPropertyOp46
 70
     1
102
RTVSPropertyOp47
 70
     1
102
RTVSPropertyOp48
 70
     1
102
RTVSPropertyOp49
 70
     1
102
RTVSPropertyOp50
 70
     1
102
RTVSPropertyOp51
 70
     0
102
RTVSPropertyOp52
 70
     0
102
RTVSPropertyOp53
 70
     1
102
RTVSPropertyOp54
 70
     1
102
RTVSPropertyOp55
 70
     1
102
RTVSPropertyOp56
 70
     1
102
RTVSPropertyOp57
 70
     1
102
RTVSPropertyOp58
 70
     1
102
RTVSPropertyOp59
 70
     1
102
RTVSPropertyOp60
 70
     1
102
RTVSPropertyOp61
 70
     1
102
RTVSPropertyOp62
 70
     1
  0
XRECORD
  5
10E3
102
{ACAD_REACTORS
330
10E2
102
}
330
10E2
100
AcDbXrecord
280
     1
102
RTVSPost2010Prop28
280
     0
102
RTVSPost2010PropOp28
 70
     1
102
RTVSPost2010Prop29
280
     1
102
RTVSPost2010PropOp29
 70
     1
102
RTVSPost2010Prop30
280
     1
102
RTVSPost2010PropOp30
 70
     1
102
RTVSPost2010Prop31
280
     0
102
RTVSPost2010PropOp31
 70
     1
102
RTVSPost2010Prop32
280
     0
102
RTVSPost2010PropOp32
 70
     1
102
RTVSPost2010Prop33
280
     0
102
RTVSPost2010PropOp33
 70
     1
102
RTVSPost2010Prop34
280
     0
102
RTVSPost2010PropOp34
 70
     1
102
RTVSPost2010Prop35
280
     0
102
RTVSPost2010PropOp35
 70
     1
102
RTVSPost2010Prop36
280
     0
102
RTVSPost2010PropOp36
 70
     1
102
RTVSPost2010Prop37
 90
       50
102
RTVSPost2010PropOp37
 70
     1
102
RTVSPost2010Prop38
140
0.0
102
RTVSPost2010PropOp38
 70
     1
102
RTVSPost2010Prop39
140
1.0
102
RTVSPost2010PropOp39
 70
     1
102
RTVSPost2010Prop40
 90
        0
102
RTVSPost2010PropOp40
 70
     1
102
RTVSPost2010Prop41ColorIndex
 90
       18
102
RTVSPost2010Prop41ColorRGB
 90
        0
102
RTVSPost2010PropOp41
 70
     1
102
RTVSPost2010Prop42
 90
       50
102
RTVSPost2010PropOp42
 70
     1
102
RTVSPost2010Prop43
 90
        3
102
RTVSPost2010PropOp43
 70
     1
102
RTVSPost2010Prop44ColorIndex
 90
        5
102
RTVSPost2010Prop44ColorRGB
 90
      255
102
RTVSPost2010PropOp44
 70
     1
102
RTVSPost2010Prop45
280
     0
102
RTVSPost2010PropOp45
 70
     1
102
RTVSPost2010Prop46
 90
       50
102
RTVSPost2010PropOp46
 70
     1
102
RTVSPost2010Prop47
 90
       50
102
RTVSPost2010PropOp47
 70
     1
102
RTVSPost2010Prop48
 90
       50
102
RTVSPost2010PropOp48
 70
     1
102
RTVSPost2010Prop49
280
     0
102
RTVSPost2010PropOp49
 70
     1
102
RTVSPost2010Prop50
 90
       50
102
RTVSPost2010PropOp50
 70
     1
102
RTVSPost2010Prop51ColorIndex
 90
      256
102
RTVSPost2010Prop51ColorRGB
 90
-16777216
102
RTVSPost2010PropOp51
 70
     0
102
RTVSPost2010Prop52
140
1.0
102
RTVSPost2010PropOp52
 70
     0
102
RTVSPost2010Prop53
 90
        2
102
RTVSPost2010PropOp53
 70
     1
102
RTVSPost2010Prop54
  1
strokes_ogs.tif
102
RTVSPost2010PropOp54
 70
     1
102
RTVSPost2010Prop55
280
     0
102
RTVSPost2010PropOp55
 70
     1
102
RTVSPost2010Prop56
140
1.0
102
RTVSPost2010PropOp56
 70
     1
102
RTVSPost2010Prop57
140
1.0
102
RTVSPost2010PropOp57
 70
     1
102
RTVSPropertyOp0
 70
     1
102
RTVSPropertyOp1
 70
     1
102
RTVSPropertyOp2
 70
     1
102
RTVSPropertyOp3
 70
     1
102
RTVSPropertyOp4
 70
     1
102
RTVSPropertyOp5
 70
     1
102
RTVSPropertyOp6
 70
     1
102
RTVSPropertyOp7
 70
     1
102
RTVSPropertyOp8
 70
     1
102
RTVSPropertyOp9
 70
     1
102
RTVSPropertyOp10
 70
     1
102
RTVSPropertyOp11
 70
     1
102
RTVSPropertyOp12
 70
     1
102
RTVSPropertyOp13
 70
     1
102
RTVSPropertyOp14
 70
     1
102
RTVSPropertyOp15
 70
     1
102
RTVSPropertyOp16
 70
     1
102
RTVSPropertyOp17
 70
     1
102
RTVSPropertyOp18
 70
     1
102
RTVSPropertyOp19
 70
     1
102
RTVSPropertyOp20
 70
     1
102
RTVSPropertyOp21
 70
     1
102
RTVSPropertyOp22
 70
     1
102
RTVSPropertyOp23
 70
     1
102
RTVSPropertyOp24
 70
     1
102
RTVSPropertyOp25
 70
     1
102
RTVSPropertyOp26
 70
     1
102
RTVSPropertyOp27
 70
     1
102
RTVSPropertyOp28
 70
     1
102
RTVSPropertyOp29
 70
     1
102
RTVSPropertyOp30
 70
     1
102
RTVSPropertyOp31
 70
     1
102
RTVSPropertyOp32
 70
     1
102
RTVSPropertyOp33
 70
     1
102
RTVSPropertyOp34
 70
     1
102
RTVSPropertyOp35
 70
     1
102
RTVSPropertyOp36
 70
     1
102
RTVSPropertyOp37
 70
     1
102
RTVSPropertyOp38
 70
     1
102
RTVSPropertyOp39
 70
     1
102
RTVSPropertyOp40
 70
     1
102
RTVSPropertyOp41
 70
     1
102
RTVSPropertyOp42
 70
     1
102
RTVSPropertyOp43
 70
     1
102
RTVSPropertyOp44
 70
     1
102
RTVSPropertyOp45
 70
     1
102
RTVSPropertyOp46
 70
     1
102
RTVSPropertyOp47
 70
     1
102
RTVSPropertyOp48
 70
     1
102
RTVSPropertyOp49
 70
     1
102
RTVSPropertyOp50
 70
     1
102
RTVSPropertyOp51
 70
     0
102
RTVSPropertyOp52
 70
     0
102
RTVSPropertyOp53
 70
     1
102
RTVSPropertyOp54
 70
     1
102
RTVSPropertyOp55
 70
     1
102
RTVSPropertyOp56
 70
     1
102
RTVSPropertyOp57
 70
     1
102
RTVSPropertyOp58
 70
     1
102
RTVSPropertyOp59
 70
     1
102
RTVSPropertyOp60
 70
     1
102
RTVSPropertyOp61
 70
     1
102
RTVSPropertyOp62
 70
     1
  0
XRECORD
  5
10E5
102
{ACAD_REACTORS
330
10E4
102
}
330
10E4
100
AcDbXrecord
280
     1
102
RTVSPost2010Prop28
280
     0
102
RTVSPost2010PropOp28
 70
     1
102
RTVSPost2010Prop29
280
     1
102
RTVSPost2010PropOp29
 70
     1
102
RTVSPost2010Prop30
280
     1
102
RTVSPost2010PropOp30
 70
     1
102
RTVSPost2010Prop31
280
     0
102
RTVSPost2010PropOp31
 70
     1
102
RTVSPost2010Prop32
280
     0
102
RTVSPost2010PropOp32
 70
     1
102
RTVSPost2010Prop33
280
     0
102
RTVSPost2010PropOp33
 70
     1
102
RTVSPost2010Prop34
280
     0
102
RTVSPost2010PropOp34
 70
     1
102
RTVSPost2010Prop35
280
     0
102
RTVSPost2010PropOp35
 70
     1
102
RTVSPost2010Prop36
280
     0
102
RTVSPost2010PropOp36
 70
     1
102
RTVSPost2010Prop37
 90
       50
102
RTVSPost2010PropOp37
 70
     1
102
RTVSPost2010Prop38
140
0.0
102
RTVSPost2010PropOp38
 70
     1
102
RTVSPost2010Prop39
140
1.0
102
RTVSPost2010PropOp39
 70
     1
102
RTVSPost2010Prop40
 90
        0
102
RTVSPost2010PropOp40
 70
     1
102
RTVSPost2010Prop41ColorIndex
 90
       18
102
RTVSPost2010Prop41ColorRGB
 90
        0
102
RTVSPost2010PropOp41
 70
     1
102
RTVSPost2010Prop42
 90
       50
102
RTVSPost2010PropOp42
 70
     1
102
RTVSPost2010Prop43
 90
        3
102
RTVSPost2010PropOp43
 70
     1
102
RTVSPost2010Prop44ColorIndex
 90
        5
102
RTVSPost2010Prop44ColorRGB
 90
      255
102
RTVSPost2010PropOp44
 70
     1
102
RTVSPost2010Prop45
280
     0
102
RTVSPost2010PropOp45
 70
     1
102
RTVSPost2010Prop46
 90
       50
102
RTVSPost2010PropOp46
 70
     1
102
RTVSPost2010Prop47
 90
       50
102
RTVSPost2010PropOp47
 70
     1
102
RTVSPost2010Prop48
 90
       50
102
RTVSPost2010PropOp48
 70
     1
102
RTVSPost2010Prop49
280
     0
102
RTVSPost2010PropOp49
 70
     1
102
RTVSPost2010Prop50
 90
       50
102
RTVSPost2010PropOp50
 70
     1
102
RTVSPost2010Prop51ColorIndex
 90
      256
102
RTVSPost2010Prop51ColorRGB
 90
-16777216
102
RTVSPost2010PropOp51
 70
     0
102
RTVSPost2010Prop52
140
1.0
102
RTVSPost2010PropOp52
 70
     0
102
RTVSPost2010Prop53
 90
        2
102
RTVSPost2010PropOp53
 70
     1
102
RTVSPost2010Prop54
  1
strokes_ogs.tif
102
RTVSPost2010PropOp54
 70
     1
102
RTVSPost2010Prop55
280
     0
102
RTVSPost2010PropOp55
 70
     1
102
RTVSPost2010Prop56
140
1.0
102
RTVSPost2010PropOp56
 70
     1
102
RTVSPost2010Prop57
140
1.0
102
RTVSPost2010PropOp57
 70
     1
102
RTVSPropertyOp0
 70
     1
102
RTVSPropertyOp1
 70
     1
102
RTVSPropertyOp2
 70
     1
102
RTVSPropertyOp3
 70
     1
102
RTVSPropertyOp4
 70
     1
102
RTVSPropertyOp5
 70
     1
102
RTVSPropertyOp6
 70
     1
102
RTVSPropertyOp7
 70
     1
102
RTVSPropertyOp8
 70
     1
102
RTVSPropertyOp9
 70
     1
102
RTVSPropertyOp10
 70
     1
102
RTVSPropertyOp11
 70
     1
102
RTVSPropertyOp12
 70
     1
102
RTVSPropertyOp13
 70
     1
102
RTVSPropertyOp14
 70
     1
102
RTVSPropertyOp15
 70
     1
102
RTVSPropertyOp16
 70
     1
102
RTVSPropertyOp17
 70
     1
102
RTVSPropertyOp18
 70
     1
102
RTVSPropertyOp19
 70
     1
102
RTVSPropertyOp20
 70
     1
102
RTVSPropertyOp21
 70
     1
102
RTVSPropertyOp22
 70
     1
102
RTVSPropertyOp23
 70
     1
102
RTVSPropertyOp24
 70
     1
102
RTVSPropertyOp25
 70
     1
102
RTVSPropertyOp26
 70
     1
102
RTVSPropertyOp27
 70
     1
102
RTVSPropertyOp28
 70
     1
102
RTVSPropertyOp29
 70
     1
102
RTVSPropertyOp30
 70
     1
102
RTVSPropertyOp31
 70
     1
102
RTVSPropertyOp32
 70
     1
102
RTVSPropertyOp33
 70
     1
102
RTVSPropertyOp34
 70
     1
102
RTVSPropertyOp35
 70
     1
102
RTVSPropertyOp36
 70
     1
102
RTVSPropertyOp37
 70
     1
102
RTVSPropertyOp38
 70
     1
102
RTVSPropertyOp39
 70
     1
102
RTVSPropertyOp40
 70
     1
102
RTVSPropertyOp41
 70
     1
102
RTVSPropertyOp42
 70
     1
102
RTVSPropertyOp43
 70
     1
102
RTVSPropertyOp44
 70
     1
102
RTVSPropertyOp45
 70
     1
102
RTVSPropertyOp46
 70
     1
102
RTVSPropertyOp47
 70
     1
102
RTVSPropertyOp48
 70
     1
102
RTVSPropertyOp49
 70
     1
102
RTVSPropertyOp50
 70
     1
102
RTVSPropertyOp51
 70
     0
102
RTVSPropertyOp52
 70
     0
102
RTVSPropertyOp53
 70
     1
102
RTVSPropertyOp54
 70
     1
102
RTVSPropertyOp55
 70
     1
102
RTVSPropertyOp56
 70
     1
102
RTVSPropertyOp57
 70
     1
102
RTVSPropertyOp58
 70
     1
102
RTVSPropertyOp59
 70
     1
102
RTVSPropertyOp60
 70
     1
102
RTVSPropertyOp61
 70
     1
102
RTVSPropertyOp62
 70
     1
  0
XRECORD
  5
10DB
102
{ACAD_REACTORS
330
10DA
102
}
330
10DA
100
AcDbXrecord
280
     1
102
RTVSPost2010Prop28
280
     0
102
RTVSPost2010PropOp28
 70
     1
102
RTVSPost2010Prop29
280
     1
102
RTVSPost2010PropOp29
 70
     1
102
RTVSPost2010Prop30
280
     1
102
RTVSPost2010PropOp30
 70
     1
102
RTVSPost2010Prop31
280
     0
102
RTVSPost2010PropOp31
 70
     1
102
RTVSPost2010Prop32
280
     0
102
RTVSPost2010PropOp32
 70
     1
102
RTVSPost2010Prop33
280
     0
102
RTVSPost2010PropOp33
 70
     1
102
RTVSPost2010Prop34
280
     0
102
RTVSPost2010PropOp34
 70
     1
102
RTVSPost2010Prop35
280
     0
102
RTVSPost2010PropOp35
 70
     1
102
RTVSPost2010Prop36
280
     0
102
RTVSPost2010PropOp36
 70
     1
102
RTVSPost2010Prop37
 90
       50
102
RTVSPost2010PropOp37
 70
     1
102
RTVSPost2010Prop38
140
0.0
102
RTVSPost2010PropOp38
 70
     1
102
RTVSPost2010Prop39
140
1.0
102
RTVSPost2010PropOp39
 70
     1
102
RTVSPost2010Prop40
 90
        0
102
RTVSPost2010PropOp40
 70
     1
102
RTVSPost2010Prop41ColorIndex
 90
       18
102
RTVSPost2010Prop41ColorRGB
 90
        0
102
RTVSPost2010PropOp41
 70
     1
102
RTVSPost2010Prop42
 90
       50
102
RTVSPost2010PropOp42
 70
     1
102
RTVSPost2010Prop43
 90
        3
102
RTVSPost2010PropOp43
 70
     1
102
RTVSPost2010Prop44ColorIndex
 90
        5
102
RTVSPost2010Prop44ColorRGB
 90
      255
102
RTVSPost2010PropOp44
 70
     1
102
RTVSPost2010Prop45
280
     0
102
RTVSPost2010PropOp45
 70
     1
102
RTVSPost2010Prop46
 90
       50
102
RTVSPost2010PropOp46
 70
     1
102
RTVSPost2010Prop47
 90
       50
102
RTVSPost2010PropOp47
 70
     1
102
RTVSPost2010Prop48
 90
       50
102
RTVSPost2010PropOp48
 70
     1
102
RTVSPost2010Prop49
280
     0
102
RTVSPost2010PropOp49
 70
     1
102
RTVSPost2010Prop50
 90
       50
102
RTVSPost2010PropOp50
 70
     1
102
RTVSPost2010Prop51ColorIndex
 90
      256
102
RTVSPost2010Prop51ColorRGB
 90
-16777216
102
RTVSPost2010PropOp51
 70
     0
102
RTVSPost2010Prop52
140
1.0
102
RTVSPost2010PropOp52
 70
     0
102
RTVSPost2010Prop53
 90
        2
102
RTVSPost2010PropOp53
 70
     1
102
RTVSPost2010Prop54
  1
strokes_ogs.tif
102
RTVSPost2010PropOp54
 70
     1
102
RTVSPost2010Prop55
280
     0
102
RTVSPost2010PropOp55
 70
     1
102
RTVSPost2010Prop56
140
1.0
102
RTVSPost2010PropOp56
 70
     1
102
RTVSPost2010Prop57
140
1.0
102
RTVSPost2010PropOp57
 70
     1
102
RTVSPropertyOp0
 70
     1
102
RTVSPropertyOp1
 70
     1
102
RTVSPropertyOp2
 70
     1
102
RTVSPropertyOp3
 70
     1
102
RTVSPropertyOp4
 70
     1
102
RTVSPropertyOp5
 70
     1
102
RTVSPropertyOp6
 70
     1
102
RTVSPropertyOp7
 70
     1
102
RTVSPropertyOp8
 70
     1
102
RTVSPropertyOp9
 70
     1
102
RTVSPropertyOp10
 70
     1
102
RTVSPropertyOp11
 70
     1
102
RTVSPropertyOp12
 70
     1
102
RTVSPropertyOp13
 70
     1
102
RTVSPropertyOp14
 70
     1
102
RTVSPropertyOp15
 70
     1
102
RTVSPropertyOp16
 70
     1
102
RTVSPropertyOp17
 70
     1
102
RTVSPropertyOp18
 70
     1
102
RTVSPropertyOp19
 70
     1
102
RTVSPropertyOp20
 70
     1
102
RTVSPropertyOp21
 70
     1
102
RTVSPropertyOp22
 70
     1
102
RTVSPropertyOp23
 70
     1
102
RTVSPropertyOp24
 70
     1
102
RTVSPropertyOp25
 70
     1
102
RTVSPropertyOp26
 70
     1
102
RTVSPropertyOp27
 70
     1
102
RTVSPropertyOp28
 70
     1
102
RTVSPropertyOp29
 70
     1
102
RTVSPropertyOp30
 70
     1
102
RTVSPropertyOp31
 70
     1
102
RTVSPropertyOp32
 70
     1
102
RTVSPropertyOp33
 70
     1
102
RTVSPropertyOp34
 70
     1
102
RTVSPropertyOp35
 70
     1
102
RTVSPropertyOp36
 70
     1
102
RTVSPropertyOp37
 70
     1
102
RTVSPropertyOp38
 70
     1
102
RTVSPropertyOp39
 70
     1
102
RTVSPropertyOp40
 70
     1
102
RTVSPropertyOp41
 70
     1
102
RTVSPropertyOp42
 70
     1
102
RTVSPropertyOp43
 70
     1
102
RTVSPropertyOp44
 70
     1
102
RTVSPropertyOp45
 70
     1
102
RTVSPropertyOp46
 70
     1
102
RTVSPropertyOp47
 70
     1
102
RTVSPropertyOp48
 70
     1
102
RTVSPropertyOp49
 70
     1
102
RTVSPropertyOp50
 70
     1
102
RTVSPropertyOp51
 70
     0
102
RTVSPropertyOp52
 70
     0
102
RTVSPropertyOp53
 70
     1
102
RTVSPropertyOp54
 70
     1
102
RTVSPropertyOp55
 70
     1
102
RTVSPropertyOp56
 70
     1
102
RTVSPropertyOp57
 70
     1
102
RTVSPropertyOp58
 70
     1
102
RTVSPropertyOp59
 70
     1
102
RTVSPropertyOp60
 70
     1
102
RTVSPropertyOp61
 70
     1
102
RTVSPropertyOp62
 70
     1
  0
XRECORD
  5
10CF
102
{ACAD_REACTORS
330
10CE
102
}
330
10CE
100
AcDbXrecord
280
     1
102
RTVSPost2010Prop28
280
     0
102
RTVSPost2010PropOp28
 70
     1
102
RTVSPost2010Prop29
280
     1
102
RTVSPost2010PropOp29
 70
     1
102
RTVSPost2010Prop30
280
     1
102
RTVSPost2010PropOp30
 70
     1
102
RTVSPost2010Prop31
280
     0
102
RTVSPost2010PropOp31
 70
     1
102
RTVSPost2010Prop32
280
     0
102
RTVSPost2010PropOp32
 70
     1
102
RTVSPost2010Prop33
280
     0
102
RTVSPost2010PropOp33
 70
     1
102
RTVSPost2010Prop34
280
     0
102
RTVSPost2010PropOp34
 70
     1
102
RTVSPost2010Prop35
280
     0
102
RTVSPost2010PropOp35
 70
     1
102
RTVSPost2010Prop36
280
     0
102
RTVSPost2010PropOp36
 70
     1
102
RTVSPost2010Prop37
 90
       50
102
RTVSPost2010PropOp37
 70
     1
102
RTVSPost2010Prop38
140
0.0
102
RTVSPost2010PropOp38
 70
     1
102
RTVSPost2010Prop39
140
1.0
102
RTVSPost2010PropOp39
 70
     1
102
RTVSPost2010Prop40
 90
        0
102
RTVSPost2010PropOp40
 70
     1
102
RTVSPost2010Prop41ColorIndex
 90
       18
102
RTVSPost2010Prop41ColorRGB
 90
        0
102
RTVSPost2010PropOp41
 70
     1
102
RTVSPost2010Prop42
 90
       50
102
RTVSPost2010PropOp42
 70
     1
102
RTVSPost2010Prop43
 90
        3
102
RTVSPost2010PropOp43
 70
     1
102
RTVSPost2010Prop44ColorIndex
 90
        5
102
RTVSPost2010Prop44ColorRGB
 90
      255
102
RTVSPost2010PropOp44
 70
     1
102
RTVSPost2010Prop45
280
     0
102
RTVSPost2010PropOp45
 70
     1
102
RTVSPost2010Prop46
 90
       50
102
RTVSPost2010PropOp46
 70
     1
102
RTVSPost2010Prop47
 90
       50
102
RTVSPost2010PropOp47
 70
     1
102
RTVSPost2010Prop48
 90
       50
102
RTVSPost2010PropOp48
 70
     1
102
RTVSPost2010Prop49
280
     0
102
RTVSPost2010PropOp49
 70
     1
102
RTVSPost2010Prop50
 90
       50
102
RTVSPost2010PropOp50
 70
     1
102
RTVSPost2010Prop51ColorIndex
 90
      256
102
RTVSPost2010Prop51ColorRGB
 90
-16777216
102
RTVSPost2010PropOp51
 70
     0
102
RTVSPost2010Prop52
140
1.0
102
RTVSPost2010PropOp52
 70
     0
102
RTVSPost2010Prop53
 90
        2
102
RTVSPost2010PropOp53
 70
     1
102
RTVSPost2010Prop54
  1
strokes_ogs.tif
102
RTVSPost2010PropOp54
 70
     1
102
RTVSPost2010Prop55
280
     0
102
RTVSPost2010PropOp55
 70
     1
102
RTVSPost2010Prop56
140
1.0
102
RTVSPost2010PropOp56
 70
     1
102
RTVSPost2010Prop57
140
1.0
102
RTVSPost2010PropOp57
 70
     1
102
RTVSPropertyOp0
 70
     1
102
RTVSPropertyOp1
 70
     1
102
RTVSPropertyOp2
 70
     1
102
RTVSPropertyOp3
 70
     1
102
RTVSPropertyOp4
 70
     1
102
RTVSPropertyOp5
 70
     1
102
RTVSPropertyOp6
 70
     1
102
RTVSPropertyOp7
 70
     1
102
RTVSPropertyOp8
 70
     1
102
RTVSPropertyOp9
 70
     1
102
RTVSPropertyOp10
 70
     1
102
RTVSPropertyOp11
 70
     1
102
RTVSPropertyOp12
 70
     1
102
RTVSPropertyOp13
 70
     1
102
RTVSPropertyOp14
 70
     1
102
RTVSPropertyOp15
 70
     1
102
RTVSPropertyOp16
 70
     1
102
RTVSPropertyOp17
 70
     1
102
RTVSPropertyOp18
 70
     1
102
RTVSPropertyOp19
 70
     1
102
RTVSPropertyOp20
 70
     1
102
RTVSPropertyOp21
 70
     1
102
RTVSPropertyOp22
 70
     1
102
RTVSPropertyOp23
 70
     1
102
RTVSPropertyOp24
 70
     1
102
RTVSPropertyOp25
 70
     1
102
RTVSPropertyOp26
 70
     1
102
RTVSPropertyOp27
 70
     1
102
RTVSPropertyOp28
 70
     1
102
RTVSPropertyOp29
 70
     1
102
RTVSPropertyOp30
 70
     1
102
RTVSPropertyOp31
 70
     1
102
RTVSPropertyOp32
 70
     1
102
RTVSPropertyOp33
 70
     1
102
RTVSPropertyOp34
 70
     1
102
RTVSPropertyOp35
 70
     1
102
RTVSPropertyOp36
 70
     1
102
RTVSPropertyOp37
 70
     1
102
RTVSPropertyOp38
 70
     1
102
RTVSPropertyOp39
 70
     1
102
RTVSPropertyOp40
 70
     1
102
RTVSPropertyOp41
 70
     1
102
RTVSPropertyOp42
 70
     1
102
RTVSPropertyOp43
 70
     1
102
RTVSPropertyOp44
 70
     1
102
RTVSPropertyOp45
 70
     1
102
RTVSPropertyOp46
 70
     1
102
RTVSPropertyOp47
 70
     1
102
RTVSPropertyOp48
 70
     1
102
RTVSPropertyOp49
 70
     1
102
RTVSPropertyOp50
 70
     1
102
RTVSPropertyOp51
 70
     0
102
RTVSPropertyOp52
 70
     0
102
RTVSPropertyOp53
 70
     1
102
RTVSPropertyOp54
 70
     1
102
RTVSPropertyOp55
 70
     1
102
RTVSPropertyOp56
 70
     1
102
RTVSPropertyOp57
 70
     1
102
RTVSPropertyOp58
 70
     1
102
RTVSPropertyOp59
 70
     1
102
RTVSPropertyOp60
 70
     1
102
RTVSPropertyOp61
 70
     1
102
RTVSPropertyOp62
 70
     1
  0
XRECORD
  5
10E7
102
{ACAD_REACTORS
330
10E6
102
}
330
10E6
100
AcDbXrecord
280
     1
102
RTVSPost2010Prop28
280
     0
102
RTVSPost2010PropOp28
 70
     1
102
RTVSPost2010Prop29
280
     1
102
RTVSPost2010PropOp29
 70
     1
102
RTVSPost2010Prop30
280
     1
102
RTVSPost2010PropOp30
 70
     1
102
RTVSPost2010Prop31
280
     0
102
RTVSPost2010PropOp31
 70
     1
102
RTVSPost2010Prop32
280
     0
102
RTVSPost2010PropOp32
 70
     1
102
RTVSPost2010Prop33
280
     0
102
RTVSPost2010PropOp33
 70
     1
102
RTVSPost2010Prop34
280
     0
102
RTVSPost2010PropOp34
 70
     1
102
RTVSPost2010Prop35
280
     0
102
RTVSPost2010PropOp35
 70
     1
102
RTVSPost2010Prop36
280
     0
102
RTVSPost2010PropOp36
 70
     1
102
RTVSPost2010Prop37
 90
       50
102
RTVSPost2010PropOp37
 70
     1
102
RTVSPost2010Prop38
140
0.0
102
RTVSPost2010PropOp38
 70
     1
102
RTVSPost2010Prop39
140
1.0
102
RTVSPost2010PropOp39
 70
     1
102
RTVSPost2010Prop40
 90
        0
102
RTVSPost2010PropOp40
 70
     1
102
RTVSPost2010Prop41ColorIndex
 90
       18
102
RTVSPost2010Prop41ColorRGB
 90
        0
102
RTVSPost2010PropOp41
 70
     1
102
RTVSPost2010Prop42
 90
       50
102
RTVSPost2010PropOp42
 70
     1
102
RTVSPost2010Prop43
 90
        3
102
RTVSPost2010PropOp43
 70
     1
102
RTVSPost2010Prop44ColorIndex
 90
        5
102
RTVSPost2010Prop44ColorRGB
 90
      255
102
RTVSPost2010PropOp44
 70
     1
102
RTVSPost2010Prop45
280
     0
102
RTVSPost2010PropOp45
 70
     1
102
RTVSPost2010Prop46
 90
       50
102
RTVSPost2010PropOp46
 70
     1
102
RTVSPost2010Prop47
 90
       50
102
RTVSPost2010PropOp47
 70
     1
102
RTVSPost2010Prop48
 90
       50
102
RTVSPost2010PropOp48
 70
     1
102
RTVSPost2010Prop49
280
     0
102
RTVSPost2010PropOp49
 70
     1
102
RTVSPost2010Prop50
 90
       50
102
RTVSPost2010PropOp50
 70
     1
102
RTVSPost2010Prop51ColorIndex
 90
      256
102
RTVSPost2010Prop51ColorRGB
 90
-16777216
102
RTVSPost2010PropOp51
 70
     0
102
RTVSPost2010Prop52
140
1.0
102
RTVSPost2010PropOp52
 70
     0
102
RTVSPost2010Prop53
 90
        2
102
RTVSPost2010PropOp53
 70
     1
102
RTVSPost2010Prop54
  1
strokes_ogs.tif
102
RTVSPost2010PropOp54
 70
     1
102
RTVSPost2010Prop55
280
     0
102
RTVSPost2010PropOp55
 70
     1
102
RTVSPost2010Prop56
140
1.0
102
RTVSPost2010PropOp56
 70
     1
102
RTVSPost2010Prop57
140
1.0
102
RTVSPost2010PropOp57
 70
     1
102
RTVSPropertyOp0
 70
     1
102
RTVSPropertyOp1
 70
     1
102
RTVSPropertyOp2
 70
     1
102
RTVSPropertyOp3
 70
     1
102
RTVSPropertyOp4
 70
     1
102
RTVSPropertyOp5
 70
     1
102
RTVSPropertyOp6
 70
     1
102
RTVSPropertyOp7
 70
     1
102
RTVSPropertyOp8
 70
     1
102
RTVSPropertyOp9
 70
     1
102
RTVSPropertyOp10
 70
     1
102
RTVSPropertyOp11
 70
     1
102
RTVSPropertyOp12
 70
     1
102
RTVSPropertyOp13
 70
     1
102
RTVSPropertyOp14
 70
     1
102
RTVSPropertyOp15
 70
     1
102
RTVSPropertyOp16
 70
     1
102
RTVSPropertyOp17
 70
     1
102
RTVSPropertyOp18
 70
     1
102
RTVSPropertyOp19
 70
     1
102
RTVSPropertyOp20
 70
     1
102
RTVSPropertyOp21
 70
     1
102
RTVSPropertyOp22
 70
     1
102
RTVSPropertyOp23
 70
     1
102
RTVSPropertyOp24
 70
     1
102
RTVSPropertyOp25
 70
     1
102
RTVSPropertyOp26
 70
     1
102
RTVSPropertyOp27
 70
     1
102
RTVSPropertyOp28
 70
     1
102
RTVSPropertyOp29
 70
     1
102
RTVSPropertyOp30
 70
     1
102
RTVSPropertyOp31
 70
     1
102
RTVSPropertyOp32
 70
     1
102
RTVSPropertyOp33
 70
     1
102
RTVSPropertyOp34
 70
     1
102
RTVSPropertyOp35
 70
     1
102
RTVSPropertyOp36
 70
     1
102
RTVSPropertyOp37
 70
     1
102
RTVSPropertyOp38
 70
     1
102
RTVSPropertyOp39
 70
     1
102
RTVSPropertyOp40
 70
     1
102
RTVSPropertyOp41
 70
     1
102
RTVSPropertyOp42
 70
     1
102
RTVSPropertyOp43
 70
     1
102
RTVSPropertyOp44
 70
     1
102
RTVSPropertyOp45
 70
     1
102
RTVSPropertyOp46
 70
     1
102
RTVSPropertyOp47
 70
     1
102
RTVSPropertyOp48
 70
     1
102
RTVSPropertyOp49
 70
     1
102
RTVSPropertyOp50
 70
     1
102
RTVSPropertyOp51
 70
     0
102
RTVSPropertyOp52
 70
     0
102
RTVSPropertyOp53
 70
     1
102
RTVSPropertyOp54
 70
     1
102
RTVSPropertyOp55
 70
     1
102
RTVSPropertyOp56
 70
     1
102
RTVSPropertyOp57
 70
     1
102
RTVSPropertyOp58
 70
     1
102
RTVSPropertyOp59
 70
     1
102
RTVSPropertyOp60
 70
     1
102
RTVSPropertyOp61
 70
     1
102
RTVSPropertyOp62
 70
     1
  0
ENDSEC
  0
EOF
