  0
SECTION
  2
HEADER
  9
$ACADVER
  1
AC1015
  9
$ACADMAINTVER
 70
    14
  9
$DWGCODEPAGE
  3
ANSI_932
  9
$INSBASE
 10
0.0
 20
0.0
 30
0.0
  9
$EXTMIN
 10
-1.207106781187229
 20
-0.2071067811879494
 30
0.0
  9
$EXTMAX
 10
234.7582877416463
 20
90.20710678118859
 30
0.0
  9
$LIMMIN
 10
0.0
 20
0.0
  9
$LIMMAX
 10
420.0
 20
297.0
  9
$ORTHOMODE
 70
     1
  9
$REGENMODE
 70
     1
  9
$FILLMODE
 70
     1
  9
$QTEXTMODE
 70
     0
  9
$MIRRTEXT
 70
     1
  9
$LTSCALE
 40
1.0
  9
$ATTMODE
 70
     1
  9
$TEXTSIZE
 40
2.5
  9
$TRACEWID
 40
1.0
  9
$TEXTSTYLE
  7
KANJI
  9
$CLAYER
  8
2寸法線
  9
$CELTYPE
  6
BYLAYER
  9
$CECOLOR
 62
   256
  9
$CELTSCALE
 40
3.0
  9
$DISPSILH
 70
     0
  9
$DIMSCALE
 40
0.0
  9
$DIMASZ
 40
1.8
  9
$DIMEXO
 40
1.0
  9
$DIMDLI
 40
0.0
  9
$DIMRND
 40
0.0
  9
$DIMDLE
 40
0.0
  9
$DIMEXE
 40
1.0
  9
$DIMTP
 40
0.0
  9
$DIMTM
 40
0.0
  9
$DIMTXT
 40
2.5
  9
$DIMCEN
 40
0.0
  9
$DIMTSZ
 40
0.0
  9
$DIMTOL
 70
     0
  9
$DIMLIM
 70
     0
  9
$DIMTIH
 70
     0
  9
$DIMTOH
 70
     0
  9
$DIMSE1
 70
     0
  9
$DIMSE2
 70
     0
  9
$DIMTAD
 70
     1
  9
$DIMZIN
 70
     8
  9
$DIMBLK
  1

  9
$DIMASO
 70
     1
  9
$DIMSHO
 70
     1
  9
$DIMPOST
  1

  9
$DIMAPOST
  1

  9
$DIMALT
 70
     0
  9
$DIMALTD
 70
     2
  9
$DIMALTF
 40
25.4
  9
$DIMLFAC
 40
1.0
  9
$DIMTOFL
 70
     1
  9
$DIMTVP
 40
0.0
  9
$DIMTIX
 70
     0
  9
$DIMSOXD
 70
     0
  9
$DIMSAH
 70
     1
  9
$DIMBLK1
  1
2
  9
$DIMBLK2
  1
2
  9
$DIMSTYLE
  2
M
  9
$DIMCLRD
 70
     0
  9
$DIMCLRE
 70
     0
  9
$DIMCLRT
 70
     0
  9
$DIMTFAC
 40
1.0
  9
$DIMGAP
 40
0.5
  9
$DIMJUST
 70
     0
  9
$DIMSD1
 70
     0
  9
$DIMSD2
 70
     0
  9
$DIMTOLJ
 70
     1
  9
$DIMTZIN
 70
     8
  9
$DIMALTZ
 70
     0
  9
$DIMALTTZ
 70
     0
  9
$DIMUPT
 70
     0
  9
$DIMDEC
 70
     4
  9
$DIMTDEC
 70
     4
  9
$DIMALTU
 70
     2
  9
$DIMALTTD
 70
     2
  9
$DIMTXSTY
  7
KANJI
  9
$DIMAUNIT
 70
     0
  9
$DIMADEC
 70
     0
  9
$DIMALTRND
 40
0.0
  9
$DIMAZIN
 70
     0
  9
$DIMDSEP
 70
    46
  9
$DIMATFIT
 70
     3
  9
$DIMFRAC
 70
     0
  9
$DIMLDRBLK
  1
2
  9
$DIMLUNIT
 70
     2
  9
$DIMLWD
 70
    -2
  9
$DIMLWE
 70
    -2
  9
$DIMTMOVE
 70
     0
  9
$LUNITS
 70
     2
  9
$LUPREC
 70
     3
  9
$SKETCHINC
 40
1.0
  9
$FILLETRAD
 40
0.0
  9
$AUNITS
 70
     0
  9
$AUPREC
 70
     1
  9
$MENU
  1
.
  9
$ELEVATION
 40
0.0
  9
$PELEVATION
 40
0.0
  9
$THICKNESS
 40
0.0
  9
$LIMCHECK
 70
     0
  9
$CHAMFERA
 40
10.0
  9
$CHAMFERB
 40
10.0
  9
$CHAMFERC
 40
20.0
  9
$CHAMFERD
 40
0.0
  9
$SKPOLY
 70
     0
  9
$TDCREATE
 40
2452408.400460578
  9
$TDUCREATE
 40
2452408.025460578
  9
$TDUPDATE
 40
2455226.697930949
  9
$TDUUPDATE
 40
2455226.322930949
  9
$TDINDWG
 40
0.2293393287
  9
$TDUSRTIMER
 40
0.2293393287
  9
$USRTIMER
 70
     1
  9
$ANGBASE
 50
0.0
  9
$ANGDIR
 70
     0
  9
$PDMODE
 70
     0
  9
$PDSIZE
 40
0.0
  9
$PLINEWID
 40
0.0
  9
$SPLFRAME
 70
     0
  9
$SPLINETYPE
 70
     6
  9
$SPLINESEGS
 70
     8
  9
$HANDSEED
  5
3D24
  9
$SURFTAB1
 70
     6
  9
$SURFTAB2
 70
     6
  9
$SURFTYPE
 70
     6
  9
$SURFU
 70
     6
  9
$SURFV
 70
     6
  9
$UCSBASE
  2

  9
$UCSNAME
  2

  9
$UCSORG
 10
0.0
 20
0.0
 30
0.0
  9
$UCSXDIR
 10
1.0
 20
0.0
 30
0.0
  9
$UCSYDIR
 10
0.0
 20
1.0
 30
0.0
  9
$UCSORTHOREF
  2

  9
$UCSORTHOVIEW
 70
     0
  9
$UCSORGTOP
 10
0.0
 20
0.0
 30
0.0
  9
$UCSORGBOTTOM
 10
0.0
 20
0.0
 30
0.0
  9
$UCSORGLEFT
 10
0.0
 20
0.0
 30
0.0
  9
$UCSORGRIGHT
 10
0.0
 20
0.0
 30
0.0
  9
$UCSORGFRONT
 10
0.0
 20
0.0
 30
0.0
  9
$UCSORGBACK
 10
0.0
 20
0.0
 30
0.0
  9
$PUCSBASE
  2

  9
$PUCSNAME
  2

  9
$PUCSORG
 10
0.0
 20
0.0
 30
0.0
  9
$PUCSXDIR
 10
1.0
 20
0.0
 30
0.0
  9
$PUCSYDIR
 10
0.0
 20
1.0
 30
0.0
  9
$PUCSORTHOREF
  2

  9
$PUCSORTHOVIEW
 70
     0
  9
$PUCSORGTOP
 10
0.0
 20
0.0
 30
0.0
  9
$PUCSORGBOTTOM
 10
0.0
 20
0.0
 30
0.0
  9
$PUCSORGLEFT
 10
0.0
 20
0.0
 30
0.0
  9
$PUCSORGRIGHT
 10
0.0
 20
0.0
 30
0.0
  9
$PUCSORGFRONT
 10
0.0
 20
0.0
 30
0.0
  9
$PUCSORGBACK
 10
0.0
 20
0.0
 30
0.0
  9
$USERI1
 70
     0
  9
$USERI2
 70
     0
  9
$USERI3
 70
     0
  9
$USERI4
 70
     0
  9
$USERI5
 70
     0
  9
$USERR1
 40
0.0
  9
$USERR2
 40
0.0
  9
$USERR3
 40
0.0
  9
$USERR4
 40
0.0
  9
$USERR5
 40
0.0
  9
$WORLDVIEW
 70
     1
  9
$SHADEDGE
 70
     3
  9
$SHADEDIF
 70
    70
  9
$TILEMODE
 70
     1
  9
$MAXACTVP
 70
    48
  9
$PINSBASE
 10
0.0
 20
0.0
 30
0.0
  9
$PLIMCHECK
 70
     0
  9
$PEXTMIN
 10
1.000000000000000E+20
 20
1.000000000000000E+20
 30
1.000000000000000E+20
  9
$PEXTMAX
 10
-1.000000000000000E+20
 20
-1.000000000000000E+20
 30
-1.000000000000000E+20
  9
$PLIMMIN
 10
0.0
 20
0.0
  9
$PLIMMAX
 10
420.0
 20
297.0
  9
$UNITMODE
 70
     0
  9
$VISRETAIN
 70
     1
  9
$PLINEGEN
 70
     0
  9
$PSLTSCALE
 70
     1
  9
$TREEDEPTH
 70
  3020
  9
$CMLSTYLE
  2
STANDARD
  9
$CMLJUST
 70
     0
  9
$CMLSCALE
 40
20.0
  9
$PROXYGRAPHICS
 70
     1
  9
$MEASUREMENT
 70
     1
  9
$CELWEIGHT
370
    -1
  9
$ENDCAPS
280
     0
  9
$JOINSTYLE
280
     0
  9
$LWDISPLAY
290
     0
  9
$INSUNITS
 70
     0
  9
$HYPERLINKBASE
  1

  9
$STYLESHEET
  1

  9
$XEDIT
290
     1
  9
$CEPSNTYPE
380
     0
  9
$PSTYLEMODE
290
     1
  9
$FINGERPRINTGUID
  2
{4DF694B8-C291-44CC-A47C-50F9D900BDCB}
  9
$VERSIONGUID
  2
{A79A4687-1CCA-49AA-9EC0-A84D7749D34F}
  9
$EXTNAMES
290
     1
  9
$PSVPSCALE
 40
0.0
  9
$OLESTARTUP
290
     0
  0
ENDSEC
  0
SECTION
  2
CLASSES
  0
CLASS
  1
HATCH
  2
AcDbHatch
  3
AutoCAD 2000
 90
    32768
280
     0
281
     1
  0
CLASS
  1
DICTIONARYVAR
  2
AcDbDictionaryVar
  3
AutoCAD 2000
 90
        0
280
     0
281
     0
  0
CLASS
  1
LWPOLYLINE
  2
AcDbPolyline
  3
AutoCAD 2000
 90
    32768
280
     0
281
     1
  0
CLASS
  1
ACDBDICTIONARYWDFLT
  2
AcDbDictionaryWithDefault
  3
AutoCAD 2000
 90
        0
280
     0
281
     0
  0
CLASS
  1
ACDBPLACEHOLDER
  2
AcDbPlaceHolder
  3
AutoCAD 2000
 90
        0
280
     0
281
     0
  0
CLASS
  1
LAYOUT
  2
AcDbLayout
  3
AutoCAD 2000
 90
        0
280
     0
281
     0
  0
ENDSEC
  0
SECTION
  2
TABLES
  0
TABLE
  2
VPORT
  5
8
330
0
100
AcDbSymbolTable
 70
     2
  0
VPORT
  5
3D23
330
8
100
AcDbSymbolTableRecord
100
AcDbViewportTableRecord
  2
*Active
 70
     0
 10
0.0
 20
0.0
 11
1.0
 21
1.0
 12
116.7829254149242
 22
45.00136321664604
 13
0.0
 23
0.0
 14
10.0
 24
10.0
 15
10.0
 25
10.0
 16
0.0
 26
0.0
 36
1.0
 17
0.0
 27
0.0
 37
0.0
 40
185.9801919017975
 41
1.593790426908149
 42
50.0
 43
0.0
 44
0.0
 50
0.0
 51
0.0
 71
     0
 72
   100
 73
     1
 74
     1
 75
     0
 76
     0
 77
     0
 78
     0
281
     0
 65
     1
110
0.0
120
0.0
130
0.0
111
1.0
121
0.0
131
0.0
112
0.0
122
1.0
132
0.0
 79
     0
146
0.0
  0
ENDTAB
  0
TABLE
  2
LTYPE
  5
5
330
0
100
AcDbSymbolTable
 70
     4
  0
LTYPE
  5
12
330
5
100
AcDbSymbolTableRecord
100
AcDbLinetypeTableRecord
  2
BYBLOCK
 70
     0
  3

 72
    65
 73
     0
 40
0.0
  0
LTYPE
  5
13
330
5
100
AcDbSymbolTableRecord
100
AcDbLinetypeTableRecord
  2
BYLAYER
 70
     0
  3

 72
    65
 73
     0
 40
0.0
  0
LTYPE
  5
14
330
5
100
AcDbSymbolTableRecord
100
AcDbLinetypeTableRecord
  2
CONTINUOUS
 70
     0
  3
Solid line
 72
    65
 73
     0
 40
0.0
  0
LTYPE
  5
28
330
5
100
AcDbSymbolTableRecord
100
AcDbLinetypeTableRecord
  2
CENTER
 70
     0
  3
Center ____ _ ____ _ ____ _ ____ _ ____ _ ____
 72
    65
 73
     4
 40
50.8
 49
31.75
 74
     0
 49
-6.349999999999997
 74
     0
 49
6.349999999999997
 74
     0
 49
-6.349999999999997
 74
     0
  0
ENDTAB
  0
TABLE
  2
LAYER
  5
2
330
0
100
AcDbSymbolTable
 70
     9
  0
LAYER
  5
E
330
2
100
AcDbSymbolTableRecord
100
AcDbLayerTableRecord
  2
0
 70
     0
 62
     7
  6
CONTINUOUS
370
    -3
390
35CB
  0
LAYER
  5
20
330
2
100
AcDbSymbolTableRecord
100
AcDbLayerTableRecord
  2
1外形線
 70
     0
 62
     3
  6
CONTINUOUS
370
    -3
390
35CB
  0
LAYER
  5
21
330
2
100
AcDbSymbolTableRecord
100
AcDbLayerTableRecord
  2
2寸法線
 70
     0
 62
     2
  6
CONTINUOUS
370
    -3
390
35CB
  0
LAYER
  5
94
330
2
100
AcDbSymbolTableRecord
100
AcDbLayerTableRecord
  2
DEFPOINTS
 70
     0
 62
     7
  6
CONTINUOUS
290
     0
370
    -3
390
35CB
  0
LAYER
  5
95D
330
2
100
AcDbSymbolTableRecord
100
AcDbLayerTableRecord
  2
ベース
 70
     0
 62
     3
  6
CONTINUOUS
370
    -3
390
35CB
  0
ENDTAB
  0
TABLE
  2
STYLE
  5
3
330
0
100
AcDbSymbolTable
 70
     4
  0
STYLE
  5
F
330
3
100
AcDbSymbolTableRecord
100
AcDbTextStyleTableRecord
  2
STANDARD
 70
     0
 40
0.0
 41
1.0
 50
0.0
 71
     0
 42
2.5
  3
txt
  4

  0
STYLE
  5
30
330
3
100
AcDbSymbolTableRecord
100
AcDbTextStyleTableRecord
  2
KANJI
 70
     0
 40
0.0
 41
1.0
 50
0.0
 71
     0
 42
2.5
  3
simplex.shx
  4
bigfont.shx
  0
ENDTAB
  0
TABLE
  2
VIEW
  5
6
330
0
100
AcDbSymbolTable
 70
     0
  0
ENDTAB
  0
TABLE
  2
UCS
  5
7
330
0
100
AcDbSymbolTable
 70
     0
  0
ENDTAB
  0
TABLE
  2
APPID
  5
9
330
0
100
AcDbSymbolTable
 70
     1
  0
APPID
  5
10
330
9
100
AcDbSymbolTableRecord
100
AcDbRegAppTableRecord
  2
ACAD
 70
     0
  0
ENDTAB
  0
TABLE
  2
DIMSTYLE
  5
A
330
0
100
AcDbSymbolTable
 70
     4
100
AcDbDimStyleTable
 71
     1
340
E2
  0
DIMSTYLE
105
1D
330
A
100
AcDbSymbolTableRecord
100
AcDbDimStyleTableRecord
  2
STANDARD
 70
     0
 73
     0
 74
     0
172
     1
340
F
  0
DIMSTYLE
105
E2
102
{ACAD_REACTORS
330
95F
330
96A
330
B52
330
B53
330
B54
330
B59
330
B5A
330
B79
330
B7E
330
B7F
330
B80
330
B8C
330
B94
330
2419
330
241A
330
29AE
330
29AF
330
29B0
330
29C3
330
2B3D
102
}
330
A
100
AcDbSymbolTableRecord
100
AcDbDimStyleTableRecord
  2
M
 70
     0
 40
0.0
 41
2.0
 42
1.0
 43
0.0
 44
1.0
 73
     0
 74
     0
 77
     1
 78
     8
140
2.5
141
0.0
147
0.5
172
     1
173
     1
284
     8
340
30
341
74
343
74
344
74
  0
ENDTAB
  0
TABLE
  2
BLOCK_RECORD
  5
1
330
0
100
AcDbSymbolTable
 70
    92
  0
BLOCK_RECORD
  5
18
330
1
100
AcDbSymbolTableRecord
100
AcDbBlockTableRecord
  2
*MODEL_SPACE
340
35CE
  0
BLOCK_RECORD
  5
15
330
1
100
AcDbSymbolTableRecord
100
AcDbBlockTableRecord
  2
*PAPER_SPACE
340
35CF
  0
BLOCK_RECORD
  5
74
330
1
100
AcDbSymbolTableRecord
100
AcDbBlockTableRecord
  2
2
340
0
102
{BLKREFS
331
949
331
94A
331
955
331
956
331
23F9
331
23FA
331
EF3
331
EF4
331
AB2
331
ABB
331
AC4
331
AC5
331
AD2
331
AD3
331
ADE
331
ADF
331
AEA
331
AEB
331
AF6
331
AF7
331
B02
331
B03
331
B0E
331
B0F
331
B1A
331
B1B
331
B26
331
B2F
331
B30
331
B3D
331
B3E
331
B49
331
B4A
331
F66
331
F67
331
F89
331
F8A
331
FE5
331
FE6
331
FC1
331
FC2
331
FCE
331
FCF
331
2404
331
2405
331
2410
331
2411
331
2940
331
2941
331
294D
331
294E
331
2973
331
2974
331
297F
331
2980
331
298B
331
298C
331
2997
331
2998
331
29A5
331
29A6
331
3452
331
3453
331
33F0
331
33F1
331
33C0
331
33C1
331
3372
331
3373
331
337E
331
337F
331
338A
331
338B
331
342A
331
342B
331
3436
331
3437
331
3443
331
3444
331
3571
331
3572
331
357D
331
357E
331
358B
331
358C
331
3597
331
3598
331
35A3
331
35A4
331
35AF
331
35B0
331
2D46
331
2D47
331
2D52
331
2D53
331
2D5E
331
2D5F
331
2D6C
331
2D6D
331
2D78
331
2D79
331
2D83
331
2D84
331
2D8E
331
2D8F
331
2D99
331
2D9A
331
2DA6
331
2DA7
331
2DB1
331
2DB2
331
3340
331
3341
331
334C
331
334D
331
335A
331
335B
331
3366
331
3367
331
3396
331
3397
331
33A2
331
33A3
331
33B0
331
33B1
331
33CF
331
33D0
331
33DA
331
33DB
331
33E5
331
33E6
331
3401
331
3402
331
3413
331
3414
331
341F
331
3420
331
36FA
331
36FB
331
3706
331
3707
331
3712
331
3713
331
3720
331
3721
331
372C
331
372D
331
3738
331
3739
331
3744
331
3745
331
3750
331
3751
331
375C
331
375D
331
3767
331
3768
331
3770
331
3771
331
3779
331
377A
331
3784
331
3785
331
378D
331
378E
331
3796
331
3797
331
379F
331
37A0
331
37A8
331
37A9
331
37B1
331
37B2
331
37CB
331
37CC
331
37EF
331
37F0
331
37E3
331
37E4
331
37D7
331
37D8
331
3B9D
331
3B9E
331
3BA9
331
3BAA
331
3BB5
331
3BB6
331
3BC1
331
3BC2
331
3BCC
331
3BCD
331
3BD5
331
3BD6
331
3BDE
331
3BDF
331
3BE7
331
3BE8
331
3C2F
331
3C38
331
3C09
331
3C0A
331
3BFD
331
3BFE
331
3BF1
331
3BF2
331
3C17
331
3C18
331
3C23
331
3C24
331
3C81
331
3C82
331
3C8D
331
3C8E
331
3C99
331
3C9A
331
3CA7
331
3CA8
331
3CB3
331
3CB4
331
3CBF
331
3CC8
331
3CD0
331
3CD1
331
3CD9
331
3CDA
331
3CE2
331
3CE3
331
3CED
331
3CEE
331
3CF6
331
3CF7
331
3CFF
331
3D05
102
}
  0
ENDTAB
  0
ENDSEC
  0
SECTION
  2
BLOCKS
  0
BLOCK
  5
19
330
18
100
AcDbEntity
  8
0
100
AcDbBlockBegin
  2
*MODEL_SPACE
 70
     0
 10
0.0
 20
0.0
 30
0.0
  3
*MODEL_SPACE
  1

  0
ENDBLK
  5
1A
330
18
100
AcDbEntity
  8
0
100
AcDbBlockEnd
  0
BLOCK
  5
16
330
15
100
AcDbEntity
 67
     1
  8
0
100
AcDbBlockBegin
  2
*PAPER_SPACE
 70
     0
 10
0.0
 20
0.0
 30
0.0
  3
*PAPER_SPACE
  1

  0
ENDBLK
  5
17
330
15
100
AcDbEntity
 67
     1
  8
0
100
AcDbBlockEnd
  0
BLOCK
  5
130
330
74
100
AcDbEntity
  8
0
 48
3.0
100
AcDbBlockBegin
  2
2
 70
     0
 10
0.0
 20
0.0
 30
0.0
  3
2
  1

  0
HATCH
  5
131
330
74
100
AcDbEntity
  8
0
  6
ByBlock
 62
     0
 48
3.0
100
AcDbHatch
 10
0.0
 20
0.0
 30
0.0
210
0.0
220
0.0
230
1.0
  2
SOLID
 70
     1
 71
     0
 91
        1
 92
        1
 93
        3
 72
     1
 10
-0.9999999999983517
 20
0.2679491924306774
 11
0.0
 21
0.0
 72
     1
 10
0.0
 20
0.0
 11
-0.9999999999983517
 21
-0.2679491924306765
 72
     1
 10
-0.9999999999983524
 20
-0.267949192430676
 11
-0.9999999999983524
 21
0.2679491924306774
 97
        0
 75
     0
 76
     1
 98
        1
 10
2.995745117231336
 20
-4.124946096263201
  0
ENDBLK
  5
132
330
74
100
AcDbEntity
  8
0
 48
3.0
100
AcDbBlockEnd
  0
ENDSEC
  0
SECTION
  2
ENTITIES
  0
ELLIPSE
  5
35D7
330
18
100
AcDbEntity
  8
1外形線
 48
3.0
100
AcDbEllipse
 10
119.2005422133284
 20
60.10000000000082
 30
0.0
 11
-14.99583460205838
 21
0.0000000000016275
 31
0.0
210
0.0
220
0.0
230
1.0
 40
0.279419074522354
 41
3.141592653589792
 42
6.283185307179584
  0
LINE
  5
35D8
330
18
100
AcDbEntity
  8
ベース
 48
3.0
100
AcDbLine
 10
119.2005422133288
 20
70.00000000000068
 30
0.0
 11
134.1154297196563
 21
70.00000000000113
 31
0.0
  0
LINE
  5
35D9
330
18
100
AcDbEntity
  8
ベース
 48
3.0
100
AcDbLine
 10
135.1005422133289
 20
70.00000000000039
 30
0.0
 11
119.2005422133288
 21
70.00000000000113
 31
0.0
  0
LINE
  5
35DA
330
18
100
AcDbEntity
  8
ベース
 48
3.0
100
AcDbLine
 10
137.7005422133277
 20
90.0000000000009
 30
0.0
 11
119.2005422133285
 21
90.0000000000009
 31
0.0
  0
ELLIPSE
  5
35DC
330
18
100
AcDbEntity
  8
1外形線
 48
3.0
100
AcDbEllipse
 10
119.2005422133288
 20
60.60000000000128
 30
0.0
 11
-0.0000000000003417
 21
21.21790688938357
 31
0.0
210
0.0
220
0.0
230
1.0
 40
0.7069500341480454
 41
3.708524202169134
 42
4.688821797723924
  0
LINE
  5
35DD
330
18
100
AcDbEntity
  8
ベース
 48
3.0
100
AcDbLine
 10
131.761888878999
 20
21.16697468406346
 30
0.0
 11
135.393808884978
 21
29.6915024280612
 31
0.0
  0
LINE
  5
35DE
330
18
100
AcDbEntity
  8
ベース
 48
3.0
100
AcDbLine
 10
134.1154297196563
 20
20.00000000000091
 30
0.0
 11
119.2005422133292
 21
20.00000000000043
 31
0.0
  0
LINE
  5
35DF
330
18
100
AcDbEntity
  8
ベース
 48
3.0
100
AcDbLine
 10
135.1005422133289
 20
20.00000000000091
 30
0.0
 11
119.2005422133282
 21
20.00000000000091
 31
0.0
  0
LINE
  5
35E0
330
18
100
AcDbEntity
  8
ベース
 48
3.0
100
AcDbLine
 10
137.700542213331
 20
-0.0000000000010232
 30
0.0
 11
119.2005422133292
 21
0.0000000000181331
 31
0.0
  0
LINE
  5
35E3
330
18
100
AcDbEntity
  8
ベース
 48
3.0
100
AcDbLine
 10
-1.000000000000682
 20
89.00000000000204
 30
0.0
 11
-1.000000000000682
 21
1.000000000001364
 31
0.0
  0
LINE
  5
35E4
330
18
100
AcDbEntity
  8
ベース
 48
3.0
100
AcDbLine
 10
99.70054221332908
 20
89.0000000000009
 30
0.0
 11
99.70054221332885
 21
0.9999999999989768
 31
0.0
  0
LINE
  5
35E5
330
18
100
AcDbEntity
  8
ベース
 48
3.0
100
AcDbLine
 10
33.89999999999929
 20
20.00000000000091
 30
0.0
 11
34.19999999999982
 21
0.0
 31
0.0
  0
LINE
  5
35E6
330
18
100
AcDbEntity
  8
ベース
 48
3.0
100
AcDbLine
 10
36.99999999999931
 20
18.40192378864702
 30
0.0
 11
36.99999999999931
 21
1.000000000001364
 31
0.0
  0
LINE
  5
35E7
330
18
100
AcDbEntity
  8
ベース
 48
3.0
100
AcDbLine
 10
2.099999999998999
 20
20.00000000000091
 30
0.0
 11
1.799999999999271
 21
0.0
 31
0.0
  0
LINE
  5
35E8
330
18
100
AcDbEntity
  8
ベース
 48
3.0
100
AcDbLine
 10
103.3005422133284
 20
20.00000000000091
 30
0.0
 11
103.0005422133283
 21
0.0000000000013642
 31
0.0
  0
LINE
  5
35E9
330
18
100
AcDbEntity
  8
ベース
 48
3.0
100
AcDbLine
 10
35.99999999999932
 20
0.0000000000013642
 30
0.0
 11
17.99999999999976
 21
0.0
 31
0.0
  0
LINE
  5
35EA
330
18
100
AcDbEntity
  8
ベース
 48
3.0
100
AcDbLine
 10
0.9999999999997726
 20
0.0
 30
0.0
 11
17.99999999999976
 21
0.0
 31
0.0
  0
LINE
  5
35EB
330
18
100
AcDbEntity
  8
1外形線
 48
3.0
100
AcDbLine
 10
1.0
 20
0.0
 30
0.0
 11
0.0
 21
0.0
 31
0.0
  0
LINE
  5
35EC
330
18
100
AcDbEntity
  8
ベース
 48
3.0
100
AcDbLine
 10
-0.0000000000006821
 20
0.0000000000013642
 30
0.0
 11
1.799999999998929
 21
0.0000000000013642
 31
0.0
  0
ARC
  5
35ED
330
18
100
AcDbEntity
  8
ベース
 48
3.0
100
AcDbCircle
 10
-0.0000000000006821
 20
1.000000000001364
 30
0.0
 40
1.0
100
AcDbArc
 50
180.0
 51
270.0
  0
ARC
  5
35EE
330
18
100
AcDbEntity
  8
ベース
 48
3.0
100
AcDbCircle
 10
35.99999999999932
 20
1.000000000001364
 30
0.0
 40
1.0
100
AcDbArc
 50
270.0
 51
0.0
  0
LINE
  5
35EF
330
18
100
AcDbEntity
  8
ベース
 48
3.0
100
AcDbLine
 10
100.7005422133298
 20
-0.0000000000010232
 30
0.0
 11
119.2005422133292
 21
0.0000000000181899
 31
0.0
  0
ARC
  5
35F0
330
18
100
AcDbEntity
  8
ベース
 48
3.0
100
AcDbCircle
 10
100.7005422133288
 20
0.9999999999989768
 30
0.0
 40
1.0
100
AcDbArc
 50
179.9999999999998
 51
270.0000000000601
  0
LINE
  5
35F1
330
18
100
AcDbEntity
  8
1外形線
 48
3.0
100
AcDbLine
 10
101.7005422133298
 20
0.0
 30
0.0
 11
101.2005422133295
 21
0.0
 31
0.0
  0
LINE
  5
35F9
330
18
100
AcDbEntity
  8
ベース
 48
3.0
100
AcDbLine
 10
46.99966808680449
 20
66.00000000000136
 30
0.0
 11
46.99997990402027
 21
43.82840844225277
 31
0.0
  0
LINE
  5
35FA
330
18
100
AcDbEntity
  8
ベース
 48
3.0
100
AcDbLine
 10
49.99999999999841
 20
68.78427582922376
 30
0.0
 11
49.99999871602909
 21
44.00000012951477
 31
0.0
  0
ARC
  5
35FB
330
18
100
AcDbEntity
  8
1外形線
 48
3.0
100
AcDbCircle
 10
30.19999999999936
 20
61.50000000000114
 30
0.0
 40
2.0
100
AcDbArc
 50
0.0
 51
180.0
  0
LINE
  5
35FC
330
18
100
AcDbEntity
  8
1外形線
 48
3.0
100
AcDbLine
 10
28.49999999999953
 20
67.79289321881401
 30
0.0
 11
28.49999999999953
 21
62.55356537528665
 31
0.0
  0
LINE
  5
35FD
330
18
100
AcDbEntity
  8
1外形線
 48
3.0
100
AcDbLine
 10
31.49999999999954
 20
67.00000000000136
 30
0.0
 11
31.49999999999977
 21
63.01986841535785
 31
0.0
  0
LINE
  5
3600
330
18
100
AcDbEntity
  8
ベース
 48
3.0
100
AcDbLine
 10
1.999999999999543
 20
66.00000000000045
 30
0.0
 11
1.999999999999316
 21
31.41581329005385
 31
0.0
  0
LINE
  5
3601
330
18
100
AcDbEntity
  8
ベース
 48
3.0
100
AcDbLine
 10
5.49999999999909
 20
69.50000000000045
 30
0.0
 11
5.499999999998863
 21
41.66292134831564
 31
0.0
  0
LINE
  5
3602
330
18
100
AcDbEntity
  8
ベース
 48
3.0
100
AcDbLine
 10
3.499999999999088
 20
68.00000000000046
 30
0.0
 11
3.499999999998633
 21
40.00000000000091
 31
0.0
  0
LINE
  5
3603
330
18
100
AcDbEntity
  8
ベース
 48
3.0
100
AcDbLine
 10
32.91488750632675
 20
20.00000000000091
 30
0.0
 11
17.99999999999976
 21
20.00000000000043
 31
0.0
  0
LINE
  5
3604
330
18
100
AcDbEntity
  8
ベース
 48
3.0
100
AcDbLine
 10
33.89999999999929
 20
20.00000000000091
 30
0.0
 11
17.99999999999886
 21
20.00000000000091
 31
0.0
  0
LINE
  5
3605
330
18
100
AcDbEntity
  8
ベース
 48
3.0
100
AcDbLine
 10
30.99999999999953
 20
20.00000000000043
 30
0.0
 11
17.99999999999976
 21
20.00000000000043
 31
0.0
  0
LINE
  5
3606
330
18
100
AcDbEntity
  8
1外形線
 48
3.0
100
AcDbLine
 10
28.33616459763232
 20
59.28361256893164
 30
0.0
 11
5.525791275764503
 21
40.15513727156462
 31
0.0
  0
LINE
  5
3607
330
18
100
AcDbEntity
  8
1外形線
 48
3.0
100
AcDbLine
 10
28.19999999999936
 20
60.53707865168644
 30
0.0
 11
3.499999999998633
 21
40.00000000000091
 31
0.0
  0
LINE
  5
3608
330
18
100
AcDbEntity
  8
ベース
 48
3.0
100
AcDbLine
 10
5.438653334329044
 20
21.16697468406346
 30
0.0
 11
2.30673332834999
 21
29.69150242806153
 31
0.0
  0
LINE
  5
3609
330
18
100
AcDbEntity
  8
ベース
 48
3.0
100
AcDbLine
 10
17.99999999999976
 20
20.00000000000091
 30
0.0
 11
3.085112493672227
 21
20.00000000000043
 31
0.0
  0
LINE
  5
360A
330
18
100
AcDbEntity
  8
ベース
 48
3.0
100
AcDbLine
 10
2.099999999998999
 20
20.00000000000091
 30
0.0
 11
17.99999999999976
 21
20.00000000000091
 31
0.0
  0
ARC
  5
360B
330
18
100
AcDbEntity
  8
ベース
 48
3.0
100
AcDbCircle
 10
6.999999999999316
 20
31.41581329005385
 30
0.0
 40
5.0
100
AcDbArc
 50
179.9999999999995
 51
200.1733824873141
  0
LINE
  5
360C
330
18
100
AcDbEntity
  8
ベース
 48
3.0
100
AcDbLine
 10
17.99999999999976
 20
20.00000000000043
 30
0.0
 11
4.999999999999545
 21
19.99999999999953
 31
0.0
  0
LINE
  5
360D
330
18
100
AcDbEntity
  8
ベース
 48
3.0
100
AcDbLine
 10
5.499999999999316
 20
20.00000000000091
 30
0.0
 11
5.499999999999316
 21
20.00000000000091
 31
0.0
  0
LINE
  5
360E
330
18
100
AcDbEntity
  8
ベース
 48
3.0
100
AcDbLine
 10
5.499999999999316
 20
20.00000000000091
 30
0.0
 11
5.499999999999316
 21
20.82211251166472
 31
0.0
  0
ARC
  5
360F
330
18
100
AcDbEntity
  8
ベース
 48
3.0
100
AcDbCircle
 10
4.499999999999316
 20
20.82211251166472
 30
0.0
 40
1.0
100
AcDbArc
 50
0.0
 51
20.17338248731432
  0
ARC
  5
3611
330
18
100
AcDbEntity
  8
1外形線
 48
3.0
100
AcDbCircle
 10
5.204512808308892
 20
40.53825624309864
 30
0.0
 40
0.5
100
AcDbArc
 50
220.0000000000025
 51
309.9827490140526
  0
LINE
  5
3612
330
18
100
AcDbEntity
  8
1外形線
 48
3.0
100
AcDbLine
 10
4.385597547445286
 20
40.73633953383288
 30
0.0
 11
4.821490586749177
 21
40.21686243825548
 31
0.0
  0
LINE
  5
3613
330
18
100
AcDbEntity
  8
1外形線
 48
3.0
100
AcDbLine
 10
50.99999858651347
 20
36.00000000000118
 30
0.0
 11
50.99999858651381
 21
30.53589838486368
 31
0.0
  0
LINE
  5
3614
330
18
100
AcDbEntity
  8
1外形線
 48
3.0
100
AcDbLine
 10
53.99999858651256
 20
41.46410161513915
 30
0.0
 11
53.99999858651506
 21
30.53589838486379
 31
0.0
  0
LINE
  5
3615
330
18
100
AcDbEntity
  8
1外形線
 48
3.0
100
AcDbLine
 10
47.99999858651425
 20
40.00000000000091
 30
0.0
 11
47.99999858651449
 21
30.03589838486368
 31
0.0
  0
LINE
  5
3616
330
18
100
AcDbEntity
  8
1外形線
 48
3.0
100
AcDbLine
 10
47.99999858651381
 20
39.50000000000091
 30
0.0
 11
47.99999858651381
 21
32.63383131017689
 31
0.0
  0
LINE
  5
3617
330
18
100
AcDbEntity
  8
1外形線
 48
3.0
100
AcDbLine
 10
47.99999858651425
 20
41.96410161513904
 30
0.0
 11
47.99999858651381
 21
32.50000000000135
 31
0.0
  0
LINE
  5
3618
330
18
100
AcDbEntity
  8
1外形線
 48
3.0
100
AcDbLine
 10
44.49999858651425
 20
40.49187330597646
 30
0.0
 11
44.49999858651461
 21
31.50812669405121
 31
0.0
  0
LINE
  5
3619
330
18
100
AcDbEntity
  8
1外形線
 48
3.0
100
AcDbLine
 10
45.99999858651425
 20
30.41293336748413
 30
0.0
 11
45.99999858651381
 21
42.82842712474667
 31
0.0
  0
LINE
  5
361A
330
18
100
AcDbEntity
  8
1外形線
 48
3.0
100
AcDbLine
 10
47.99999858651449
 20
28.12145622893627
 30
0.0
 11
47.99999858651425
 21
42.00000000000088
 31
0.0
  0
LINE
  5
361B
330
18
100
AcDbEntity
  8
1外形線
 48
3.0
100
AcDbLine
 10
39.49999999999942
 20
22.73205080756929
 30
0.0
 11
46.00012638246925
 21
26.48490052425461
 31
0.0
  0
LINE
  5
361C
330
18
100
AcDbEntity
  8
1外形線
 48
3.0
100
AcDbLine
 10
31.00000000000022
 20
21.2886751345959
 30
0.0
 11
44.50012638246925
 21
29.08297673560809
 31
0.0
  0
ARC
  5
361D
330
18
100
AcDbEntity
  8
1外形線
 48
3.0
100
AcDbCircle
 10
41.9999999999993
 20
18.40192378864702
 30
0.0
 40
5.0
100
AcDbArc
 50
119.9999999999983
 51
180.0
  0
ARC
  5
361E
330
18
100
AcDbEntity
  8
1外形線
 48
3.0
100
AcDbCircle
 10
31.50000000000023
 20
20.42264973081137
 30
0.0
 40
1.0
100
AcDbArc
 50
120.0000000000001
 51
179.9999999999869
  0
LINE
  5
361F
330
18
100
AcDbEntity
  8
1外形線
 48
3.0
100
AcDbLine
 10
30.50000000000022
 20
20.00000000000091
 30
0.0
 11
30.50000000000022
 21
20.42264973081137
 31
0.0
  0
LINE
  5
3620
330
18
100
AcDbEntity
  8
1外形線
 48
3.0
100
AcDbLine
 10
30.50000000000022
 20
20.00000000000091
 30
0.0
 11
30.50000000000022
 21
20.00000000000182
 31
0.0
  0
LINE
  5
3622
330
18
100
AcDbEntity
  8
1外形線
 48
3.0
100
AcDbLine
 10
47.99999858651449
 20
30.03589838486368
 30
0.0
 11
53.49999858651506
 21
30.03589838486368
 31
0.0
  0
ARC
  5
3623
330
18
100
AcDbEntity
  8
1外形線
 48
3.0
100
AcDbCircle
 10
42.00012638246926
 20
33.41310375453031
 30
0.0
 40
5.0
100
AcDbArc
 50
299.9999999999999
 51
323.1276617005103
  0
ARC
  5
3624
330
18
100
AcDbEntity
  8
1外形線
 48
3.0
100
AcDbCircle
 10
44.9999325389961
 20
31.50000000000074
 30
0.0
 40
0.5
100
AcDbArc
 50
179.0687084523358
 51
270.000000000013
  0
LINE
  5
3625
330
18
100
AcDbEntity
  8
1外形線
 48
3.0
100
AcDbLine
 10
44.9999325389961
 20
31.00000000000074
 30
0.0
 11
45.99999858651449
 21
31.00000000000091
 31
0.0
  0
ARC
  5
3626
330
18
100
AcDbEntity
  8
1外形線
 48
3.0
100
AcDbCircle
 10
42.00012638246926
 20
33.41310375453031
 30
0.0
 40
8.0
100
AcDbArc
 50
299.9999999999999
 51
318.5889941498306
  0
ARC
  5
3628
330
18
100
AcDbEntity
  8
1外形線
 48
3.0
100
AcDbCircle
 10
53.49999858651506
 20
30.53589838486368
 30
0.0
 40
0.5
100
AcDbArc
 50
270.0
 51
0.0000000000130912
  0
ARC
  5
3629
330
18
100
AcDbEntity
  8
1外形線
 48
3.0
100
AcDbCircle
 10
50.49999858651381
 20
30.53589838486368
 30
0.0
 40
0.5
100
AcDbArc
 50
270.0000000000023
 51
0.000000000000628
  0
LINE
  5
362A
330
18
100
AcDbEntity
  8
ベース
 48
3.0
100
AcDbLine
 10
30.79999999999937
 20
37.63461569116328
 30
0.0
 11
45.99999999999936
 21
55.74927029859498
 31
0.0
  0
LINE
  5
362B
330
18
100
AcDbEntity
  8
1外形線
 48
3.0
100
AcDbLine
 10
30.79999999999937
 20
37.63461569116328
 30
0.0
 11
30.79999999999937
 21
58.13425565432954
 31
0.0
  0
ARC
  5
362E
330
18
100
AcDbEntity
  8
1外形線
 48
3.0
100
AcDbCircle
 10
29.29999999999937
 20
58.13425565432954
 30
0.0
 40
1.5
100
AcDbArc
 50
0.0
 51
129.9827490140525
  0
LINE
  5
362F
330
18
100
AcDbEntity
  8
1外形線
 48
3.0
100
AcDbLine
 10
28.19999999999936
 20
61.50000000000114
 30
0.0
 11
28.19999999999936
 21
60.53707865168644
 31
0.0
  0
CIRCLE
  5
3630
330
18
100
AcDbEntity
  8
1外形線
 48
3.0
100
AcDbCircle
 10
30.19999999999936
 20
61.50000000000114
 30
0.0
 40
0.6
  0
LINE
  5
3633
330
18
100
AcDbEntity
  8
1外形線
 48
3.0
100
AcDbLine
 10
49.99999871602904
 20
44.00000012951477
 30
0.0
 11
48.9999986642233
 21
43.00000007770949
 31
0.0
  0
LINE
  5
3634
330
18
100
AcDbEntity
  8
1外形線
 48
3.0
100
AcDbLine
 10
47.99999858651425
 20
41.96410161513904
 30
0.0
 11
53.49999858651257
 21
41.96410161513904
 31
0.0
  0
LINE
  5
3635
330
18
100
AcDbEntity
  8
1外形線
 48
3.0
100
AcDbLine
 10
48.9999986642233
 20
43.00000007770949
 30
0.0
 11
47.99999858651425
 21
42.00000000000088
 31
0.0
  0
ARC
  5
3636
330
18
100
AcDbEntity
  8
1外形線
 48
3.0
100
AcDbCircle
 10
44.9999325389961
 20
40.50000000000056
 30
0.0
 40
0.5
100
AcDbArc
 50
90.00000000001488
 51
180.9312915446413
  0
LINE
  5
3637
330
18
100
AcDbEntity
  8
1外形線
 48
3.0
100
AcDbLine
 10
44.99993253899589
 20
41.00000000000057
 30
0.0
 11
45.99999858651393
 21
41.00000000000091
 31
0.0
  0
LINE
  5
3639
330
18
100
AcDbEntity
  8
1外形線
 48
3.0
100
AcDbLine
 10
46.99997990402027
 20
43.82840844225277
 30
0.0
 11
45.99999858651381
 21
42.82842712474667
 31
0.0
  0
LINE
  5
363A
330
18
100
AcDbEntity
  8
1外形線
 48
3.0
100
AcDbLine
 10
50.99999858651358
 20
41.46410161513904
 30
0.0
 11
50.9999985865129
 21
36.00000000000118
 31
0.0
  0
ARC
  5
363B
330
18
100
AcDbEntity
  8
1外形線
 48
3.0
100
AcDbCircle
 10
53.49999858651257
 20
41.46410161513904
 30
0.0
 40
0.5
100
AcDbArc
 50
0.0000000000130276
 51
90.0
  0
ARC
  5
363C
330
18
100
AcDbEntity
  8
1外形線
 48
3.0
100
AcDbCircle
 10
50.49999858651357
 20
41.46410161513904
 30
0.0
 40
0.5
100
AcDbArc
 50
0.000000000001832
 51
90.0
  0
LINE
  5
363E
330
18
100
AcDbEntity
  8
ベース
 48
3.0
100
AcDbLine
 10
36.49999999999931
 20
90.0000000000009
 30
0.0
 11
17.99999999999943
 21
90.00000000000204
 31
0.0
  0
LINE
  5
363F
330
18
100
AcDbEntity
  8
ベース
 48
3.0
100
AcDbLine
 10
18.4999999999993
 20
70.00000000000113
 30
0.0
 11
33.41488750632686
 21
70.00000000000159
 31
0.0
  0
LINE
  5
3640
330
18
100
AcDbEntity
  8
ベース
 48
3.0
100
AcDbLine
 10
18.4999999999993
 20
70.00000000000046
 30
0.0
 11
34.3999999999994
 21
70.00000000000046
 31
0.0
  0
LINE
  5
3641
330
18
100
AcDbEntity
  8
ベース
 48
3.0
100
AcDbLine
 10
18.4999999999993
 20
70.00000000000159
 30
0.0
 11
31.49999999999954
 21
70.0000000000025
 31
0.0
  0
LINE
  5
3643
330
18
100
AcDbEntity
  8
ベース
 48
3.0
100
AcDbLine
 10
1.999999999999543
 20
68.00000000000046
 30
0.0
 11
3.499999999999088
 21
68.00000000000046
 31
0.0
  0
LINE
  5
3644
330
18
100
AcDbEntity
  8
ベース
 48
3.0
100
AcDbLine
 10
1.999999999999543
 20
68.00000000000046
 30
0.0
 11
3.499999999999088
 21
68.00000000000046
 31
0.0
  0
LINE
  5
3645
330
18
100
AcDbEntity
  8
1外形線
 48
3.0
100
AcDbLine
 10
1.999999999999543
 20
68.00000000000046
 30
0.0
 11
3.499999999999088
 21
68.00000000000046
 31
0.0
  0
LINE
  5
3646
330
18
100
AcDbEntity
  8
ベース
 48
3.0
100
AcDbLine
 10
2.599999999999681
 20
70.00000000000046
 30
0.0
 11
18.4999999999993
 21
70.00000000000113
 31
0.0
  0
LINE
  5
3647
330
18
100
AcDbEntity
  8
ベース
 48
3.0
100
AcDbLine
 10
-0.0000000000006821
 20
90.00000000000204
 30
0.0
 11
17.99999999999943
 21
90.00000000000204
 31
0.0
  0
LINE
  5
3648
330
18
100
AcDbEntity
  8
ベース
 48
3.0
100
AcDbLine
 10
2.599999999999681
 20
70.00000000000046
 30
0.0
 11
2.299999999999498
 21
90.0000000000009
 31
0.0
  0
LINE
  5
364D
330
18
100
AcDbEntity
  8
1外形線
 48
3.0
100
AcDbLine
 10
1.999999999999543
 20
68.00000000000046
 30
0.0
 11
1.999999999999543
 21
66.00000000000045
 31
0.0
  0
ARC
  5
3651
330
18
100
AcDbEntity
  8
ベース
 48
3.0
100
AcDbCircle
 10
-0.0000000000006821
 20
89.00000000000204
 30
0.0
 40
1.0
100
AcDbArc
 50
90.0
 51
180.0
  0
LINE
  5
3652
330
18
100
AcDbEntity
  8
ベース
 48
3.0
100
AcDbLine
 10
3.585112493672338
 20
70.00000000000113
 30
0.0
 11
18.4999999999993
 21
70.00000000000159
 31
0.0
  0
LINE
  5
3653
330
18
100
AcDbEntity
  8
ベース
 48
3.0
100
AcDbLine
 10
5.499999999999543
 20
70.00000000000159
 30
0.0
 11
18.4999999999993
 21
70.00000000000159
 31
0.0
  0
ARC
  5
3654
330
18
100
AcDbEntity
  8
ベース
 48
3.0
100
AcDbCircle
 10
4.999999999999088
 20
69.50000000000045
 30
0.0
 40
0.5
100
AcDbArc
 50
359.9999999999996
 51
90.00000000000133
  0
LINE
  5
3655
330
18
100
AcDbEntity
  8
1外形線
 48
3.0
100
AcDbLine
 10
37.29408584883731
 20
72.50928581439933
 30
0.0
 11
46.29371477638756
 21
69.74016922130704
 31
0.0
  0
LINE
  5
3656
330
18
100
AcDbEntity
  8
1外形線
 48
3.0
100
AcDbLine
 10
38.88209852953774
 20
75.30184454162429
 30
0.0
 11
47.19120828174186
 21
72.60269110525723
 31
0.0
  0
LINE
  5
3657
330
18
100
AcDbEntity
  8
ベース
 48
3.0
100
AcDbLine
 10
37.49999999999932
 20
89.0000000000009
 30
0.0
 11
37.49999999999932
 21
77.20400062691317
 31
0.0
  0
LINE
  5
3658
330
18
100
AcDbEntity
  8
ベース
 48
3.0
100
AcDbLine
 10
34.3999999999994
 20
70.00000000000046
 30
0.0
 11
34.69999999999959
 21
90.0000000000009
 31
0.0
  0
LINE
  5
3659
330
18
100
AcDbEntity
  8
1外形線
 48
3.0
100
AcDbLine
 10
30.35355339059265
 20
69.85355339059378
 30
0.0
 11
28.64644660940621
 21
68.14644660940735
 31
0.0
  0
ARC
  5
365A
330
18
100
AcDbEntity
  8
1外形線
 48
3.0
100
AcDbCircle
 10
28.99999999999954
 20
67.79289321881401
 30
0.0
 40
0.5
100
AcDbArc
 50
135.0000000000002
 51
180.0000000000001
  0
ARC
  5
365B
330
18
100
AcDbEntity
  8
1外形線
 48
3.0
100
AcDbCircle
 10
30.70710678118587
 20
69.50000000000051
 30
0.0
 40
0.5
100
AcDbArc
 50
90.0
 51
135.0
  0
ARC
  5
365C
330
18
100
AcDbEntity
  8
1外形線
 48
3.0
100
AcDbCircle
 10
39.49999999999931
 20
77.20400062691317
 30
0.0
 40
2.0
100
AcDbArc
 50
180.0
 51
252.0039916937459
  0
LINE
  5
365D
330
18
100
AcDbEntity
  8
1外形線
 48
3.0
100
AcDbLine
 10
35.99999999999977
 20
71.55350680567757
 30
0.0
 11
35.99999999999932
 21
69.00000000000137
 31
0.0
  0
ARC
  5
365E
330
18
100
AcDbEntity
  8
1外形線
 48
3.0
100
AcDbCircle
 10
34.99999999999932
 20
69.00000000000137
 30
0.0
 40
1.0
100
AcDbArc
 50
270.0000000000025
 51
359.9999999999967
  0
ARC
  5
365F
330
18
100
AcDbEntity
  8
1外形線
 48
3.0
100
AcDbCircle
 10
32.49999999999953
 20
67.00000000000136
 30
0.0
 40
1.0
100
AcDbArc
 50
90.00000000000184
 51
180.0000000000024
  0
LINE
  5
3660
330
18
100
AcDbEntity
  8
ベース
 48
3.0
100
AcDbLine
 10
32.49999999999953
 20
68.00000000000136
 30
0.0
 11
34.99999999999932
 21
68.00000000000136
 31
0.0
  0
ARC
  5
3661
330
18
100
AcDbEntity
  8
1外形線
 48
3.0
100
AcDbCircle
 10
36.99999999999977
 20
71.5535068056774
 30
0.0
 40
1.0
100
AcDbArc
 50
72.89727103094825
 51
179.9999999999897
  0
LINE
  5
3662
330
18
100
AcDbEntity
  8
1外形線
 48
3.0
100
AcDbLine
 10
35.49999999999909
 20
90.00000000000204
 30
0.0
 11
36.49999999999909
 21
90.00000000000204
 31
0.0
  0
ARC
  5
3663
330
18
100
AcDbEntity
  8
ベース
 48
3.0
100
AcDbCircle
 10
36.49999999999931
 20
89.0000000000009
 30
0.0
 40
1.0
100
AcDbArc
 50
0.0
 51
90.0
  0
ARC
  5
3664
330
18
100
AcDbEntity
  8
1外形線
 48
3.0
100
AcDbCircle
 10
45.9999999999984
 20
68.78427603644695
 30
0.0
 40
4.0
100
AcDbArc
 50
359.9999970317463
 51
72.89727103094681
  0
LINE
  5
366B
330
18
100
AcDbEntity
  8
ベース
 48
3.0
100
AcDbLine
 10
46.9996289274511
 20
68.78440427640247
 30
0.0
 11
46.99966808680449
 21
66.00000000000136
 31
0.0
  0
ARC
  5
366F
330
18
100
AcDbEntity
  8
1外形線
 48
3.0
100
AcDbCircle
 10
45.99962892755002
 20
68.78439021258509
 30
0.0
 40
1.0
100
AcDbArc
 50
0.0008057973822615
 51
72.89727103094668
  0
LINE
  5
3670
330
18
100
AcDbEntity
  8
ベース
 48
3.0
100
AcDbLine
 10
104.7005422133284
 20
68.00000000000046
 30
0.0
 11
104.7005422133284
 21
62.60000000000264
 31
0.0
  0
LINE
  5
3671
330
18
100
AcDbEntity
  8
ベース
 48
3.0
100
AcDbLine
 10
106.7005422133284
 20
69.50000000000045
 30
0.0
 11
106.7005422133284
 21
62.60000000000264
 31
0.0
  0
LINE
  5
3672
330
18
100
AcDbEntity
  8
ベース
 48
3.0
100
AcDbLine
 10
131.7005422133288
 20
69.50000000000045
 30
0.0
 11
131.7005422133289
 21
62.60000000000264
 31
0.0
  0
ELLIPSE
  5
3676
330
18
100
AcDbEntity
  8
1外形線
 48
3.0
100
AcDbEllipse
 10
119.2005422450877
 20
33.45839596650614
 30
0.0
 11
-8.602325562276746
 21
0.0
 31
0.0
210
0.0
220
0.0
230
1.0
 40
0.6204066213180346
 41
0.0
 42
3.141714178276913
  0
LINE
  5
3677
330
18
100
AcDbEntity
  8
1外形線
  6
CENTER
 48
0.2
100
AcDbLine
 10
117.7005422133287
 20
30.51517241467887
 30
0.0
 11
117.7005422133287
 21
36.00000000000135
 31
0.0
  0
ARC
  5
3678
330
18
100
AcDbEntity
  8
1外形線
 48
3.0
100
AcDbCircle
 10
116.2005422133292
 20
34.2679491924323
 30
0.0
 40
2.5
100
AcDbArc
 50
180.0
 51
239.9999999999999
  0
LINE
  5
3679
330
18
100
AcDbEntity
  8
1外形線
  6
CENTER
 48
0.2
100
AcDbLine
 10
120.7005422133287
 20
30.5151724710293
 30
0.0
 11
120.7005422133287
 21
36.00000000000135
 31
0.0
  0
ARC
  5
367A
330
18
100
AcDbEntity
  8
1外形線
 48
3.0
100
AcDbCircle
 10
122.2005422133292
 20
34.26794919613326
 30
0.0
 40
2.5
100
AcDbArc
 50
299.9999998727766
 51
0.0
  0
LINE
  5
367B
330
18
100
AcDbEntity
  8
ベース
 48
3.0
100
AcDbLine
 10
102.7005422133289
 20
68.00000000000046
 30
0.0
 11
102.7005422133288
 21
31.41581329005385
 31
0.0
  0
LINE
  5
367C
330
18
100
AcDbEntity
  8
ベース
 48
3.0
100
AcDbLine
 10
119.2005422133292
 20
20.00000000000043
 30
0.0
 11
106.2005422133289
 21
19.99999999999953
 31
0.0
  0
LINE
  5
367D
330
18
100
AcDbEntity
  8
ベース
 48
3.0
100
AcDbLine
 10
119.2005422133292
 20
20.00000000000091
 30
0.0
 11
104.2856547070017
 21
20.00000000000043
 31
0.0
  0
LINE
  5
367E
330
18
100
AcDbEntity
  8
ベース
 48
3.0
100
AcDbLine
 10
103.3005422133284
 20
20.00000000000091
 30
0.0
 11
119.2005422133292
 21
20.00000000000091
 31
0.0
  0
LINE
  5
367F
330
18
100
AcDbEntity
  8
ベース
 48
3.0
100
AcDbLine
 10
106.6391955476585
 20
21.16697468406346
 30
0.0
 11
103.0072755416794
 21
29.6915024280612
 31
0.0
  0
ARC
  5
3680
330
18
100
AcDbEntity
  8
ベース
 48
3.0
100
AcDbCircle
 10
107.7005422133288
 20
31.41581329005385
 30
0.0
 40
5.0
100
AcDbArc
 50
179.9999999999995
 51
200.1733824873141
  0
ARC
  5
3681
330
18
100
AcDbEntity
  8
ベース
 48
3.0
100
AcDbCircle
 10
105.7005422133288
 20
20.82211251166472
 30
0.0
 40
1.0
100
AcDbArc
 50
0.0
 51
20.17338248731432
  0
LINE
  5
3682
330
18
100
AcDbEntity
  8
ベース
 48
3.0
100
AcDbLine
 10
106.7005422133288
 20
20.00000000000091
 30
0.0
 11
106.7005422133288
 21
20.82211251166472
 31
0.0
  0
LINE
  5
3683
330
18
100
AcDbEntity
  8
ベース
 48
3.0
100
AcDbLine
 10
106.7005422133288
 20
20.00000000000091
 30
0.0
 11
106.7005422133288
 21
20.00000000000091
 31
0.0
  0
LINE
  5
3684
330
18
100
AcDbEntity
  8
1外形線
 48
3.0
100
AcDbLine
 10
123.4505422085218
 20
32.1028856838966
 30
0.0
 11
120.4505421504117
 21
30.3708348696457
 31
0.0
  0
LINE
  5
3685
330
18
100
AcDbEntity
  8
ベース
 48
3.0
100
AcDbLine
 10
132.2005422133289
 20
20.00000000000043
 30
0.0
 11
119.2005422133292
 21
20.00000000000043
 31
0.0
  0
LINE
  5
3686
330
18
100
AcDbEntity
  8
1外形線
 48
3.0
100
AcDbLine
 10
114.9505422133292
 20
32.10288568297119
 30
0.0
 11
117.9505421484088
 21
30.37083488231564
 31
0.0
  0
ARC
  5
3687
330
18
100
AcDbEntity
  8
1外形線
 48
3.0
100
AcDbCircle
 10
119.2005421603828
 20
32.53589838486368
 30
0.0
 40
2.5
100
AcDbArc
 50
239.9999996831235
 51
299.9999997361324
  0
LINE
  5
3688
330
18
100
AcDbEntity
  8
ベース
 48
3.0
100
AcDbLine
 10
131.7005422133286
 20
20.00000000000091
 30
0.0
 11
131.7005422133286
 21
20.00000000000091
 31
0.0
  0
LINE
  5
3689
330
18
100
AcDbEntity
  8
ベース
 48
3.0
100
AcDbLine
 10
131.7005422133286
 20
20.00000000000091
 30
0.0
 11
131.7005422133286
 21
20.82211251166472
 31
0.0
  0
ARC
  5
368A
330
18
100
AcDbEntity
  8
ベース
 48
3.0
100
AcDbCircle
 10
132.7005422133286
 20
20.82211251166472
 30
0.0
 40
1.0
100
AcDbArc
 50
159.8266175126855
 51
180.0
  0
ELLIPSE
  5
368B
330
18
100
AcDbEntity
  8
1外形線
 48
3.0
100
AcDbEllipse
 10
119.2005422450877
 20
42.00000000000088
 30
0.0
 11
-8.602325498756101
 21
0.0
 31
0.0
210
0.0
220
0.0
230
1.0
 40
0.2324952862807929
 41
3.141592653589792
 42
6.283185307179584
  0
ARC
  5
368C
330
18
100
AcDbEntity
  8
1外形線
 48
3.0
100
AcDbCircle
 10
116.2005422133295
 20
37.73205080682053
 30
0.0
 40
2.5
100
AcDbArc
 50
119.9999997955285
 51
180.0
  0
ELLIPSE
  5
368E
330
18
100
AcDbEntity
  8
1外形線
 48
3.0
100
AcDbEllipse
 10
119.2005422133288
 20
60.60000000000128
 30
0.0
 11
0.0000000000003417
 21
21.21790688938357
 31
0.0
210
0.0
220
0.0
230
-1.0
 40
0.7069500341480454
 41
3.708524200120998
 42
4.688821797723924
  0
LINE
  5
368F
330
18
100
AcDbEntity
  8
1外形線
 48
3.0
100
AcDbLine
 10
110.598216682811
 20
42.00000000000088
 30
0.0
 11
110.598216682811
 21
33.45839596650392
 31
0.0
  0
LINE
  5
3690
330
18
100
AcDbEntity
  8
1外形線
 48
3.0
100
AcDbLine
 10
113.7005422133293
 20
36.00000000000135
 30
0.0
 11
113.7005422133293
 21
34.2679491924323
 31
0.0
  0
LINE
  5
3691
330
18
100
AcDbEntity
  8
1外形線
 48
3.0
100
AcDbLine
 10
113.7005422133293
 20
36.00000000000135
 30
0.0
 11
113.7005422133295
 21
37.73205080682053
 31
0.0
  0
LINE
  5
3698
330
18
100
AcDbEntity
  8
1外形線
 48
3.0
100
AcDbLine
 10
123.4505422159588
 20
39.89711431753743
 30
0.0
 11
120.4505422443194
 21
41.6291651217325
 31
0.0
  0
LINE
  5
3699
330
18
100
AcDbEntity
  8
1外形線
 48
3.0
100
AcDbLine
 10
114.9505422210559
 20
39.8971143207425
 30
0.0
 11
117.9505422443194
 21
41.62916512746799
 31
0.0
  0
LINE
  5
369A
330
18
100
AcDbEntity
  8
1外形線
  6
CENTER
 48
0.2
100
AcDbLine
 10
117.7005422133251
 20
41.48482754346571
 30
0.0
 11
117.7005422133287
 21
36.00000000000135
 31
0.0
  0
ARC
  5
369B
330
18
100
AcDbEntity
  8
1外形線
 48
3.0
100
AcDbCircle
 10
119.2005422393524
 20
39.46410161513927
 30
0.0
 40
2.5
100
AcDbArc
 50
59.99999986855453
 51
119.999999868554
  0
LINE
  5
369C
330
18
100
AcDbEntity
  8
1外形線
  6
CENTER
 48
0.2
100
AcDbLine
 10
120.7005422133252
 20
41.48482757124617
 30
0.0
 11
120.7005422133287
 21
36.00000000000318
 31
0.0
  0
LINE
  5
369D
330
18
100
AcDbEntity
  8
1外形線
 48
3.0
100
AcDbLine
 10
127.8028677438439
 20
42.00000000000088
 30
0.0
 11
127.8028677438439
 21
33.45904453643635
 31
0.0
  0
LINE
  5
369E
330
18
100
AcDbEntity
  8
1外形線
 48
3.0
100
AcDbLine
 10
124.7005422133293
 20
36.00000000000135
 30
0.0
 11
124.7005422133293
 21
34.26794919613326
 31
0.0
  0
LINE
  5
369F
330
18
100
AcDbEntity
  8
1外形線
 48
3.0
100
AcDbLine
 10
124.7005422133293
 20
36.00000000000135
 30
0.0
 11
124.7005422133293
 21
37.73205080959449
 31
0.0
  0
ARC
  5
36A0
330
18
100
AcDbEntity
  8
1外形線
 48
3.0
100
AcDbCircle
 10
122.2005422133292
 20
37.73205080959449
 30
0.0
 40
2.5
100
AcDbArc
 50
0.0
 51
59.99999993041049
  0
LINE
  5
36A3
330
18
100
AcDbEntity
  8
1外形線
 48
3.0
100
AcDbLine
 10
103.300542213329
 20
70.00000000000046
 30
0.0
 11
119.2005422133285
 21
70.00000000000039
 31
0.0
  0
LINE
  5
36A4
330
18
100
AcDbEntity
  8
ベース
 48
3.0
100
AcDbLine
 10
100.7005422133289
 20
90.0000000000009
 30
0.0
 11
119.2005422133288
 21
90.0000000000009
 31
0.0
  0
LINE
  5
36A5
330
18
100
AcDbEntity
  8
ベース
 48
3.0
100
AcDbLine
 10
103.300542213329
 20
70.00000000000046
 30
0.0
 11
103.0005422133287
 21
90.00000000000161
 31
0.0
  0
LINE
  5
36A6
330
18
100
AcDbEntity
  8
1外形線
 48
3.0
100
AcDbLine
 10
102.7005422133289
 20
68.00000000000046
 30
0.0
 11
104.7005422133284
 21
68.00000000000046
 31
0.0
  0
ARC
  5
36AF
330
18
100
AcDbEntity
  8
ベース
 48
3.0
100
AcDbCircle
 10
106.2005422133284
 20
69.50000000000045
 30
0.0
 40
0.5
100
AcDbArc
 50
359.9999999999993
 51
90.00000000000161
  0
ARC
  5
36B0
330
18
100
AcDbEntity
  8
ベース
 48
3.0
100
AcDbCircle
 10
100.7005422133289
 20
89.0000000000009
 30
0.0
 40
1.0
100
AcDbArc
 50
90.0
 51
179.9999999999998
  0
LINE
  5
36B1
330
18
100
AcDbEntity
  8
1外形線
 48
3.0
100
AcDbLine
 10
101.7005422133289
 20
90.00000000000161
 30
0.0
 11
101.2005422133289
 21
90.00000000000161
 31
0.0
  0
LINE
  5
36B2
330
18
100
AcDbEntity
  8
ベース
 48
3.0
100
AcDbLine
 10
100.7005422133289
 20
90.0000000000009
 30
0.0
 11
103.0005422133289
 21
90.0000000000009
 31
0.0
  0
LINE
  5
36B3
330
18
100
AcDbEntity
  8
ベース
 48
3.0
100
AcDbLine
 10
119.2005422133288
 20
70.00000000000113
 30
0.0
 11
132.2005422133289
 21
70.00000000000205
 31
0.0
  0
ARC
  5
36B4
330
18
100
AcDbEntity
  8
ベース
 48
3.0
100
AcDbCircle
 10
132.2005422133289
 20
69.50000000000045
 30
0.0
 40
0.5
100
AcDbArc
 50
89.99999999999838
 51
180.0000000000004
  0
LINE
  5
36B5
330
18
100
AcDbEntity
  8
ベース
 48
3.0
100
AcDbLine
 10
138.7005422133277
 20
89.00000000000096
 30
0.0
 11
138.700542213332
 21
0.9999999999989768
 31
0.0
  0
LINE
  5
36B6
330
18
100
AcDbEntity
  8
ベース
 48
3.0
100
AcDbLine
 10
135.1005422133289
 20
20.00000000000091
 30
0.0
 11
135.400542213329
 21
0.0000000000004547
 31
0.0
  0
ARC
  5
36B8
330
18
100
AcDbEntity
  8
ベース
 48
3.0
100
AcDbCircle
 10
137.700542213332
 20
0.9999999999989768
 30
0.0
 40
1.0
100
AcDbArc
 50
269.9999999999397
 51
0.0000000000027734
  0
LINE
  5
36B9
330
18
100
AcDbEntity
  8
1外形線
 48
3.0
100
AcDbLine
 10
136.7005422133287
 20
0.0
 30
0.0
 11
137.2005422133289
 21
0.0
 31
0.0
  0
LINE
  5
36BA
330
18
100
AcDbEntity
  8
1外形線
 48
3.0
100
AcDbLine
 10
216.5511809604603
 20
52.01377207184407
 30
0.0
 11
198.5511809604603
 21
52.01377207184407
 31
0.0
  0
LINE
  5
36BB
330
18
100
AcDbEntity
  8
1外形線
 48
3.0
100
AcDbLine
 10
199.5511809604605
 20
55.0137720718443
 30
0.0
 11
216.5511809604603
 21
55.0137720718443
 31
0.0
  0
LINE
  5
36BC
330
18
100
AcDbEntity
  8
1外形線
 48
3.0
100
AcDbLine
 10
201.6362934541331
 20
32.01377207184362
 30
0.0
 11
216.5511809604603
 21
32.01377207184362
 31
0.0
  0
LINE
  5
36BF
330
18
100
AcDbEntity
  8
ベース
 48
3.0
100
AcDbLine
 10
133.7005422133288
 20
68.00000000000046
 30
0.0
 11
133.7005422133288
 21
62.60000000000264
 31
0.0
  0
LINE
  5
36C0
330
18
100
AcDbEntity
  8
ベース
 48
3.0
100
AcDbLine
 10
135.7005422133285
 20
68.00000000000046
 30
0.0
 11
135.7005422133287
 21
31.41581329005385
 31
0.0
  0
ARC
  5
36C1
330
18
100
AcDbEntity
  8
ベース
 48
3.0
100
AcDbCircle
 10
130.7005422133286
 20
31.41581329005385
 30
0.0
 40
5.0
100
AcDbArc
 50
339.8266175126859
 51
0.0000000000003378
  0
ARC
  5
36CB
330
18
100
AcDbEntity
  8
1外形線
 48
3.0
100
AcDbCircle
 10
201.6362934541331
 20
33.01377207184362
 30
0.0
 40
1.0
100
AcDbArc
 50
180.8593722436458
 51
270.0
  0
ARC
  5
36D1
330
18
100
AcDbEntity
  8
1外形線
 48
3.0
100
AcDbCircle
 10
199.5511809604605
 20
54.0137720718443
 30
0.0
 40
1.0
100
AcDbArc
 50
90.0
 51
179.9999999999926
  0
LINE
  5
36D2
330
18
100
AcDbEntity
  8
1外形線
 48
3.0
100
AcDbLine
 10
199.5511809604603
 20
52.01377207184407
 30
0.0
 11
200.3511809604602
 21
52.01377207184407
 31
0.0
  0
LINE
  5
36D3
330
18
100
AcDbEntity
  8
1外形線
 48
3.0
100
AcDbLine
 10
198.5511809604603
 20
52.01377207184407
 30
0.0
 11
198.551180960461
 21
54.01377207184452
 31
0.0
  0
LINE
  5
36D5
330
18
100
AcDbEntity
  8
ベース
 48
3.0
100
AcDbLine
 10
135.1005422133289
 20
70.00000000000039
 30
0.0
 11
135.4005422133292
 21
90.00000000000161
 31
0.0
  0
LINE
  5
36D6
330
18
100
AcDbEntity
  8
ベース
 48
3.0
100
AcDbLine
 10
135.7005422133285
 20
68.00000000000046
 30
0.0
 11
133.7005422133288
 21
68.00000000000046
 31
0.0
  0
LINE
  5
36DF
330
18
100
AcDbEntity
  8
1外形線
 48
3.0
100
AcDbLine
 10
136.7005422133285
 20
90.00000000000161
 30
0.0
 11
137.2005422133286
 21
90.00000000000161
 31
0.0
  0
ARC
  5
36E0
330
18
100
AcDbEntity
  8
ベース
 48
3.0
100
AcDbCircle
 10
137.7005422133277
 20
89.0000000000009
 30
0.0
 40
1.0
100
AcDbArc
 50
0.000000000002748
 51
90.0
  0
LINE
  5
37B7
330
18
100
AcDbEntity
  8
1外形線
 48
3.0
100
AcDbLine
 10
231.4660684667874
 20
32.01377207184362
 30
0.0
 11
216.5511809604603
 21
32.01377207184362
 31
0.0
  0
LINE
  5
37B8
330
18
100
AcDbEntity
  8
1外形線
 48
3.0
100
AcDbLine
 10
233.5511809604598
 20
55.0137720718443
 30
0.0
 11
216.5511809604603
 21
55.0137720718443
 31
0.0
  0
LINE
  5
37B9
330
18
100
AcDbEntity
  8
1外形線
 48
3.0
100
AcDbLine
 10
216.5511809604603
 20
52.01377207184407
 30
0.0
 11
234.5511809604601
 21
52.01377207184407
 31
0.0
  0
ARC
  5
37BD
330
18
100
AcDbEntity
  8
1外形線
 48
3.0
100
AcDbCircle
 10
231.4660684667874
 20
33.01377207184362
 30
0.0
 40
1.0
100
AcDbArc
 50
270.0
 51
359.1406277563542
  0
ARC
  5
37BE
330
18
100
AcDbEntity
  8
1外形線
 48
3.0
100
AcDbCircle
 10
233.5511809604598
 20
54.0137720718443
 30
0.0
 40
1.0
100
AcDbArc
 50
0.000000000007335
 51
90.0
  0
LINE
  5
37BF
330
18
100
AcDbEntity
  8
1外形線
 48
3.0
100
AcDbLine
 10
234.5511809604601
 20
52.01377207184407
 30
0.0
 11
234.5511809604595
 21
54.01377207184452
 31
0.0
  0
LINE
  5
37C0
330
18
100
AcDbEntity
  8
1外形線
 48
3.0
100
AcDbLine
 10
233.5511809604601
 20
52.01377207184407
 30
0.0
 11
232.7511809604603
 21
52.01377207184407
 31
0.0
  0
LINE
  5
37C1
330
18
100
AcDbEntity
  8
1外形線
 48
3.0
100
AcDbLine
 10
200.6364059351525
 20
32.99877375905889
 30
0.0
 11
200.6364059351525
 21
52.01377207184413
 31
0.0
  0
LINE
  5
37C2
330
18
100
AcDbEntity
  8
1外形線
 48
3.0
100
AcDbLine
 10
232.4659559857682
 20
32.99877375905896
 30
0.0
 11
232.4659559857682
 21
52.01377207184413
 31
0.0
  0
LINE
  5
37C4
330
18
100
AcDbEntity
  8
ベース
 48
3.0
100
AcDbLine
 10
32.19999999999936
 20
61.50000000000114
 30
0.0
 11
45.99999999999936
 21
61.50000000000114
 31
0.0
  0
LINE
  5
37C5
330
18
100
AcDbEntity
  8
ベース
 48
3.0
100
AcDbLine
 10
45.99999999999936
 20
61.50000000000114
 30
0.0
 11
45.99999999999936
 21
55.74927029859498
 31
0.0
  0
ENDSEC
  0
SECTION
  2
OBJECTS
  0
DICTIONARY
  5
C
330
0
100
AcDbDictionary
281
     1
  3
ACAD_GROUP
350
D
  3
ACAD_LAYOUT
350
35CC
  3
ACAD_MLINESTYLE
350
1B
  3
ACAD_PLOTSETTINGS
350
35CD
  3
ACAD_PLOTSTYLENAME
350
35CA
  3
ACDBVARIABLEDICTIONARY
350
12D
  0
DICTIONARY
  5
D
102
{ACAD_REACTORS
330
C
102
}
330
C
100
AcDbDictionary
281
     1
  0
DICTIONARY
  5
35CC
102
{ACAD_REACTORS
330
C
102
}
330
C
100
AcDbDictionary
281
     1
  3
Model
350
35CE
  3
ﾚｲｱｳﾄ1
350
35CF
  0
DICTIONARY
  5
1B
102
{ACAD_REACTORS
330
C
102
}
330
C
100
AcDbDictionary
281
     1
  3
STANDARD
350
1C
  0
DICTIONARY
  5
35CD
102
{ACAD_REACTORS
330
C
102
}
330
C
100
AcDbDictionary
281
     1
  0
ACDBDICTIONARYWDFLT
  5
35CA
102
{ACAD_REACTORS
330
C
102
}
330
C
100
AcDbDictionary
281
     1
  3
Normal
350
35CB
100
AcDbDictionaryWithDefault
340
35CB
  0
DICTIONARY
  5
12D
102
{ACAD_REACTORS
330
C
102
}
330
C
100
AcDbDictionary
281
     1
  3
DIMASSOC
350
35D5
  3
SORTENTS
350
12E
  0
LAYOUT
  5
35CE
102
{ACAD_REACTORS
330
35CC
102
}
330
35CC
100
AcDbPlotSettings
  1

  2
LBP3970(開発用)
  4

  6

 40
0.0
 41
0.0
 42
0.0
 43
0.0
 44
0.0
 45
0.0
 46
0.0
 47
0.0
 48
0.0
 49
0.0
140
0.0
141
0.0
142
1.0
143
1.0
 70
  1712
 72
     0
 73
     0
 74
     0
  7
1mizukoshi.ctb
 75
     0
147
1.0
148
0.0
149
0.0
100
AcDbLayout
  1
Model
 70
     1
 71
     0
 10
0.0
 20
0.0
 11
12.0
 21
9.0
 12
0.0
 22
0.0
 32
0.0
 14
0.0
 24
0.0
 34
0.0
 15
0.0
 25
0.0
 35
0.0
146
0.0
 13
0.0
 23
0.0
 33
0.0
 16
1.0
 26
0.0
 36
0.0
 17
0.0
 27
1.0
 37
0.0
 76
     0
330
18
  0
LAYOUT
  5
35CF
102
{ACAD_REACTORS
330
35CC
102
}
330
35CC
100
AcDbPlotSettings
  1

  2
LBP3970(開発用)
  4

  6

 40
0.0
 41
0.0
 42
0.0
 43
0.0
 44
0.0
 45
0.0
 46
0.0
 47
0.0
 48
0.0
 49
0.0
140
0.0
141
0.0
142
1.0
143
1.0
 70
   688
 72
     0
 73
     0
 74
     5
  7
1mizukoshi.ctb
 75
    16
147
1.0
148
0.0
149
0.0
100
AcDbLayout
  1
ﾚｲｱｳﾄ1
 70
     1
 71
     1
 10
0.0
 20
0.0
 11
420.0
 21
297.0
 12
0.0
 22
0.0
 32
0.0
 14
1.000000000000000E+20
 24
1.000000000000000E+20
 34
1.000000000000000E+20
 15
-1.000000000000000E+20
 25
-1.000000000000000E+20
 35
-1.000000000000000E+20
146
0.0
 13
0.0
 23
0.0
 33
0.0
 16
1.0
 26
0.0
 36
0.0
 17
0.0
 27
1.0
 37
0.0
 76
     0
330
15
  0
MLINESTYLE
  5
1C
102
{ACAD_REACTORS
330
1B
102
}
330
1B
100
AcDbMlineStyle
  2
STANDARD
 70
     0
  3

 62
   256
 51
90.0
 52
90.0
 71
     2
 49
0.5
 62
   256
  6
BYLAYER
 49
-0.5
 62
   256
  6
BYLAYER
  0
ACDBPLACEHOLDER
  5
35CB
102
{ACAD_REACTORS
330
35CA
102
}
330
35CA
  0
DICTIONARYVAR
  5
35D5
102
{ACAD_REACTORS
330
12D
102
}
330
12D
100
DictionaryVariables
280
     0
  1
1
  0
DICTIONARYVAR
  5
12E
102
{ACAD_REACTORS
330
12D
102
}
330
12D
100
DictionaryVariables
280
     0
  1
96
  0
ENDSEC
  0
EOF
