  0
SECTION
  2
HEADER
  9
$ACADVER
  1
AC1015
  9
$ACADMAINTVER
 70
    14
  9
$DWGCODEPAGE
  3
ANSI_932
  9
$INSBASE
 10
0.0
 20
0.0
 30
0.0
  9
$EXTMIN
 10
-0.2071067811865455
 20
-1.207106781186547
 30
0.0
  9
$EXTMAX
 10
251.0518461748044
 20
111.2071067811865
 30
0.0
  9
$LIMMIN
 10
0.0
 20
0.0
  9
$LIMMAX
 10
420.0
 20
297.0
  9
$ORTHOMODE
 70
     1
  9
$REGENMODE
 70
     1
  9
$FILLMODE
 70
     1
  9
$QTEXTMODE
 70
     0
  9
$MIRRTEXT
 70
     1
  9
$LTSCALE
 40
1.0
  9
$ATTMODE
 70
     1
  9
$TEXTSIZE
 40
2.5
  9
$TRACEWID
 40
1.0
  9
$TEXTSTYLE
  7
KANJI
  9
$CLAYER
  8
2寸法線
  9
$CELTYPE
  6
BYLAYER
  9
$CECOLOR
 62
   256
  9
$CELTSCALE
 40
3.0
  9
$DISPSILH
 70
     0
  9
$DIMSCALE
 40
0.0
  9
$DIMASZ
 40
1.8
  9
$DIMEXO
 40
1.0
  9
$DIMDLI
 40
0.0
  9
$DIMRND
 40
0.0
  9
$DIMDLE
 40
0.0
  9
$DIMEXE
 40
1.0
  9
$DIMTP
 40
0.0
  9
$DIMTM
 40
0.0
  9
$DIMTXT
 40
2.5
  9
$DIMCEN
 40
0.0
  9
$DIMTSZ
 40
0.0
  9
$DIMTOL
 70
     0
  9
$DIMLIM
 70
     0
  9
$DIMTIH
 70
     0
  9
$DIMTOH
 70
     0
  9
$DIMSE1
 70
     0
  9
$DIMSE2
 70
     0
  9
$DIMTAD
 70
     1
  9
$DIMZIN
 70
     8
  9
$DIMBLK
  1

  9
$DIMASO
 70
     1
  9
$DIMSHO
 70
     1
  9
$DIMPOST
  1

  9
$DIMAPOST
  1

  9
$DIMALT
 70
     0
  9
$DIMALTD
 70
     2
  9
$DIMALTF
 40
25.4
  9
$DIMLFAC
 40
1.0
  9
$DIMTOFL
 70
     1
  9
$DIMTVP
 40
0.0
  9
$DIMTIX
 70
     0
  9
$DIMSOXD
 70
     0
  9
$DIMSAH
 70
     1
  9
$DIMBLK1
  1
2
  9
$DIMBLK2
  1
2
  9
$DIMSTYLE
  2
M
  9
$DIMCLRD
 70
     0
  9
$DIMCLRE
 70
     0
  9
$DIMCLRT
 70
     0
  9
$DIMTFAC
 40
1.0
  9
$DIMGAP
 40
0.5
  9
$DIMJUST
 70
     0
  9
$DIMSD1
 70
     0
  9
$DIMSD2
 70
     0
  9
$DIMTOLJ
 70
     1
  9
$DIMTZIN
 70
     8
  9
$DIMALTZ
 70
     0
  9
$DIMALTTZ
 70
     0
  9
$DIMUPT
 70
     0
  9
$DIMDEC
 70
     4
  9
$DIMTDEC
 70
     4
  9
$DIMALTU
 70
     2
  9
$DIMALTTD
 70
     2
  9
$DIMTXSTY
  7
KANJI
  9
$DIMAUNIT
 70
     0
  9
$DIMADEC
 70
     0
  9
$DIMALTRND
 40
0.0
  9
$DIMAZIN
 70
     0
  9
$DIMDSEP
 70
    46
  9
$DIMATFIT
 70
     3
  9
$DIMFRAC
 70
     0
  9
$DIMLDRBLK
  1
2
  9
$DIMLUNIT
 70
     2
  9
$DIMLWD
 70
    -2
  9
$DIMLWE
 70
    -2
  9
$DIMTMOVE
 70
     0
  9
$LUNITS
 70
     2
  9
$LUPREC
 70
     3
  9
$SKETCHINC
 40
1.0
  9
$FILLETRAD
 40
0.0
  9
$AUNITS
 70
     0
  9
$AUPREC
 70
     1
  9
$MENU
  1
.
  9
$ELEVATION
 40
0.0
  9
$PELEVATION
 40
0.0
  9
$THICKNESS
 40
0.0
  9
$LIMCHECK
 70
     0
  9
$CHAMFERA
 40
10.0
  9
$CHAMFERB
 40
10.0
  9
$CHAMFERC
 40
20.0
  9
$CHAMFERD
 40
0.0
  9
$SKPOLY
 70
     0
  9
$TDCREATE
 40
2452408.400460578
  9
$TDUCREATE
 40
2452408.025460578
  9
$TDUPDATE
 40
2455226.698464074
  9
$TDUUPDATE
 40
2455226.323464074
  9
$TDINDWG
 40
0.2291984375
  9
$TDUSRTIMER
 40
0.2291982639
  9
$USRTIMER
 70
     1
  9
$ANGBASE
 50
0.0
  9
$ANGDIR
 70
     0
  9
$PDMODE
 70
     0
  9
$PDSIZE
 40
0.0
  9
$PLINEWID
 40
0.0
  9
$SPLFRAME
 70
     0
  9
$SPLINETYPE
 70
     6
  9
$SPLINESEGS
 70
     8
  9
$HANDSEED
  5
3D1F
  9
$SURFTAB1
 70
     6
  9
$SURFTAB2
 70
     6
  9
$SURFTYPE
 70
     6
  9
$SURFU
 70
     6
  9
$SURFV
 70
     6
  9
$UCSBASE
  2

  9
$UCSNAME
  2

  9
$UCSORG
 10
0.0
 20
0.0
 30
0.0
  9
$UCSXDIR
 10
1.0
 20
0.0
 30
0.0
  9
$UCSYDIR
 10
0.0
 20
1.0
 30
0.0
  9
$UCSORTHOREF
  2

  9
$UCSORTHOVIEW
 70
     0
  9
$UCSORGTOP
 10
0.0
 20
0.0
 30
0.0
  9
$UCSORGBOTTOM
 10
0.0
 20
0.0
 30
0.0
  9
$UCSORGLEFT
 10
0.0
 20
0.0
 30
0.0
  9
$UCSORGRIGHT
 10
0.0
 20
0.0
 30
0.0
  9
$UCSORGFRONT
 10
0.0
 20
0.0
 30
0.0
  9
$UCSORGBACK
 10
0.0
 20
0.0
 30
0.0
  9
$PUCSBASE
  2

  9
$PUCSNAME
  2

  9
$PUCSORG
 10
0.0
 20
0.0
 30
0.0
  9
$PUCSXDIR
 10
1.0
 20
0.0
 30
0.0
  9
$PUCSYDIR
 10
0.0
 20
1.0
 30
0.0
  9
$PUCSORTHOREF
  2

  9
$PUCSORTHOVIEW
 70
     0
  9
$PUCSORGTOP
 10
0.0
 20
0.0
 30
0.0
  9
$PUCSORGBOTTOM
 10
0.0
 20
0.0
 30
0.0
  9
$PUCSORGLEFT
 10
0.0
 20
0.0
 30
0.0
  9
$PUCSORGRIGHT
 10
0.0
 20
0.0
 30
0.0
  9
$PUCSORGFRONT
 10
0.0
 20
0.0
 30
0.0
  9
$PUCSORGBACK
 10
0.0
 20
0.0
 30
0.0
  9
$USERI1
 70
     0
  9
$USERI2
 70
     0
  9
$USERI3
 70
     0
  9
$USERI4
 70
     0
  9
$USERI5
 70
     0
  9
$USERR1
 40
0.0
  9
$USERR2
 40
0.0
  9
$USERR3
 40
0.0
  9
$USERR4
 40
0.0
  9
$USERR5
 40
0.0
  9
$WORLDVIEW
 70
     1
  9
$SHADEDGE
 70
     3
  9
$SHADEDIF
 70
    70
  9
$TILEMODE
 70
     1
  9
$MAXACTVP
 70
    48
  9
$PINSBASE
 10
0.0
 20
0.0
 30
0.0
  9
$PLIMCHECK
 70
     0
  9
$PEXTMIN
 10
1.000000000000000E+20
 20
1.000000000000000E+20
 30
1.000000000000000E+20
  9
$PEXTMAX
 10
-1.000000000000000E+20
 20
-1.000000000000000E+20
 30
-1.000000000000000E+20
  9
$PLIMMIN
 10
0.0
 20
0.0
  9
$PLIMMAX
 10
420.0
 20
297.0
  9
$UNITMODE
 70
     0
  9
$VISRETAIN
 70
     1
  9
$PLINEGEN
 70
     0
  9
$PSLTSCALE
 70
     1
  9
$TREEDEPTH
 70
  3020
  9
$CMLSTYLE
  2
STANDARD
  9
$CMLJUST
 70
     0
  9
$CMLSCALE
 40
20.0
  9
$PROXYGRAPHICS
 70
     1
  9
$MEASUREMENT
 70
     1
  9
$CELWEIGHT
370
    -1
  9
$ENDCAPS
280
     0
  9
$JOINSTYLE
280
     0
  9
$LWDISPLAY
290
     0
  9
$INSUNITS
 70
     0
  9
$HYPERLINKBASE
  1

  9
$STYLESHEET
  1

  9
$XEDIT
290
     1
  9
$CEPSNTYPE
380
     0
  9
$PSTYLEMODE
290
     1
  9
$FINGERPRINTGUID
  2
{4DF694B8-C291-44CC-A47C-50F9D900BDCB}
  9
$VERSIONGUID
  2
{634423DA-27AF-40AD-B164-4ADAA7F441DB}
  9
$EXTNAMES
290
     1
  9
$PSVPSCALE
 40
0.0
  9
$OLESTARTUP
290
     0
  0
ENDSEC
  0
SECTION
  2
CLASSES
  0
CLASS
  1
HATCH
  2
AcDbHatch
  3
AutoCAD 2000
 90
    32768
280
     0
281
     1
  0
CLASS
  1
DICTIONARYVAR
  2
AcDbDictionaryVar
  3
AutoCAD 2000
 90
        0
280
     0
281
     0
  0
CLASS
  1
LWPOLYLINE
  2
AcDbPolyline
  3
AutoCAD 2000
 90
    32768
280
     0
281
     1
  0
CLASS
  1
ACDBDICTIONARYWDFLT
  2
AcDbDictionaryWithDefault
  3
AutoCAD 2000
 90
        0
280
     0
281
     0
  0
CLASS
  1
ACDBPLACEHOLDER
  2
AcDbPlaceHolder
  3
AutoCAD 2000
 90
        0
280
     0
281
     0
  0
CLASS
  1
LAYOUT
  2
AcDbLayout
  3
AutoCAD 2000
 90
        0
280
     0
281
     0
  0
ENDSEC
  0
SECTION
  2
TABLES
  0
TABLE
  2
VPORT
  5
8
330
0
100
AcDbSymbolTable
 70
     2
  0
VPORT
  5
3D1E
330
8
100
AcDbSymbolTableRecord
100
AcDbViewportTableRecord
  2
*Active
 70
     0
 10
0.0
 20
0.0
 11
1.0
 21
1.0
 12
125.4442332177338
 22
54.90963817747307
 13
0.0
 23
0.0
 14
10.0
 24
10.0
 15
10.0
 25
10.0
 16
0.0
 26
0.0
 36
1.0
 17
0.0
 27
0.0
 37
0.0
 40
198.0744613365129
 41
1.593790426908149
 42
50.0
 43
0.0
 44
0.0
 50
0.0
 51
0.0
 71
     0
 72
   100
 73
     1
 74
     1
 75
     0
 76
     0
 77
     0
 78
     0
281
     0
 65
     1
110
0.0
120
0.0
130
0.0
111
1.0
121
0.0
131
0.0
112
0.0
122
1.0
132
0.0
 79
     0
146
0.0
  0
ENDTAB
  0
TABLE
  2
LTYPE
  5
5
330
0
100
AcDbSymbolTable
 70
     4
  0
LTYPE
  5
12
330
5
100
AcDbSymbolTableRecord
100
AcDbLinetypeTableRecord
  2
BYBLOCK
 70
     0
  3

 72
    65
 73
     0
 40
0.0
  0
LTYPE
  5
13
330
5
100
AcDbSymbolTableRecord
100
AcDbLinetypeTableRecord
  2
BYLAYER
 70
     0
  3

 72
    65
 73
     0
 40
0.0
  0
LTYPE
  5
14
330
5
100
AcDbSymbolTableRecord
100
AcDbLinetypeTableRecord
  2
CONTINUOUS
 70
     0
  3
Solid line
 72
    65
 73
     0
 40
0.0
  0
ENDTAB
  0
TABLE
  2
LAYER
  5
2
330
0
100
AcDbSymbolTable
 70
     9
  0
LAYER
  5
E
330
2
100
AcDbSymbolTableRecord
100
AcDbLayerTableRecord
  2
0
 70
     0
 62
     7
  6
CONTINUOUS
370
    -3
390
35CB
  0
LAYER
  5
20
330
2
100
AcDbSymbolTableRecord
100
AcDbLayerTableRecord
  2
1外形線
 70
     0
 62
     3
  6
CONTINUOUS
370
    -3
390
35CB
  0
LAYER
  5
21
330
2
100
AcDbSymbolTableRecord
100
AcDbLayerTableRecord
  2
2寸法線
 70
     0
 62
     2
  6
CONTINUOUS
370
    -3
390
35CB
  0
LAYER
  5
94
330
2
100
AcDbSymbolTableRecord
100
AcDbLayerTableRecord
  2
DEFPOINTS
 70
     0
 62
     7
  6
CONTINUOUS
290
     0
370
    -3
390
35CB
  0
LAYER
  5
95D
330
2
100
AcDbSymbolTableRecord
100
AcDbLayerTableRecord
  2
ベース
 70
     0
 62
     3
  6
CONTINUOUS
370
    -3
390
35CB
  0
ENDTAB
  0
TABLE
  2
STYLE
  5
3
330
0
100
AcDbSymbolTable
 70
     4
  0
STYLE
  5
F
330
3
100
AcDbSymbolTableRecord
100
AcDbTextStyleTableRecord
  2
STANDARD
 70
     0
 40
0.0
 41
1.0
 50
0.0
 71
     0
 42
2.5
  3
txt
  4

  0
STYLE
  5
30
330
3
100
AcDbSymbolTableRecord
100
AcDbTextStyleTableRecord
  2
KANJI
 70
     0
 40
0.0
 41
1.0
 50
0.0
 71
     0
 42
2.5
  3
simplex.shx
  4
bigfont.shx
  0
ENDTAB
  0
TABLE
  2
VIEW
  5
6
330
0
100
AcDbSymbolTable
 70
     0
  0
ENDTAB
  0
TABLE
  2
UCS
  5
7
330
0
100
AcDbSymbolTable
 70
     0
  0
ENDTAB
  0
TABLE
  2
APPID
  5
9
330
0
100
AcDbSymbolTable
 70
     1
  0
APPID
  5
10
330
9
100
AcDbSymbolTableRecord
100
AcDbRegAppTableRecord
  2
ACAD
 70
     0
  0
ENDTAB
  0
TABLE
  2
DIMSTYLE
  5
A
330
0
100
AcDbSymbolTable
 70
     4
100
AcDbDimStyleTable
 71
     1
340
E2
  0
DIMSTYLE
105
1D
330
A
100
AcDbSymbolTableRecord
100
AcDbDimStyleTableRecord
  2
STANDARD
 70
     0
 73
     0
 74
     0
172
     1
340
F
  0
DIMSTYLE
105
E2
102
{ACAD_REACTORS
330
95F
330
96A
330
B52
330
B53
330
B54
330
B59
330
B5A
330
B79
330
B7E
330
B7F
330
B80
330
B8C
330
B94
330
2419
330
241A
330
29AE
330
29AF
330
29B0
330
29C3
330
2B3D
102
}
330
A
100
AcDbSymbolTableRecord
100
AcDbDimStyleTableRecord
  2
M
 70
     0
 40
0.0
 41
2.0
 42
1.0
 43
0.0
 44
1.0
 73
     0
 74
     0
 77
     1
 78
     8
140
2.5
141
0.0
147
0.5
172
     1
173
     1
284
     8
340
30
341
74
343
74
344
74
  0
ENDTAB
  0
TABLE
  2
BLOCK_RECORD
  5
1
330
0
100
AcDbSymbolTable
 70
    92
  0
BLOCK_RECORD
  5
18
330
1
100
AcDbSymbolTableRecord
100
AcDbBlockTableRecord
  2
*MODEL_SPACE
340
35CE
  0
BLOCK_RECORD
  5
15
330
1
100
AcDbSymbolTableRecord
100
AcDbBlockTableRecord
  2
*PAPER_SPACE
340
35CF
  0
BLOCK_RECORD
  5
74
330
1
100
AcDbSymbolTableRecord
100
AcDbBlockTableRecord
  2
2
340
0
102
{BLKREFS
331
949
331
94A
331
955
331
956
331
23F9
331
23FA
331
EF3
331
EF4
331
AB2
331
ABB
331
AC4
331
AC5
331
AD2
331
AD3
331
ADE
331
ADF
331
AEA
331
AEB
331
AF6
331
AF7
331
B02
331
B03
331
B0E
331
B0F
331
B1A
331
B1B
331
B26
331
B2F
331
B30
331
B3D
331
B3E
331
B49
331
B4A
331
F66
331
F67
331
F89
331
F8A
331
FE5
331
FE6
331
FC1
331
FC2
331
FCE
331
FCF
331
2404
331
2405
331
2410
331
2411
331
2940
331
2941
331
294D
331
294E
331
2973
331
2974
331
297F
331
2980
331
298B
331
298C
331
2997
331
2998
331
29A5
331
29A6
331
3452
331
3453
331
33F0
331
33F1
331
33C0
331
33C1
331
3372
331
3373
331
337E
331
337F
331
338A
331
338B
331
342A
331
342B
331
3436
331
3437
331
3443
331
3444
331
3571
331
3572
331
357D
331
357E
331
358B
331
358C
331
3597
331
3598
331
35A3
331
35A4
331
35AF
331
35B0
331
2D46
331
2D47
331
2D52
331
2D53
331
2D5E
331
2D5F
331
2D6C
331
2D6D
331
2D78
331
2D79
331
2D83
331
2D84
331
2D8E
331
2D8F
331
2D99
331
2D9A
331
2DA6
331
2DA7
331
2DB1
331
2DB2
331
3340
331
3341
331
334C
331
334D
331
335A
331
335B
331
3366
331
3367
331
3396
331
3397
331
33A2
331
33A3
331
33B0
331
33B1
331
33CF
331
33D0
331
33DA
331
33DB
331
33E5
331
33E6
331
3401
331
3402
331
3413
331
3414
331
341F
331
3420
331
36FA
331
36FB
331
3706
331
3707
331
3712
331
3713
331
3720
331
3721
331
372C
331
372D
331
3738
331
3739
331
3744
331
3745
331
3750
331
3751
331
375C
331
375D
331
3767
331
3768
331
3770
331
3771
331
3779
331
377A
331
3784
331
3785
331
378D
331
378E
331
3796
331
3797
331
379F
331
37A0
331
37A8
331
37A9
331
37B1
331
37B2
331
37CB
331
37CC
331
37EF
331
37F0
331
37E3
331
37E4
331
37D7
331
37D8
331
3B9D
331
3B9E
331
3BA9
331
3BAA
331
3BB5
331
3BB6
331
3BC1
331
3BC2
331
3BCC
331
3BCD
331
3BD5
331
3BD6
331
3BDE
331
3BDF
331
3BE7
331
3BE8
331
3C2F
331
3C38
331
3C09
331
3C0A
331
3BFD
331
3BFE
331
3BF1
331
3BF2
331
3C17
331
3C18
331
3C23
331
3C24
331
3C81
331
3C82
331
3C8D
331
3C8E
331
3C99
331
3C9A
331
3CA7
331
3CA8
331
3CB3
331
3CB4
331
3CBF
331
3CC8
331
3CD0
331
3CD1
331
3CD9
331
3CDA
331
3CE2
331
3CE3
331
3CED
331
3CEE
331
3CF6
331
3CF7
331
3CFF
331
3D05
102
}
  0
ENDTAB
  0
ENDSEC
  0
SECTION
  2
BLOCKS
  0
BLOCK
  5
19
330
18
100
AcDbEntity
  8
0
100
AcDbBlockBegin
  2
*MODEL_SPACE
 70
     0
 10
0.0
 20
0.0
 30
0.0
  3
*MODEL_SPACE
  1

  0
ENDBLK
  5
1A
330
18
100
AcDbEntity
  8
0
100
AcDbBlockEnd
  0
BLOCK
  5
16
330
15
100
AcDbEntity
 67
     1
  8
0
100
AcDbBlockBegin
  2
*PAPER_SPACE
 70
     0
 10
0.0
 20
0.0
 30
0.0
  3
*PAPER_SPACE
  1

  0
ENDBLK
  5
17
330
15
100
AcDbEntity
 67
     1
  8
0
100
AcDbBlockEnd
  0
BLOCK
  5
130
330
74
100
AcDbEntity
  8
0
 48
3.0
100
AcDbBlockBegin
  2
2
 70
     0
 10
0.0
 20
0.0
 30
0.0
  3
2
  1

  0
HATCH
  5
131
330
74
100
AcDbEntity
  8
0
  6
ByBlock
 62
     0
 48
3.0
100
AcDbHatch
 10
0.0
 20
0.0
 30
0.0
210
0.0
220
0.0
230
1.0
  2
SOLID
 70
     1
 71
     0
 91
        1
 92
        1
 93
        3
 72
     1
 10
-0.9999999999983517
 20
0.2679491924306774
 11
0.0
 21
0.0
 72
     1
 10
0.0
 20
0.0
 11
-0.9999999999983517
 21
-0.2679491924306765
 72
     1
 10
-0.9999999999983524
 20
-0.267949192430676
 11
-0.9999999999983524
 21
0.2679491924306774
 97
        0
 75
     0
 76
     1
 98
        1
 10
2.995745117231336
 20
-4.124946096263201
  0
ENDBLK
  5
132
330
74
100
AcDbEntity
  8
0
 48
3.0
100
AcDbBlockEnd
  0
ENDSEC
  0
SECTION
  2
ENTITIES
  0
LINE
  5
39CC
330
18
100
AcDbEntity
  8
ベース
 48
3.0
100
AcDbLine
 10
115.2603723151659
 20
90.99999999999909
 30
0.0
 11
139.160372315166
 21
90.99999999999909
 31
0.0
  0
LINE
  5
39CD
330
18
100
AcDbEntity
  8
ベース
 48
3.0
100
AcDbLine
 10
115.2603723151655
 20
18.99999999999909
 30
0.0
 11
139.160372315166
 21
18.99999999999909
 31
0.0
  0
LINE
  5
39D0
330
18
100
AcDbEntity
  8
ベース
 48
3.0
100
AcDbLine
 10
116.2454848088386
 20
90.99999999999818
 30
0.0
 11
139.160372315166
 21
90.99999999999909
 31
0.0
  0
LINE
  5
39D3
330
18
100
AcDbEntity
  8
ベース
 48
3.0
100
AcDbLine
 10
116.2454848088386
 20
18.99999999999953
 30
0.0
 11
139.160372315166
 21
18.99999999999909
 31
0.0
  0
ELLIPSE
  5
39D8
330
18
100
AcDbEntity
  8
ベース
 48
3.0
100
AcDbEllipse
 10
139.1603723151664
 20
77.99999999999954
 30
0.0
 11
0.0000000000047748
 21
-33.5940819982427
 31
0.0
210
0.0
220
0.0
230
1.0
 40
0.684644396629224
 41
4.727273103782597
 42
5.967469595178295
  0
ELLIPSE
  5
39D9
330
18
100
AcDbEntity
  8
ベース
 48
3.0
100
AcDbEllipse
 10
139.160372315167
 20
77.99999999999954
 30
0.0
 11
-23.0
 21
0.0
 31
0.0
210
0.0
220
0.0
230
1.0
 40
0.2477916286622392
 41
3.500152450088596
 42
5.924625510680786
  0
LINE
  5
39DB
330
18
100
AcDbEntity
  8
ベース
 48
3.0
100
AcDbLine
 10
113.160372315166
 20
110.0
 30
0.0
 11
113.160372315166
 21
88.99999999999909
 31
0.0
  0
LINE
  5
39DC
330
18
100
AcDbEntity
  8
ベース
 48
3.0
100
AcDbLine
 10
115.2603723151659
 20
90.99999999999909
 30
0.0
 11
114.960372315166
 21
111.0
 31
0.0
  0
ARC
  5
39DE
330
18
100
AcDbEntity
  8
ベース
 48
3.0
100
AcDbCircle
 10
69.00000000000034
 20
91.54058829184441
 30
0.0
 40
3.0
100
AcDbArc
 50
0.0
 51
78.69006752597994
  0
LINE
  5
39DF
330
18
100
AcDbEntity
  8
ベース
 48
3.0
100
AcDbLine
 10
53.1961161351386
 20
95.72116896753504
 30
0.0
 11
69.19611613513905
 21
92.52116896753523
 31
0.0
  0
LINE
  5
39E0
330
18
100
AcDbEntity
  8
ベース
 48
3.0
100
AcDbLine
 10
49.89999999999998
 20
90.99999999999909
 30
0.0
 11
50.20000000000015
 21
110.9999999999994
 31
0.0
  0
LINE
  5
39E1
330
18
100
AcDbEntity
  8
ベース
 48
3.0
100
AcDbLine
 10
52.00000000000034
 20
94.74058829184423
 30
0.0
 11
52.00000000000034
 21
90.0
 31
0.0
  0
LINE
  5
39E4
330
18
100
AcDbEntity
  8
ベース
 48
3.0
100
AcDbLine
 10
0.0000000000003411
 20
110.0
 30
0.0
 11
0.0000000000003411
 21
88.99999999999909
 31
0.0
  0
LINE
  5
39E5
330
18
100
AcDbEntity
  8
ベース
 48
3.0
100
AcDbLine
 10
2.10000000000025
 20
90.99999999999909
 30
0.0
 11
1.800000000000521
 21
111.0
 31
0.0
  0
LINE
  5
39EC
330
18
100
AcDbEntity
  8
ベース
 48
3.0
100
AcDbLine
 10
115.2603723151655
 20
18.99999999999909
 30
0.0
 11
114.9603723151652
 21
-1.0
 31
0.0
  0
LINE
  5
39EE
330
18
100
AcDbEntity
  8
ベース
 48
3.0
100
AcDbLine
 10
52.00000000000091
 20
18.84529946162023
 30
0.0
 11
52.00000000000045
 21
0.0
 31
0.0
  0
LINE
  5
39EF
330
18
100
AcDbEntity
  8
ベース
 48
3.0
100
AcDbLine
 10
49.90000000000009
 20
18.99999999999953
 30
0.0
 11
50.20000000000027
 21
-1.0
 31
0.0
  0
LINE
  5
39F2
330
18
100
AcDbEntity
  8
ベース
 48
3.0
100
AcDbLine
 10
2.099999999999909
 20
18.99999999999909
 30
0.0
 11
1.799999999999726
 21
-1.0
 31
0.0
  0
LINE
  5
39F5
330
18
100
AcDbEntity
  8
ベース
 48
3.0
100
AcDbLine
 10
0.0000000000003411
 20
88.99999999999909
 30
0.0
 11
0.0
 21
0.0
 31
0.0
  0
LINE
  5
39F6
330
18
100
AcDbEntity
  8
ベース
 48
3.0
100
AcDbLine
 10
113.160372315166
 20
88.99999999999909
 30
0.0
 11
113.1603723151656
 21
0.0
 31
0.0
  0
LINE
  5
39F9
330
18
100
AcDbEntity
  8
ベース
 48
3.0
100
AcDbLine
 10
1.0
 20
-1.0
 30
0.0
 11
1.799999999999726
 21
-1.0
 31
0.0
  0
ARC
  5
39FD
330
18
100
AcDbEntity
  8
ベース
 48
3.0
100
AcDbCircle
 10
1.0
 20
0.0
 30
0.0
 40
1.0
100
AcDbArc
 50
180.0
 51
269.9999999999992
  0
LINE
  5
3A00
330
18
100
AcDbEntity
  8
ベース
 48
3.0
100
AcDbLine
 10
51.00000000000045
 20
-1.0
 30
0.0
 11
50.20000000000027
 21
-1.0
 31
0.0
  0
ARC
  5
3A04
330
18
100
AcDbEntity
  8
ベース
 48
3.0
100
AcDbCircle
 10
51.00000000000045
 20
0.0
 30
0.0
 40
1.0
100
AcDbArc
 50
270.0
 51
0.0
  0
LINE
  5
3A05
330
18
100
AcDbEntity
  8
ベース
 48
3.0
100
AcDbLine
 10
114.1603723151656
 20
-1.0
 30
0.0
 11
114.9603723151652
 21
-1.0
 31
0.0
  0
ARC
  5
3A09
330
18
100
AcDbEntity
  8
ベース
 48
3.0
100
AcDbCircle
 10
114.1603723151656
 20
0.0
 30
0.0
 40
1.0
100
AcDbArc
 50
180.0
 51
269.9999999999992
  0
LINE
  5
3A0A
330
18
100
AcDbEntity
  8
ベース
 48
3.0
100
AcDbLine
 10
68.50000000000091
 20
30.68097998000757
 30
0.0
 11
54.0000000000009
 21
22.30940107675792
 31
0.0
  0
LINE
  5
3A0B
330
18
100
AcDbEntity
  8
ベース
 48
3.0
100
AcDbLine
 10
67.50000000000091
 20
32.41303078757664
 30
0.0
 11
46.50000000000136
 21
20.28867513459477
 31
0.0
  0
LINE
  5
3A0C
330
18
100
AcDbEntity
  8
ベース
 48
3.0
100
AcDbLine
 10
68.99999999539365
 20
69.15552330183885
 30
0.0
 11
45.30000000000089
 21
40.91096316284692
 31
0.0
  0
LINE
  5
3A0F
330
18
100
AcDbEntity
  8
ベース
 48
3.0
100
AcDbLine
 10
45.30000000000054
 20
74.67514275981105
 30
0.0
 11
45.30000000000089
 21
40.91096316284692
 31
0.0
  0
LINE
  5
3A11
330
18
100
AcDbEntity
  8
ベース
 48
3.0
100
AcDbLine
 10
4.999999999999545
 20
45.29999999999971
 30
0.0
 11
42.7000000000005
 21
77.01676633268618
 31
0.0
  0
LINE
  5
3A12
330
18
100
AcDbEntity
  8
ベース
 48
3.0
100
AcDbLine
 10
6.026622209581318
 20
44.85687204424175
 30
0.0
 11
42.83434162995489
 21
75.82296849238581
 31
0.0
  0
LINE
  5
3A13
330
18
100
AcDbEntity
  8
ベース
 48
3.0
100
AcDbLine
 10
3.999999999999431
 20
88.99999999999909
 30
0.0
 11
3.999999999999431
 21
44.49999999999954
 31
0.0
  0
LINE
  5
3A14
330
18
100
AcDbEntity
  8
ベース
 48
3.0
100
AcDbLine
 10
5.999999999999431
 20
90.4999999999991
 30
0.0
 11
5.999999999999431
 21
46.18474238655699
 31
0.0
  0
LINE
  5
3A15
330
18
100
AcDbEntity
  8
ベース
 48
3.0
100
AcDbLine
 10
2.000000000000341
 20
88.99999999999909
 30
0.0
 11
2.000000000000454
 21
34.56365476218207
 31
0.0
  0
LINE
  5
3A19
330
18
100
AcDbEntity
  8
ベース
 48
3.0
100
AcDbLine
 10
3.085112493673021
 20
19.0
 30
0.0
 11
26.00000000000044
 21
18.9999999999993
 31
0.0
  0
LINE
  5
3A1B
330
18
100
AcDbEntity
  8
ベース
 48
3.0
100
AcDbLine
 10
49.90000000000009
 20
19.0
 30
0.0
 11
17.99999999999953
 21
18.99999999999909
 31
0.0
  0
LINE
  5
3A1C
330
18
100
AcDbEntity
  8
ベース
 48
3.0
100
AcDbLine
 10
5.960768922830537
 20
20.13590043778504
 30
0.0
 11
2.19615538584776
 21
33.17690427161915
 31
0.0
  0
LINE
  5
3A1D
330
18
100
AcDbEntity
  8
ベース
 48
3.0
100
AcDbLine
 10
2.099999999999909
 20
18.99999999999909
 30
0.0
 11
18.00000000000044
 21
18.99999999999909
 31
0.0
  0
LINE
  5
3A22
330
18
100
AcDbEntity
  8
ベース
 48
3.0
100
AcDbLine
 10
6.000000000000453
 20
18.99999999999909
 30
0.0
 11
6.0
 21
19.85855033967254
 31
0.0
  0
LINE
  5
3A23
330
18
100
AcDbEntity
  8
ベース
 48
3.0
100
AcDbLine
 10
6.000000000000453
 20
18.99999999999909
 30
0.0
 11
6.000000000000453
 21
18.99999999999909
 31
0.0
  0
ARC
  5
3A24
330
18
100
AcDbEntity
  8
ベース
 48
3.0
100
AcDbCircle
 10
5.0
 20
19.85855033967254
 30
0.0
 40
1.0
100
AcDbArc
 50
0.0000000000260551
 51
16.10211375198378
  0
LINE
  5
3A25
330
18
100
AcDbEntity
  8
ベース
 48
3.0
100
AcDbLine
 10
4.999999999999545
 20
45.29999999999971
 30
0.0
 11
5.322330596687378
 21
44.91735325322179
 31
0.0
  0
ARC
  5
3A26
330
18
100
AcDbEntity
  8
ベース
 48
3.0
100
AcDbCircle
 10
7.000000000000453
 20
34.56365476218207
 30
0.0
 40
5.0
100
AcDbArc
 50
180.0
 51
196.1021137519838
  0
ARC
  5
3A27
330
18
100
AcDbEntity
  8
ベース
 48
3.0
100
AcDbCircle
 10
5.704736086232742
 20
45.23948062176669
 30
0.0
 40
0.5
100
AcDbArc
 50
220.1098211904854
 51
310.0736850415986
  0
LINE
  5
3A29
330
18
100
AcDbEntity
  8
ベース
 48
3.0
100
AcDbLine
 10
48.91488750632788
 20
19.0
 30
0.0
 11
26.00000000000044
 21
18.9999999999993
 31
0.0
  0
ARC
  5
3A2C
330
18
100
AcDbEntity
  8
ベース
 48
3.0
100
AcDbCircle
 10
47.00000000000136
 20
19.42264973081046
 30
0.0
 40
1.0
100
AcDbArc
 50
119.9999999999997
 51
180.0
  0
LINE
  5
3A30
330
18
100
AcDbEntity
  8
ベース
 48
3.0
100
AcDbLine
 10
46.00000000000136
 20
18.99999999999909
 30
0.0
 11
46.00000000000136
 21
19.42264973081046
 31
0.0
  0
LINE
  5
3A31
330
18
100
AcDbEntity
  8
ベース
 48
3.0
100
AcDbLine
 10
46.00000000000136
 20
18.99999999999909
 30
0.0
 11
46.00000000000136
 21
19.0
 31
0.0
  0
ARC
  5
3A33
330
18
100
AcDbEntity
  8
ベース
 48
3.0
100
AcDbCircle
 10
56.00000000000091
 20
18.84529946162001
 30
0.0
 40
4.0
100
AcDbArc
 50
119.9999999999997
 51
179.9999999999983
  0
LINE
  5
3A36
330
18
100
AcDbEntity
  8
ベース
 48
3.0
100
AcDbLine
 10
2.10000000000025
 20
90.99999999999909
 30
0.0
 11
26.00000000000033
 21
90.99999999999909
 31
0.0
  0
LINE
  5
3A37
330
18
100
AcDbEntity
  8
ベース
 48
3.0
100
AcDbLine
 10
3.085112493673021
 20
90.99999999999818
 30
0.0
 11
26.00000000000044
 21
90.99999999999909
 31
0.0
  0
LINE
  5
3A41
330
18
100
AcDbEntity
  8
ベース
 48
3.0
100
AcDbLine
 10
2.000000000000341
 20
88.99999999999909
 30
0.0
 11
3.999999999999431
 21
88.99999999999909
 31
0.0
  0
ARC
  5
3A44
330
18
100
AcDbEntity
  8
ベース
 48
3.0
100
AcDbCircle
 10
5.499999999999431
 20
90.4999999999991
 30
0.0
 40
0.5
100
AcDbArc
 50
0.0
 51
90.0
  0
LINE
  5
3A47
330
18
100
AcDbEntity
  8
ベース
 48
3.0
100
AcDbLine
 10
26.00000000000033
 20
90.99999999999909
 30
0.0
 11
49.89999999999998
 21
90.99999999999909
 31
0.0
  0
LINE
  5
3A48
330
18
100
AcDbEntity
  8
ベース
 48
3.0
100
AcDbLine
 10
48.91488750632788
 20
90.99999999999818
 30
0.0
 11
26.00000000000044
 21
90.99999999999909
 31
0.0
  0
LINE
  5
3A4B
330
18
100
AcDbEntity
  8
ベース
 48
3.0
100
AcDbLine
 10
43.00000000000034
 20
87.79289321881242
 30
0.0
 11
43.00000000000034
 21
78.96905780883575
 31
0.0
  0
LINE
  5
3A4C
330
18
100
AcDbEntity
  8
ベース
 48
3.0
100
AcDbLine
 10
46.00000000000034
 20
88.0
 30
0.0
 11
46.00000000000034
 21
79.43536084890796
 31
0.0
  0
ARC
  5
3A50
330
18
100
AcDbEntity
  8
ベース
 48
3.0
100
AcDbCircle
 10
44.70000000000049
 20
77.91549243355075
 30
0.0
 40
2.0
100
AcDbArc
 50
2.408114536516857
 51
180.0
  0
ARC
  5
3A55
330
18
100
AcDbEntity
  8
ベース
 48
3.0
100
AcDbCircle
 10
43.8000000000004
 20
74.67514275981102
 30
0.0
 40
1.5
100
AcDbArc
 50
0.0000000000010856
 51
130.073685041599
  0
ARC
  5
3A58
330
18
100
AcDbEntity
  8
ベース
 48
3.0
100
AcDbCircle
 10
44.70000000000049
 20
78.0
 30
0.0
 40
0.6
100
AcDbArc
 50
180.0
 51
315.0000000000023
  0
CIRCLE
  5
3A5A
330
18
100
AcDbEntity
  8
ベース
 48
3.0
100
AcDbCircle
 10
44.70000000000049
 20
78.0
 30
0.0
 40
0.6
  0
LINE
  5
3A5B
330
18
100
AcDbEntity
  8
ベース
 48
3.0
100
AcDbLine
 10
42.7000000000005
 20
77.91549243355075
 30
0.0
 11
42.7000000000005
 21
77.01676633268618
 31
0.0
  0
ARC
  5
3A5C
330
18
100
AcDbEntity
  8
ベース
 48
3.0
100
AcDbCircle
 10
47.00000000000033
 20
88.0
 30
0.0
 40
1.0
100
AcDbArc
 50
90.0
 51
180.0
  0
LINE
  5
3A5D
330
18
100
AcDbEntity
  8
ベース
 48
3.0
100
AcDbLine
 10
45.85355339059367
 20
90.85355339059242
 30
0.0
 11
43.14644660940699
 21
88.14644660940578
 31
0.0
  0
ARC
  5
3A5E
330
18
100
AcDbEntity
  8
ベース
 48
3.0
100
AcDbCircle
 10
43.50000000000034
 20
87.79289321881242
 30
0.0
 40
0.5
100
AcDbArc
 50
135.0
 51
179.9999999999983
  0
ARC
  5
3A62
330
18
100
AcDbEntity
  8
ベース
 48
3.0
100
AcDbCircle
 10
46.207106781187
 20
90.4999999999991
 30
0.0
 40
0.5
100
AcDbArc
 50
90.0
 51
134.9999999999998
  0
LINE
  5
3A63
330
18
100
AcDbEntity
  8
ベース
 48
3.0
100
AcDbLine
 10
47.00000000000033
 20
89.0
 30
0.0
 11
51.00000000000034
 21
89.0
 31
0.0
  0
ARC
  5
3A65
330
18
100
AcDbEntity
  8
ベース
 48
3.0
100
AcDbCircle
 10
51.00000000000034
 20
90.0
 30
0.0
 40
1.0
100
AcDbArc
 50
270.0
 51
0.0
  0
LINE
  5
3A66
330
18
100
AcDbEntity
  8
ベース
 48
3.0
100
AcDbLine
 10
69.00000000000045
 20
46.99999999999954
 30
0.0
 11
69.0
 21
50.8284271247462
 31
0.0
  0
LINE
  5
3A67
330
18
100
AcDbEntity
  8
ベース
 48
3.0
100
AcDbLine
 10
73.99999999999976
 20
48.46410161513768
 30
0.0
 11
73.99999999999931
 21
45.0
 31
0.0
  0
LINE
  5
3A68
330
18
100
AcDbEntity
  8
ベース
 48
3.0
100
AcDbLine
 10
71.00000000000045
 20
47.99999999999932
 30
0.0
 11
71.00000000000091
 21
39.0
 31
0.0
  0
LINE
  5
3A69
330
18
100
AcDbEntity
  8
ベース
 48
3.0
100
AcDbLine
 10
71.00000000000045
 20
48.96410161513768
 30
0.0
 11
71.0
 21
39.5
 31
0.0
  0
LINE
  5
3A6B
330
18
100
AcDbEntity
  8
ベース
 48
3.0
100
AcDbLine
 10
115.160372315166
 20
88.99999999999909
 30
0.0
 11
115.160372315166
 21
34.56365476218207
 31
0.0
  0
LINE
  5
3A6F
330
18
100
AcDbEntity
  8
ベース
 48
3.0
100
AcDbLine
 10
68.00000000000022
 20
46.94999999999936
 30
0.0
 11
69.000125479247
 21
46.94999999999963
 31
0.0
  0
ARC
  5
3A70
330
18
100
AcDbEntity
  8
ベース
 48
3.0
100
AcDbCircle
 10
65.00000000000091
 20
36.74315780649886
 30
0.0
 40
7.0
100
AcDbArc
 50
299.9999999999997
 51
328.9972808661206
  0
LINE
  5
3A74
330
18
100
AcDbEntity
  8
ベース
 48
3.0
100
AcDbLine
 10
68.00000000000022
 20
39.04999999999972
 30
0.0
 11
68.99998284816049
 21
39.0499999999999
 31
0.0
  0
LINE
  5
3A75
330
18
100
AcDbEntity
  8
ベース
 48
3.0
100
AcDbLine
 10
69.0
 20
38.49999999999953
 30
0.0
 11
69.0
 21
33.74315780649748
 31
0.0
  0
ARC
  5
3A76
330
18
100
AcDbEntity
  8
ベース
 48
3.0
100
AcDbCircle
 10
65.00000000000091
 20
36.74315780649886
 30
0.0
 40
5.0
100
AcDbArc
 50
299.9999999999997
 51
323.130102354138
  0
LINE
  5
3A77
330
18
100
AcDbEntity
  8
ベース
 48
3.0
100
AcDbLine
 10
69.00000000000068
 20
42.49999999999953
 30
0.0
 11
69.00000000000068
 21
37.41293336748276
 31
0.0
  0
LINE
  5
3A78
330
18
100
AcDbEntity
  8
ベース
 48
3.0
100
AcDbLine
 10
69.00012638197541
 20
46.99999999999954
 30
0.0
 11
69.0
 21
39.99999999999953
 31
0.0
  0
LINE
  5
3A79
330
18
100
AcDbEntity
  8
ベース
 48
3.0
100
AcDbLine
 10
67.50000000000046
 20
46.44999999999936
 30
0.0
 11
67.50000000000068
 21
39.5499999999995
 31
0.0
  0
ARC
  5
3A7B
330
18
100
AcDbEntity
  8
ベース
 48
3.0
100
AcDbCircle
 10
68.00000000000022
 20
39.54999999999973
 30
0.0
 40
0.5
100
AcDbArc
 50
180.0
 51
270.000000000013
  0
ARC
  5
3A7E
330
18
100
AcDbEntity
  8
ベース
 48
3.0
100
AcDbCircle
 10
68.00000000000046
 20
46.44999999999936
 30
0.0
 40
0.5
100
AcDbArc
 50
90.00000000001463
 51
180.0
  0
LINE
  5
3A84
330
18
100
AcDbEntity
  8
ベース
 48
3.0
100
AcDbLine
 10
71.00000000000091
 20
41.0
 30
0.0
 11
71.00000000000068
 21
33.13760653103418
 31
0.0
  0
ARC
  5
3A85
330
18
100
AcDbEntity
  8
ベース
 48
3.0
100
AcDbCircle
 10
76.50000000000024
 20
42.0
 30
0.0
 40
0.5
100
AcDbArc
 50
270.0000000000023
 51
0.0000000000097707
  0
LINE
  5
3A86
330
18
100
AcDbEntity
  8
ベース
 48
3.0
100
AcDbLine
 10
71.0
 20
46.49999999999955
 30
0.0
 11
71.0
 21
39.5
 31
0.0
  0
LINE
  5
3A87
330
18
100
AcDbEntity
  8
ベース
 48
3.0
100
AcDbLine
 10
71.0
 20
46.49999999999955
 30
0.0
 11
71.0
 21
39.63383131017508
 31
0.0
  0
LINE
  5
3A88
330
18
100
AcDbEntity
  8
ベース
 48
3.0
100
AcDbLine
 10
71.00000000000045
 20
46.99999999999954
 30
0.0
 11
71.00000000000045
 21
39.0
 31
0.0
  0
LINE
  5
3A89
330
18
100
AcDbEntity
  8
ベース
 48
3.0
100
AcDbLine
 10
71.00000000000045
 20
46.49999999999955
 30
0.0
 11
71.00000000000045
 21
39.63383131017554
 31
0.0
  0
LINE
  5
3A8A
330
18
100
AcDbEntity
  8
ベース
 48
3.0
100
AcDbLine
 10
71.00000000000045
 20
46.49999999999955
 30
0.0
 11
71.00000000000045
 21
39.5
 31
0.0
  0
LINE
  5
3A8B
330
18
100
AcDbEntity
  8
ベース
 48
3.0
100
AcDbLine
 10
71.0
 20
46.49999999999955
 30
0.0
 11
71.0
 21
39.63383131017554
 31
0.0
  0
LINE
  5
3A8C
330
18
100
AcDbEntity
  8
ベース
 48
3.0
100
AcDbLine
 10
71.00000000000045
 20
46.99999999999954
 30
0.0
 11
71.00000000000068
 21
37.03589838486232
 31
0.0
  0
LINE
  5
3A8D
330
18
100
AcDbEntity
  8
ベース
 48
3.0
100
AcDbLine
 10
74.49999999999976
 20
41.5
 30
0.0
 11
76.50000000000024
 21
41.5
 31
0.0
  0
LINE
  5
3A8E
330
18
100
AcDbEntity
  8
ベース
 48
3.0
100
AcDbLine
 10
73.99999999999976
 20
41.0
 30
0.0
 11
74.0
 21
37.53589838486232
 31
0.0
  0
ARC
  5
3A8F
330
18
100
AcDbEntity
  8
ベース
 48
3.0
100
AcDbCircle
 10
74.49999999999976
 20
41.0
 30
0.0
 40
0.5
100
AcDbArc
 50
90.00000000000488
 51
180.0000000000032
  0
ARC
  5
3A90
330
18
100
AcDbEntity
  8
ベース
 48
3.0
100
AcDbCircle
 10
73.5
 20
37.53589838486232
 30
0.0
 40
0.5
100
AcDbArc
 50
270.0000000000023
 51
0.0
  0
LINE
  5
3A91
330
18
100
AcDbEntity
  8
ベース
 48
3.0
100
AcDbLine
 10
71.00000000000068
 20
37.03589838486232
 30
0.0
 11
73.5
 21
37.03589838486232
 31
0.0
  0
LINE
  5
3A93
330
18
100
AcDbEntity
  8
ベース
 48
3.0
100
AcDbLine
 10
74.49999999999931
 20
44.5
 30
0.0
 11
76.49999999999976
 21
44.5
 31
0.0
  0
ARC
  5
3A94
330
18
100
AcDbEntity
  8
ベース
 48
3.0
100
AcDbCircle
 10
74.49999999999931
 20
45.0
 30
0.0
 40
0.5
100
AcDbArc
 50
179.9999999999966
 51
270.0000000000023
  0
ARC
  5
3A96
330
18
100
AcDbEntity
  8
ベース
 48
3.0
100
AcDbCircle
 10
76.49999999999976
 20
44.0
 30
0.0
 40
0.5
100
AcDbArc
 50
0.0000000000081422
 51
90.00000000000246
  0
LINE
  5
3A97
330
18
100
AcDbEntity
  8
ベース
 48
3.0
100
AcDbLine
 10
76.99999999999976
 20
44.0
 30
0.0
 11
77.00000000000024
 21
42.0
 31
0.0
  0
LINE
  5
3A98
330
18
100
AcDbEntity
  8
ベース
 48
3.0
100
AcDbLine
 10
119.1211412379961
 20
20.13590043778504
 30
0.0
 11
115.3565277010134
 21
33.17690427161915
 31
0.0
  0
LINE
  5
3A9A
330
18
100
AcDbEntity
  8
ベース
 48
3.0
100
AcDbLine
 10
119.160372315166
 20
18.99999999999909
 30
0.0
 11
119.1603723151656
 21
19.85855033967254
 31
0.0
  0
LINE
  5
3A9B
330
18
100
AcDbEntity
  8
ベース
 48
3.0
100
AcDbLine
 10
119.160372315166
 20
18.99999999999909
 30
0.0
 11
119.160372315166
 21
18.99999999999909
 31
0.0
  0
ARC
  5
3A9C
330
18
100
AcDbEntity
  8
ベース
 48
3.0
100
AcDbCircle
 10
118.1603723151656
 20
19.85855033967254
 30
0.0
 40
1.0
100
AcDbArc
 50
0.0000000000260551
 51
16.10211375198378
  0
ARC
  5
3A9D
330
18
100
AcDbEntity
  8
ベース
 48
3.0
100
AcDbCircle
 10
120.160372315166
 20
34.56365476218207
 30
0.0
 40
5.0
100
AcDbArc
 50
180.0
 51
196.1021137519838
  0
LINE
  5
3AA3
330
18
100
AcDbEntity
  8
ベース
 48
3.0
100
AcDbLine
 10
70.00000000000091
 20
87.0
 30
0.0
 11
70.00000000000091
 21
51.8284271247462
 31
0.0
  0
LINE
  5
3AA4
330
18
100
AcDbEntity
  8
ベース
 48
3.0
100
AcDbLine
 10
72.00000000000045
 20
89.0
 30
0.0
 11
71.99999999999976
 21
50.99999999999841
 31
0.0
  0
LINE
  5
3AA5
330
18
100
AcDbEntity
  8
ベース
 48
3.0
100
AcDbLine
 10
70.00000000000091
 20
51.8284271247462
 30
0.0
 11
69.0
 21
50.8284271247462
 31
0.0
  0
LINE
  5
3AA6
330
18
100
AcDbEntity
  8
ベース
 48
3.0
100
AcDbLine
 10
71.99999999999976
 20
50.99999999999841
 30
0.0
 11
70.99999999999955
 21
49.99999999999909
 31
0.0
  0
LINE
  5
3AA7
330
18
100
AcDbEntity
  8
ベース
 48
3.0
100
AcDbLine
 10
71.00000000000045
 20
47.99999999999954
 30
0.0
 11
70.99999999999955
 21
49.99999999999909
 31
0.0
  0
LINE
  5
3AA8
330
18
100
AcDbEntity
  8
ベース
 48
3.0
100
AcDbLine
 10
71.00000000000045
 20
48.96410161513768
 30
0.0
 11
73.49999999999976
 21
48.96410161513768
 31
0.0
  0
ARC
  5
3AA9
330
18
100
AcDbEntity
  8
ベース
 48
3.0
100
AcDbCircle
 10
73.49999999999976
 20
48.46410161513768
 30
0.0
 40
0.5
100
AcDbArc
 50
0.0000000000016284
 51
90.0
  0
LINE
  5
3AB2
330
18
100
AcDbEntity
  8
ベース
 48
3.0
100
AcDbLine
 10
70.00000000000068
 20
91.54058829184441
 30
0.0
 11
70.00000000000125
 21
87.0
 31
0.0
  0
ARC
  5
3AB4
330
18
100
AcDbEntity
  8
ベース
 48
3.0
100
AcDbCircle
 10
69.0000000000008
 20
91.54058829184441
 30
0.0
 40
1.0
100
AcDbArc
 50
0.0000000000081422
 51
78.69006752597994
  0
LINE
  5
3AB7
330
18
100
AcDbEntity
  8
ベース
 48
3.0
100
AcDbLine
 10
72.00000000000034
 20
91.54058829184441
 30
0.0
 11
72.00000000000034
 21
89.0
 31
0.0
  0
LINE
  5
3AB9
330
18
100
AcDbEntity
  8
ベース
 48
3.0
100
AcDbLine
 10
117.160372315165
 20
88.99999999999909
 30
0.0
 11
117.1603723151651
 21
79.99999999999954
 31
0.0
  0
LINE
  5
3ABA
330
18
100
AcDbEntity
  8
ベース
 48
3.0
100
AcDbLine
 10
119.160372315165
 20
90.4999999999991
 30
0.0
 11
119.1603723151649
 21
80.8143718960564
 31
0.0
  0
LINE
  5
3AC7
330
18
100
AcDbEntity
  8
ベース
 48
3.0
100
AcDbLine
 10
115.160372315166
 20
88.99999999999909
 30
0.0
 11
117.160372315165
 21
88.99999999999909
 31
0.0
  0
ARC
  5
3ACB
330
18
100
AcDbEntity
  8
ベース
 48
3.0
100
AcDbCircle
 10
118.660372315165
 20
90.4999999999991
 30
0.0
 40
0.5
100
AcDbArc
 50
0.0
 51
90.0
  0
LINE
  5
3ACC
330
18
100
AcDbEntity
  8
ベース
 48
3.0
100
AcDbLine
 10
53.60776772972382
 20
97.67844645405512
 30
0.0
 11
69.5883484054151
 21
94.48233031891687
 31
0.0
  0
LINE
  5
3AD0
330
18
100
AcDbEntity
  8
ベース
 48
3.0
100
AcDbLine
 10
1.00000000000034
 20
111.0
 30
0.0
 11
1.800000000000409
 21
111.0
 31
0.0
  0
ARC
  5
3AD2
330
18
100
AcDbEntity
  8
ベース
 48
3.0
100
AcDbCircle
 10
1.00000000000034
 20
110.0
 30
0.0
 40
1.0
100
AcDbArc
 50
90.0
 51
180.0
  0
LINE
  5
3AD5
330
18
100
AcDbEntity
  8
ベース
 48
3.0
100
AcDbLine
 10
26.00000000000044
 20
111.0
 30
0.0
 11
50.20000000000015
 21
110.9999999999994
 31
0.0
  0
LINE
  5
3AD6
330
18
100
AcDbEntity
  8
ベース
 48
3.0
100
AcDbLine
 10
52.00000000000034
 20
109.9999999999994
 30
0.0
 11
52.00000000000034
 21
99.63960780543722
 31
0.0
  0
ARC
  5
3AD7
330
18
100
AcDbEntity
  8
ベース
 48
3.0
100
AcDbCircle
 10
54.00000000000034
 20
99.63960780543722
 30
0.0
 40
2.0
100
AcDbArc
 50
180.0
 51
258.6900675259799
  0
ARC
  5
3AD8
330
18
100
AcDbEntity
  8
ベース
 48
3.0
100
AcDbCircle
 10
53.00000000000034
 20
94.74058829184423
 30
0.0
 40
1.0
100
AcDbArc
 50
78.69006752597994
 51
180.0
  0
LINE
  5
3ADA
330
18
100
AcDbEntity
  8
ベース
 48
3.0
100
AcDbLine
 10
51.00000000000034
 20
110.9999999999994
 30
0.0
 11
50.20000000000004
 21
110.9999999999994
 31
0.0
  0
ARC
  5
3ADC
330
18
100
AcDbEntity
  8
ベース
 48
3.0
100
AcDbCircle
 10
51.00000000000034
 20
109.9999999999994
 30
0.0
 40
1.0
100
AcDbArc
 50
0.0
 51
90.0
  0
LINE
  5
3AED
330
18
100
AcDbEntity
  8
ベース
 48
3.0
100
AcDbLine
 10
114.160372315166
 20
111.0
 30
0.0
 11
114.960372315166
 21
111.0
 31
0.0
  0
ARC
  5
3AEE
330
18
100
AcDbEntity
  8
ベース
 48
3.0
100
AcDbCircle
 10
114.160372315166
 20
110.0
 30
0.0
 40
1.0
100
AcDbArc
 50
90.0
 51
180.0
  0
LINE
  5
3AEF
330
18
100
AcDbEntity
  8
ベース
 48
3.0
100
AcDbLine
 10
114.160372315166
 20
110.999999999999
 30
0.0
 11
114.9603723151652
 21
110.999999999999
 31
0.0
  0
LINE
  5
3AF1
330
18
100
AcDbEntity
  8
ベース
 48
3.0
100
AcDbLine
 10
165.160372315166
 20
110.0
 30
0.0
 11
165.160372315166
 21
88.99999999999909
 31
0.0
  0
LINE
  5
3AF2
330
18
100
AcDbEntity
  8
ベース
 48
3.0
100
AcDbLine
 10
163.0603723151661
 20
90.99999999999909
 30
0.0
 11
163.3603723151658
 21
111.0
 31
0.0
  0
LINE
  5
3AF6
330
18
100
AcDbEntity
  8
ベース
 48
3.0
100
AcDbLine
 10
163.0603723151665
 20
18.99999999999909
 30
0.0
 11
163.3603723151668
 21
-1.0
 31
0.0
  0
LINE
  5
3AF9
330
18
100
AcDbEntity
  8
ベース
 48
3.0
100
AcDbLine
 10
165.1603723151661
 20
88.99999999999909
 30
0.0
 11
165.1603723151664
 21
0.0
 31
0.0
  0
LINE
  5
3AFB
330
18
100
AcDbEntity
  8
ベース
 48
3.0
100
AcDbLine
 10
139.160372315167
 20
-1.0
 30
0.0
 11
114.9603723151652
 21
-1.0
 31
0.0
  0
LINE
  5
3AFC
330
18
100
AcDbEntity
  8
ベース
 48
3.0
100
AcDbLine
 10
139.160372315167
 20
-1.0
 30
0.0
 11
163.3603723151668
 21
-1.000000000000227
 31
0.0
  0
ARC
  5
3AFE
330
18
100
AcDbEntity
  8
ベース
 48
3.0
100
AcDbCircle
 10
164.1603723151664
 20
0.0
 30
0.0
 40
1.0
100
AcDbArc
 50
270.0000000000008
 51
0.0
  0
LINE
  5
3AFF
330
18
100
AcDbEntity
  8
ベース
 48
3.0
100
AcDbLine
 10
164.1603723151664
 20
-1.0
 30
0.0
 11
163.3603723151669
 21
-1.000000000000227
 31
0.0
  0
LINE
  5
3B0C
330
18
100
AcDbEntity
  8
ベース
 48
3.0
100
AcDbLine
 10
146.3018007437112
 20
40.27903495958025
 30
0.0
 11
146.3018007437112
 21
49.99999999999909
 31
0.0
  0
LINE
  5
3B0D
330
18
100
AcDbEntity
  8
ベース
 48
3.0
100
AcDbLine
 10
143.4103723177956
 20
46.89711431753585
 30
0.0
 11
140.4103723461562
 21
48.62916512173114
 31
0.0
  0
LINE
  5
3B0E
330
18
100
AcDbEntity
  8
ベース
 48
3.0
100
AcDbLine
 10
134.9103723228926
 20
46.89711432074091
 30
0.0
 11
137.9103723461562
 21
48.62916512746642
 31
0.0
  0
LINE
  5
3B0F
330
18
100
AcDbEntity
  8
ベース
 48
3.0
100
AcDbLine
 10
132.0189438866191
 20
40.27903495958025
 30
0.0
 11
132.0189438866191
 21
49.99999999999909
 31
0.0
  0
ELLIPSE
  5
3B10
330
18
100
AcDbEntity
  8
ベース
 48
3.0
100
AcDbEllipse
 10
139.1603723151674
 20
77.99999999999954
 30
0.0
 11
-0.0000000000047748
 21
-33.5940819982427
 31
0.0
210
0.0
220
0.0
230
-1.0
 40
0.684644396629224
 41
4.727273103782597
 42
5.967469595178463
  0
LINE
  5
3B11
330
18
100
AcDbEntity
  8
ベース
 48
3.0
100
AcDbLine
 10
163.160372315166
 20
88.99999999999909
 30
0.0
 11
163.160372315166
 21
34.56365476218207
 31
0.0
  0
LINE
  5
3B12
330
18
100
AcDbEntity
  8
ベース
 48
3.0
100
AcDbLine
 10
163.0603723151665
 20
18.99999999999909
 30
0.0
 11
139.160372315166
 21
18.99999999999909
 31
0.0
  0
LINE
  5
3B15
330
18
100
AcDbEntity
  8
ベース
 48
3.0
100
AcDbLine
 10
162.0752598214934
 20
18.99999999999953
 30
0.0
 11
139.160372315166
 21
18.99999999999909
 31
0.0
  0
LINE
  5
3B1C
330
18
100
AcDbEntity
  8
ベース
 48
3.0
100
AcDbLine
 10
134.1603723151663
 20
44.5
 30
0.0
 11
139.1603723151656
 21
44.5
 31
0.0
  0
LINE
  5
3B1D
330
18
100
AcDbEntity
  8
ベース
 48
3.0
100
AcDbLine
 10
134.1603723151657
 20
41.5
 30
0.0
 11
139.1603723151656
 21
41.5
 31
0.0
  0
LINE
  5
3B1E
330
18
100
AcDbEntity
  8
ベース
 48
3.0
100
AcDbLine
 10
134.910372315166
 20
39.10288568296982
 30
0.0
 11
137.9103722502455
 21
37.37083488231428
 31
0.0
  0
ARC
  5
3B1F
330
18
100
AcDbEntity
  8
ベース
 48
3.0
100
AcDbCircle
 10
139.1603723151652
 20
40.27903495958025
 30
0.0
 40
7.141428428546077
100
AcDbArc
 50
180.0
 51
0.0
  0
ARC
  5
3B20
330
18
100
AcDbEntity
  8
ベース
 48
3.0
100
AcDbCircle
 10
134.1603723151657
 20
42.0
 30
0.0
 40
0.5
100
AcDbArc
 50
180.0
 51
270.0
  0
LINE
  5
3B21
330
18
100
AcDbEntity
  8
ベース
 48
3.0
100
AcDbLine
 10
133.660372315166
 20
43.0
 30
0.0
 11
133.660372315166
 21
41.26794919243093
 31
0.0
  0
ARC
  5
3B22
330
18
100
AcDbEntity
  8
ベース
 48
3.0
100
AcDbCircle
 10
136.160372315166
 20
41.26794919243093
 30
0.0
 40
2.5
100
AcDbArc
 50
180.0
 51
240.0000000000002
  0
ARC
  5
3B23
330
18
100
AcDbEntity
  8
ベース
 48
3.0
100
AcDbCircle
 10
134.1603723151663
 20
44.0
 30
0.0
 40
0.5
100
AcDbArc
 50
89.9999999999992
 51
179.9999999999917
  0
ARC
  5
3B24
330
18
100
AcDbEntity
  8
ベース
 48
3.0
100
AcDbCircle
 10
136.1603723151663
 20
44.73205080681919
 30
0.0
 40
2.5
100
AcDbArc
 50
119.999999795528
 51
180.0
  0
LINE
  5
3B25
330
18
100
AcDbEntity
  8
ベース
 48
3.0
100
AcDbLine
 10
133.660372315166
 20
43.0
 30
0.0
 11
133.6603723151663
 21
44.73205080681919
 31
0.0
  0
ARC
  5
3B26
330
18
100
AcDbEntity
  8
ベース
 48
3.0
100
AcDbCircle
 10
144.160372315166
 20
44.00000000000317
 30
0.0
 40
0.5
100
AcDbArc
 50
0.0
 51
90.00000000003582
  0
ARC
  5
3B27
330
18
100
AcDbEntity
  8
ベース
 48
3.0
100
AcDbCircle
 10
144.160372315166
 20
42.00000000000318
 30
0.0
 40
0.5
100
AcDbArc
 50
270.0000000000341
 51
0.0
  0
ARC
  5
3B28
330
18
100
AcDbEntity
  8
ベース
 48
3.0
100
AcDbCircle
 10
142.160372315166
 20
44.73205080959314
 30
0.0
 40
2.5
100
AcDbArc
 50
0.0
 51
59.99999993041068
  0
ARC
  5
3B29
330
18
100
AcDbEntity
  8
ベース
 48
3.0
100
AcDbCircle
 10
142.160372315166
 20
41.26794919613167
 30
0.0
 40
2.5
100
AcDbArc
 50
299.999999872776
 51
0.0
  0
LINE
  5
3B2A
330
18
100
AcDbEntity
  8
ベース
 48
3.0
100
AcDbLine
 10
144.660372315166
 20
43.0
 30
0.0
 11
144.660372315166
 21
41.26794919613167
 31
0.0
  0
LINE
  5
3B2B
330
18
100
AcDbEntity
  8
ベース
 48
3.0
100
AcDbLine
 10
143.4103723103586
 20
39.10288568389522
 30
0.0
 11
140.4103722522485
 21
37.3708348696441
 31
0.0
  0
LINE
  5
3B2C
330
18
100
AcDbEntity
  8
ベース
 48
3.0
100
AcDbLine
 10
144.1603723151663
 20
41.50000000000318
 30
0.0
 11
139.1603723151674
 21
41.5
 31
0.0
  0
ARC
  5
3B2D
330
18
100
AcDbEntity
  8
ベース
 48
3.0
100
AcDbCircle
 10
139.1603722622195
 20
39.53589838486232
 30
0.0
 40
2.5
100
AcDbArc
 50
239.9999996831231
 51
299.9999997361321
  0
LINE
  5
3B2E
330
18
100
AcDbEntity
  8
ベース
 48
3.0
100
AcDbLine
 10
144.1603723151659
 20
44.50000000000318
 30
0.0
 11
139.1603723151656
 21
44.5
 31
0.0
  0
LINE
  5
3B2F
330
18
100
AcDbEntity
  8
ベース
 48
3.0
100
AcDbLine
 10
144.660372315166
 20
43.0
 30
0.0
 11
144.660372315166
 21
44.73205080959314
 31
0.0
  0
LINE
  5
3B30
330
18
100
AcDbEntity
  8
ベース
 48
3.0
100
AcDbLine
 10
159.199603392336
 20
20.13590043778504
 30
0.0
 11
162.9642169293188
 21
33.17690427161915
 31
0.0
  0
LINE
  5
3B34
330
18
100
AcDbEntity
  8
ベース
 48
3.0
100
AcDbLine
 10
159.160372315166
 20
18.99999999999909
 30
0.0
 11
159.1603723151664
 21
19.85855033967254
 31
0.0
  0
LINE
  5
3B35
330
18
100
AcDbEntity
  8
ベース
 48
3.0
100
AcDbLine
 10
159.160372315166
 20
18.99999999999909
 30
0.0
 11
159.160372315166
 21
18.99999999999909
 31
0.0
  0
ARC
  5
3B36
330
18
100
AcDbEntity
  8
ベース
 48
3.0
100
AcDbCircle
 10
160.1603723151664
 20
19.85855033967254
 30
0.0
 40
1.0
100
AcDbArc
 50
163.8978862480161
 51
179.9999999999739
  0
ARC
  5
3B38
330
18
100
AcDbEntity
  8
ベース
 48
3.0
100
AcDbCircle
 10
158.160372315166
 20
34.56365476218207
 30
0.0
 40
5.0
100
AcDbArc
 50
343.8978862480161
 51
0.0
  0
LINE
  5
3B39
330
18
100
AcDbEntity
  8
ベース
 48
3.0
100
AcDbLine
 10
163.0603723151661
 20
90.99999999999909
 30
0.0
 11
139.160372315166
 21
90.99999999999909
 31
0.0
  0
LINE
  5
3B3A
330
18
100
AcDbEntity
  8
ベース
 48
3.0
100
AcDbLine
 10
162.0752598214934
 20
90.99999999999818
 30
0.0
 11
139.160372315166
 21
90.99999999999909
 31
0.0
  0
ELLIPSE
  5
3B4D
330
18
100
AcDbEntity
  8
ベース
 48
3.0
100
AcDbEllipse
 10
139.1603723151652
 20
49.99999999999909
 30
0.0
 11
-7.141428428546133
 21
0.0
 31
0.0
210
0.0
220
0.0
230
0.9999999999999998
 40
0.140028008402641
 41
3.141592653589792
 42
6.283185307179585
  0
ARC
  5
3B57
330
18
100
AcDbEntity
  8
ベース
 48
3.0
100
AcDbCircle
 10
139.1603723411892
 20
46.46410161513768
 30
0.0
 40
2.5
100
AcDbArc
 50
59.99999986855531
 51
119.999999868554
  0
LINE
  5
3B70
330
18
100
AcDbEntity
  8
ベース
 48
3.0
100
AcDbLine
 10
161.1603723151669
 20
88.99999999999909
 30
0.0
 11
161.1603723151669
 21
79.99999999999954
 31
0.0
  0
LINE
  5
3B71
330
18
100
AcDbEntity
  8
ベース
 48
3.0
100
AcDbLine
 10
159.1603723151669
 20
90.4999999999991
 30
0.0
 11
159.1603723151669
 21
80.81437189605933
 31
0.0
  0
ARC
  5
3B80
330
18
100
AcDbEntity
  8
ベース
 48
3.0
100
AcDbCircle
 10
159.6603723151669
 20
90.4999999999991
 30
0.0
 40
0.5
100
AcDbArc
 50
90.0
 51
180.0
  0
LINE
  5
3B88
330
18
100
AcDbEntity
  8
ベース
 48
3.0
100
AcDbLine
 10
163.160372315166
 20
88.99999999999909
 30
0.0
 11
161.1603723151669
 21
88.99999999999909
 31
0.0
  0
LINE
  5
3B8F
330
18
100
AcDbEntity
  8
ベース
 48
3.0
100
AcDbLine
 10
139.160372315166
 20
110.999999999999
 30
0.0
 11
163.3603723151658
 21
111.0
 31
0.0
  0
ARC
  5
3B93
330
18
100
AcDbEntity
  8
ベース
 48
3.0
100
AcDbCircle
 10
164.160372315166
 20
110.0
 30
0.0
 40
1.0
100
AcDbArc
 50
0.0
 51
90.0
  0
LINE
  5
3B94
330
18
100
AcDbEntity
  8
ベース
 48
3.0
100
AcDbLine
 10
164.160372315166
 20
111.0
 30
0.0
 11
163.3603723151658
 21
111.0
 31
0.0
  0
LINE
  5
3C5F
330
18
100
AcDbEntity
  8
ベース
 48
3.0
100
AcDbLine
 10
199.8447393936178
 20
88.74229636001894
 30
0.0
 11
216.8447393936178
 21
88.74229636001871
 31
0.0
  0
ARC
  5
3C61
330
18
100
AcDbEntity
  8
ベース
 48
3.0
100
AcDbCircle
 10
201.9298518872902
 20
66.74229636001803
 30
0.0
 40
1.0
100
AcDbArc
 50
180.8593722436446
 51
270.0
  0
LINE
  5
3C62
330
18
100
AcDbEntity
  8
ベース
 48
3.0
100
AcDbLine
 10
198.8447393936178
 20
85.74229636001893
 30
0.0
 11
224.8447393936178
 21
85.74229636001893
 31
0.0
  0
LINE
  5
3C66
330
18
100
AcDbEntity
  8
ベース
 48
3.0
100
AcDbLine
 10
198.8447393936178
 20
87.74229636001894
 30
0.0
 11
198.8447393936178
 21
85.74229636001893
 31
0.0
  0
ARC
  5
3C6B
330
18
100
AcDbEntity
  8
ベース
 48
3.0
100
AcDbCircle
 10
199.8447393936178
 20
87.74229636001894
 30
0.0
 40
1.0
100
AcDbArc
 50
90.0
 51
180.0
  0
LINE
  5
3C6F
330
18
100
AcDbEntity
  8
ベース
 48
3.0
100
AcDbLine
 10
250.8447393936178
 20
85.74229636001893
 30
0.0
 11
224.8447393936178
 21
85.74229636001893
 31
0.0
  0
LINE
  5
3C70
330
18
100
AcDbEntity
  8
ベース
 48
3.0
100
AcDbLine
 10
247.7596268999451
 20
65.74229636001803
 30
0.0
 11
224.8447393936178
 21
65.74229636001871
 31
0.0
  0
LINE
  5
3C71
330
18
100
AcDbEntity
  8
ベース
 48
3.0
100
AcDbLine
 10
249.8447393936178
 20
88.74229636001894
 30
0.0
 11
232.8447393936178
 21
88.74229636001871
 31
0.0
  0
LINE
  5
3C72
330
18
100
AcDbEntity
  8
ベース
 48
3.0
100
AcDbLine
 10
201.9298518872903
 20
65.74229636001803
 30
0.0
 11
224.8447393936178
 21
65.74229636001871
 31
0.0
  0
LINE
  5
3C73
330
18
100
AcDbEntity
  8
ベース
 48
3.0
100
AcDbLine
 10
224.8447393936178
 20
88.74229636001871
 30
0.0
 11
216.8447393936178
 21
88.74229636001871
 31
0.0
  0
LINE
  5
3C74
330
18
100
AcDbEntity
  8
ベース
 48
3.0
100
AcDbLine
 10
224.8447393936178
 20
88.74229636001871
 30
0.0
 11
232.8447393936178
 21
88.74229636001871
 31
0.0
  0
LINE
  5
3C76
330
18
100
AcDbEntity
  8
ベース
 48
3.0
100
AcDbLine
 10
250.8447393936178
 20
87.74229636001894
 30
0.0
 11
250.8447393936178
 21
85.74229636001893
 31
0.0
  0
ARC
  5
3C78
330
18
100
AcDbEntity
  8
ベース
 48
3.0
100
AcDbCircle
 10
247.7596268999451
 20
66.74229636001803
 30
0.0
 40
1.0
100
AcDbArc
 50
269.9999999999966
 51
359.1406277563537
  0
ARC
  5
3C7B
330
18
100
AcDbEntity
  8
ベース
 48
3.0
100
AcDbCircle
 10
249.8447393936178
 20
87.74229636001894
 30
0.0
 40
1.0
100
AcDbArc
 50
0.0
 51
90.0
  0
LINE
  5
3D08
330
18
100
AcDbEntity
  8
ベース
 48
3.0
100
AcDbLine
 10
1.800000000000521
 20
111.0
 30
0.0
 11
26.00000000000044
 21
111.0
 31
0.0
  0
LINE
  5
3D09
330
18
100
AcDbEntity
  8
ベース
 48
3.0
100
AcDbLine
 10
5.999999999999431
 20
46.18474238655699
 30
0.0
 11
3.999999999999431
 21
44.49999999999954
 31
0.0
  0
LINE
  5
3D0A
330
18
100
AcDbEntity
  8
ベース
 48
3.0
100
AcDbLine
 10
1.799999999999726
 20
-1.0
 30
0.0
 11
26.00000000000044
 21
-0.9999999999999715
 31
0.0
  0
LINE
  5
3D0B
330
18
100
AcDbEntity
  8
ベース
 48
3.0
100
AcDbLine
 10
26.00000000000044
 20
-0.9999999999999715
 30
0.0
 11
50.20000000000027
 21
-1.0
 31
0.0
  0
LINE
  5
3D0C
330
18
100
AcDbEntity
  8
ベース
 48
3.0
100
AcDbLine
 10
46.69823377884745
 20
77.99952674246833
 30
0.0
 11
68.99999999539364
 21
77.99952674246833
 31
0.0
  0
LINE
  5
3D0D
330
18
100
AcDbEntity
  8
ベース
 48
3.0
100
AcDbLine
 10
68.99999999539364
 20
77.99952674246833
 30
0.0
 11
68.99999999539365
 21
69.15552330183885
 31
0.0
  0
LINE
  5
3D0E
330
18
100
AcDbEntity
  8
ベース
 48
3.0
100
AcDbLine
 10
116.1629199451209
 20
77.49999999999956
 30
0.0
 11
117.6230987272475
 21
79.99999999999954
 31
0.0
  0
LINE
  5
3D0F
330
18
100
AcDbEntity
  8
ベース
 48
3.0
100
AcDbLine
 10
160.6976459030863
 20
79.99999999999956
 30
0.0
 11
162.157824685213
 21
77.49999999999956
 31
0.0
  0
LINE
  5
3D10
330
18
100
AcDbEntity
  8
ベース
 48
3.0
100
AcDbLine
 10
114.960372315166
 20
110.999999999999
 30
0.0
 11
139.160372315167
 21
110.999999999999
 31
0.0
  0
LINE
  5
3D11
330
18
100
AcDbEntity
  8
ベース
 48
3.0
100
AcDbLine
 10
200.9299643683094
 20
66.72729804723331
 30
0.0
 11
200.9299643683094
 21
85.74229636001893
 31
0.0
  0
LINE
  5
3D12
330
18
100
AcDbEntity
  8
ベース
 48
3.0
100
AcDbLine
 10
248.759514418926
 20
66.72729804723329
 30
0.0
 11
248.759514418926
 21
85.74229636001893
 31
0.0
  0
ENDSEC
  0
SECTION
  2
OBJECTS
  0
DICTIONARY
  5
C
330
0
100
AcDbDictionary
281
     1
  3
ACAD_GROUP
350
D
  3
ACAD_LAYOUT
350
35CC
  3
ACAD_MLINESTYLE
350
1B
  3
ACAD_PLOTSETTINGS
350
35CD
  3
ACAD_PLOTSTYLENAME
350
35CA
  3
ACDBVARIABLEDICTIONARY
350
12D
  0
DICTIONARY
  5
D
102
{ACAD_REACTORS
330
C
102
}
330
C
100
AcDbDictionary
281
     1
  0
DICTIONARY
  5
35CC
102
{ACAD_REACTORS
330
C
102
}
330
C
100
AcDbDictionary
281
     1
  3
Model
350
35CE
  3
ﾚｲｱｳﾄ1
350
35CF
  0
DICTIONARY
  5
1B
102
{ACAD_REACTORS
330
C
102
}
330
C
100
AcDbDictionary
281
     1
  3
STANDARD
350
1C
  0
DICTIONARY
  5
35CD
102
{ACAD_REACTORS
330
C
102
}
330
C
100
AcDbDictionary
281
     1
  0
ACDBDICTIONARYWDFLT
  5
35CA
102
{ACAD_REACTORS
330
C
102
}
330
C
100
AcDbDictionary
281
     1
  3
Normal
350
35CB
100
AcDbDictionaryWithDefault
340
35CB
  0
DICTIONARY
  5
12D
102
{ACAD_REACTORS
330
C
102
}
330
C
100
AcDbDictionary
281
     1
  3
DIMASSOC
350
35D5
  3
SORTENTS
350
12E
  0
LAYOUT
  5
35CE
102
{ACAD_REACTORS
330
35CC
102
}
330
35CC
100
AcDbPlotSettings
  1

  2
LBP3970(開発用)
  4

  6

 40
0.0
 41
0.0
 42
0.0
 43
0.0
 44
0.0
 45
0.0
 46
0.0
 47
0.0
 48
0.0
 49
0.0
140
0.0
141
0.0
142
1.0
143
1.0
 70
  1712
 72
     0
 73
     0
 74
     0
  7
1mizukoshi.ctb
 75
     0
147
1.0
148
0.0
149
0.0
100
AcDbLayout
  1
Model
 70
     1
 71
     0
 10
0.0
 20
0.0
 11
12.0
 21
9.0
 12
0.0
 22
0.0
 32
0.0
 14
0.0
 24
0.0
 34
0.0
 15
0.0
 25
0.0
 35
0.0
146
0.0
 13
0.0
 23
0.0
 33
0.0
 16
1.0
 26
0.0
 36
0.0
 17
0.0
 27
1.0
 37
0.0
 76
     0
330
18
  0
LAYOUT
  5
35CF
102
{ACAD_REACTORS
330
35CC
102
}
330
35CC
100
AcDbPlotSettings
  1

  2
LBP3970(開発用)
  4

  6

 40
0.0
 41
0.0
 42
0.0
 43
0.0
 44
0.0
 45
0.0
 46
0.0
 47
0.0
 48
0.0
 49
0.0
140
0.0
141
0.0
142
1.0
143
1.0
 70
   688
 72
     0
 73
     0
 74
     5
  7
1mizukoshi.ctb
 75
    16
147
1.0
148
0.0
149
0.0
100
AcDbLayout
  1
ﾚｲｱｳﾄ1
 70
     1
 71
     1
 10
0.0
 20
0.0
 11
420.0
 21
297.0
 12
0.0
 22
0.0
 32
0.0
 14
1.000000000000000E+20
 24
1.000000000000000E+20
 34
1.000000000000000E+20
 15
-1.000000000000000E+20
 25
-1.000000000000000E+20
 35
-1.000000000000000E+20
146
0.0
 13
0.0
 23
0.0
 33
0.0
 16
1.0
 26
0.0
 36
0.0
 17
0.0
 27
1.0
 37
0.0
 76
     0
330
15
  0
MLINESTYLE
  5
1C
102
{ACAD_REACTORS
330
1B
102
}
330
1B
100
AcDbMlineStyle
  2
STANDARD
 70
     0
  3

 62
   256
 51
90.0
 52
90.0
 71
     2
 49
0.5
 62
   256
  6
BYLAYER
 49
-0.5
 62
   256
  6
BYLAYER
  0
ACDBPLACEHOLDER
  5
35CB
102
{ACAD_REACTORS
330
35CA
102
}
330
35CA
  0
DICTIONARYVAR
  5
35D5
102
{ACAD_REACTORS
330
12D
102
}
330
12D
100
DictionaryVariables
280
     0
  1
1
  0
DICTIONARYVAR
  5
12E
102
{ACAD_REACTORS
330
12D
102
}
330
12D
100
DictionaryVariables
280
     0
  1
96
  0
ENDSEC
  0
EOF
