  0
SECTION
  2
HEADER
  9
$ACADVER
  1
AC1015
  9
$ACADMAINTVER
 70
    20
  9
$DWGCODEPAGE
  3
ANSI_932
  9
$INSBASE
 10
0.0
 20
0.0
 30
0.0
  9
$EXTMIN
 10
320.7558286714248
 20
-8.914949455366965
 30
0.0
  9
$EXTMAX
 10
509.2149670189082
 20
126.0850546049358
 30
0.0
  9
$LIMMIN
 10
0.0
 20
0.0
  9
$LIMMAX
 10
420.0
 20
297.0
  9
$ORTHOMODE
 70
     0
  9
$REGENMODE
 70
     1
  9
$FILLMODE
 70
     1
  9
$QTEXTMODE
 70
     0
  9
$MIRRTEXT
 70
     1
  9
$LTSCALE
 40
1.0
  9
$ATTMODE
 70
     1
  9
$TEXTSIZE
 40
2.5
  9
$TRACEWID
 40
1.0
  9
$TEXTSTYLE
  7
KANJI
  9
$CLAYER
  8
2寸法線
  9
$CELTYPE
  6
BYLAYER
  9
$CECOLOR
 62
   256
  9
$CELTSCALE
 40
3.0
  9
$DISPSILH
 70
     0
  9
$DIMSCALE
 40
0.0
  9
$DIMASZ
 40
1.8
  9
$DIMEXO
 40
1.0
  9
$DIMDLI
 40
0.0
  9
$DIMRND
 40
0.0
  9
$DIMDLE
 40
0.0
  9
$DIMEXE
 40
1.0
  9
$DIMTP
 40
0.0
  9
$DIMTM
 40
0.0
  9
$DIMTXT
 40
2.5
  9
$DIMCEN
 40
0.0
  9
$DIMTSZ
 40
0.0
  9
$DIMTOL
 70
     0
  9
$DIMLIM
 70
     0
  9
$DIMTIH
 70
     0
  9
$DIMTOH
 70
     0
  9
$DIMSE1
 70
     0
  9
$DIMSE2
 70
     0
  9
$DIMTAD
 70
     1
  9
$DIMZIN
 70
     8
  9
$DIMBLK
  1

  9
$DIMASO
 70
     1
  9
$DIMSHO
 70
     1
  9
$DIMPOST
  1

  9
$DIMAPOST
  1

  9
$DIMALT
 70
     0
  9
$DIMALTD
 70
     2
  9
$DIMALTF
 40
25.4
  9
$DIMLFAC
 40
1.0
  9
$DIMTOFL
 70
     1
  9
$DIMTVP
 40
0.0
  9
$DIMTIX
 70
     0
  9
$DIMSOXD
 70
     0
  9
$DIMSAH
 70
     1
  9
$DIMBLK1
  1
2
  9
$DIMBLK2
  1
2
  9
$DIMSTYLE
  2
M
  9
$DIMCLRD
 70
     0
  9
$DIMCLRE
 70
     0
  9
$DIMCLRT
 70
     0
  9
$DIMTFAC
 40
1.0
  9
$DIMGAP
 40
0.5
  9
$DIMJUST
 70
     0
  9
$DIMSD1
 70
     0
  9
$DIMSD2
 70
     0
  9
$DIMTOLJ
 70
     1
  9
$DIMTZIN
 70
     8
  9
$DIMALTZ
 70
     0
  9
$DIMALTTZ
 70
     0
  9
$DIMUPT
 70
     0
  9
$DIMDEC
 70
     4
  9
$DIMTDEC
 70
     4
  9
$DIMALTU
 70
     2
  9
$DIMALTTD
 70
     2
  9
$DIMTXSTY
  7
KANJI
  9
$DIMAUNIT
 70
     0
  9
$DIMADEC
 70
     0
  9
$DIMALTRND
 40
0.0
  9
$DIMAZIN
 70
     0
  9
$DIMDSEP
 70
    46
  9
$DIMATFIT
 70
     3
  9
$DIMFRAC
 70
     0
  9
$DIMLDRBLK
  1
2
  9
$DIMLUNIT
 70
     2
  9
$DIMLWD
 70
    -2
  9
$DIMLWE
 70
    -2
  9
$DIMTMOVE
 70
     0
  9
$LUNITS
 70
     2
  9
$LUPREC
 70
     3
  9
$SKETCHINC
 40
1.0
  9
$FILLETRAD
 40
0.5
  9
$AUNITS
 70
     0
  9
$AUPREC
 70
     1
  9
$MENU
  1
.
  9
$ELEVATION
 40
0.0
  9
$PELEVATION
 40
0.0
  9
$THICKNESS
 40
0.0
  9
$LIMCHECK
 70
     0
  9
$CHAMFERA
 40
10.0
  9
$CHAMFERB
 40
10.0
  9
$CHAMFERC
 40
20.0
  9
$CHAMFERD
 40
0.0
  9
$SKPOLY
 70
     0
  9
$TDCREATE
 40
2452408.400460579
  9
$TDUCREATE
 40
2452408.025460579
  9
$TDUPDATE
 40
2458571.543539167
  9
$TDUUPDATE
 40
2458571.168539167
  9
$TDINDWG
 40
0.2475421875
  9
$TDUSRTIMER
 40
0.2475420139
  9
$USRTIMER
 70
     1
  9
$ANGBASE
 50
0.0
  9
$ANGDIR
 70
     0
  9
$PDMODE
 70
     0
  9
$PDSIZE
 40
0.0
  9
$PLINEWID
 40
0.0
  9
$SPLFRAME
 70
     0
  9
$SPLINETYPE
 70
     6
  9
$SPLINESEGS
 70
     8
  9
$HANDSEED
  5
41FD
  9
$SURFTAB1
 70
     6
  9
$SURFTAB2
 70
     6
  9
$SURFTYPE
 70
     6
  9
$SURFU
 70
     6
  9
$SURFV
 70
     6
  9
$UCSBASE
  2

  9
$UCSNAME
  2

  9
$UCSORG
 10
0.0
 20
0.0
 30
0.0
  9
$UCSXDIR
 10
1.0
 20
0.0
 30
0.0
  9
$UCSYDIR
 10
0.0
 20
1.0
 30
0.0
  9
$UCSORTHOREF
  2

  9
$UCSORTHOVIEW
 70
     0
  9
$UCSORGTOP
 10
0.0
 20
0.0
 30
0.0
  9
$UCSORGBOTTOM
 10
0.0
 20
0.0
 30
0.0
  9
$UCSORGLEFT
 10
0.0
 20
0.0
 30
0.0
  9
$UCSORGRIGHT
 10
0.0
 20
0.0
 30
0.0
  9
$UCSORGFRONT
 10
0.0
 20
0.0
 30
0.0
  9
$UCSORGBACK
 10
0.0
 20
0.0
 30
0.0
  9
$PUCSBASE
  2

  9
$PUCSNAME
  2

  9
$PUCSORG
 10
0.0
 20
0.0
 30
0.0
  9
$PUCSXDIR
 10
1.0
 20
0.0
 30
0.0
  9
$PUCSYDIR
 10
0.0
 20
1.0
 30
0.0
  9
$PUCSORTHOREF
  2

  9
$PUCSORTHOVIEW
 70
     0
  9
$PUCSORGTOP
 10
0.0
 20
0.0
 30
0.0
  9
$PUCSORGBOTTOM
 10
0.0
 20
0.0
 30
0.0
  9
$PUCSORGLEFT
 10
0.0
 20
0.0
 30
0.0
  9
$PUCSORGRIGHT
 10
0.0
 20
0.0
 30
0.0
  9
$PUCSORGFRONT
 10
0.0
 20
0.0
 30
0.0
  9
$PUCSORGBACK
 10
0.0
 20
0.0
 30
0.0
  9
$USERI1
 70
     0
  9
$USERI2
 70
     0
  9
$USERI3
 70
     0
  9
$USERI4
 70
     0
  9
$USERI5
 70
     0
  9
$USERR1
 40
0.0
  9
$USERR2
 40
0.0
  9
$USERR3
 40
0.0
  9
$USERR4
 40
0.0
  9
$USERR5
 40
0.0
  9
$WORLDVIEW
 70
     1
  9
$SHADEDGE
 70
     3
  9
$SHADEDIF
 70
    70
  9
$TILEMODE
 70
     1
  9
$MAXACTVP
 70
    48
  9
$PINSBASE
 10
0.0
 20
0.0
 30
0.0
  9
$PLIMCHECK
 70
     0
  9
$PEXTMIN
 10
1.000000000000000E+20
 20
1.000000000000000E+20
 30
1.000000000000000E+20
  9
$PEXTMAX
 10
-1.000000000000000E+20
 20
-1.000000000000000E+20
 30
-1.000000000000000E+20
  9
$PLIMMIN
 10
0.0
 20
0.0
  9
$PLIMMAX
 10
420.0
 20
297.0
  9
$UNITMODE
 70
     0
  9
$VISRETAIN
 70
     1
  9
$PLINEGEN
 70
     0
  9
$PSLTSCALE
 70
     1
  9
$TREEDEPTH
 70
  3020
  9
$CMLSTYLE
  2
STANDARD
  9
$CMLJUST
 70
     0
  9
$CMLSCALE
 40
20.0
  9
$PROXYGRAPHICS
 70
     1
  9
$MEASUREMENT
 70
     1
  9
$CELWEIGHT
370
    -1
  9
$ENDCAPS
280
     0
  9
$JOINSTYLE
280
     0
  9
$LWDISPLAY
290
     0
  9
$INSUNITS
 70
     0
  9
$HYPERLINKBASE
  1

  9
$STYLESHEET
  1

  9
$XEDIT
290
     1
  9
$CEPSNTYPE
380
     0
  9
$PSTYLEMODE
290
     1
  9
$FINGERPRINTGUID
  2
{4DF694B8-C291-44CC-A47C-50F9D900BDCB}
  9
$VERSIONGUID
  2
{CC95CFD7-3416-47DD-BAF0-2BD8D5BC2CB2}
  9
$EXTNAMES
290
     1
  9
$PSVPSCALE
 40
0.0
  9
$OLESTARTUP
290
     0
  0
ENDSEC
  0
SECTION
  2
CLASSES
  0
CLASS
  1
DICTIONARYVAR
  2
AcDbDictionaryVar
  3
ObjectDBX Classes
 90
        0
280
     0
281
     0
  0
CLASS
  1
ACDBDICTIONARYWDFLT
  2
AcDbDictionaryWithDefault
  3
ObjectDBX Classes
 90
        0
280
     0
281
     0
  0
CLASS
  1
ACDBPLACEHOLDER
  2
AcDbPlaceHolder
  3
ObjectDBX Classes
 90
        0
280
     0
281
     0
  0
CLASS
  1
LAYOUT
  2
AcDbLayout
  3
ObjectDBX Classes
 90
        0
280
     0
281
     0
  0
CLASS
  1
MATERIAL
  2
AcDbMaterial
  3
ObjectDBX Classes
 90
     1153
280
     0
281
     0
  0
CLASS
  1
VISUALSTYLE
  2
AcDbVisualStyle
  3
ObjectDBX Classes
 90
     4095
280
     0
281
     0
  0
CLASS
  1
TABLESTYLE
  2
AcDbTableStyle
  3
ObjectDBX Classes
 90
     4095
280
     0
281
     0
  0
CLASS
  1
SCALE
  2
AcDbScale
  3
ObjectDBX Classes
 90
     1153
280
     0
281
     0
  0
CLASS
  1
MLEADERSTYLE
  2
AcDbMLeaderStyle
  3
ACDB_MLEADERSTYLE_CLASS
 90
     4095
280
     0
281
     0
  0
CLASS
  1
SORTENTSTABLE
  2
AcDbSortentsTable
  3
ObjectDBX Classes
 90
        0
280
     0
281
     0
  0
CLASS
  1
CELLSTYLEMAP
  2
AcDbCellStyleMap
  3
ObjectDBX Classes
 90
     1152
280
     0
281
     0
  0
ENDSEC
  0
SECTION
  2
TABLES
  0
TABLE
  2
VPORT
  5
8
330
0
100
AcDbSymbolTable
 70
     1
  0
VPORT
  5
3D1E
330
8
100
AcDbSymbolTableRecord
100
AcDbViewportTableRecord
  2
*Active
 70
     0
 10
0.0
 20
0.0
 11
1.0
 21
1.0
 12
595.6589583550523
 22
94.80427468585748
 13
0.0
 23
0.0
 14
10.0
 24
10.0
 15
10.0
 25
10.0
 16
0.0
 26
0.0
 36
1.0
 17
0.0
 27
0.0
 37
0.0
 40
344.9452988551424
 41
2.270704573547589
 42
50.0
 43
0.0
 44
0.0
 50
0.0
 51
0.0
 71
     0
 72
   100
 73
     1
 74
     1
 75
     0
 76
     0
 77
     0
 78
     0
281
     0
 65
     1
110
0.0
120
0.0
130
0.0
111
1.0
121
0.0
131
0.0
112
0.0
122
1.0
132
0.0
 79
     0
146
0.0
1001
ACAD_NAV_VCDISPLAY
1070
     3
  0
ENDTAB
  0
TABLE
  2
LTYPE
  5
5
330
0
100
AcDbSymbolTable
 70
     8
  0
LTYPE
  5
12
330
5
100
AcDbSymbolTableRecord
100
AcDbLinetypeTableRecord
  2
BYBLOCK
 70
     0
  3

 72
    65
 73
     0
 40
0.0
  0
LTYPE
  5
13
330
5
100
AcDbSymbolTableRecord
100
AcDbLinetypeTableRecord
  2
BYLAYER
 70
     0
  3

 72
    65
 73
     0
 40
0.0
  0
LTYPE
  5
14
330
5
100
AcDbSymbolTableRecord
100
AcDbLinetypeTableRecord
  2
CONTINUOUS
 70
     0
  3
Solid line
 72
    65
 73
     0
 40
0.0
  0
LTYPE
  5
3D8A
330
5
100
AcDbSymbolTableRecord
100
AcDbLinetypeTableRecord
  2
HIDDEN
 70
     0
  3
Hidden __ __ __ __ __ __ __ __ __ __ __ __ __ _
 72
    65
 73
     2
 40
9.524999999999996
 49
6.349999999999997
 74
     0
 49
-3.174999999999998
 74
     0
  0
LTYPE
  5
3D8B
330
5
100
AcDbSymbolTableRecord
100
AcDbLinetypeTableRecord
  2
CENL
 70
     0
  3
(1点鎖線2)------ - ------ - ------ - ------ - -
 72
    65
 73
     4
 40
19.5
 49
15.0
 74
     0
 49
-1.5
 74
     0
 49
1.5
 74
     0
 49
-1.5
 74
     0
  0
LTYPE
  5
3D8C
330
5
100
AcDbSymbolTableRecord
100
AcDbLinetypeTableRecord
  2
DIMENSION
 70
     0
  3
_______________________________________________
 72
    65
 73
     2
 40
0.000000000000002
 49
0.000000000000001
 74
     0
 49
0.000000000000001
 74
     0
  0
LTYPE
  5
3D8D
330
5
100
AcDbSymbolTableRecord
100
AcDbLinetypeTableRecord
  2
破線
 70
     0
  3

 72
    65
 73
     2
 40
5.699999816715717
 49
4.559999853372572
 74
     0
 49
-1.139999963343143
 74
     0
  0
LTYPE
  5
3FAB
330
5
100
AcDbSymbolTableRecord
100
AcDbLinetypeTableRecord
  2
CENS
 70
     0
  3
(1点鎖線1)---- - ---- - ---- - ---- - ---- - --
 72
    65
 73
     4
 40
13.0
 49
10.0
 74
     0
 49
-1.0
 74
     0
 49
1.0
 74
     0
 49
-1.0
 74
     0
  0
LTYPE
  5
3FAC
330
5
100
AcDbSymbolTableRecord
100
AcDbLinetypeTableRecord
  2
PHAL
 70
     0
  3
(2点鎖線2)------ - - ------ - - ------ - - ------ 
 72
    65
 73
     6
 40
22.5
 49
15.0
 74
     0
 49
-1.5
 74
     0
 49
1.5
 74
     0
 49
-1.5
 74
     0
 49
1.5
 74
     0
 49
-1.5
 74
     0
  0
ENDTAB
  0
TABLE
  2
LAYER
  5
2
102
{ACAD_XDICTIONARY
360
3D9C
102
}
330
0
100
AcDbSymbolTable
 70
     8
  0
LAYER
  5
E
102
{ACAD_XDICTIONARY
360
4103
102
}
330
2
100
AcDbSymbolTableRecord
100
AcDbLayerTableRecord
  2
0
 70
     0
 62
     7
  6
CONTINUOUS
370
    -3
390
35CB
  0
LAYER
  5
20
102
{ACAD_XDICTIONARY
360
4105
102
}
330
2
100
AcDbSymbolTableRecord
100
AcDbLayerTableRecord
  2
1外形線
 70
     0
 62
     3
  6
CONTINUOUS
370
    -3
390
35CB
  0
LAYER
  5
21
102
{ACAD_XDICTIONARY
360
4107
102
}
330
2
100
AcDbSymbolTableRecord
100
AcDbLayerTableRecord
  2
2寸法線
 70
     0
 62
     2
  6
CONTINUOUS
370
    -3
390
35CB
  0
LAYER
  5
94
330
2
100
AcDbSymbolTableRecord
100
AcDbLayerTableRecord
  2
DEFPOINTS
 70
     0
 62
     7
  6
CONTINUOUS
290
     0
370
    -3
390
35CB
  0
LAYER
  5
95D
102
{ACAD_XDICTIONARY
360
4109
102
}
330
2
100
AcDbSymbolTableRecord
100
AcDbLayerTableRecord
  2
ベース
 70
     0
 62
     3
  6
CONTINUOUS
370
    -3
390
35CB
  0
LAYER
  5
3D8E
102
{ACAD_XDICTIONARY
360
410B
102
}
330
2
100
AcDbSymbolTableRecord
100
AcDbLayerTableRecord
  2
SUNPOU
 70
     0
 62
     2
  6
CONTINUOUS
370
    -3
390
35CB
  0
LAYER
  5
3D8F
102
{ACAD_XDICTIONARY
360
410D
102
}
330
2
100
AcDbSymbolTableRecord
100
AcDbLayerTableRecord
  2
3補助線
 70
     0
 62
     4
  6
CONTINUOUS
370
    -3
390
35CB
  0
LAYER
  5
3D90
102
{ACAD_XDICTIONARY
360
3D91
102
}
330
2
100
AcDbSymbolTableRecord
100
AcDbLayerTableRecord
  2
Hidden (ISO)
 70
     0
 62
     7
  6
破線
370
    35
390
35CB
  0
ENDTAB
  0
TABLE
  2
STYLE
  5
3
330
0
100
AcDbSymbolTable
 70
     3
  0
STYLE
  5
F
330
3
100
AcDbSymbolTableRecord
100
AcDbTextStyleTableRecord
  2
STANDARD
 70
     0
 40
0.0
 41
1.0
 50
0.0
 71
     0
 42
2.5
  3
txt
  4

  0
STYLE
  5
30
330
3
100
AcDbSymbolTableRecord
100
AcDbTextStyleTableRecord
  2
KANJI
 70
     0
 40
0.0
 41
1.0
 50
0.0
 71
     0
 42
2.5
  3
simplex.shx
  4
bigfont.shx
  0
STYLE
  5
3D92
330
3
100
AcDbSymbolTableRecord
100
AcDbTextStyleTableRecord
  2
ｺﾞｼｯｸ
 70
     0
 40
0.0
 41
1.0
 50
0.0
 71
     0
 42
2.5
  3

  4

1001
ACAD
1000
MS PGothic
1071
    32818
  0
ENDTAB
  0
TABLE
  2
VIEW
  5
6
330
0
100
AcDbSymbolTable
 70
     0
  0
ENDTAB
  0
TABLE
  2
UCS
  5
7
330
0
100
AcDbSymbolTable
 70
     0
  0
ENDTAB
  0
TABLE
  2
APPID
  5
9
330
0
100
AcDbSymbolTable
 70
    10
  0
APPID
  5
10
330
9
100
AcDbSymbolTableRecord
100
AcDbRegAppTableRecord
  2
ACAD
 70
     0
  0
APPID
  5
3D96
330
9
100
AcDbSymbolTableRecord
100
AcDbRegAppTableRecord
  2
ACAD_PSEXT
 70
     0
  0
APPID
  5
3D97
330
9
100
AcDbSymbolTableRecord
100
AcDbRegAppTableRecord
  2
ACAD_NAV_VCDISPLAY
 70
     0
  0
APPID
  5
3D98
330
9
100
AcDbSymbolTableRecord
100
AcDbRegAppTableRecord
  2
ACAD_DSTYLE_DIMJAG
 70
     0
  0
APPID
  5
3D99
330
9
100
AcDbSymbolTableRecord
100
AcDbRegAppTableRecord
  2
ACAD_DSTYLE_DIMBREAK
 70
     0
  0
APPID
  5
3D9A
330
9
100
AcDbSymbolTableRecord
100
AcDbRegAppTableRecord
  2
ACAD_DSTYLE_DIMTALN
 70
     0
  0
APPID
  5
3D9B
330
9
100
AcDbSymbolTableRecord
100
AcDbRegAppTableRecord
  2
ASK_MEN_XD
 70
     0
  0
APPID
  5
3FA2
330
9
100
AcDbSymbolTableRecord
100
AcDbRegAppTableRecord
  2
ACAD_EXEMPT_FROM_CAD_STANDARDS
 70
     0
  0
APPID
  5
4147
330
9
100
AcDbSymbolTableRecord
100
AcDbRegAppTableRecord
  2
ACAD_MLEADERVER
 70
     0
  0
APPID
  5
4169
330
9
100
AcDbSymbolTableRecord
100
AcDbRegAppTableRecord
  2
ACAD_DSTYLE_DIMRADIAL_EXTENSION
 70
     0
  0
ENDTAB
  0
TABLE
  2
DIMSTYLE
  5
A
330
0
100
AcDbSymbolTable
 70
     7
100
AcDbDimStyleTable
 71
     1
340
E2
  0
DIMSTYLE
105
1D
330
A
100
AcDbSymbolTableRecord
100
AcDbDimStyleTableRecord
  2
STANDARD
 70
     0
 73
     0
 74
     0
172
     1
340
F
  0
DIMSTYLE
105
E2
330
A
100
AcDbSymbolTableRecord
100
AcDbDimStyleTableRecord
  2
M
 70
     0
 40
0.0
 41
2.0
 42
1.0
 43
0.0
 44
1.0
 73
     0
 74
     0
 77
     1
 78
     8
140
2.5
141
0.0
147
0.5
172
     1
173
     1
284
     8
340
30
341
74
343
74
344
74
  0
DIMSTYLE
105
3D93
330
A
100
AcDbSymbolTableRecord
100
AcDbDimStyleTableRecord
  2
因幡
 70
     0
 41
2.0
 42
0.1
 43
10.0
 44
1.0
 73
     0
 74
     0
 77
     1
 78
     8
140
3.5
141
2.5
143
0.03937007874016
147
0.6
171
     3
172
     1
176
     2
177
     2
178
     1
271
     2
272
     2
274
     3
283
     0
284
     8
340
3D92
341
74
342
74
1001
ACAD_DSTYLE_DIMJAG
1070
   388
1040
1.5
1001
ACAD_DSTYLE_DIMTALN
1070
   392
1070
     0
  0
DIMSTYLE
105
3D94
330
A
100
AcDbSymbolTableRecord
100
AcDbDimStyleTableRecord
  2
TPC- STANDARD
 70
     0
 40
0.0
 41
1.0
 42
1.0
 43
6.0
 44
1.0
 73
     0
 74
     0
 77
     1
 78
     8
140
2.5
141
0.0
147
0.5
172
     1
173
     1
284
     8
285
     8
286
     8
340
30
341
3D68
343
3D68
344
3D68
  0
DIMSTYLE
105
3D95
330
A
100
AcDbSymbolTableRecord
100
AcDbDimStyleTableRecord
  2
コピー ～ 因幡
 70
     0
 41
2.0
 42
0.1
 43
10.0
 44
1.0
 77
     1
 78
     8
140
3.5
141
2.5
143
0.03937007874016
147
0.6
171
     3
172
     1
176
     2
177
     2
178
     1
271
     2
272
     2
274
     3
283
     0
284
     8
340
3D92
341
74
342
74
1001
ACAD_DSTYLE_DIMBREAK
1070
   391
1040
3.75
1001
ACAD_DSTYLE_DIMJAG
1070
   388
1040
1.5
1001
ACAD_DSTYLE_DIMTALN
1070
   392
1070
     0
  0
DIMSTYLE
105
3FAD
330
A
100
AcDbSymbolTableRecord
100
AcDbDimStyleTableRecord
  2
M図面用
 70
     0
 40
0.0
 41
2.0
 42
1.0
 43
0.0
 44
1.0
 73
     0
 75
     1
 76
     1
 77
     1
 78
     8
140
3.5
141
0.0
147
0.3
173
     1
176
     2
178
     1
284
     8
340
3D92
341
74
343
74
344
74
1001
ACAD_DSTYLE_DIMBREAK
1070
   391
1040
3.75
1001
ACAD_DSTYLE_DIMJAG
1070
   388
1040
1.5
1001
ACAD_DSTYLE_DIMTALN
1070
   392
1070
     0
  0
ENDTAB
  0
TABLE
  2
BLOCK_RECORD
  5
1
330
0
100
AcDbSymbolTable
 70
     8
  0
BLOCK_RECORD
  5
18
102
{ACAD_XDICTIONARY
360
40DD
102
}
330
1
100
AcDbSymbolTableRecord
100
AcDbBlockTableRecord
  2
*MODEL_SPACE
340
35CE
  0
BLOCK_RECORD
  5
15
330
1
100
AcDbSymbolTableRecord
100
AcDbBlockTableRecord
  2
*PAPER_SPACE
340
35CF
  0
BLOCK_RECORD
  5
74
330
1
100
AcDbSymbolTableRecord
100
AcDbBlockTableRecord
  2
2
340
0
102
{BLKREFS
331
3D77
331
3D78
331
3D83
331
3D84
331
3F93
331
3F94
331
3F9C
331
3F9D
102
}
  0
BLOCK_RECORD
  5
3D68
330
1
100
AcDbSymbolTableRecord
100
AcDbBlockTableRecord
  2
1
340
0
  0
BLOCK_RECORD
  5
3D6C
330
1
100
AcDbSymbolTableRecord
100
AcDbBlockTableRecord
  2
_Open
340
0
  0
BLOCK_RECORD
  5
3D72
330
1
100
AcDbSymbolTableRecord
100
AcDbBlockTableRecord
  2
*D3
340
0
  0
BLOCK_RECORD
  5
3D7E
330
1
100
AcDbSymbolTableRecord
100
AcDbBlockTableRecord
  2
*D4
340
0
  0
BLOCK_RECORD
  5
3F78
330
1
100
AcDbSymbolTableRecord
100
AcDbBlockTableRecord
  2
*D5
340
0
  0
BLOCK_RECORD
  5
3F84
330
1
100
AcDbSymbolTableRecord
100
AcDbBlockTableRecord
  2
*D6
340
0
  0
ENDTAB
  0
ENDSEC
  0
SECTION
  2
BLOCKS
  0
BLOCK
  5
19
330
18
100
AcDbEntity
  8
0
100
AcDbBlockBegin
  2
*MODEL_SPACE
 70
     0
 10
0.0
 20
0.0
 30
0.0
  3
*MODEL_SPACE
  1

  0
ENDBLK
  5
1A
330
18
100
AcDbEntity
  8
0
100
AcDbBlockEnd
  0
BLOCK
  5
16
330
15
100
AcDbEntity
 67
     1
  8
0
100
AcDbBlockBegin
  2
*PAPER_SPACE
 70
     0
 10
0.0
 20
0.0
 30
0.0
  3
*PAPER_SPACE
  1

  0
ENDBLK
  5
17
330
15
100
AcDbEntity
 67
     1
  8
0
100
AcDbBlockEnd
  0
BLOCK
  5
130
330
74
100
AcDbEntity
  8
0
 48
3.0
100
AcDbBlockBegin
  2
2
 70
     0
 10
0.0
 20
0.0
 30
0.0
  3
2
  1

  0
HATCH
  5
131
330
74
100
AcDbEntity
  8
0
  6
ByBlock
 62
     0
 48
3.0
100
AcDbHatch
 10
0.0
 20
0.0
 30
0.0
210
0.0
220
0.0
230
1.0
  2
SOLID
 70
     1
 71
     0
 91
        1
 92
        1
 93
        3
 72
     1
 10
-0.9999999999983517
 20
0.2679491924306774
 11
0.0
 21
0.0
 72
     1
 10
0.0
 20
0.0
 11
-0.9999999999983517
 21
-0.2679491924306765
 72
     1
 10
-0.9999999999983524
 20
-0.267949192430676
 11
-0.9999999999983524
 21
0.2679491924306774
 97
        0
 75
     0
 76
     1
 98
        1
 10
2.995745117231336
 20
-4.124946096263201
  0
ENDBLK
  5
132
330
74
100
AcDbEntity
  8
0
 48
3.0
100
AcDbBlockEnd
  0
BLOCK
  5
3D69
330
3D68
100
AcDbEntity
  8
0
 48
2.0
100
AcDbBlockBegin
  2
1
 70
     0
 10
0.0
 20
0.0
 30
0.0
  3
1
  1

  0
SOLID
  5
3D6A
330
3D68
100
AcDbEntity
  8
0
  6
ByBlock
 62
     0
100
AcDbTrace
 10
-1.81111092429205
 20
0.4852857095671653
 30
0.0
 11
-1.81111092429205
 21
-0.4852857095673643
 31
0.0
 12
0.0
 22
0.0
 32
0.0
 13
0.0
 23
0.0
 33
0.0
  0
ENDBLK
  5
3D6B
330
3D68
100
AcDbEntity
  8
0
 48
2.0
100
AcDbBlockEnd
  0
BLOCK
  5
3D6D
330
3D6C
100
AcDbEntity
  8
0
 62
     7
100
AcDbBlockBegin
  2
_Open
 70
     0
 10
0.0
 20
0.0
 30
0.0
  3
_Open
  1

  0
LINE
  5
3D6E
330
3D6C
100
AcDbEntity
  8
0
  6
ByBlock
 62
     0
370
    -2
100
AcDbLine
 10
-1.0
 20
0.1666666666666666
 30
0.0
 11
0.0
 21
0.0
 31
0.0
  0
LINE
  5
3D6F
330
3D6C
100
AcDbEntity
  8
0
  6
ByBlock
 62
     0
370
    -2
100
AcDbLine
 10
-1.0
 20
-0.1666666666666666
 30
0.0
 11
0.0
 21
0.0
 31
0.0
  0
LINE
  5
3D70
330
3D6C
100
AcDbEntity
  8
0
  6
ByBlock
 62
     0
370
    -2
100
AcDbLine
 10
0.0
 20
0.0
 30
0.0
 11
-1.0
 21
0.0
 31
0.0
  0
ENDBLK
  5
3D71
330
3D6C
100
AcDbEntity
  8
0
 62
     7
100
AcDbBlockEnd
  0
BLOCK
  5
3D73
330
3D72
100
AcDbEntity
  8
0
100
AcDbBlockBegin
  2
*D3
 70
     1
 10
0.0
 20
0.0
 30
0.0
  3
*D3
  1

  0
LINE
  5
3D74
330
3D72
100
AcDbEntity
  8
1外形線
 62
     2
370
    -2
100
AcDbLine
 10
42978.00119722269
 20
-14121.84960914244
 30
0.0
 11
42978.00119722269
 21
-14103.46480138939
 31
0.0
  0
LINE
  5
3D75
330
3D72
100
AcDbEntity
  8
1外形線
 62
     2
370
    -2
100
AcDbLine
 10
43038.50119722269
 20
-14121.84960914244
 30
0.0
 11
43038.50119722269
 21
-14103.46480138939
 31
0.0
  0
LINE
  5
3D76
330
3D72
100
AcDbEntity
  8
1外形線
 62
     2
370
    -2
100
AcDbLine
 10
42980.00119722267
 20
-14104.4648013894
 30
0.0
 11
43036.50119722266
 21
-14104.4648013894
 31
0.0
  0
INSERT
  5
3D77
330
3D72
100
AcDbEntity
  8
1外形線
 62
     2
370
    -2
100
AcDbBlockReference
  2
2
 10
42978.00119722269
 20
-14104.4648013894
 30
0.0
 41
2.0
 42
2.0
 43
2.0
 50
180.0
  0
INSERT
  5
3D78
330
3D72
100
AcDbEntity
  8
1外形線
 62
     2
370
    -2
100
AcDbBlockReference
  2
2
 10
43038.50119722269
 20
-14104.4648013894
 30
0.0
 41
2.0
 42
2.0
 43
2.0
  0
MTEXT
  5
3D79
330
3D72
100
AcDbEntity
  8
1外形線
 62
     1
100
AcDbMText
 10
43008.25119722269
 20
-14102.1148013894
 30
0.0
 40
3.5
 41
0.0
 71
     5
 72
     1
  1
%%C60.5
  7
ｺﾞｼｯｸ
 73
     1
 44
1.0
1001
ACAD
1000
MTEXTBEGIN
1070
    73
1070
     1
1070
    44
1040
1.0
1070
    74
1070
     0
1000
MTEXTEND
  0
POINT
  5
3D7A
330
3D72
100
AcDbEntity
  8
DEFPOINTS
 62
     0
100
AcDbPoint
 10
42978.00119722269
 20
-14121.94960914245
 30
0.0
  0
POINT
  5
3D7B
330
3D72
100
AcDbEntity
  8
DEFPOINTS
 62
     0
100
AcDbPoint
 10
43038.50119722269
 20
-14121.94960914245
 30
0.0
  0
POINT
  5
3D7C
330
3D72
100
AcDbEntity
  8
DEFPOINTS
 62
     0
100
AcDbPoint
 10
43038.50119722269
 20
-14104.4648013894
 30
0.0
  0
ENDBLK
  5
3D7D
330
3D72
100
AcDbEntity
  8
0
100
AcDbBlockEnd
  0
BLOCK
  5
3D7F
330
3D7E
100
AcDbEntity
  8
0
100
AcDbBlockBegin
  2
*D4
 70
     1
 10
0.0
 20
0.0
 30
0.0
  3
*D4
  1

  0
LINE
  5
3D80
330
3D7E
100
AcDbEntity
  8
2寸法線
 62
     2
370
    -2
100
AcDbLine
 10
43113.16170119666
 20
-14121.94960526568
 30
0.0
 11
43102.43986403022
 21
-14121.94960526568
 31
0.0
  0
LINE
  5
3D81
330
3D7E
100
AcDbEntity
  8
2寸法線
 62
     2
370
    -2
100
AcDbLine
 10
43113.85113719043
 20
-14256.94960526568
 30
0.0
 11
43102.43986403022
 21
-14256.94960526568
 31
0.0
  0
LINE
  5
3D82
330
3D7E
100
AcDbEntity
  8
2寸法線
 62
     2
370
    -2
100
AcDbLine
 10
43103.43986403021
 20
-14123.94960526568
 30
0.0
 11
43103.43986403021
 21
-14254.94960526568
 31
0.0
  0
INSERT
  5
3D83
330
3D7E
100
AcDbEntity
  8
2寸法線
 62
     2
370
    -2
100
AcDbBlockReference
  2
2
 10
43103.43986403021
 20
-14121.94960526568
 30
0.0
 41
2.0
 42
2.0
 43
2.0
 50
90.0
  0
INSERT
  5
3D84
330
3D7E
100
AcDbEntity
  8
2寸法線
 62
     2
370
    -2
100
AcDbBlockReference
  2
2
 10
43103.43986403021
 20
-14256.94960526568
 30
0.0
 41
2.0
 42
2.0
 43
2.0
 50
270.0
  0
MTEXT
  5
3D85
330
3D7E
100
AcDbEntity
  8
2寸法線
 62
     1
100
AcDbMText
 10
43101.08986403021
 20
-14189.44960526567
 30
0.0
 40
3.5
 41
0.0
 71
     5
 72
     1
  1
135
  7
ｺﾞｼｯｸ
 11
0.0000000000000001
 21
1.0
 31
0.0
 73
     1
 44
1.0
1001
ACAD
1000
MTEXTBEGIN
1070
    73
1070
     1
1070
    44
1040
1.0
1070
    74
1070
     0
1000
MTEXTEND
  0
POINT
  5
3D86
330
3D7E
100
AcDbEntity
  8
DEFPOINTS
 62
     0
100
AcDbPoint
 10
43113.26170119667
 20
-14121.94960526568
 30
0.0
  0
POINT
  5
3D87
330
3D7E
100
AcDbEntity
  8
DEFPOINTS
 62
     0
100
AcDbPoint
 10
43113.95113719043
 20
-14256.94960526568
 30
0.0
  0
POINT
  5
3D88
330
3D7E
100
AcDbEntity
  8
DEFPOINTS
 62
     0
100
AcDbPoint
 10
43103.43986403021
 20
-14256.94960526568
 30
0.0
  0
ENDBLK
  5
3D89
330
3D7E
100
AcDbEntity
  8
0
100
AcDbBlockEnd
  0
BLOCK
  5
3F79
330
3F78
100
AcDbEntity
  8
0
 48
3.0
100
AcDbBlockBegin
  2
*D5
 70
     1
 10
0.0
 20
0.0
 30
0.0
  3
*D5
  1

  0
LINE
  5
3F90
330
3F78
100
AcDbEntity
  8
2寸法線
 62
     2
370
    -2
100
AcDbLine
 10
459.8501205913165
 20
126.0850546049358
 30
0.0
 11
449.1282834248686
 21
126.0850546049358
 31
0.0
  0
LINE
  5
3F91
330
3F78
100
AcDbEntity
  8
2寸法線
 62
     2
370
    -2
100
AcDbLine
 10
460.5395565850741
 20
-8.914945395064137
 30
0.0
 11
449.1282834248686
 21
-8.914945395064133
 31
0.0
  0
LINE
  5
3F92
330
3F78
100
AcDbEntity
  8
2寸法線
 62
     2
370
    -2
100
AcDbLine
 10
450.1282834248686
 20
124.0850546049358
 30
0.0
 11
450.1282834248686
 21
-6.914945395064133
 31
0.0
  0
INSERT
  5
3F93
330
3F78
100
AcDbEntity
  8
2寸法線
 62
     2
370
    -2
100
AcDbBlockReference
  2
2
 10
450.1282834248686
 20
126.0850546049358
 30
0.0
 41
2.0
 42
2.0
 43
2.0
 50
90.0
  0
INSERT
  5
3F94
330
3F78
100
AcDbEntity
  8
2寸法線
 62
     2
370
    -2
100
AcDbBlockReference
  2
2
 10
450.1282834248686
 20
-8.914945395064133
 30
0.0
 41
2.0
 42
2.0
 43
2.0
 50
270.0
  0
MTEXT
  5
3F95
330
3F78
100
AcDbEntity
  8
2寸法線
 62
     1
100
AcDbMText
 10
447.7782834248686
 20
58.58505460493593
 30
0.0
 40
3.5
 41
0.0
 71
     5
 72
     1
  1
135
  7
ｺﾞｼｯｸ
 11
0.0000000000000001
 21
1.0
 31
0.0
 73
     1
 44
1.0
1001
ACAD
1000
MTEXTBEGIN
1070
    73
1070
     1
1070
    44
1040
1.0
1070
    74
1070
     0
1000
MTEXTEND
  0
POINT
  5
3F96
330
3F78
100
AcDbEntity
  8
DEFPOINTS
 62
     0
100
AcDbPoint
 10
459.9501205913165
 20
126.0850546049358
 30
0.0
  0
POINT
  5
3F97
330
3F78
100
AcDbEntity
  8
DEFPOINTS
 62
     0
100
AcDbPoint
 10
460.6395565850744
 20
-8.914945395064137
 30
0.0
  0
POINT
  5
3F98
330
3F78
100
AcDbEntity
  8
DEFPOINTS
 62
     0
100
AcDbPoint
 10
450.1282834248686
 20
-8.914945395064133
 30
0.0
  0
ENDBLK
  5
3F7A
330
3F78
100
AcDbEntity
  8
0
 48
3.0
100
AcDbBlockEnd
  0
BLOCK
  5
3F85
330
3F84
100
AcDbEntity
  8
0
 48
3.0
100
AcDbBlockBegin
  2
*D6
 70
     1
 10
0.0
 20
0.0
 30
0.0
  3
*D6
  1

  0
LINE
  5
3F99
330
3F84
100
AcDbEntity
  8
1外形線
 62
     2
370
    -2
100
AcDbLine
 10
324.6896166173302
 20
126.185050728171
 30
0.0
 11
324.6896166173302
 21
144.5698584812206
 31
0.0
  0
LINE
  5
3F9A
330
3F84
100
AcDbEntity
  8
1外形線
 62
     2
370
    -2
100
AcDbLine
 10
385.1896166173301
 20
126.185050728171
 30
0.0
 11
385.1896166173301
 21
144.5698584812206
 31
0.0
  0
LINE
  5
3F9B
330
3F84
100
AcDbEntity
  8
1外形線
 62
     2
370
    -2
100
AcDbLine
 10
326.6896166173302
 20
143.5698584812206
 30
0.0
 11
383.1896166173301
 21
143.5698584812206
 31
0.0
  0
INSERT
  5
3F9C
330
3F84
100
AcDbEntity
  8
1外形線
 62
     2
370
    -2
100
AcDbBlockReference
  2
2
 10
324.6896166173302
 20
143.5698584812206
 30
0.0
 41
2.0
 42
2.0
 43
2.0
 50
180.0
  0
INSERT
  5
3F9D
330
3F84
100
AcDbEntity
  8
1外形線
 62
     2
370
    -2
100
AcDbBlockReference
  2
2
 10
385.1896166173301
 20
143.5698584812206
 30
0.0
 41
2.0
 42
2.0
 43
2.0
  0
MTEXT
  5
3F9E
330
3F84
100
AcDbEntity
  8
1外形線
 62
     1
100
AcDbMText
 10
354.9396166173301
 20
145.9198584812206
 30
0.0
 40
3.5
 41
0.0
 71
     5
 72
     1
  1
%%C60.5
  7
ｺﾞｼｯｸ
 73
     1
 44
1.0
1001
ACAD
1000
MTEXTBEGIN
1070
    73
1070
     1
1070
    44
1040
1.0
1070
    74
1070
     0
1000
MTEXTEND
  0
POINT
  5
3F9F
330
3F84
100
AcDbEntity
  8
DEFPOINTS
 62
     0
100
AcDbPoint
 10
324.6896166173302
 20
126.085050728171
 30
0.0
  0
POINT
  5
3FA0
330
3F84
100
AcDbEntity
  8
DEFPOINTS
 62
     0
100
AcDbPoint
 10
385.1896166173301
 20
126.085050728171
 30
0.0
  0
POINT
  5
3FA1
330
3F84
100
AcDbEntity
  8
DEFPOINTS
 62
     0
100
AcDbPoint
 10
385.1896166173301
 20
143.5698584812206
 30
0.0
  0
ENDBLK
  5
3F86
330
3F84
100
AcDbEntity
  8
0
 48
3.0
100
AcDbBlockEnd
  0
ENDSEC
  0
SECTION
  2
ENTITIES
  0
SPLINE
  5
3E90
330
18
100
AcDbEntity
  8
1外形線
 48
1.315789580345153
100
AcDbSpline
210
0.0
220
0.0
230
1.0
 70
    24
 71
     3
 72
    10
 73
     6
 74
     0
 42
0.0000000001
 43
0.0000000001
 40
-2.617805636116845
 40
-2.617805636116845
 40
-2.617805636116845
 40
-2.617805636116845
 40
-1.335993882610504
 40
-1.335993882610504
 40
-0.5464693188092096
 40
-0.5464693188092096
 40
-0.5464693188092096
 40
-0.5464693188092096
 10
389.6233983393694
 20
18.63454289462604
 30
0.0
 10
393.3236698826539
 20
20.770896269894
 30
0.0
 10
397.0239414259453
 20
22.907249645162
 30
0.0
 10
403.0033739054395
 20
26.35947757230758
 30
0.0
 10
405.2825348416424
 20
27.67535212418159
 30
0.0
 10
407.5616957778455
 20
28.99122667605741
 30
0.0
  0
SPLINE
  5
3E91
330
18
100
AcDbEntity
  8
1外形線
 48
1.315789580345153
100
AcDbSpline
210
0.0
220
0.0
230
1.0
 70
     8
 71
     3
 72
    12
 73
     8
 74
     0
 42
0.0000000001
 43
0.0000000001
 40
-0.5726147922836712
 40
-0.5726147922836712
 40
-0.5726147922836712
 40
-0.5726147922836712
 40
-0.3937346263232457
 40
-0.3937346263232457
 40
-0.2148544603628196
 40
-0.2148544603628196
 40
0.0
 40
0.0
 40
0.0
 40
0.0
 10
407.5616957778455
 20
28.99122667605741
 30
0.0
 10
408.0780783012142
 20
29.28936034917649
 30
0.0
 10
408.5425592644587
 20
29.66949300324166
 30
0.0
 10
409.3312902152884
 20
30.5639436039736
 30
0.0
 10
409.650317113168
 20
31.07233837020693
 30
0.0
 10
410.1591652834303
 20
32.282129787175
 30
0.0
 10
410.3052360818018
 20
32.99021652278032
 30
0.0
 10
410.31148577776
 20
33.70637078809057
 30
0.0
  0
LINE
  5
3E92
330
18
100
AcDbEntity
  8
1外形線
 48
1.315789580345153
100
AcDbLine
 10
410.31148577776
 20
33.70637078809057
 30
0.0
 11
410.3671509867544
 21
40.08506138693781
 31
0.0
  0
SPLINE
  5
3E94
330
18
100
AcDbEntity
  8
1外形線
 48
1.315789580345153
100
AcDbSpline
210
0.0
220
0.0
230
1.0
 70
     8
 71
     3
 72
    12
 73
     8
 74
     0
 42
0.0000000001
 43
0.0000000001
 40
-0.2082235608304263
 40
-0.2082235608304263
 40
-0.2082235608304263
 40
-0.2082235608304263
 40
-0.1431762277539058
 40
-0.1431762277539058
 40
-0.0781288946773853
 40
-0.0781288946773853
 40
0.0
 40
0.0
 40
0.0
 40
0.0
 10
407.8167212176103
 20
34.31720940897402
 30
0.0
 10
407.8148291179295
 20
34.10039322116324
 30
0.0
 10
407.7776912610478
 20
33.88532051140726
 30
0.0
 10
407.6358366441326
 20
33.47552955859362
 30
0.0
 10
407.5320592657497
 20
33.28352501012604
 30
0.0
 10
407.2402848043183
 20
32.90584904785544
 30
0.0
 10
407.0423362572091
 20
32.73282640211153
 30
0.0
 10
406.8167975812738
 20
32.60261155005254
 30
0.0
  0
SPLINE
  5
3E95
330
18
100
AcDbEntity
  8
1外形線
 48
1.315789580345153
100
AcDbSpline
210
0.0
220
0.0
230
1.0
 70
    24
 71
     3
 72
    10
 73
     6
 74
     0
 42
0.0000000001
 43
0.0000000001
 40
-2.526690881031576
 40
-2.526690881031576
 40
-2.526690881031576
 40
-2.526690881031576
 40
-1.429859840849101
 40
-1.429859840849101
 40
-0.0007582178969361
 40
-0.0007582178969361
 40
-0.0007582178969361
 40
-0.0007582178969361
 10
406.8167975812738
 20
32.60261155005254
 30
0.0
 10
403.6505193234242
 20
30.77455942899621
 30
0.0
 10
400.4842410655744
 20
28.94650730793808
 30
0.0
 10
393.1925020656109
 20
24.73661864384565
 30
0.0
 10
389.0670413234967
 20
22.35478210080771
 30
0.0
 10
384.9415805813824
 20
19.97294555777159
 30
0.0
  0
LINE
  5
3E96
330
18
100
AcDbEntity
  8
1外形線
 48
1.315789580345153
100
AcDbLine
 10
379.9396134360195
 20
17.08505766388123
 30
0.0
 11
379.9396135583793
 21
16.08505766388123
 31
0.0
  0
LINE
  5
3E97
330
18
100
AcDbEntity
  8
1外形線
 48
1.315789580345153
100
AcDbLine
 10
379.9396135583793
 20
16.08505766388123
 30
0.0
 11
384.7896135583778
 21
16.08505825731743
 31
0.0
  0
LINE
  5
3E99
330
18
100
AcDbEntity
  8
1外形線
 48
1.315789580345153
100
AcDbLine
 10
385.1896166173301
 20
-8.914941693739022
 30
0.0
 11
388.1274285969589
 21
-8.914941334272928
 31
0.0
  0
LINE
  5
3E9B
330
18
100
AcDbEntity
  8
1外形線
 48
1.315789580345153
100
AcDbLine
 10
322.6809278279234
 20
-8.914949342172917
 30
0.0
 11
324.6896166173302
 21
-8.914949096394707
 31
0.0
  0
LINE
  5
3E9E
330
18
100
AcDbEntity
  8
1外形線
 48
1.315789580345153
100
AcDbLine
 10
325.0896135583807
 20
16.08505095254884
 30
0.0
 11
329.9396135583793
 21
16.08505154598504
 31
0.0
  0
LINE
  5
3E9F
330
18
100
AcDbEntity
  8
1外形線
 48
1.315789580345153
100
AcDbLine
 10
329.9396135583793
 20
16.08505154598504
 30
0.0
 11
329.9396134360195
 21
17.08505154598504
 31
0.0
  0
SPLINE
  5
3EA7
330
18
100
AcDbEntity
  8
1外形線
 48
1.315789580345153
100
AcDbSpline
210
0.0
220
0.0
230
1.0
 70
     8
 71
     3
 72
    10
 73
     6
 74
     0
 42
0.0000000001
 43
0.0000000001
 40
-0.1558206920044419
 40
-0.1558206920044419
 40
-0.1558206920044419
 40
-0.1558206920044419
 40
-0.0779103460022204
 40
-0.0779103460022204
 40
-0.0430611088060776
 40
-0.0430611088060776
 40
-0.0430611088060776
 40
-0.0430611088060776
 10
409.0004419420493
 20
55.36562780890278
 30
0.0
 10
408.9981756899851
 20
55.105936543844
 30
0.0
 10
408.9453493923993
 20
54.84915557619467
 30
0.0
 10
408.7999982169693
 20
54.50253223234438
 30
0.0
 10
408.7459346677476
 20
54.39977449316653
 30
0.0
 10
408.6834605437161
 20
54.30247671458971
 30
0.0
  0
SPLINE
  5
3EA8
330
18
100
AcDbEntity
  8
1外形線
 48
1.315789580345153
100
AcDbSpline
210
0.0
220
0.0
230
1.0
 70
     8
 71
     3
 72
    10
 73
     6
 74
     0
 42
0.0000000001
 43
0.0000000001
 40
-0.253346664610911
 40
-0.253346664610911
 40
-0.253346664610911
 40
-0.253346664610911
 40
-0.1266733323054552
 40
-0.1266733323054552
 40
0.0
 40
0.0
 40
0.0
 40
0.0
 10
408.6834605437161
 20
54.30247671458971
 30
0.0
 10
408.4553210566936
 20
53.94717016746549
 30
0.0
 10
408.278321573327
 20
53.56151525368193
 30
0.0
 10
408.0370313462243
 20
52.75223131204518
 30
0.0
 10
407.9739370780498
 20
52.33261524590933
 30
0.0
 10
407.9702523986107
 20
51.91038688221386
 30
0.0
  0
LINE
  5
3EA9
330
18
100
AcDbEntity
  8
1外形線
 48
1.315789580345153
100
AcDbLine
 10
407.9702523986107
 20
51.91038688221386
 30
0.0
 11
407.8673698072288
 21
40.12104429945509
 31
0.0
  0
LINE
  5
3EAC
330
18
100
AcDbEntity
  8
1外形線
 48
1.315789580345153
100
AcDbLine
 10
410.4369649502166
 20
48.08506139546885
 30
0.0
 11
410.4594208038816
 21
50.65828343634064
 31
0.0
  0
ARC
  5
3EAD
330
18
100
AcDbEntity
  8
1外形線
 48
1.315789580345153
100
AcDbCircle
 10
-411.4593827280168
 20
50.64955702319537
 30
0.0
 40
1.000000000000005
210
0.0
220
0.0
230
-1.0
100
AcDbArc
 50
0.4999929894148793
 51
44.99999298961884
  0
SPLINE
  5
3EAE
330
18
100
AcDbEntity
  8
1外形線
 48
1.315789580345153
100
AcDbSpline
210
0.0
220
0.0
230
1.0
 70
     8
 71
     3
 72
    10
 73
     6
 74
     0
 42
0.0000000001
 43
0.0000000001
 40
-0.428506903012216
 40
-0.428506903012216
 40
-0.428506903012216
 40
-0.428506903012216
 40
-0.2142534515061079
 40
-0.2142534515061079
 40
0.0
 40
0.0
 40
0.0
 40
0.0
 10
410.8896058656663
 20
51.49399375682595
 30
0.0
 10
411.3946060320503
 20
51.99899404679205
 30
0.0
 10
411.7964432909266
 20
52.59755514061986
 30
0.0
 10
412.3488041658618
 20
53.91478682392413
 30
0.0
 10
412.4940764842085
 20
54.62093448496204
 30
0.0
 10
412.500308677392
 20
55.33508546387463
 30
0.0
  0
LINE
  5
3EB2
330
18
100
AcDbEntity
  8
1外形線
 48
1.315789580345153
100
AcDbLine
 10
323.7558286714248
 20
98.0850507281692
 30
0.0
 11
326.9434310665147
 21
98.0850507281692
 31
0.0
  0
LINE
  5
3EB3
330
18
100
AcDbEntity
  8
1外形線
 48
1.315789580345153
100
AcDbLine
 10
407.8670557907878
 20
40.08506108102563
 30
0.0
 11
407.8676838236696
 21
40.15702751788454
 31
0.0
  0
LINE
  5
3EB6
330
18
100
AcDbEntity
  8
1外形線
 48
1.315789580345153
100
AcDbLine
 10
410.4365272951453
 20
48.03491037978243
 30
0.0
 11
410.4369649502166
 21
48.08506139547432
 31
0.0
  0
LINE
  5
3EB8
330
18
100
AcDbEntity
  8
1外形線
 48
1.315789580345153
100
AcDbLine
 10
385.1896166173301
 20
-8.914941693739022
 30
0.0
 11
321.7558287937828
 21
-8.914949455366956
 31
0.0
  0
LINE
  5
3EB9
330
18
100
AcDbEntity
  8
1外形線
 48
1.315789580345153
100
AcDbLine
 10
379.9396135583793
 20
16.08505766388123
 30
0.0
 11
329.9396135583793
 21
16.08505154598504
 31
0.0
  0
LINE
  5
3EBA
330
18
100
AcDbEntity
  8
1外形線
 48
1.315789580345153
100
AcDbLine
 10
379.9396134360195
 20
17.08505766388123
 30
0.0
 11
329.9396134360195
 21
17.08505154598504
 31
0.0
  0
LINE
  5
3EBE
330
18
100
AcDbEntity
  8
1外形線
 48
1.315789580345153
100
AcDbLine
 10
410.7522758603063
 20
51.35666371786181
 30
0.0
 11
410.8896058656663
 21
51.49399375682595
 31
0.0
  0
LINE
  5
3EC1
330
18
100
AcDbEntity
  8
1外形線
 48
1.315789580345153
100
AcDbLine
 10
381.0788564342857
 20
86.2364845942892
 30
0.0
 11
381.1822573044464
 21
98.08505072817105
 31
0.0
  0
LINE
  5
3EC2
330
18
100
AcDbEntity
  8
1外形線
 48
1.315789580345153
100
AcDbLine
 10
327.4396166173302
 20
41.22781824724993
 30
0.0
 11
326.9434310665147
 21
98.08505072817105
 31
0.0
  0
ARC
  5
3EC7
330
18
100
AcDbEntity
  8
1外形線
 48
1.315789580345153
100
AcDbCircle
 10
388.9483054067369
 20
99.08505072817105
 30
0.0
 40
1.0
100
AcDbArc
 50
270.0
 51
359.5000000000353
1001
ASK_MEN_XD
1005
0
1070
     1
1005
0
1070
     1
  0
LINE
  5
3EC8
330
18
100
AcDbEntity
  8
1外形線
 48
1.315789580345153
100
AcDbLine
 10
326.943431066522
 20
98.08505072817105
 30
0.0
 11
324.6057964178235
 21
98.08505072817105
 31
0.0
  0
LINE
  5
3ECA
330
18
100
AcDbEntity
  8
1外形線
 48
1.315789580345153
100
AcDbLine
 10
387.8877279622011
 20
126.085050728171
 30
0.0
 11
321.7558286714248
 21
126.085050728171
 31
0.0
  0
LINE
  5
3ED2
330
18
100
AcDbEntity
  8
1外形線
100
AcDbLine
 10
325.0896166173316
 20
101.085050728171
 30
0.0
 11
384.7896166173287
 21
101.085050728171
 31
0.0
  0
LINE
  5
3ED3
330
18
100
AcDbEntity
  8
1外形線
100
AcDbLine
 10
329.8959822783709
 20
101.085050728171
 30
0.0
 11
329.9396166173302
 21
96.08505072817104
 31
0.0
  0
LINE
  5
3ED4
330
18
100
AcDbEntity
  8
1外形線
100
AcDbLine
 10
329.9396166173302
 20
96.08505072817104
 30
0.0
 11
329.4757951501507
 21
42.93637490315165
 31
0.0
  0
LINE
  5
3ED5
330
18
100
AcDbEntity
  8
1外形線
100
AcDbLine
 10
389.9482673297953
 20
99.07632419267144
 30
0.0
 11
389.9937313955506
 21
104.285990116491
 31
0.0
  0
LINE
  5
3ED6
330
18
100
AcDbEntity
  8
1外形線
100
AcDbLine
 10
391.2525123637152
 20
105.2431894072823
 30
0.0
 11
408.2592609871517
 21
100.6862448477543
 31
0.0
  0
ARC
  5
3ED7
330
18
100
AcDbEntity
  8
1外形線
100
AcDbCircle
 10
390.9936933186163
 20
104.2772635809932
 30
0.0
 40
1.0
100
AcDbArc
 50
74.99999999977632
 51
179.5000000000351
1001
ASK_MEN_XD
1005
0
1070
     1
1005
0
1070
     1
  0
LINE
  5
3EDC
330
18
100
AcDbEntity
  8
1外形線
100
AcDbLine
 10
374.9396166173301
 20
96.08505072817104
 30
0.0
 11
379.9396166173301
 21
101.085050728171
 31
0.0
  0
CIRCLE
  5
3EDF
330
18
100
AcDbEntity
  8
1外形線
100
AcDbCircle
 10
378.689502241743
 20
83.40301622650336
 30
0.0
 40
0.6
  0
LINE
  5
3EE6
330
18
100
AcDbEntity
  8
1外形線
 48
1.315789580345153
100
AcDbLine
 10
380.1491065560749
 20
42.60635743609862
 30
0.0
 11
380.1472039916316
 21
42.71535527999993
 31
0.0
  0
ARC
  5
3EEA
330
18
100
AcDbEntity
  8
1外形線
 48
1.315789580345153
100
AcDbCircle
 10
-378.689502241743
 20
83.25301622650192
 30
0.0
 40
0.7500000000000001
210
0.0
220
0.0
230
-1.0
100
AcDbArc
 50
0.9999999999734715
 51
179.0000000000265
  0
LINE
  5
3EEB
330
18
100
AcDbEntity
  8
1外形線
 48
0.0000260464753073
100
AcDbLine
 10
380.9395022417429
 20
83.25301622650192
 30
0.0
 11
380.939843171951
 21
83.25311980023878
 31
0.0
  0
ARC
  5
3EEC
330
18
100
AcDbEntity
  8
1外形線
 48
1.315789580345153
100
AcDbCircle
 10
377.716587867375
 20
80.1521813774733
 30
0.0
 40
1.0
100
AcDbArc
 50
72.58028914857726
 51
129.9999999999904
  0
ARC
  5
3EED
330
18
100
AcDbEntity
  8
1外形線
 48
1.315789580345153
100
AcDbCircle
 10
378.4960905292883
 20
80.00889368715695
 30
0.0
 40
0.9999999999999992
100
AcDbArc
 50
0.9999999999734715
 51
86.58811499378664
  0
ARC
  5
3EEE
330
18
100
AcDbEntity
  8
1外形線
 48
1.315789580345153
100
AcDbCircle
 10
378.689502241743
 20
83.25301622650192
 30
0.0
 40
2.249882942629338
100
AcDbArc
 50
252.5802891485773
 51
266.5881149937866
  0
LINE
  5
3EEF
330
18
100
AcDbEntity
  8
1外形線
 48
1.315789580345153
100
AcDbLine
 10
379.4395022417428
 20
83.25301622650192
 30
0.0
 11
379.4392690979857
 21
83.26623755247679
 31
0.0
  0
ARC
  5
3EF0
330
18
100
AcDbEntity
  8
1外形線
 48
1.315789580345153
100
AcDbCircle
 10
-378.689502241743
 20
83.25301622650192
 30
0.0
 40
0.749883419061585
210
0.0
220
0.0
230
-1.0
100
AcDbArc
 50
178.9897557255823
 51
0.0
  0
LINE
  5
3EF1
330
18
100
AcDbEntity
  8
1外形線
 48
1.315789580345153
100
AcDbLine
 10
328.7867058778338
 20
40.4005427358305
 30
0.0
 11
377.0738002576891
 21
80.91822582059364
 31
0.0
  0
ARC
  5
3EF2
330
18
100
AcDbEntity
  8
1外形線
 48
1.315789580345153
100
AcDbCircle
 10
328.4653120729909
 20
40.78356495738886
 30
0.0
 40
0.5
100
AcDbArc
 50
220.0000000001367
 51
309.9999999999905
1001
ASK_MEN_XD
1005
0
1070
     1
1005
0
1070
     1
  0
LINE
  5
3EF3
330
18
100
AcDbEntity
  8
1外形線
 48
1.315789580345153
100
AcDbLine
 10
327.439502241743
 20
41.22821559566625
 30
0.0
 11
330.503680014217
 21
43.79936603441172
 31
0.0
  0
LINE
  5
3EF4
330
18
100
AcDbEntity
  8
1外形線
 48
1.315789580345153
100
AcDbLine
 10
327.439502241743
 20
41.22821559566625
 30
0.0
 11
328.0822898514289
 21
40.46217115254592
 31
0.0
  0
LINE
  5
3EF6
330
18
100
AcDbEntity
  8
1外形線
 48
1.315789580345153
100
AcDbLine
 10
379.4395022424633
 20
83.25301622650192
 30
0.0
 11
379.4396164877743
 21
83.25301622650192
 31
0.0
  0
ARC
  5
3EF7
330
18
100
AcDbEntity
  8
1外形線
 48
1.315789580345153
100
AcDbCircle
 10
-378.689502241743
 20
83.25301622650192
 30
0.0
 40
29.0
210
0.0
220
0.0
230
-1.0
100
AcDbArc
 50
180.0
 51
220.0000000001367
  0
LINE
  5
3EF9
330
18
100
AcDbEntity
  8
1外形線
 48
1.315789580345153
100
AcDbLine
 10
400.9047910921927
 20
64.61217554559232
 30
0.0
 11
383.0280271106827
 21
43.30747784666714
 31
0.0
  0
LINE
  5
3EFB
330
18
100
AcDbEntity
  8
1外形線
 48
1.315789580345153
100
AcDbLine
 10
376.6235093843572
 20
82.49848499210212
 30
0.0
 11
327.4397451548775
 21
41.22792610306246
 31
0.0
  0
LINE
  5
3EFE
330
18
100
AcDbEntity
  8
1外形線
 48
1.315789580345153
100
AcDbLine
 10
379.4392690979857
 20
83.26623755248045
 30
0.0
 11
379.4393857151668
 21
83.26623652475101
 31
0.0
  0
LINE
  5
3EFF
330
18
100
AcDbEntity
  8
1外形線
 48
1.315789580345153
100
AcDbLine
 10
410.447402377058
 20
49.28101534855784
 30
0.0
 11
410.4497406451973
 21
49.54895433830539
 31
0.0
  0
LINE
  5
3F00
330
18
100
AcDbEntity
  8
1外形線
 48
1.315789580345153
100
AcDbLine
 10
410.447402377058
 20
49.28101534855784
 30
0.0
 11
410.4365277837041
 21
48.03491037551872
 31
0.0
  0
LINE
  5
3F01
330
18
100
AcDbEntity
  8
1外形線
 48
1.315789580345153
100
AcDbLine
 10
410.3675881532671
 20
40.13521118331015
 30
0.0
 11
410.356713559913
 21
38.88910621026923
 31
0.0
  0
LINE
  5
3F02
330
18
100
AcDbEntity
  8
1外形線
 48
1.315789580345153
100
AcDbLine
 10
410.3543752917738
 20
38.62116722052168
 30
0.0
 11
410.356713559913
 21
38.88910621026923
 31
0.0
  0
ARC
  5
3F03
330
18
100
AcDbEntity
  8
1外形線
 48
1.315789580345153
100
AcDbCircle
 10
-410.9497216067302
 20
49.54459107055561
 30
0.0
 40
0.5
210
0.0
220
0.0
230
-1.0
100
AcDbArc
 50
0.4999999999646785
 51
90.49999999986125
  0
ARC
  5
3F04
330
18
100
AcDbEntity
  8
1外形線
 48
1.315789580345153
100
AcDbCircle
 10
-410.8543562533068
 20
38.61680395277371
 30
0.0
 40
0.5
210
0.0
220
0.0
230
-1.0
100
AcDbArc
 50
270.4999999998612
 51
0.4999999999646785
  0
ARC
  5
3F05
330
18
100
AcDbEntity
  8
1外形線
 48
1.315789580345153
100
AcDbCircle
 10
-407.363339116322
 20
39.66140982827244
 30
0.0
 40
0.5
210
0.0
220
0.0
230
-1.0
100
AcDbArc
 50
180.4999999999646
 51
270.4999999998612
  0
LINE
  5
3F06
330
18
100
AcDbEntity
  8
1外形線
 48
1.315789580345153
100
AcDbLine
 10
407.8633200778548
 20
39.65704656052447
 30
0.0
 11
407.8676833456028
 21
40.1570275220555
 31
0.0
  0
LINE
  5
3F07
330
18
100
AcDbEntity
  8
1外形線
 48
1.315789580345153
100
AcDbLine
 10
407.9366229760398
 20
48.05672671426407
 30
0.0
 11
407.940986243795
 21
48.55670767579693
 31
0.0
  0
ARC
  5
3F08
330
18
100
AcDbEntity
  8
1外形線
 48
1.315789580345153
100
AcDbCircle
 10
-407.4410052822623
 20
48.56107094354491
 30
0.0
 40
0.5
210
0.0
220
0.0
230
-1.0
100
AcDbArc
 50
90.49999999986125
 51
180.4999999999646
  0
LINE
  5
3F09
330
18
100
AcDbEntity
  8
1外形線
 48
1.315789580345153
100
AcDbLine
 10
406.3978470084821
 20
43.61998595987721
 30
0.0
 11
406.4065735439781
 21
44.61994788294111
 31
0.0
  0
ARC
  5
3F0A
330
18
100
AcDbEntity
  8
1外形線
 48
1.315789580345153
100
AcDbCircle
 10
-406.9410243207292
 20
48.5654342112947
 30
0.0
 40
0.5
210
0.0
220
0.0
230
-1.0
100
AcDbArc
 50
0.4999999999646785
 51
90.49999999986125
  0
LINE
  5
3F0B
330
18
100
AcDbEntity
  8
1外形線
 48
1.315789580345153
100
AcDbLine
 10
406.4410433591963
 20
48.5697974790445
 30
0.0
 11
406.4065735439781
 21
44.6199478829393
 31
0.0
  0
LINE
  5
3F0C
330
18
100
AcDbEntity
  8
1外形線
 48
1.315789580345153
100
AcDbLine
 10
406.3978470084821
 20
43.6199859598754
 30
0.0
 11
406.3633771932636
 21
39.67013636377203
 31
0.0
  0
ARC
  5
3F0D
330
18
100
AcDbEntity
  8
1外形線
 48
1.315789580345153
100
AcDbCircle
 10
-406.863358154789
 20
39.66577309602224
 30
0.0
 40
0.5
210
0.0
220
0.0
230
-1.0
100
AcDbArc
 50
270.4999999998612
 51
0.4999999999646785
  0
LINE
  5
3F0E
330
18
100
AcDbEntity
  8
1外形線
 48
1.315789580345153
100
AcDbLine
 10
406.858994887041
 20
39.16579213448939
 30
0.0
 11
407.3589758485741
 21
39.16142886674141
 31
0.0
  0
LINE
  5
3F0F
330
18
100
AcDbEntity
  8
1外形線
 48
1.315789580345153
100
AcDbLine
 10
407.4453685500102
 20
49.06105190507775
 30
0.0
 11
406.9453875884773
 21
49.06541517282756
 31
0.0
  0
LINE
  5
3F12
330
18
100
AcDbEntity
  8
1外形線
 48
1.315789580345153
100
AcDbLine
 10
416.3935214394665
 20
43.08069133718563
 30
0.0
 11
416.4109751750483
 21
45.08069133718564
 31
0.0
  0
LINE
  5
3F13
330
18
100
AcDbEntity
  8
1外形線
 48
1.315789580345153
100
AcDbLine
 10
413.3542610609707
 20
38.59498761402666
 30
0.0
 11
413.3847564918426
 21
42.08941787268415
 31
0.0
  0
LINE
  5
3F16
330
18
100
AcDbEntity
  8
1外形線
 48
1.315789580345153
100
AcDbLine
 10
410.8499929855588
 20
38.11682299124085
 30
0.0
 11
412.8499168316895
 21
38.09936992024383
 31
0.0
  0
LINE
  5
3F17
330
18
100
AcDbEntity
  8
1外形線
 48
1.315789580345153
100
AcDbLine
 10
410.9540848744781
 20
50.04457203208847
 30
0.0
 11
412.9540087206118
 21
50.02711896109143
 31
0.0
  0
LINE
  5
3F1A
330
18
100
AcDbEntity
  8
1外形線
100
AcDbLine
 10
381.1822573044464
 20
98.08505072817105
 30
0.0
 11
388.9483054067369
 21
98.08505072817105
 31
0.0
  0
LINE
  5
3F1C
330
18
100
AcDbEntity
  8
1外形線
 48
1.315789580345153
100
AcDbLine
 10
506.214967018908
 20
98.08505460493588
 30
0.0
 11
503.0487601360436
 21
98.08505460493586
 31
0.0
  0
LINE
  5
3F1D
330
18
100
AcDbEntity
  8
1外形線
 48
1.315789580345153
100
AcDbLine
 10
508.2149670189081
 20
-8.914945395064137
 30
0.0
 11
441.8474173116972
 21
-8.914945395064137
 31
0.0
  0
LINE
  5
3F24
330
18
100
AcDbEntity
  8
1外形線
100
AcDbLine
 10
463.6111121130361
 20
31.72356544254478
 30
0.0
 11
463.5815841683561
 21
51.06737186679572
 31
0.0
  0
LINE
  5
3F25
330
18
100
AcDbEntity
  8
1外形線
100
AcDbLine
 10
486.4512990941348
 20
31.72356544254478
 30
0.0
 11
486.4808270388221
 21
51.06737186679572
 31
0.0
  0
ARC
  5
3F26
330
18
100
AcDbEntity
  8
1外形線
100
AcDbCircle
 10
475.0312056035891
 20
86.265241137712
 30
0.0
 40
55.72443739482384
100
AcDbArc
 50
258.1740896515788
 51
281.8259103484212
  0
ARC
  5
3F27
330
18
100
AcDbEntity
  8
1外形線
100
AcDbCircle
 10
475.0312056035891
 20
19.58997569930841
 30
0.0
 40
33.49507875039278
100
AcDbArc
 50
70.01159559021868
 51
109.9884044097813
  0
LINE
  5
3F28
330
18
100
AcDbEntity
  8
1外形線
100
AcDbLine
 10
463.5815841683561
 20
51.06737186679572
 30
0.0
 11
486.4808270388221
 21
51.06737186679572
 31
0.0
  0
LINE
  5
3F2A
330
18
100
AcDbEntity
  8
1外形線
 48
1.315789580345153
100
AcDbLine
 10
443.8475449785723
 20
98.08505460493584
 30
0.0
 11
447.0136241945618
 21
98.08505460493584
 31
0.0
  0
LINE
  5
3F2F
330
18
100
AcDbEntity
  8
1外形線
 48
1.315789580345153
100
AcDbLine
 10
508.2149670189081
 20
126.0850546049358
 30
0.0
 11
441.8474173116972
 21
126.0850546049358
 31
0.0
  0
LINE
  5
3F4B
330
18
100
AcDbEntity
  8
1外形線
 48
1.315789580345153
100
AcDbLine
 10
329.9396134360195
 20
17.08505154598504
 30
0.0
 11
325.2558289893186
 21
19.78923499298653
 31
0.0
  0
LINE
  5
3F4C
330
18
100
AcDbEntity
  8
1外形線
 48
1.315789580345153
100
AcDbLine
 10
407.8670557907878
 20
40.08506108103108
 30
0.0
 11
407.8167212176103
 21
34.31720940897402
 31
0.0
  0
LINE
  5
3F4D
330
18
100
AcDbEntity
  8
1外形線
 48
1.315789580345153
100
AcDbLine
 10
384.9415805813824
 20
19.97294555777159
 30
0.0
 11
379.9396134360195
 21
17.08505766388123
 31
0.0
  0
LINE
  5
3F4E
330
18
100
AcDbEntity
  8
1外形線
 48
1.315789580345153
100
AcDbLine
 10
389.6289089170986
 20
109.3016992710676
 30
0.0
 11
409.5355848578023
 21
103.967721528767
 31
0.0
  0
LINE
  5
3F57
330
18
100
AcDbEntity
  8
1外形線
 48
1.315789580345153
100
AcDbLine
 10
480.3716955936078
 20
41.83505460493488
 30
0.0
 11
480.516033160905
 21
42.0850546049349
 31
0.0
  0
LINE
  5
3F58
330
18
100
AcDbEntity
  8
1外形線
 48
1.315789580345153
100
AcDbLine
 10
479.5056701898238
 20
40.33505460493489
 30
0.0
 11
480.3716955936078
 21
41.83505460493488
 31
0.0
  0
SPLINE
  5
3F59
330
18
100
AcDbEntity
  8
1外形線
 48
1.315789580345153
100
AcDbSpline
210
0.0
220
0.0
230
1.0
 70
     8
 71
     3
 72
    15
 73
    11
 74
     0
 42
0.0000000001
 43
0.0000000001
 40
0.0
 40
0.0
 40
0.0
 40
0.0
 40
0.0373072753100558
 40
0.0373072753100558
 40
0.0686299489171569
 40
0.0686299489171569
 40
0.0686299489171569
 40
0.0955522639823614
 40
0.0955522639823614
 40
0.1372598978343138
 40
0.1372598978343138
 40
0.1372598978343138
 40
0.1372598978343138
 10
480.8851909357662
 20
45.22791174778997
 30
0.0
 10
480.8851909357662
 20
45.22791174778997
 30
0.0
 10
480.8774365044763
 20
45.25484920617038
 30
0.0
 10
480.8471538660551
 20
45.34930818712195
 30
0.0
 10
480.827091387543
 20
45.40953842057375
 30
0.0
 10
480.7998265421365
 20
45.48265365194118
 30
0.0
 10
480.776391992219
 20
45.54549730697345
 30
0.0
 10
480.7476060235031
 20
45.61778121523258
 30
0.0
 10
480.660137560898
 20
45.81660733343767
 30
0.0
 10
480.5935616997984
 20
45.95077123653925
 30
0.0
 10
480.516033160905
 20
46.08505460493488
 30
0.0
  0
ARC
  5
3F5A
330
18
100
AcDbEntity
  8
1外形線
 48
1.315789580345153
100
AcDbCircle
 10
477.0519315457668
 20
44.08505460493489
 30
0.0
 40
4.000000000000015
100
AcDbArc
 50
343.3984504007994
 51
16.60154959920062
  0
SPLINE
  5
3F5B
330
18
100
AcDbEntity
  8
1外形線
 48
1.315789580345153
100
AcDbSpline
210
0.0
220
0.0
230
1.0
 70
     8
 71
     3
 72
    14
 73
    10
 74
     0
 42
0.0000000001
 43
0.0000000001
 40
0.0
 40
0.0
 40
0.0
 40
0.0
 40
0.0195309188189498
 40
0.0195309188189498
 40
0.071854909492445
 40
0.071854909492445
 40
0.1121041330874412
 40
0.1121041330874412
 40
0.1372598978343139
 40
0.1372598978343139
 40
0.1372598978343139
 40
0.1372598978343139
 10
480.516033160905
 20
42.0850546049349
 30
0.0
 10
480.5523383515728
 20
42.14793703975174
 30
0.0
 10
480.5862819035072
 20
42.21072167336552
 30
0.0
 10
480.7012760673578
 20
42.43689738363339
 30
0.0
 10
480.7649289036208
 20
42.59195192907077
 30
0.0
 10
480.8411684066459
 20
42.80015114561114
 30
0.0
 10
480.8625764485086
 20
42.86826839799488
 30
0.0
 10
480.8816308105823
 20
42.9300559047641
 30
0.0
 10
480.8851909357662
 20
42.94219746207988
 30
0.0
 10
480.8851909357662
 20
42.94219746207988
 30
0.0
  0
LINE
  5
3F5C
330
18
100
AcDbEntity
  8
1外形線
 48
1.315789580345153
100
AcDbLine
 10
480.3716955936078
 20
46.33505460493495
 30
0.0
 11
479.5056701898238
 21
47.83505460493489
 31
0.0
  0
LINE
  5
3F5D
330
18
100
AcDbEntity
  8
1外形線
 48
1.315789580345153
100
AcDbLine
 10
480.516033160905
 20
46.08505460493488
 30
0.0
 11
480.3716955936078
 21
46.33505460493495
 31
0.0
  0
ARC
  5
3F5E
330
18
100
AcDbEntity
  8
1外形線
 48
1.315789580345153
100
AcDbCircle
 10
476.0415685746855
 20
45.8350546049349
 30
0.0
 40
4.000000000000004
100
AcDbArc
 50
30.00000000001226
 51
90.0
  0
ARC
  5
3F5F
330
18
100
AcDbEntity
  8
1外形線
 48
1.315789580345153
100
AcDbCircle
 10
474.0208426325215
 20
45.8350546049349
 30
0.0
 40
4.0
100
AcDbArc
 50
90.0
 51
149.9999999999876
  0
ARC
  5
3F60
330
18
100
AcDbEntity
  8
1外形線
 48
1.315789580345153
100
AcDbCircle
 10
480.4060335120166
 20
43.08505460493488
 30
0.0
 40
0.499999999999999
100
AcDbArc
 50
270.0
 51
343.3984504007994
  0
ARC
  5
3F61
330
18
100
AcDbEntity
  8
1外形線
 48
1.315789580345153
100
AcDbCircle
 10
469.6563776951906
 20
43.08505460493488
 30
0.0
 40
0.5000000000000002
100
AcDbArc
 50
196.6015495992006
 51
270.0
  0
LINE
  5
3F62
330
18
100
AcDbEntity
  8
1外形線
 48
1.315789580345153
100
AcDbLine
 10
469.6563776951906
 20
42.58505460493489
 30
0.0
 11
480.4060335120166
 21
42.58505460493489
 31
0.0
  0
ARC
  5
3F63
330
18
100
AcDbEntity
  8
1外形線
 48
1.315789580345153
100
AcDbCircle
 10
480.4060335120166
 20
45.08505460493495
 30
0.0
 40
0.5000000000000001
100
AcDbArc
 50
16.60154959920062
 51
90.0
  0
ARC
  5
3F64
330
18
100
AcDbEntity
  8
1外形線
 48
1.315789580345153
100
AcDbCircle
 10
469.6563776951906
 20
45.08505460493495
 30
0.0
 40
0.4999999999999992
100
AcDbArc
 50
90.0
 51
163.3984504007993
  0
ARC
  5
3F65
330
18
100
AcDbEntity
  8
1外形線
 48
1.315789580345153
100
AcDbCircle
 10
473.0104796614385
 20
44.08505460493489
 30
0.0
 40
4.000000000000015
100
AcDbArc
 50
163.3984504007993
 51
196.6015495992006
  0
LINE
  5
3F66
330
18
100
AcDbEntity
  8
1外形線
 48
1.315789580345153
100
AcDbLine
 10
480.4060335120166
 20
45.58505460493488
 30
0.0
 11
469.6563776951906
 21
45.58505460493488
 31
0.0
  0
SPLINE
  5
3F67
330
18
100
AcDbEntity
  8
1外形線
 48
1.315789580345153
100
AcDbSpline
210
0.0
220
0.0
230
1.0
 70
     8
 71
     3
 72
    14
 73
    10
 74
     0
 42
0.0000000001
 43
0.0000000001
 40
0.0
 40
0.0
 40
0.0
 40
0.0
 40
0.0195309188189538
 40
0.0195309188189538
 40
0.0718549094924472
 40
0.0718549094924472
 40
0.112104133087442
 40
0.112104133087442
 40
0.1372598978343138
 40
0.1372598978343138
 40
0.1372598978343138
 40
0.1372598978343138
 10
469.5463780463023
 20
46.08505460493488
 30
0.0
 10
469.5100728556361
 20
46.02217217012537
 30
0.0
 10
469.4761293037017
 20
45.95938753650432
 30
0.0
 10
469.3611351398494
 20
45.73321182623636
 30
0.0
 10
469.2974823035864
 20
45.57815728079896
 30
0.0
 10
469.2212428005613
 20
45.36995806426591
 30
0.0
 10
469.1998347587005
 20
45.30184081187484
 30
0.0
 10
469.1807803966248
 20
45.2400533051056
 30
0.0
 10
469.1772202714409
 20
45.22791174778997
 30
0.0
 10
469.1772202714409
 20
45.22791174778997
 30
0.0
  0
SPLINE
  5
3F68
330
18
100
AcDbEntity
  8
1外形線
 48
1.315789580345153
100
AcDbSpline
210
0.0
220
0.0
230
1.0
 70
     8
 71
     3
 72
    15
 73
    11
 74
     0
 42
0.0000000001
 43
0.0000000001
 40
0.0
 40
0.0
 40
0.0
 40
0.0
 40
0.0373072753100557
 40
0.0373072753100557
 40
0.0686299489171569
 40
0.0686299489171569
 40
0.0686299489171569
 40
0.0955522639823608
 40
0.0955522639823608
 40
0.1372598978343138
 40
0.1372598978343138
 40
0.1372598978343138
 40
0.1372598978343138
 10
469.1772202714409
 20
42.94219746207988
 30
0.0
 10
469.1772202714409
 20
42.94219746207988
 30
0.0
 10
469.1849747027326
 20
42.91526000369936
 30
0.0
 10
469.2152573411521
 20
42.82080102275529
 30
0.0
 10
469.2353198196641
 20
42.76057078929607
 30
0.0
 10
469.2625846650708
 20
42.68745555792867
 30
0.0
 10
469.28601921499
 20
42.62461190289627
 30
0.0
 10
469.3148051837042
 20
42.55232799463725
 30
0.0
 10
469.4022736463112
 20
42.35350187643212
 30
0.0
 10
469.4688495074106
 20
42.21933797333786
 30
0.0
 10
469.5463780463023
 20
42.0850546049349
 30
0.0
  0
LINE
  5
3F69
330
18
100
AcDbEntity
  8
1外形線
 48
1.315789580345153
100
AcDbLine
 10
470.5567410173853
 20
47.83505460493489
 30
0.0
 11
469.6907156135995
 21
46.33505460493495
 31
0.0
  0
LINE
  5
3F6A
330
18
100
AcDbEntity
  8
1外形線
 48
1.315789580345153
100
AcDbLine
 10
469.6907156135995
 20
46.33505460493495
 30
0.0
 11
469.5463780463023
 21
46.08505460493488
 31
0.0
  0
ARC
  5
3F6B
330
18
100
AcDbEntity
  8
1外形線
 48
1.315789580345153
100
AcDbCircle
 10
476.0415685746855
 20
42.33505460493495
 30
0.0
 40
4.0
100
AcDbArc
 50
270.0
 51
329.9999999999877
  0
ARC
  5
3F6C
330
18
100
AcDbEntity
  8
1外形線
 48
1.315789580345153
100
AcDbCircle
 10
474.0208426325215
 20
42.33505460493495
 30
0.0
 40
4.000000000000004
100
AcDbArc
 50
210.0000000000123
 51
270.0
  0
LINE
  5
3F6D
330
18
100
AcDbEntity
  8
1外形線
 48
1.315789580345153
100
AcDbLine
 10
469.6907156135995
 20
41.83505460493488
 30
0.0
 11
470.5567410173853
 21
40.33505460493489
 31
0.0
  0
LINE
  5
3F6E
330
18
100
AcDbEntity
  8
1外形線
 48
1.315789580345153
100
AcDbLine
 10
469.5463780463023
 20
42.0850546049349
 30
0.0
 11
469.6907156135995
 21
41.83505460493488
 31
0.0
  0
LINE
  5
3F72
330
18
100
AcDbEntity
  8
1外形線
 48
1.315789580345153
100
AcDbLine
 10
410.4365277837041
 20
48.03491037551872
 30
0.0
 11
410.3675881532671
 21
40.13521118331015
 31
0.0
  0
LINE
  5
3F73
330
18
100
AcDbEntity
  8
1外形線
 48
1.315789580345153
100
AcDbLine
 10
474.0208426325215
 20
49.83505460493489
 30
0.0
 11
476.0415685746855
 21
49.83505460493489
 31
0.0
  0
LINE
  5
3F74
330
18
100
AcDbEntity
  8
1外形線
 48
1.315789580345153
100
AcDbLine
 10
474.0208426325215
 20
38.33505460493496
 30
0.0
 11
476.0415685746855
 21
38.33505460493496
 31
0.0
  0
LINE
  5
3F75
330
18
100
AcDbEntity
  8
1外形線
  6
Continuous
100
AcDbLine
 10
374.9396166173301
 20
96.08505072817104
 30
0.0
 11
375.0695680374247
 21
81.19409291684577
 31
0.0
  0
LINE
  5
3F76
330
18
100
AcDbEntity
  8
1外形線
  6
Continuous
100
AcDbLine
 10
378.0858407034972
 20
85.5760546495459
 30
0.0
 11
378.168706196373
 21
95.07149962009396
 31
0.0
  0
LINE
  5
3F77
330
18
100
AcDbEntity
  8
1外形線
  6
Continuous
100
AcDbLine
 10
381.1822573044464
 20
98.08505072817105
 30
0.0
 11
378.168706196373
 21
95.07149962009396
 31
0.0
  0
SPLINE
  5
40DA
330
18
100
AcDbEntity
  8
1外形線
 48
1.315789580345153
100
AcDbSpline
210
0.0
220
0.0
230
1.0
 70
     8
 71
     3
 72
    26
 73
    22
 74
     0
 42
0.0000000001
 43
0.0000000001
 40
0.000037622284664
 40
0.000037622284664
 40
0.000037622284664
 40
0.000037622284664
 40
0.4846769666855117
 40
0.4846769666855117
 40
0.956532190801947
 40
0.956532190801947
 40
1.93572662061901
 40
1.93572662061901
 40
2.972766863505153
 40
2.972766863505153
 40
3.987311398101205
 40
3.987311398101205
 40
4.946814510904038
 40
4.946814510904038
 40
5.867422783434316
 40
5.867422783434316
 40
6.821172598049723
 40
6.821172598049723
 40
7.320470416102891
 40
7.320470416102891
 40
7.501482732094213
 40
7.501482732094213
 40
7.501482732094213
 40
7.501482732094213
 10
446.1187296812477
 20
83.16687717013111
 30
0.0
 10
446.6395104867531
 20
83.60882204427209
 30
0.0
 10
447.2865868805146
 20
84.03792581694281
 30
0.0
 10
448.7879433629187
 20
84.84290049988114
 30
0.0
 10
449.644140175418
 20
85.22371710948165
 30
0.0
 10
452.5853921458238
 20
86.32276162607878
 30
0.0
 10
455.051449488439
 20
86.97572417963923
 30
0.0
 10
460.67289893019
 20
88.03161672529268
 30
0.0
 10
463.9403693138356
 20
88.43322644342107
 30
0.0
 10
470.5810678153921
 20
88.89955441264964
 30
0.0
 10
474.034384979697
 20
88.97936259511835
 30
0.0
 10
480.5972622402678
 20
88.843955543432
 30
0.0
 10
483.7900334730345
 20
88.64066146958931
 30
0.0
 10
489.6209254289551
 20
87.98327435203965
 30
0.0
 10
492.3390367156296
 20
87.53208098893948
 30
0.0
 10
497.1885176922567
 20
86.40283108350152
 30
0.0
 10
499.3534029173079
 20
85.70233179342494
 30
0.0
 10
501.916621897535
 20
84.52671976917327
 30
0.0
 10
502.6767240301103
 20
84.09996394264046
 30
0.0
 10
503.5355889251713
 20
83.49596820435136
 30
0.0
 10
503.747963778207
 20
83.33256415162535
 30
0.0
 10
503.9436537812705
 20
83.16687766962195
 30
0.0
  0
SPLINE
  5
40DB
330
18
100
AcDbEntity
  8
1外形線
 48
3.0
100
AcDbSpline
210
0.0
220
0.0
230
1.0
 70
     8
 71
     3
 72
     9
 73
     5
 74
     0
 42
0.0000000001
 43
0.0000000001
 40
0.0
 40
0.0
 40
0.0
 40
0.0
 40
32.30533883114076
 40
40.81695896743268
 40
40.81695896743268
 40
40.81695896743268
 40
40.81695896743268
 10
446.1186350739426
 20
83.16677424608998
 30
0.0
 10
448.1946398047823
 20
70.18185597160456
 30
0.0
 10
450.7692047345236
 20
56.33750859826307
 30
0.0
 10
461.1682824214575
 20
46.48798827287206
 30
0.0
 10
463.5909547265033
 20
44.92870340030076
 30
0.0
  0
SPLINE
  5
40DC
330
18
100
AcDbEntity
  8
1外形線
 48
3.0
100
AcDbSpline
210
0.0
220
0.0
230
1.0
 70
     8
 71
     3
 72
     9
 73
     5
 74
     0
 42
0.0000000001
 43
0.0000000001
 40
64.89838197959108
 40
64.89838197959108
 40
64.89838197959108
 40
64.89838197959108
 40
73.4814235460006
 40
105.7867631228019
 40
105.7867631228019
 40
105.7867631228019
 40
105.7867631228019
 10
486.471680769188
 20
45.07563518543724
 30
0.0
 10
488.9060204201522
 20
46.65321637088488
 30
0.0
 10
499.2027497114526
 20
55.95830182171846
 30
0.0
 10
501.8298200430333
 20
70.02517839023851
 30
0.0
 10
503.9437492566556
 20
83.16677424608998
 30
0.0
  0
LINE
  5
40DF
330
18
100
AcDbEntity
  8
1外形線
 48
3.0
100
AcDbLine
 10
384.7896166173287
 20
101.085050728171
 30
0.0
 11
384.7896166173287
 21
126.085050728171
 31
0.0
  0
LINE
  5
40E0
330
18
100
AcDbEntity
  8
1外形線
 48
3.0
100
AcDbLine
 10
325.0896166173316
 20
101.085050728171
 30
0.0
 11
325.0896166173316
 21
126.085050728171
 31
0.0
  0
LINE
  5
40E1
330
18
100
AcDbEntity
  8
1外形線
 48
3.0
100
AcDbLine
 10
325.0896135583807
 20
16.08505095254884
 30
0.0
 11
325.0896166173293
 21
-8.914949047451527
 31
0.0
  0
LINE
  5
40E2
330
18
100
AcDbEntity
  8
1外形線
 48
3.0
100
AcDbLine
 10
384.7896135583778
 20
16.08505825731743
 30
0.0
 11
384.7896135583778
 21
-8.914941742682579
 31
0.0
  0
ARC
  5
40E3
330
18
100
AcDbEntity
  8
1外形線
 48
3.0
100
AcDbCircle
 10
378.689502241743
 20
83.40301622650336
 30
0.0
 40
2.255327745755919
100
AcDbArc
 50
356.1891267258716
 51
203.6544685192268
  0
LINE
  5
40E4
330
18
100
AcDbEntity
  8
1外形線
 48
1.315789580345153
100
AcDbLine
 10
379.9393668080649
 20
85.28033926919725
 30
0.0
 11
381.0788564342857
 21
86.2364845942892
 31
0.0
  0
LINE
  5
40E5
330
18
100
AcDbEntity
  8
1外形線
 48
1.315789580345153
100
AcDbLine
 10
376.6236632501171
 20
82.4981336366307
 30
0.0
 11
374.7775458223896
 21
80.94905718391499
 31
0.0
  0
LINE
  5
40E6
330
18
100
AcDbEntity
  8
1外形線
100
AcDbLine
 10
445.1811921653042
 20
101.0850546049358
 30
0.0
 11
504.8811921653013
 21
101.0850546049358
 31
0.0
  0
LINE
  5
40E7
330
18
100
AcDbEntity
  8
1外形線
 48
3.0
100
AcDbLine
 10
504.8811921653013
 20
101.0850546049358
 30
0.0
 11
504.8811921653013
 21
126.0850546049358
 31
0.0
  0
LINE
  5
40E8
330
18
100
AcDbEntity
  8
1外形線
 48
3.0
100
AcDbLine
 10
445.1811921653042
 20
101.0850546049358
 30
0.0
 11
445.1811921653042
 21
126.0850546049358
 31
0.0
  0
LINE
  5
40E9
330
18
100
AcDbEntity
  8
1外形線
100
AcDbLine
 10
449.9875578263436
 20
101.0850546049358
 30
0.0
 11
450.1244567851773
 21
85.39798771001834
 31
0.0
  0
LINE
  5
40EA
330
18
100
AcDbEntity
  8
1外形線
100
AcDbLine
 10
447.0136241945618
 20
98.08505460493584
 30
0.0
 11
447.1373000405149
 21
83.91320636533377
 31
0.0
  0
LINE
  5
40EB
330
18
100
AcDbEntity
  8
1外形線
 48
1.315789580345153
100
AcDbLine
 10
447.0136241945618
 20
98.08505460493586
 30
0.0
 11
443.8474173116973
 21
98.08505460493584
 31
0.0
  0
LINE
  5
40EC
330
18
100
AcDbEntity
  8
1外形線
 48
1.315789580345153
100
AcDbLine
 10
503.0487601360437
 20
98.08505460493588
 30
0.0
 11
506.2148393520334
 21
98.08505460493588
 31
0.0
  0
LINE
  5
40ED
330
18
100
AcDbEntity
  8
1外形線
100
AcDbLine
 10
500.0748265042621
 20
101.0850546049358
 30
0.0
 11
499.9379275454281
 21
85.39798771001834
 31
0.0
  0
LINE
  5
40EE
330
18
100
AcDbEntity
  8
1外形線
100
AcDbLine
 10
503.0487601360436
 20
98.08505460493584
 30
0.0
 11
502.9250833919777
 21
83.91310345178217
 31
0.0
  0
LINE
  5
40F0
330
18
100
AcDbEntity
  8
1外形線
 48
1.315789580345153
100
AcDbLine
 10
500.0312024201429
 20
16.08505766388396
 30
0.0
 11
504.8812024201414
 21
16.08505825732015
 31
0.0
  0
LINE
  5
40F1
330
18
100
AcDbEntity
  8
1外形線
 48
1.315789580345153
100
AcDbLine
 10
445.1812024201443
 20
16.08505095255157
 30
0.0
 11
450.0312024201429
 21
16.08505154598776
 31
0.0
  0
LINE
  5
40F2
330
18
100
AcDbEntity
  8
1外形線
 48
3.0
100
AcDbLine
 10
445.1812024201443
 20
16.08505095255157
 30
0.0
 11
445.1812054790931
 21
-8.9149490474488
 31
0.0
  0
LINE
  5
40F3
330
18
100
AcDbEntity
  8
1外形線
 48
3.0
100
AcDbLine
 10
504.8812024201414
 20
16.08505825732015
 30
0.0
 11
504.8812024201414
 21
-8.914941742679847
 31
0.0
  0
LINE
  5
40F4
330
18
100
AcDbEntity
  8
1外形線
 48
3.0
100
AcDbLine
 10
500.0704332700938
 20
17.22095810166988
 30
0.0
 11
506.214967018908
 21
38.50624738521008
 31
0.0
  0
LINE
  5
40F5
330
18
100
AcDbEntity
  8
1外形線
 48
3.0
100
AcDbLine
 10
500.0312021929238
 20
16.08505766388393
 30
0.0
 11
500.0312021929241
 21
16.94360800355738
 31
0.0
  0
LINE
  5
40F6
330
18
100
AcDbEntity
  8
1外形線
 48
3.0
100
AcDbLine
 10
500.0312021929238
 20
16.08505766388393
 30
0.0
 11
500.0312021929238
 21
16.08505766388393
 31
0.0
  0
ARC
  5
40F7
330
18
100
AcDbEntity
  8
1外形線
 48
3.0
100
AcDbCircle
 10
501.0312021929242
 20
16.94360800355738
 30
0.0
 40
1.0
100
AcDbArc
 50
163.8978862480161
 51
179.9999999999739
  0
LINE
  5
40FA
330
18
100
AcDbEntity
  8
1外形線
 48
1.315789580345153
100
AcDbLine
 10
450.0311819104626
 20
16.08505766388396
 30
0.0
 11
445.1811819104641
 21
16.08505825732015
 31
0.0
  0
LINE
  5
40FB
330
18
100
AcDbEntity
  8
1外形線
 48
3.0
100
AcDbLine
 10
449.9919510605117
 20
17.22095810166988
 30
0.0
 11
443.8474173116973
 21
38.50624738521047
 31
0.0
  0
LINE
  5
40FC
330
18
100
AcDbEntity
  8
1外形線
 48
3.0
100
AcDbLine
 10
450.0311821376818
 20
16.08505766388393
 30
0.0
 11
450.0311821376815
 21
16.94360800355738
 31
0.0
  0
LINE
  5
40FD
330
18
100
AcDbEntity
  8
1外形線
 48
3.0
100
AcDbLine
 10
450.0311821376818
 20
16.08505766388393
 30
0.0
 11
450.0311821376818
 21
16.08505766388393
 31
0.0
  0
ARC
  5
40FE
330
18
100
AcDbEntity
  8
1外形線
 48
3.0
100
AcDbCircle
 10
449.0311821376815
 20
16.94360800355738
 30
0.0
 40
1.0
100
AcDbArc
 50
0.000000000026113
 51
16.10211375198372
  0
LINE
  5
40FF
330
18
100
AcDbEntity
  8
1外形線
 48
3.0
100
AcDbLine
 10
500.0312024201429
 20
16.08505766388396
 30
0.0
 11
450.0311819104626
 21
16.08505766388396
 31
0.0
  0
LINE
  5
4100
330
18
100
AcDbEntity
  8
1外形線
 48
3.0
100
AcDbLine
 10
379.4959382244447
 20
80.02634609359377
 30
0.0
 11
379.4959382244447
 21
44.59305306604014
 31
0.0
  0
ARC
  5
4102
330
18
100
AcDbEntity
  8
1外形線
 48
3.0
100
AcDbCircle
 10
381.4959382244447
 20
44.59305306604014
 30
0.0
 40
2.0
100
AcDbArc
 50
180.0
 51
320.0000000000025
  0
LINE
  5
4154
330
18
100
AcDbEntity
  8
1外形線
 48
3.0
100
AcDbLine
 10
409.0004419420493
 20
55.36562780890278
 30
0.0
 11
409.0004419420493
 21
99.72031902146529
 31
0.0
  0
LINE
  5
4155
330
18
100
AcDbEntity
  8
1外形線
 48
3.0
100
AcDbLine
 10
412.500308677392
 20
55.33508546387465
 30
0.0
 11
412.500308677392
 21
100.1040182236108
 31
0.0
  0
ARC
  5
4156
330
18
100
AcDbEntity
  8
1外形線
100
AcDbCircle
 10
408.0004419420493
 20
99.72031902146529
 30
0.0
 40
1.0
100
AcDbArc
 50
0.0
 51
75.00000000000314
  0
ARC
  5
4157
330
18
100
AcDbEntity
  8
1外形線
 48
3.0
100
AcDbCircle
 10
408.5003086773921
 20
100.1040182236108
 30
0.0
 40
4.0
100
AcDbArc
 50
0.0
 51
74.99999999999726
  0
LINE
  5
4158
330
18
100
AcDbEntity
  8
1外形線
 48
3.0
100
AcDbLine
 10
440.8474173116974
 20
125.0850546049357
 30
0.0
 11
440.8474173116974
 21
-7.914945395064138
 31
0.0
  0
ARC
  5
415A
330
18
100
AcDbEntity
  8
1外形線
 48
3.0
100
AcDbCircle
 10
441.8474173116972
 20
-7.914945395064138
 30
0.0
 40
1.0
100
AcDbArc
 50
180.0
 51
270.0
  0
LINE
  5
415B
330
18
100
AcDbEntity
  8
1外形線
 48
3.0
100
AcDbLine
 10
509.2149670189082
 20
125.0850546049358
 30
0.0
 11
509.2149670189082
 21
-7.914945395064138
 31
0.0
  0
ARC
  5
415C
330
18
100
AcDbEntity
  8
1外形線
 48
3.0
100
AcDbCircle
 10
508.2149670189081
 20
-7.914945395064138
 30
0.0
 40
1.0
100
AcDbArc
 50
270.0
 51
0.000000000000007
  0
LINE
  5
415D
330
18
100
AcDbEntity
  8
1外形線
 48
3.0
100
AcDbLine
 10
320.7558286714248
 20
125.085050728171
 30
0.0
 11
320.7558286714248
 21
-7.914949455366964
 31
0.0
  0
ARC
  5
415E
330
18
100
AcDbEntity
  8
1外形線
 48
3.0
100
AcDbCircle
 10
321.7558286714248
 20
-7.914949455366964
 30
0.0
 40
1.0
100
AcDbArc
 50
180.0
 51
270.0000070105939
  0
LINE
  5
415F
330
18
100
AcDbEntity
  8
1外形線
 48
3.0
100
AcDbLine
 10
389.1233984453338
 20
17.76851755202061
 30
0.0
 11
389.1233984453338
 21
-7.914949455366964
 31
0.0
  0
ARC
  5
4160
330
18
100
AcDbEntity
  8
1外形線
 48
3.0
100
AcDbCircle
 10
388.1233984453337
 20
-7.914949455366964
 30
0.0
 40
1.0
100
AcDbArc
 50
269.9999929894053
 51
0.000000000000007
  0
ARC
  5
4161
330
18
100
AcDbEntity
  8
1外形線
100
AcDbCircle
 10
390.1233984453339
 20
17.7685175520209
 30
0.0
 40
1.0
100
AcDbArc
 50
120.0000070105776
 51
180.0000000000166
  0
ARC
  5
4162
330
18
100
AcDbEntity
  8
1外形線
 48
3.0
100
AcDbCircle
 10
321.7558286714248
 20
125.085050728171
 30
0.0
 40
1.0
100
AcDbArc
 50
90.0
 51
180.0
  0
ARC
  5
4163
330
18
100
AcDbEntity
  8
1外形線
 48
1.315789580345153
100
AcDbCircle
 10
508.2149670189081
 20
125.0850546049358
 30
0.0
 40
1.0
100
AcDbArc
 50
0.0
 51
90.0
  0
ARC
  5
4164
330
18
100
AcDbEntity
  8
1外形線
 48
3.0
100
AcDbCircle
 10
441.8474173116972
 20
125.0850546049357
 30
0.0
 40
1.0
100
AcDbArc
 50
90.0
 51
180.0
  0
LINE
  5
4165
330
18
100
AcDbEntity
  8
1外形線
 48
3.0
100
AcDbLine
 10
388.8877279622012
 20
125.085050728171
 30
0.0
 11
388.8877279622012
 21
110.2676250973567
 31
0.0
  0
ARC
  5
4166
330
18
100
AcDbEntity
  8
1外形線
 48
3.0
100
AcDbCircle
 10
387.8877279622011
 20
125.085050728171
 30
0.0
 40
1.0
100
AcDbArc
 50
0.000000000000007
 51
90.0
  0
ARC
  5
4167
330
18
100
AcDbEntity
  8
1外形線
 48
3.0
100
AcDbCircle
 10
389.8877279622011
 20
110.2676250973567
 30
0.0
 40
1.0
100
AcDbArc
 50
180.0
 51
254.9999999999973
  0
ARC
  5
416A
330
18
100
AcDbEntity
  8
1外形線
 48
3.0
100
AcDbCircle
 10
326.7558286714248
 20
22.38731138787591
 30
0.0
 40
3.0
100
AcDbArc
 50
180.0
 51
240.0000070105618
  0
LINE
  5
416B
330
18
100
AcDbEntity
  8
1外形線
 48
3.0
100
AcDbLine
 10
443.8474173116973
 20
98.08505460493584
 30
0.0
 11
443.8474173116973
 21
38.50624738521048
 31
0.0
  0
LINE
  5
416C
330
18
100
AcDbEntity
  8
1外形線
 48
3.0
100
AcDbLine
 10
506.214967018908
 20
98.08505460493588
 30
0.0
 11
506.214967018908
 21
38.50624738521009
 31
0.0
  0
LINE
  5
416D
330
18
100
AcDbEntity
  8
1外形線
 48
3.0
100
AcDbLine
 10
323.7558286714248
 20
98.0850507281692
 30
0.0
 11
323.7558286714248
 21
22.38731138787591
 31
0.0
  0
LINE
  5
416E
330
18
100
AcDbEntity
  8
1外形線
 48
3.0
100
AcDbLine
 10
415.9109942135161
 20
45.5850546049349
 30
0.0
 11
413.9196449245382
 21
45.5850546049349
 31
0.0
  0
LINE
  5
4172
330
18
100
AcDbEntity
  8
1外形線
 48
3.0
100
AcDbLine
 10
415.8935404779342
 20
42.58505460493489
 30
0.0
 11
413.8847374533747
 21
42.58505460493489
 31
0.0
  0
ARC
  5
4173
330
18
100
AcDbEntity
  8
1外形線
 48
3.0
100
AcDbCircle
 10
415.9109942135161
 20
45.0850546049349
 30
0.0
 40
0.5
100
AcDbArc
 50
359.4999999999919
 51
90.0
  0
ARC
  5
4174
330
18
100
AcDbEntity
  8
1外形線
 48
3.0
100
AcDbCircle
 10
415.8935404779342
 20
43.0850546049349
 30
0.0
 40
0.5
100
AcDbArc
 50
270.0
 51
359.499999999992
  0
ARC
  5
4175
330
18
100
AcDbEntity
  8
1外形線
 48
1.315789580345153
100
AcDbCircle
 10
412.8542800994386
 20
38.59935088177591
 30
0.0
 40
0.5
100
AcDbArc
 50
269.4999999999928
 51
359.4999999999925
  0
ARC
  5
4176
330
18
100
AcDbEntity
  8
1外形線
 48
1.315789580345153
100
AcDbCircle
 10
412.9496454528625
 20
49.52713799955933
 30
0.0
 40
0.5
100
AcDbArc
 50
359.4999999999924
 51
89.49999999999279
  0
LINE
  5
4177
330
18
100
AcDbEntity
  8
1外形線
 48
1.315789580345153
100
AcDbLine
 10
413.4196639630062
 20
46.08941787268415
 30
0.0
 11
413.4496264143947
 21
49.52277473181007
 31
0.0
  0
ARC
  5
4178
330
18
100
AcDbEntity
  8
1外形線
 48
3.0
100
AcDbCircle
 10
413.9196449245382
 20
46.0850546049349
 30
0.0
 40
0.5
100
AcDbArc
 50
179.4999999999921
 51
270.0
  0
ARC
  5
4179
330
18
100
AcDbEntity
  8
1外形線
 48
1.315789580345153
100
AcDbCircle
 10
413.8847374533747
 20
42.0850546049349
 30
0.0
 40
0.5
100
AcDbArc
 50
90.0
 51
179.4999999999914
  0
LINE
  5
41BE
330
18
100
AcDbEntity
  8
1外形線
 48
3.0
100
AcDbLine
 10
380.9398431719511
 20
83.25311980023878
 30
0.0
 11
407.6895022417424
 21
83.25301069205533
 31
0.0
  0
ENDSEC
  0
SECTION
  2
OBJECTS
  0
DICTIONARY
  5
C
330
0
100
AcDbDictionary
281
     1
  3
ACAD_CIP_PREVIOUS_PRODUCT_INFO
350
41B7
  3
ACAD_COLOR
350
3D4E
  3
ACAD_GROUP
350
D
  3
ACAD_LAYOUT
350
35CC
  3
ACAD_MATERIAL
350
3D21
  3
ACAD_MLEADERSTYLE
350
3D63
  3
ACAD_MLINESTYLE
350
1B
  3
ACAD_PLOTSETTINGS
350
35CD
  3
ACAD_PLOTSTYLENAME
350
35CA
  3
ACAD_SCALELIST
350
3D51
  3
ACAD_TABLESTYLE
350
3D4F
  3
ACAD_VISUALSTYLE
350
3D3A
  3
ACDB_RECOMPOSE_DATA
350
41C2
  3
ACDBVARIABLEDICTIONARY
350
12D
  3
DWGPROPS
350
41C3
  0
DICTIONARY
  5
3D9C
330
2
100
AcDbDictionary
280
     1
281
     1
  3
ACAD_LAYERSTATES
360
3D9D
  0
DICTIONARY
  5
4103
330
E
100
AcDbDictionary
280
     1
281
     1
  3
ADSK_XREC_LAYER_RECONCILED
360
4104
  0
DICTIONARY
  5
4105
330
20
100
AcDbDictionary
280
     1
281
     1
  3
ADSK_XREC_LAYER_RECONCILED
360
4106
  0
DICTIONARY
  5
4107
330
21
100
AcDbDictionary
280
     1
281
     1
  3
ADSK_XREC_LAYER_RECONCILED
360
4108
  0
DICTIONARY
  5
4109
330
95D
100
AcDbDictionary
280
     1
281
     1
  3
ADSK_XREC_LAYER_RECONCILED
360
410A
  0
DICTIONARY
  5
410B
330
3D8E
100
AcDbDictionary
280
     1
281
     1
  3
ADSK_XREC_LAYER_RECONCILED
360
410C
  0
DICTIONARY
  5
410D
330
3D8F
100
AcDbDictionary
280
     1
281
     1
  3
ADSK_XREC_LAYER_RECONCILED
360
410E
  0
DICTIONARY
  5
3D91
330
3D90
100
AcDbDictionary
280
     1
281
     1
  3
ADSK_XREC_LAYER_RECONCILED
360
410F
  0
DICTIONARY
  5
40DD
330
18
100
AcDbDictionary
280
     1
281
     1
  3
ACAD_SORTENTS
360
40DE
  0
XRECORD
  5
41B7
102
{ACAD_REACTORS
330
C
102
}
330
C
100
AcDbXrecord
280
     1
300
ACDLT
300
2012
300
ACDLT_F_S
  0
DICTIONARY
  5
3D4E
102
{ACAD_REACTORS
330
C
102
}
330
C
100
AcDbDictionary
281
     1
  0
DICTIONARY
  5
D
102
{ACAD_REACTORS
330
C
102
}
330
C
100
AcDbDictionary
281
     1
  0
DICTIONARY
  5
35CC
102
{ACAD_REACTORS
330
C
102
}
330
C
100
AcDbDictionary
281
     1
  3
Model
350
35CE
  3
ﾚｲｱｳﾄ1
350
35CF
  0
DICTIONARY
  5
3D21
102
{ACAD_REACTORS
330
C
102
}
330
C
100
AcDbDictionary
281
     1
  3
ByBlock
350
3D2A
  3
ByLayer
350
3D22
  3
Global
350
3D32
  0
DICTIONARY
  5
3D63
102
{ACAD_REACTORS
330
C
102
}
330
C
100
AcDbDictionary
281
     1
  3
Standard
350
3D64
  0
DICTIONARY
  5
1B
102
{ACAD_REACTORS
330
C
102
}
330
C
100
AcDbDictionary
281
     1
  3
STANDARD
350
1C
  0
DICTIONARY
  5
35CD
102
{ACAD_REACTORS
330
C
102
}
330
C
100
AcDbDictionary
281
     1
  0
ACDBDICTIONARYWDFLT
  5
35CA
102
{ACAD_REACTORS
330
C
102
}
330
C
100
AcDbDictionary
281
     1
  3
Normal
350
35CB
100
AcDbDictionaryWithDefault
340
35CB
  0
DICTIONARY
  5
3D51
102
{ACAD_REACTORS
330
C
102
}
330
C
100
AcDbDictionary
281
     1
  3
A0
350
3D52
  3
A1
350
3D53
  3
A2
350
3D54
  3
A3
350
3D55
  3
A4
350
3D56
  3
A5
350
3D57
  3
A6
350
3D58
  3
A7
350
3D59
  3
A8
350
3D5A
  3
A9
350
3D5B
  3
B0
350
3D5C
  3
B1
350
3D5D
  3
B2
350
3D5E
  3
B3
350
3D5F
  3
B4
350
3D60
  3
B5
350
3D61
  3
B6
350
3D62
  0
DICTIONARY
  5
3D4F
102
{ACAD_REACTORS
330
C
102
}
330
C
100
AcDbDictionary
281
     1
  3
Standard
350
3D50
  0
DICTIONARY
  5
3D3A
102
{ACAD_REACTORS
330
C
102
}
330
C
100
AcDbDictionary
281
     1
  3
2dWireframe
350
3D40
  3
3D Hidden
350
3D42
  3
3dWireframe
350
3D41
  3
Basic
350
3D3F
  3
Brighten
350
3D46
  3
ColorChange
350
3D4A
  3
Conceptual
350
3D43
  3
Dim
350
3D45
  3
EdgeColorOff
350
3D4D
  3
Facepattern
350
3D49
  3
Flat
350
3D3B
  3
FlatWithEdges
350
3D3C
  3
Gouraud
350
3D3D
  3
GouraudWithEdges
350
3D3E
  3
Hidden
350
41AD
  3
JitterOff
350
3D4B
  3
Linepattern
350
3D48
  3
OverhangOff
350
3D4C
  3
Realistic
350
3D44
  3
Shaded
350
41B2
  3
Shaded with edges
350
41B1
  3
Shades of Gray
350
41AE
  3
Sketchy
350
41AF
  3
Thicken
350
3D47
  3
Wireframe
350
41AC
  3
X-Ray
350
41B0
  0
XRECORD
  5
41C2
102
{ACAD_REACTORS
330
C
102
}
330
C
100
AcDbXrecord
280
     1
 90
        1
330
3D50
  0
DICTIONARY
  5
12D
102
{ACAD_REACTORS
330
C
102
}
330
C
100
AcDbDictionary
281
     1
  3
CANNOSCALE
350
4112
  3
CMLEADERSTYLE
350
4111
  3
CTABLESTYLE
350
4110
  3
DIMASSOC
350
35D5
  3
INDEXCTL
350
4113
  3
SORTENTS
350
12E
  3
XCLIPFRAME
350
41BF
  0
XRECORD
  5
41C3
102
{ACAD_REACTORS
330
C
102
}
330
C
100
AcDbXrecord
280
     1
  1
DWGPROPS COOKIE
  2

  3

  4

  6

  7

  8
ryota.matsumura
  9

300
=
301
=
302
=
303
=
304
=
305
=
306
=
307
=
308
=
309
=
 40
0.2475420023148148
 41
2452408.400460579
 42
2458571.543539167
  1

 90
        0
  0
DICTIONARY
  5
3D9D
102
{ACAD_REACTORS
330
3D9C
102
}
330
3D9C
100
AcDbDictionary
281
     1
  0
XRECORD
  5
4104
102
{ACAD_REACTORS
330
4103
102
}
330
4103
100
AcDbXrecord
280
     1
290
     1
  0
XRECORD
  5
4106
102
{ACAD_REACTORS
330
4105
102
}
330
4105
100
AcDbXrecord
280
     1
290
     1
  0
XRECORD
  5
4108
102
{ACAD_REACTORS
330
4107
102
}
330
4107
100
AcDbXrecord
280
     1
290
     1
  0
XRECORD
  5
410A
102
{ACAD_REACTORS
330
4109
102
}
330
4109
100
AcDbXrecord
280
     1
290
     1
  0
XRECORD
  5
410C
102
{ACAD_REACTORS
330
410B
102
}
330
410B
100
AcDbXrecord
280
     1
290
     1
  0
XRECORD
  5
410E
102
{ACAD_REACTORS
330
410D
102
}
330
410D
100
AcDbXrecord
280
     1
290
     1
  0
XRECORD
  5
410F
102
{ACAD_REACTORS
330
3D91
102
}
330
3D91
100
AcDbXrecord
280
     1
290
     1
  0
SORTENTSTABLE
  5
40DE
102
{ACAD_REACTORS
330
40DD
102
}
330
40DD
100
AcDbSortentsTable
330
18
331
40DC
  5
40EB
331
3EFF
  5
3F02
331
3EFB
  5
3EFE
331
3F4E
  5
3F63
331
40F5
  5
40FE
331
40F1
  5
40F9
331
3EB8
  5
3EB8
331
3EF7
  5
3EFB
331
40ED
  5
40F6
331
3EF3
  5
3EF6
331
3EEF
  5
3EF2
331
3F2A
  5
3F59
331
40E9
  5
40F4
331
3EAC
  5
3EAC
331
3EEB
  5
3EEE
331
3F26
  5
3F32
331
40E5
  5
3EE6
331
3EA8
  5
3EA8
331
40E1
  5
40EE
331
4178
  5
4176
331
4174
  5
4179
331
3F75
  5
40E6
331
3EDF
  5
3EE8
331
3F1A
  5
3F2A
331
4102
  5
415A
331
3F16
  5
3F1E
331
3F6D
  5
408F
331
3F12
  5
3F15
331
3F69
  5
4084
331
4164
  5
4161
331
4160
  5
416C
331
415C
  5
4165
331
4158
  5
415E
331
416D
  5
4174
331
3ED7
  5
3ED9
331
3F65
  5
3F75
331
3E94
  5
3E94
331
3ED3
  5
3ED4
331
3F0E
  5
3F11
331
3F0A
  5
3F0D
331
3F61
  5
3F6E
331
3E90
  5
3E90
331
3F06
  5
3F09
331
3F5D
  5
3F6A
331
3F02
  5
3F05
331
3F59
  5
3F66
331
4154
  5
415B
331
40FC
  5
4155
331
40DF
  5
40EC
331
3EC7
  5
3EC8
331
40DB
  5
40EA
331
3EFE
  5
3F01
331
3F4D
  5
3F62
331
40F4
  5
40FD
331
40F0
  5
40F8
331
3EF6
  5
3EFA
331
40EC
  5
3F5A
331
3EB3
  5
3EB3
331
3EF2
  5
3EF5
331
3EEE
  5
3EF1
331
40E8
  5
40F3
331
3EEA
  5
3EED
331
3F25
  5
3F31
331
40E4
  5
3EC1
331
40E0
  5
40ED
331
4177
  5
3F1D
331
4173
  5
4177
331
3EA7
  5
3EA7
331
3EE6
  5
3EEC
331
3F74
  5
40E5
331
3F1D
  5
3F2D
331
3E9F
  5
3E9F
331
3E9B
  5
3E9B
331
3F6C
  5
408E
331
3F68
  5
4083
331
4167
  5
4172
331
4163
  5
3F5C
331
415F
  5
416B
331
415B
  5
4163
331
416C
  5
4164
331
3E97
  5
3E97
331
3ED6
  5
3ED7
331
3F64
  5
3F74
331
3ED2
  5
3ED3
331
3F0D
  5
3F10
331
3F09
  5
3F0C
331
3F60
  5
3F6D
331
3ECA
  5
3ECB
331
3F05
  5
3F08
331
3F5C
  5
3F69
331
3F01
  5
3F04
331
3F58
  5
3F65
331
4157
  5
415D
331
40FF
  5
4158
331
40FB
  5
4154
331
40DA
  5
40E9
331
3EC2
  5
3EC7
331
40F7
  5
4100
331
3EBE
  5
3EBE
331
3EBA
  5
3EBA
331
3EF9
  5
3EFC
331
3F4C
  5
3F61
331
40F3
  5
40FB
331
3EB6
  5
3EB6
331
40EB
  5
3F2C
331
3EB2
  5
3EB2
331
3EF1
  5
3EF4
331
3EED
  5
3EF0
331
3F28
  5
3F38
331
40E7
  5
40F2
331
3EAE
  5
3EAE
331
3F24
  5
3F2E
331
40E3
  5
40F0
331
4176
  5
3F22
331
4172
  5
4178
331
3F77
  5
40E8
331
3F1C
  5
3F2B
331
3F73
  5
40E4
331
3E9E
  5
3E9E
331
4100
  5
4159
331
3F6B
  5
408D
331
4166
  5
4173
331
4162
  5
4168
331
415E
  5
416A
331
415A
  5
4162
331
416B
  5
415F
331
3F67
  5
3F77
331
3E96
  5
3E96
331
3ED5
  5
3ED6
331
3F63
  5
3F73
331
3E92
  5
3E92
331
3F0C
  5
3F0F
331
3F08
  5
3F0B
331
3F5F
  5
3F6C
331
3F04
  5
3F07
331
3F5B
  5
3F68
331
3F00
  5
3F03
331
4156
  5
3ED8
331
40FE
  5
4157
331
40FA
  5
4101
331
3F57
  5
3F64
331
3EC1
  5
3EC2
331
40F6
  5
40FF
331
3EB9
  5
3EB9
331
3F4B
  5
3F60
331
40F2
  5
40FA
331
40EE
  5
40F7
331
3EF4
  5
3EF7
331
3F2F
  5
3F5B
331
3EF0
  5
3EF3
331
40EA
  5
40F5
331
3EEC
  5
3EEF
331
3F27
  5
3F37
331
40E6
  5
40F1
331
3EAD
  5
3EAD
331
3EA9
  5
3EA9
331
40E2
  5
40EF
331
4179
  5
3F17
331
4175
  5
3F20
331
3F76
  5
40E7
331
3F72
  5
40E3
331
3EDC
  5
3EE5
331
3F17
  5
3F21
331
3F6E
  5
40E2
331
3E99
  5
3E99
331
3F13
  5
3F16
331
3F6A
  5
408C
331
4165
  5
416E
331
4161
  5
416D
331
415D
  5
4166
331
416E
  5
4175
331
416A
  5
4167
331
3F66
  5
3F76
331
3E95
  5
3E95
331
3ED4
  5
3ED5
331
3F0F
  5
3F12
331
3F0B
  5
3F0E
331
3F62
  5
3F72
331
3E91
  5
3E91
331
3F07
  5
3F0A
331
3F5E
  5
3F6B
331
3EC8
  5
3ECA
331
3F03
  5
3F06
331
3F5A
  5
3F67
331
4155
  5
415C
331
40FD
  5
4156
  0
LAYOUT
  5
35CE
102
{ACAD_XDICTIONARY
360
41C4
102
}
102
{ACAD_REACTORS
330
35CC
102
}
330
35CC
100
AcDbPlotSettings
  1

  2
LBP3970(開発用)
  4

  6

 40
0.0
 41
0.0
 42
0.0
 43
0.0
 44
0.0
 45
0.0
 46
0.0
 47
0.0
 48
0.0
 49
0.0
140
0.0
141
0.0
142
1.0
143
1.0
 70
  1712
 72
     0
 73
     0
 74
     0
  7
1mizukoshi.ctb
 75
     0
147
1.0
148
0.0
149
0.0
100
AcDbLayout
  1
Model
 70
     1
 71
     0
 10
0.0
 20
0.0
 11
12.0
 21
9.0
 12
0.0
 22
0.0
 32
0.0
 14
0.0
 24
0.0
 34
0.0
 15
0.0
 25
0.0
 35
0.0
146
0.0
 13
0.0
 23
0.0
 33
0.0
 16
1.0
 26
0.0
 36
0.0
 17
0.0
 27
1.0
 37
0.0
 76
     0
330
18
331
3D1E
  0
LAYOUT
  5
35CF
102
{ACAD_XDICTIONARY
360
41C6
102
}
102
{ACAD_REACTORS
330
35CC
102
}
330
35CC
100
AcDbPlotSettings
  1

  2
LBP3970(開発用)
  4

  6

 40
0.0
 41
0.0
 42
0.0
 43
0.0
 44
0.0
 45
0.0
 46
0.0
 47
0.0
 48
0.0
 49
0.0
140
0.0
141
0.0
142
1.0
143
1.0
 70
   688
 72
     0
 73
     0
 74
     5
  7
1mizukoshi.ctb
 75
    16
147
1.0
148
0.0
149
0.0
100
AcDbLayout
  1
ﾚｲｱｳﾄ1
 70
     1
 71
     1
 10
0.0
 20
0.0
 11
420.0
 21
297.0
 12
0.0
 22
0.0
 32
0.0
 14
1.000000000000000E+20
 24
1.000000000000000E+20
 34
1.000000000000000E+20
 15
-1.000000000000000E+20
 25
-1.000000000000000E+20
 35
-1.000000000000000E+20
146
0.0
 13
0.0
 23
0.0
 33
0.0
 16
1.0
 26
0.0
 36
0.0
 17
0.0
 27
1.0
 37
0.0
 76
     0
330
15
  0
MATERIAL
  5
3D2A
102
{ACAD_XDICTIONARY
360
3D2B
102
}
102
{ACAD_REACTORS
330
3D21
102
}
330
3D21
100
AcDbMaterial
  1
ByBlock
 72
     0
 43
0.0208333333333333
 43
0.0
 43
0.0
 43
0.0
 43
0.0
 43
0.0208333333333333
 43
0.0
 43
0.0
 43
0.0
 43
0.0
 43
1.0
 43
0.0
 43
0.0
 43
0.0
 43
0.0
 43
1.0
 77
     0
 47
0.0208333333333333
 47
0.0
 47
0.0
 47
0.0
 47
0.0
 47
0.0208333333333333
 47
0.0
 47
0.0
 47
0.0
 47
0.0
 47
1.0
 47
0.0
 47
0.0
 47
0.0
 47
0.0
 47
1.0
171
     0
 49
0.0208333333333333
 49
0.0
 49
0.0
 49
0.0
 49
0.0
 49
0.0208333333333333
 49
0.0
 49
0.0
 49
0.0
 49
0.0
 49
1.0
 49
0.0
 49
0.0
 49
0.0
 49
0.0
 49
1.0
175
     0
142
0.0208333333333333
142
0.0
142
0.0
142
0.0
142
0.0
142
0.0208333333333333
142
0.0
142
0.0
142
0.0
142
0.0
142
1.0
142
0.0
142
0.0
142
0.0
142
0.0
142
1.0
179
     0
144
0.0208333333333333
144
0.0
144
0.0
144
0.0
144
0.0
144
0.0208333333333333
144
0.0
144
0.0
144
0.0
144
0.0
144
1.0
144
0.0
144
0.0
144
0.0
144
0.0
144
1.0
147
0.0208333333333333
147
0.0
147
0.0
147
0.0
147
0.0
147
0.0208333333333333
147
0.0
147
0.0
147
0.0
147
0.0
147
1.0
147
0.0
147
0.0
147
0.0
147
0.0
147
1.0
  0
MATERIAL
  5
3D22
102
{ACAD_XDICTIONARY
360
3D23
102
}
102
{ACAD_REACTORS
330
3D21
102
}
330
3D21
100
AcDbMaterial
  1
ByLayer
 72
     0
 43
0.0208333333333333
 43
0.0
 43
0.0
 43
0.0
 43
0.0
 43
0.0208333333333333
 43
0.0
 43
0.0
 43
0.0
 43
0.0
 43
1.0
 43
0.0
 43
0.0
 43
0.0
 43
0.0
 43
1.0
 77
     0
 47
0.0208333333333333
 47
0.0
 47
0.0
 47
0.0
 47
0.0
 47
0.0208333333333333
 47
0.0
 47
0.0
 47
0.0
 47
0.0
 47
1.0
 47
0.0
 47
0.0
 47
0.0
 47
0.0
 47
1.0
171
     0
 49
0.0208333333333333
 49
0.0
 49
0.0
 49
0.0
 49
0.0
 49
0.0208333333333333
 49
0.0
 49
0.0
 49
0.0
 49
0.0
 49
1.0
 49
0.0
 49
0.0
 49
0.0
 49
0.0
 49
1.0
175
     0
142
0.0208333333333333
142
0.0
142
0.0
142
0.0
142
0.0
142
0.0208333333333333
142
0.0
142
0.0
142
0.0
142
0.0
142
1.0
142
0.0
142
0.0
142
0.0
142
0.0
142
1.0
179
     0
144
0.0208333333333333
144
0.0
144
0.0
144
0.0
144
0.0
144
0.0208333333333333
144
0.0
144
0.0
144
0.0
144
0.0
144
1.0
144
0.0
144
0.0
144
0.0
144
0.0
144
1.0
147
0.0208333333333333
147
0.0
147
0.0
147
0.0
147
0.0
147
0.0208333333333333
147
0.0
147
0.0
147
0.0
147
0.0
147
1.0
147
0.0
147
0.0
147
0.0
147
0.0
147
1.0
  0
MATERIAL
  5
3D32
102
{ACAD_XDICTIONARY
360
3D33
102
}
102
{ACAD_REACTORS
330
3D21
102
}
330
3D21
100
AcDbMaterial
  1
Global
 72
     0
 43
0.0208333333333333
 43
0.0
 43
0.0
 43
0.0
 43
0.0
 43
0.0208333333333333
 43
0.0
 43
0.0
 43
0.0
 43
0.0
 43
1.0
 43
0.0
 43
0.0
 43
0.0
 43
0.0
 43
1.0
 77
     0
 47
0.0208333333333333
 47
0.0
 47
0.0
 47
0.0
 47
0.0
 47
0.0208333333333333
 47
0.0
 47
0.0
 47
0.0
 47
0.0
 47
1.0
 47
0.0
 47
0.0
 47
0.0
 47
0.0
 47
1.0
171
     0
 49
0.0208333333333333
 49
0.0
 49
0.0
 49
0.0
 49
0.0
 49
0.0208333333333333
 49
0.0
 49
0.0
 49
0.0
 49
0.0
 49
1.0
 49
0.0
 49
0.0
 49
0.0
 49
0.0
 49
1.0
175
     0
142
0.0208333333333333
142
0.0
142
0.0
142
0.0
142
0.0
142
0.0208333333333333
142
0.0
142
0.0
142
0.0
142
0.0
142
1.0
142
0.0
142
0.0
142
0.0
142
0.0
142
1.0
179
     0
144
0.0208333333333333
144
0.0
144
0.0
144
0.0
144
0.0
144
0.0208333333333333
144
0.0
144
0.0
144
0.0
144
0.0
144
1.0
144
0.0
144
0.0
144
0.0
144
0.0
144
1.0
147
0.0208333333333333
147
0.0
147
0.0
147
0.0
147
0.0
147
0.0208333333333333
147
0.0
147
0.0
147
0.0
147
0.0
147
1.0
147
0.0
147
0.0
147
0.0
147
0.0
147
1.0
  0
MLEADERSTYLE
  5
3D64
102
{ACAD_REACTORS
330
3D63
102
}
330
3D63
100
AcDbMLeaderStyle
170
     2
171
     1
172
     0
 90
        2
 40
0.0
 41
0.0
173
     1
 91
-1056964608
340
12
 92
       -2
290
     1
 42
2.0
291
     1
 43
0.36
  3
Standard
 44
4.0
300

342
F
174
     1
178
     6
175
     1
176
     0
 93
-1056964608
 45
4.0
292
     0
297
     0
 46
4.0
 94
-1056964608
 47
1.0
 49
1.0
140
1.0
293
     1
141
0.0
294
     1
177
     0
142
1.0
295
     0
296
     0
143
0.125
1001
ACAD_MLEADERVER
1070
     2
  0
MLINESTYLE
  5
1C
102
{ACAD_REACTORS
330
1B
102
}
330
1B
100
AcDbMlineStyle
  2
STANDARD
 70
     0
  3

 62
   256
 51
90.0
 52
90.0
 71
     2
 49
0.5
 62
   256
  6
BYLAYER
 49
-0.5
 62
   256
  6
BYLAYER
  0
ACDBPLACEHOLDER
  5
35CB
102
{ACAD_REACTORS
330
35CA
102
}
330
35CA
  0
SCALE
  5
3D52
102
{ACAD_REACTORS
330
3D51
102
}
330
3D51
100
AcDbScale
 70
     0
300
1:1
140
1.0
141
1.0
290
     1
  0
SCALE
  5
3D53
102
{ACAD_REACTORS
330
3D51
102
}
330
3D51
100
AcDbScale
 70
     0
300
1:2
140
1.0
141
2.0
290
     0
  0
SCALE
  5
3D54
102
{ACAD_REACTORS
330
3D51
102
}
330
3D51
100
AcDbScale
 70
     0
300
1:4
140
1.0
141
4.0
290
     0
  0
SCALE
  5
3D55
102
{ACAD_REACTORS
330
3D51
102
}
330
3D51
100
AcDbScale
 70
     0
300
1:5
140
1.0
141
5.0
290
     0
  0
SCALE
  5
3D56
102
{ACAD_REACTORS
330
3D51
102
}
330
3D51
100
AcDbScale
 70
     0
300
1:8
140
1.0
141
8.0
290
     0
  0
SCALE
  5
3D57
102
{ACAD_REACTORS
330
3D51
102
}
330
3D51
100
AcDbScale
 70
     0
300
1:10
140
1.0
141
10.0
290
     0
  0
SCALE
  5
3D58
102
{ACAD_REACTORS
330
3D51
102
}
330
3D51
100
AcDbScale
 70
     0
300
1:16
140
1.0
141
16.0
290
     0
  0
SCALE
  5
3D59
102
{ACAD_REACTORS
330
3D51
102
}
330
3D51
100
AcDbScale
 70
     0
300
1:20
140
1.0
141
20.0
290
     0
  0
SCALE
  5
3D5A
102
{ACAD_REACTORS
330
3D51
102
}
330
3D51
100
AcDbScale
 70
     0
300
1:30
140
1.0
141
30.0
290
     0
  0
SCALE
  5
3D5B
102
{ACAD_REACTORS
330
3D51
102
}
330
3D51
100
AcDbScale
 70
     0
300
1:40
140
1.0
141
40.0
290
     0
  0
SCALE
  5
3D5C
102
{ACAD_REACTORS
330
3D51
102
}
330
3D51
100
AcDbScale
 70
     0
300
1:50
140
1.0
141
50.0
290
     0
  0
SCALE
  5
3D5D
102
{ACAD_REACTORS
330
3D51
102
}
330
3D51
100
AcDbScale
 70
     0
300
1:100
140
1.0
141
100.0
290
     0
  0
SCALE
  5
3D5E
102
{ACAD_REACTORS
330
3D51
102
}
330
3D51
100
AcDbScale
 70
     0
300
2:1
140
2.0
141
1.0
290
     0
  0
SCALE
  5
3D5F
102
{ACAD_REACTORS
330
3D51
102
}
330
3D51
100
AcDbScale
 70
     0
300
4:1
140
4.0
141
1.0
290
     0
  0
SCALE
  5
3D60
102
{ACAD_REACTORS
330
3D51
102
}
330
3D51
100
AcDbScale
 70
     0
300
8:1
140
8.0
141
1.0
290
     0
  0
SCALE
  5
3D61
102
{ACAD_REACTORS
330
3D51
102
}
330
3D51
100
AcDbScale
 70
     0
300
10:1
140
10.0
141
1.0
290
     0
  0
SCALE
  5
3D62
102
{ACAD_REACTORS
330
3D51
102
}
330
3D51
100
AcDbScale
 70
     0
300
100:1
140
100.0
141
1.0
290
     0
  0
TABLESTYLE
  5
3D50
102
{ACAD_XDICTIONARY
360
4115
102
}
102
{ACAD_REACTORS
330
3D4F
102
}
330
3D4F
100
AcDbTableStyle
  3
Standard
 70
     0
 71
     0
 40
1.5
 41
1.5
280
     0
281
     0
  7
STANDARD
140
4.5
170
     2
 62
     0
 63
     7
283
     0
274
    -2
284
     1
 64
     0
275
    -2
285
     1
 65
     0
276
    -2
286
     1
 66
     0
277
    -2
287
     1
 67
     0
278
    -2
288
     1
 68
     0
279
    -2
289
     1
 69
     0
  7
STANDARD
140
6.0
170
     5
 62
     0
 63
     7
283
     0
274
    -2
284
     1
 64
     0
275
    -2
285
     1
 65
     0
276
    -2
286
     1
 66
     0
277
    -2
287
     1
 67
     0
278
    -2
288
     1
 68
     0
279
    -2
289
     1
 69
     0
  7
STANDARD
140
4.5
170
     5
 62
     0
 63
     7
283
     0
274
    -2
284
     1
 64
     0
275
    -2
285
     1
 65
     0
276
    -2
286
     1
 66
     0
277
    -2
287
     1
 67
     0
278
    -2
288
     1
 68
     0
279
    -2
289
     1
 69
     0
  0
VISUALSTYLE
  5
3D40
102
{ACAD_XDICTIONARY
360
41D2
102
}
102
{ACAD_REACTORS
330
3D3A
102
}
330
3D3A
100
AcDbVisualStyle
  2

 70
     4
 71
     0
 72
     2
 73
     0
 90
        0
 40
-0.6
 41
-30.0
 62
     5
 63
     7
 74
     1
 91
        4
 64
     7
 65
   257
 75
     1
175
     1
 42
1.0
 92
        0
 66
   257
 43
1.0
 76
     1
 77
     6
 78
     2
 67
     7
 79
     5
170
     0
171
     0
290
     0
174
     0
 93
        1
 44
0.0
173
     0
291
     0
 45
0.0
1001
ACAD
1000
AcDbSavedByObjectVersion
1070
     0
  0
VISUALSTYLE
  5
3D42
102
{ACAD_XDICTIONARY
360
41D6
102
}
102
{ACAD_REACTORS
330
3D3A
102
}
330
3D3A
100
AcDbVisualStyle
  2

 70
     6
 71
     1
 72
     2
 73
     2
 90
        0
 40
-0.6
 41
-30.0
 62
     5
 63
     7
 74
     2
 91
        2
 64
     7
 65
   257
 75
     2
175
     1
 42
179.0
 92
        0
 66
   257
 43
1.0
 76
     1
 77
     6
 78
     2
 67
     7
 79
     3
170
     0
171
     0
290
     0
174
     0
 93
        1
 44
0.0
173
     0
291
     0
 45
0.0
1001
ACAD
1000
AcDbSavedByObjectVersion
1070
     0
  0
VISUALSTYLE
  5
3D41
102
{ACAD_XDICTIONARY
360
41D4
102
}
102
{ACAD_REACTORS
330
3D3A
102
}
330
3D3A
100
AcDbVisualStyle
  2

 70
     5
 71
     0
 72
     2
 73
     0
 90
        0
 40
-0.6
 41
-30.0
 62
     5
 63
     7
 74
     1
 91
        4
 64
     7
 65
   257
 75
     1
175
     1
 42
1.0
 92
        0
 66
   257
 43
1.0
 76
     1
 77
     6
 78
     2
 67
     7
 79
     5
170
     0
171
     0
290
     0
174
     0
 93
        1
 44
0.0
173
     0
291
     0
 45
0.0
1001
ACAD
1000
AcDbSavedByObjectVersion
1070
     0
  0
VISUALSTYLE
  5
3D3F
102
{ACAD_XDICTIONARY
360
41D0
102
}
102
{ACAD_REACTORS
330
3D3A
102
}
330
3D3A
100
AcDbVisualStyle
  2

 70
     7
 71
     1
 72
     0
 73
     1
 90
        0
 40
-0.6
 41
-30.0
 62
     5
 63
     7
 74
     0
 91
        4
 64
     7
 65
   257
 75
     1
175
     1
 42
1.0
 92
        8
 66
     7
 43
1.0
 76
     1
 77
     6
 78
     2
 67
     7
 79
     5
170
     0
171
     0
290
     0
174
     0
 93
        1
 44
0.0
173
     0
291
     1
 45
0.0
1001
ACAD
1000
AcDbSavedByObjectVersion
1070
     0
  0
VISUALSTYLE
  5
3D46
102
{ACAD_XDICTIONARY
360
41DE
102
}
102
{ACAD_REACTORS
330
3D3A
102
}
330
3D3A
100
AcDbVisualStyle
  2

 70
    12
 71
     2
 72
     2
 73
     0
 90
        0
 40
-0.6
 41
-30.0
 62
     5
 63
     7
 74
     1
 91
        4
 64
     7
 65
   257
 75
     1
175
     1
 42
1.0
 92
        8
 66
     7
 43
1.0
 76
     1
 77
     6
 78
     2
 67
     7
 79
     5
170
     0
171
     0
290
     0
174
     0
 93
        1
 44
50.0
173
     0
291
     1
 45
0.0
1001
ACAD
1000
AcDbSavedByObjectVersion
1070
     0
  0
VISUALSTYLE
  5
3D4A
102
{ACAD_XDICTIONARY
360
41E6
102
}
102
{ACAD_REACTORS
330
3D3A
102
}
330
3D3A
100
AcDbVisualStyle
  2

 70
    16
 71
     2
 72
     2
 73
     3
 90
        0
 40
-0.6
 41
-30.0
 62
     5
 63
     8
 74
     1
 91
        4
 64
     7
 65
   257
 75
     1
175
     1
 42
1.0
 92
        8
 66
     8
 43
1.0
 76
     1
 77
     6
 78
     2
 67
     7
 79
     5
170
     0
171
     0
290
     0
174
     0
 93
        1
 44
0.0
173
     0
291
     1
 45
0.0
1001
ACAD
1000
AcDbSavedByObjectVersion
1070
     0
  0
VISUALSTYLE
  5
3D43
102
{ACAD_XDICTIONARY
360
41D8
102
}
102
{ACAD_REACTORS
330
3D3A
102
}
330
3D3A
100
AcDbVisualStyle
  2

 70
     9
 71
     3
 72
     2
 73
     0
 90
        0
 40
-0.6
 41
-30.0
 62
     5
 63
     7
 74
     2
 91
        2
 64
     7
 65
   257
 75
     1
175
     1
 42
179.0
 92
        8
 66
     7
 43
1.0
 76
     1
 77
     6
 78
     2
 67
     7
 79
     3
170
     0
171
     0
290
     0
174
     0
 93
        1
 44
0.0
173
     0
291
     0
 45
0.0
1001
ACAD
1000
AcDbSavedByObjectVersion
1070
     0
  0
VISUALSTYLE
  5
3D45
102
{ACAD_XDICTIONARY
360
41DC
102
}
102
{ACAD_REACTORS
330
3D3A
102
}
330
3D3A
100
AcDbVisualStyle
  2

 70
    11
 71
     2
 72
     2
 73
     0
 90
        0
 40
-0.6
 41
-30.0
 62
     5
 63
     7
 74
     1
 91
        4
 64
     7
 65
   257
 75
     1
175
     1
 42
1.0
 92
        8
 66
     7
 43
1.0
 76
     1
 77
     6
 78
     2
 67
     7
 79
     5
170
     0
171
     0
290
     0
174
     0
 93
        1
 44
-50.0
173
     0
291
     1
 45
0.0
1001
ACAD
1000
AcDbSavedByObjectVersion
1070
     0
  0
VISUALSTYLE
  5
3D4D
102
{ACAD_XDICTIONARY
360
41EC
102
}
102
{ACAD_REACTORS
330
3D3A
102
}
330
3D3A
100
AcDbVisualStyle
  2

 70
    22
 71
     2
 72
     2
 73
     0
 90
        0
 40
-0.6
 41
-30.0
 62
     5
 63
     7
 74
     1
 91
        4
 64
     7
 65
   257
 75
     1
175
     1
 42
1.0
 92
        8
 66
     7
 43
1.0
 76
     1
 77
     6
 78
     2
 67
     7
 79
     5
170
     0
171
     0
290
     0
174
     0
 93
        1
 44
0.0
173
     0
291
     1
 45
0.0
1001
ACAD
1000
AcDbSavedByObjectVersion
1070
     0
  0
VISUALSTYLE
  5
3D49
102
{ACAD_XDICTIONARY
360
41E4
102
}
102
{ACAD_REACTORS
330
3D3A
102
}
330
3D3A
100
AcDbVisualStyle
  2

 70
    15
 71
     2
 72
     2
 73
     0
 90
        0
 40
-0.6
 41
-30.0
 62
     5
 63
     7
 74
     1
 91
        4
 64
     7
 65
   257
 75
     1
175
     1
 42
1.0
 92
        8
 66
     7
 43
1.0
 76
     1
 77
     6
 78
     2
 67
     7
 79
     5
170
     0
171
     0
290
     0
174
     0
 93
        1
 44
0.0
173
     0
291
     1
 45
0.0
1001
ACAD
1000
AcDbSavedByObjectVersion
1070
     0
  0
VISUALSTYLE
  5
3D3B
102
{ACAD_XDICTIONARY
360
41C8
102
}
102
{ACAD_REACTORS
330
3D3A
102
}
330
3D3A
100
AcDbVisualStyle
  2

 70
     0
 71
     2
 72
     1
 73
     1
 90
        2
 40
-0.6
 41
30.0
 62
     5
 63
     7
 74
     0
 91
        4
 64
     7
 65
   257
 75
     1
175
     1
 42
1.0
 92
        8
 66
     7
 43
1.0
 76
     1
 77
     6
 78
     2
 67
     7
 79
     5
170
     0
171
     0
290
     0
174
     0
 93
       13
 44
0.0
173
     0
291
     1
 45
0.0
1001
ACAD
1000
AcDbSavedByObjectVersion
1070
     0
  0
VISUALSTYLE
  5
3D3C
102
{ACAD_XDICTIONARY
360
41CA
102
}
102
{ACAD_REACTORS
330
3D3A
102
}
330
3D3A
100
AcDbVisualStyle
  2

 70
     1
 71
     2
 72
     1
 73
     1
 90
        2
 40
-0.6
 41
30.0
 62
     5
 63
     7
 74
     1
 91
        4
 64
     7
 65
   257
 75
     1
175
     1
 42
1.0
 92
        0
 66
   257
 43
1.0
 76
     1
 77
     6
 78
     2
 67
     7
 79
     5
170
     0
171
     0
290
     0
174
     0
 93
       13
 44
0.0
173
     0
291
     1
 45
0.0
1001
ACAD
1000
AcDbSavedByObjectVersion
1070
     0
  0
VISUALSTYLE
  5
3D3D
102
{ACAD_XDICTIONARY
360
41CC
102
}
102
{ACAD_REACTORS
330
3D3A
102
}
330
3D3A
100
AcDbVisualStyle
  2

 70
     2
 71
     2
 72
     2
 73
     1
 90
        2
 40
-0.6
 41
30.0
 62
     5
 63
     7
 74
     0
 91
        4
 64
     7
 65
   257
 75
     1
175
     1
 42
1.0
 92
        0
 66
     7
 43
1.0
 76
     1
 77
     6
 78
     2
 67
     7
 79
     5
170
     0
171
     0
290
     0
174
     0
 93
       13
 44
0.0
173
     0
291
     1
 45
0.0
1001
ACAD
1000
AcDbSavedByObjectVersion
1070
     0
  0
VISUALSTYLE
  5
3D3E
102
{ACAD_XDICTIONARY
360
41CE
102
}
102
{ACAD_REACTORS
330
3D3A
102
}
330
3D3A
100
AcDbVisualStyle
  2

 70
     3
 71
     2
 72
     2
 73
     1
 90
        2
 40
-0.6
 41
30.0
 62
     5
 63
     7
 74
     1
 91
        4
 64
     7
 65
   257
 75
     1
175
     1
 42
1.0
 92
        0
 66
   257
 43
1.0
 76
     1
 77
     6
 78
     2
 67
     7
 79
     5
170
     0
171
     0
290
     0
174
     0
 93
       13
 44
0.0
173
     0
291
     1
 45
0.0
1001
ACAD
1000
AcDbSavedByObjectVersion
1070
     0
  0
VISUALSTYLE
  5
41AD
102
{ACAD_XDICTIONARY
360
41F1
102
}
102
{ACAD_REACTORS
330
3D3A
102
}
330
3D3A
100
AcDbVisualStyle
  2
Hidden
 70
     6
 71
     1
 72
     2
 73
     2
 90
        0
 40
-0.6
 41
-30.0
 62
     5
 63
     7
 74
     2
 91
        2
 64
     7
 65
   257
 75
     2
175
     1
 42
40.0
 92
        0
 66
   257
 43
1.0
 76
     1
 77
     6
 78
     2
 67
     7
 79
     3
170
     0
171
     0
290
     0
174
     0
 93
        1
 44
0.0
173
     0
291
     0
 45
0.0
1001
ACAD
1000
AcDbSavedByObjectVersion
1070
     0
  0
VISUALSTYLE
  5
3D4B
102
{ACAD_XDICTIONARY
360
41E8
102
}
102
{ACAD_REACTORS
330
3D3A
102
}
330
3D3A
100
AcDbVisualStyle
  2

 70
    20
 71
     2
 72
     2
 73
     0
 90
        0
 40
-0.6
 41
-30.0
 62
     5
 63
     7
 74
     1
 91
        4
 64
     7
 65
   257
 75
     1
175
     1
 42
1.0
 92
       10
 66
     7
 43
1.0
 76
     1
 77
     6
 78
     2
 67
     7
 79
     5
170
     0
171
     0
290
     0
174
     0
 93
        1
 44
0.0
173
     0
291
     1
 45
0.0
1001
ACAD
1000
AcDbSavedByObjectVersion
1070
     0
  0
VISUALSTYLE
  5
3D48
102
{ACAD_XDICTIONARY
360
41E2
102
}
102
{ACAD_REACTORS
330
3D3A
102
}
330
3D3A
100
AcDbVisualStyle
  2

 70
    14
 71
     2
 72
     2
 73
     0
 90
        0
 40
-0.6
 41
-30.0
 62
     5
 63
     7
 74
     1
 91
        4
 64
     7
 65
   257
 75
     7
175
     7
 42
1.0
 92
        8
 66
     7
 43
1.0
 76
     1
 77
     6
 78
     2
 67
     7
 79
     5
170
     0
171
     0
290
     0
174
     0
 93
        1
 44
0.0
173
     0
291
     1
 45
0.0
1001
ACAD
1000
AcDbSavedByObjectVersion
1070
     0
  0
VISUALSTYLE
  5
3D4C
102
{ACAD_XDICTIONARY
360
41EA
102
}
102
{ACAD_REACTORS
330
3D3A
102
}
330
3D3A
100
AcDbVisualStyle
  2

 70
    21
 71
     2
 72
     2
 73
     0
 90
        0
 40
-0.6
 41
-30.0
 62
     5
 63
     7
 74
     1
 91
        4
 64
     7
 65
   257
 75
     1
175
     1
 42
1.0
 92
        9
 66
     7
 43
1.0
 76
     1
 77
     6
 78
     2
 67
     7
 79
     5
170
     0
171
     0
290
     0
174
     0
 93
        1
 44
0.0
173
     0
291
     1
 45
0.0
1001
ACAD
1000
AcDbSavedByObjectVersion
1070
     0
  0
VISUALSTYLE
  5
3D44
102
{ACAD_XDICTIONARY
360
41DA
102
}
102
{ACAD_REACTORS
330
3D3A
102
}
330
3D3A
100
AcDbVisualStyle
  2

 70
     8
 71
     2
 72
     2
 73
     0
 90
        0
 40
-0.6
 41
-30.0
 62
     5
 63
     7
 74
     1
 91
        0
 64
     7
 65
   257
 75
     1
175
     1
 42
1.0
 92
        8
 66
     8
 43
1.0
 76
     1
 77
     6
 78
     2
 67
     7
 79
     5
170
     0
171
     0
290
     0
174
     0
 93
       13
 44
0.0
173
     0
291
     0
 45
0.0
1001
ACAD
1000
AcDbSavedByObjectVersion
1070
     0
  0
VISUALSTYLE
  5
41B2
102
{ACAD_XDICTIONARY
360
41FB
102
}
102
{ACAD_REACTORS
330
3D3A
102
}
330
3D3A
100
AcDbVisualStyle
  2
Shaded
 70
    27
 71
     2
 72
     2
 73
     1
 90
        2
 40
-0.6
 41
30.0
 62
     5
 63
     7
 74
     0
 91
        4
 64
     7
 65
   257
 75
     1
175
     1
 42
1.0
 92
        8
 66
   257
 43
1.0
 76
     1
 77
     6
 78
     2
 67
     8
 79
     3
170
     0
171
     0
290
     0
174
     0
 93
        5
 44
0.0
173
     0
291
     0
 45
0.0
1001
ACAD
1000
AcDbSavedByObjectVersion
1070
     0
  0
VISUALSTYLE
  5
41B1
102
{ACAD_XDICTIONARY
360
41F9
102
}
102
{ACAD_REACTORS
330
3D3A
102
}
330
3D3A
100
AcDbVisualStyle
  2
Shaded with edges
 70
    26
 71
     2
 72
     2
 73
     1
 90
        2
 40
-0.6
 41
30.0
 62
     5
 63
     7
 74
     1
 91
       10
 64
     7
 65
   257
 75
     2
175
     1
 42
1.0
 92
        8
 66
   257
 43
1.0
 76
     1
 77
     6
 78
     2
 67
     7
 79
     3
170
     0
171
     0
290
     0
174
     0
 93
        5
 44
0.0
173
     0
291
     0
 45
0.0
1001
ACAD
1000
AcDbSavedByObjectVersion
1070
     0
  0
VISUALSTYLE
  5
41AE
102
{ACAD_XDICTIONARY
360
41F3
102
}
102
{ACAD_REACTORS
330
3D3A
102
}
330
3D3A
100
AcDbVisualStyle
  2
Shades of Gray
 70
    23
 71
     2
 72
     2
 73
     3
 90
        0
 40
-0.6
 41
-30.0
 62
     5
 63
     7
 74
     2
 91
        2
 64
     7
 65
     7
 75
     1
175
     1
 42
40.0
 92
        8
 66
     7
 43
1.0
 76
     1
 77
     6
 78
     2
 67
     7
 79
     3
170
     0
171
     0
290
     0
174
     0
 93
        1
 44
0.0
173
     0
291
     0
 45
0.0
1001
ACAD
1000
AcDbSavedByObjectVersion
1070
     0
  0
VISUALSTYLE
  5
41AF
102
{ACAD_XDICTIONARY
360
41F5
102
}
102
{ACAD_REACTORS
330
3D3A
102
}
330
3D3A
100
AcDbVisualStyle
  2
Sketchy
 70
    24
 71
     1
 72
     2
 73
     2
 90
        0
 40
-0.6
 41
-30.0
 62
     5
 63
     7
 74
     2
 91
        2
 64
     7
 65
     7
 75
     1
175
     1
 42
40.0
 92
       11
 66
     7
 43
1.0
 76
     1
 77
     6
 78
     2
 67
     7
 79
     6
170
     0
171
     0
290
     0
174
     0
 93
        1
 44
0.0
173
     0
291
     0
 45
0.0
1001
ACAD
1000
AcDbSavedByObjectVersion
1070
     0
  0
VISUALSTYLE
  5
3D47
102
{ACAD_XDICTIONARY
360
41E0
102
}
102
{ACAD_REACTORS
330
3D3A
102
}
330
3D3A
100
AcDbVisualStyle
  2

 70
    13
 71
     2
 72
     2
 73
     0
 90
        0
 40
-0.6
 41
-30.0
 62
     5
 63
     7
 74
     1
 91
        4
 64
     7
 65
   257
 75
     1
175
     1
 42
1.0
 92
       12
 66
     7
 43
1.0
 76
     1
 77
     6
 78
     2
 67
     7
 79
     5
170
     0
171
     0
290
     0
174
     0
 93
        1
 44
0.0
173
     0
291
     1
 45
0.0
1001
ACAD
1000
AcDbSavedByObjectVersion
1070
     0
  0
VISUALSTYLE
  5
41AC
102
{ACAD_XDICTIONARY
360
41EF
102
}
102
{ACAD_REACTORS
330
3D3A
102
}
330
3D3A
100
AcDbVisualStyle
  2
Wireframe
 70
     5
 71
     0
 72
     2
 73
     0
 90
        0
 40
-0.6
 41
-30.0
 62
     5
 63
     7
 74
     1
 91
        4
 64
     7
 65
   257
 75
     1
175
     1
 42
1.0
 92
        0
 66
   257
 43
1.0
 76
     1
 77
     6
 78
     2
 67
     7
 79
     3
170
     0
171
     0
290
     0
174
     0
 93
        1
 44
0.0
173
     0
291
     0
 45
0.0
1001
ACAD
1000
AcDbSavedByObjectVersion
1070
     0
  0
VISUALSTYLE
  5
41B0
102
{ACAD_XDICTIONARY
360
41F7
102
}
102
{ACAD_REACTORS
330
3D3A
102
}
330
3D3A
100
AcDbVisualStyle
  2
X-Ray
 70
    25
 71
     2
 72
     2
 73
     1
 90
        1
 40
0.5
 41
-30.0
 62
     5
 63
     7
 74
     1
 91
        0
 64
     7
 65
   257
 75
     1
175
     1
 42
1.0
 92
        8
 66
     7
 43
1.0
 76
     1
 77
     6
 78
     2
 67
     7
 79
     3
170
     0
171
     0
290
     0
174
     0
 93
       13
 44
0.0
173
     0
291
     0
 45
0.0
1001
ACAD
1000
AcDbSavedByObjectVersion
1070
     0
  0
DICTIONARYVAR
  5
4112
102
{ACAD_REACTORS
330
12D
102
}
330
12D
100
DictionaryVariables
280
     0
  1
1:1
  0
DICTIONARYVAR
  5
4111
102
{ACAD_REACTORS
330
12D
102
}
330
12D
100
DictionaryVariables
280
     0
  1
STANDARD
  0
DICTIONARYVAR
  5
4110
102
{ACAD_REACTORS
330
12D
102
}
330
12D
100
DictionaryVariables
280
     0
  1
STANDARD
  0
DICTIONARYVAR
  5
35D5
102
{ACAD_REACTORS
330
12D
102
}
330
12D
100
DictionaryVariables
280
     0
  1
1
  0
DICTIONARYVAR
  5
4113
102
{ACAD_REACTORS
330
12D
102
}
330
12D
100
DictionaryVariables
280
     0
  1
0
  0
DICTIONARYVAR
  5
12E
102
{ACAD_REACTORS
330
12D
102
}
330
12D
100
DictionaryVariables
280
     0
  1
96
  0
DICTIONARYVAR
  5
41BF
102
{ACAD_REACTORS
330
12D
102
}
330
12D
100
DictionaryVariables
280
     0
  1
2
  0
DICTIONARY
  5
41C4
330
35CE
100
AcDbDictionary
280
     1
281
     1
  3
ACAD_XREC_ROUNDTRIP
360
41C5
  0
DICTIONARY
  5
41C6
330
35CF
100
AcDbDictionary
280
     1
281
     1
  3
ACAD_XREC_ROUNDTRIP
360
41C7
  0
DICTIONARY
  5
3D2B
330
3D2A
100
AcDbDictionary
280
     1
281
     1
  3
ACAD_XREC_ROUNDTRIP
360
411E
  3
BUMPTILE
360
3D2D
  3
DIFFUSETILE
360
3D2C
  3
OPACITYTILE
360
3D30
  3
REFLECTIONTILE
360
3D2F
  3
REFRACTIONTILE
360
3D31
  3
SPECULARTILE
360
3D2E
  0
DICTIONARY
  5
3D23
330
3D22
100
AcDbDictionary
280
     1
281
     1
  3
ACAD_XREC_ROUNDTRIP
360
411D
  3
BUMPTILE
360
3D25
  3
DIFFUSETILE
360
3D24
  3
OPACITYTILE
360
3D28
  3
REFLECTIONTILE
360
3D27
  3
REFRACTIONTILE
360
3D29
  3
SPECULARTILE
360
3D26
  0
DICTIONARY
  5
3D33
330
3D32
100
AcDbDictionary
280
     1
281
     1
  3
ACAD_XREC_ROUNDTRIP
360
411F
  3
BUMPTILE
360
3D35
  3
DIFFUSETILE
360
3D34
  3
OPACITYTILE
360
3D38
  3
REFLECTIONTILE
360
3D37
  3
REFRACTIONTILE
360
3D39
  3
SPECULARTILE
360
3D36
  0
DICTIONARY
  5
4115
330
3D50
100
AcDbDictionary
280
     1
281
     1
  3
ACAD_ROUNDTRIP_2008_TABLESTYLE_CELLSTYLEMAP
360
41C0
  3
ACAD_XREC_ROUNDTRIP
360
41EE
  0
DICTIONARY
  5
41D2
330
3D40
100
AcDbDictionary
280
     1
281
     1
  3
ACAD_XREC_ROUNDTRIP
360
41D3
  0
DICTIONARY
  5
41D6
330
3D42
100
AcDbDictionary
280
     1
281
     1
  3
ACAD_XREC_ROUNDTRIP
360
41D7
  0
DICTIONARY
  5
41D4
330
3D41
100
AcDbDictionary
280
     1
281
     1
  3
ACAD_XREC_ROUNDTRIP
360
41D5
  0
DICTIONARY
  5
41D0
330
3D3F
100
AcDbDictionary
280
     1
281
     1
  3
ACAD_XREC_ROUNDTRIP
360
41D1
  0
DICTIONARY
  5
41DE
330
3D46
100
AcDbDictionary
280
     1
281
     1
  3
ACAD_XREC_ROUNDTRIP
360
41DF
  0
DICTIONARY
  5
41E6
330
3D4A
100
AcDbDictionary
280
     1
281
     1
  3
ACAD_XREC_ROUNDTRIP
360
41E7
  0
DICTIONARY
  5
41D8
330
3D43
100
AcDbDictionary
280
     1
281
     1
  3
ACAD_XREC_ROUNDTRIP
360
41D9
  0
DICTIONARY
  5
41DC
330
3D45
100
AcDbDictionary
280
     1
281
     1
  3
ACAD_XREC_ROUNDTRIP
360
41DD
  0
DICTIONARY
  5
41EC
330
3D4D
100
AcDbDictionary
280
     1
281
     1
  3
ACAD_XREC_ROUNDTRIP
360
41ED
  0
DICTIONARY
  5
41E4
330
3D49
100
AcDbDictionary
280
     1
281
     1
  3
ACAD_XREC_ROUNDTRIP
360
41E5
  0
DICTIONARY
  5
41C8
330
3D3B
100
AcDbDictionary
280
     1
281
     1
  3
ACAD_XREC_ROUNDTRIP
360
41C9
  0
DICTIONARY
  5
41CA
330
3D3C
100
AcDbDictionary
280
     1
281
     1
  3
ACAD_XREC_ROUNDTRIP
360
41CB
  0
DICTIONARY
  5
41CC
330
3D3D
100
AcDbDictionary
280
     1
281
     1
  3
ACAD_XREC_ROUNDTRIP
360
41CD
  0
DICTIONARY
  5
41CE
330
3D3E
100
AcDbDictionary
280
     1
281
     1
  3
ACAD_XREC_ROUNDTRIP
360
41CF
  0
DICTIONARY
  5
41F1
330
41AD
100
AcDbDictionary
280
     1
281
     1
  3
ACAD_XREC_ROUNDTRIP
360
41F2
  0
DICTIONARY
  5
41E8
330
3D4B
100
AcDbDictionary
280
     1
281
     1
  3
ACAD_XREC_ROUNDTRIP
360
41E9
  0
DICTIONARY
  5
41E2
330
3D48
100
AcDbDictionary
280
     1
281
     1
  3
ACAD_XREC_ROUNDTRIP
360
41E3
  0
DICTIONARY
  5
41EA
330
3D4C
100
AcDbDictionary
280
     1
281
     1
  3
ACAD_XREC_ROUNDTRIP
360
41EB
  0
DICTIONARY
  5
41DA
330
3D44
100
AcDbDictionary
280
     1
281
     1
  3
ACAD_XREC_ROUNDTRIP
360
41DB
  0
DICTIONARY
  5
41FB
330
41B2
100
AcDbDictionary
280
     1
281
     1
  3
ACAD_XREC_ROUNDTRIP
360
41FC
  0
DICTIONARY
  5
41F9
330
41B1
100
AcDbDictionary
280
     1
281
     1
  3
ACAD_XREC_ROUNDTRIP
360
41FA
  0
DICTIONARY
  5
41F3
330
41AE
100
AcDbDictionary
280
     1
281
     1
  3
ACAD_XREC_ROUNDTRIP
360
41F4
  0
DICTIONARY
  5
41F5
330
41AF
100
AcDbDictionary
280
     1
281
     1
  3
ACAD_XREC_ROUNDTRIP
360
41F6
  0
DICTIONARY
  5
41E0
330
3D47
100
AcDbDictionary
280
     1
281
     1
  3
ACAD_XREC_ROUNDTRIP
360
41E1
  0
DICTIONARY
  5
41EF
330
41AC
100
AcDbDictionary
280
     1
281
     1
  3
ACAD_XREC_ROUNDTRIP
360
41F0
  0
DICTIONARY
  5
41F7
330
41B0
100
AcDbDictionary
280
     1
281
     1
  3
ACAD_XREC_ROUNDTRIP
360
41F8
  0
XRECORD
  5
41C5
102
{ACAD_REACTORS
330
41C4
102
}
330
41C4
100
AcDbXrecord
280
     1
102
SHADEPLOT
 70
     0
102
SHADEPLOTRESLEVEL
 70
     2
102
SHADEPLOTCUSTOMDPI
 70
   300
  0
XRECORD
  5
41C7
102
{ACAD_REACTORS
330
41C6
102
}
330
41C6
100
AcDbXrecord
280
     1
102
SHADEPLOT
 70
     0
102
SHADEPLOTRESLEVEL
 70
     2
102
SHADEPLOTCUSTOMDPI
 70
   300
  0
XRECORD
  5
411E
102
{ACAD_REACTORS
330
3D2B
102
}
330
3D2B
100
AcDbXrecord
280
     1
102
MATERIAL
148
0.0
149
0.0
149
0.0
 93
        0
 94
      127
282
     0
 72
     0
 77
     0
171
     0
175
     0
179
     0
273
     0
  0
XRECORD
  5
3D2D
102
{ACAD_REACTORS
330
3D2B
102
}
330
3D2B
100
AcDbXrecord
280
     1
270
     1
271
     1
  0
XRECORD
  5
3D2C
102
{ACAD_REACTORS
330
3D2B
102
}
330
3D2B
100
AcDbXrecord
280
     1
270
     1
271
     1
  0
XRECORD
  5
3D30
102
{ACAD_REACTORS
330
3D2B
102
}
330
3D2B
100
AcDbXrecord
280
     1
270
     1
271
     1
  0
XRECORD
  5
3D2F
102
{ACAD_REACTORS
330
3D2B
102
}
330
3D2B
100
AcDbXrecord
280
     1
270
     1
271
     1
  0
XRECORD
  5
3D31
102
{ACAD_REACTORS
330
3D2B
102
}
330
3D2B
100
AcDbXrecord
280
     1
270
     1
271
     1
  0
XRECORD
  5
3D2E
102
{ACAD_REACTORS
330
3D2B
102
}
330
3D2B
100
AcDbXrecord
280
     1
270
     1
271
     1
  0
XRECORD
  5
411D
102
{ACAD_REACTORS
330
3D23
102
}
330
3D23
100
AcDbXrecord
280
     1
102
MATERIAL
148
0.0
149
0.0
149
0.0
 93
        0
 94
      127
282
     0
 72
     0
 77
     0
171
     0
175
     0
179
     0
273
     0
  0
XRECORD
  5
3D25
102
{ACAD_REACTORS
330
3D23
102
}
330
3D23
100
AcDbXrecord
280
     1
270
     1
271
     1
  0
XRECORD
  5
3D24
102
{ACAD_REACTORS
330
3D23
102
}
330
3D23
100
AcDbXrecord
280
     1
270
     1
271
     1
  0
XRECORD
  5
3D28
102
{ACAD_REACTORS
330
3D23
102
}
330
3D23
100
AcDbXrecord
280
     1
270
     1
271
     1
  0
XRECORD
  5
3D27
102
{ACAD_REACTORS
330
3D23
102
}
330
3D23
100
AcDbXrecord
280
     1
270
     1
271
     1
  0
XRECORD
  5
3D29
102
{ACAD_REACTORS
330
3D23
102
}
330
3D23
100
AcDbXrecord
280
     1
270
     1
271
     1
  0
XRECORD
  5
3D26
102
{ACAD_REACTORS
330
3D23
102
}
330
3D23
100
AcDbXrecord
280
     1
270
     1
271
     1
  0
XRECORD
  5
411F
102
{ACAD_REACTORS
330
3D33
102
}
330
3D33
100
AcDbXrecord
280
     1
102
MATERIAL
148
0.0
149
0.0
149
0.0
 93
        0
 94
      127
282
     0
 72
     0
 77
     0
171
     0
175
     0
179
     0
273
     0
  0
XRECORD
  5
3D35
102
{ACAD_REACTORS
330
3D33
102
}
330
3D33
100
AcDbXrecord
280
     1
270
     1
271
     1
  0
XRECORD
  5
3D34
102
{ACAD_REACTORS
330
3D33
102
}
330
3D33
100
AcDbXrecord
280
     1
270
     1
271
     1
  0
XRECORD
  5
3D38
102
{ACAD_REACTORS
330
3D33
102
}
330
3D33
100
AcDbXrecord
280
     1
270
     1
271
     1
  0
XRECORD
  5
3D37
102
{ACAD_REACTORS
330
3D33
102
}
330
3D33
100
AcDbXrecord
280
     1
270
     1
271
     1
  0
XRECORD
  5
3D39
102
{ACAD_REACTORS
330
3D33
102
}
330
3D33
100
AcDbXrecord
280
     1
270
     1
271
     1
  0
XRECORD
  5
3D36
102
{ACAD_REACTORS
330
3D33
102
}
330
3D33
100
AcDbXrecord
280
     1
270
     1
271
     1
  0
CELLSTYLEMAP
  5
41C0
102
{ACAD_REACTORS
330
4115
102
}
330
4115
100
AcDbCellStyleMap
 90
        3
300
CELLSTYLE
  1
TABLEFORMAT_BEGIN
 90
        5
170
     1
 91
        0
 92
    32768
 62
   257
 93
        1
300
CONTENTFORMAT
  1
CONTENTFORMAT_BEGIN
 90
        0
 91
        0
 92
      512
 93
        0
300

 40
0.0
140
1.0
 94
        5
 62
     0
340
F
144
6.0
309
CONTENTFORMAT_END
171
     1
301
MARGIN
  1
CELLMARGIN_BEGIN
 40
1.5
 40
1.5
 40
1.5
 40
1.5
 40
0.18
 40
0.18
309
CELLMARGIN_END
 94
        6
 95
        1
302
GRIDFORMAT
  1
GRIDFORMAT_BEGIN
 90
        0
 91
        1
 62
     0
 92
       -2
340
0
 93
        0
 40
1.125
309
GRIDFORMAT_END
 95
        2
302
GRIDFORMAT
  1
GRIDFORMAT_BEGIN
 90
        0
 91
        1
 62
     0
 92
       -2
340
0
 93
        0
 40
1.125
309
GRIDFORMAT_END
 95
        4
302
GRIDFORMAT
  1
GRIDFORMAT_BEGIN
 90
        0
 91
        1
 62
     0
 92
       -2
340
0
 93
        0
 40
1.125
309
GRIDFORMAT_END
 95
        8
302
GRIDFORMAT
  1
GRIDFORMAT_BEGIN
 90
        0
 91
        1
 62
     0
 92
       -2
340
0
 93
        0
 40
1.125
309
GRIDFORMAT_END
 95
       16
302
GRIDFORMAT
  1
GRIDFORMAT_BEGIN
 90
        0
 91
        1
 62
     0
 92
       -2
340
0
 93
        0
 40
1.125
309
GRIDFORMAT_END
 95
       32
302
GRIDFORMAT
  1
GRIDFORMAT_BEGIN
 90
        0
 91
        1
 62
     0
 92
       -2
340
0
 93
        0
 40
1.125
309
GRIDFORMAT_END
309
TABLEFORMAT_END
  1
CELLSTYLE_BEGIN
 90
        1
 91
        1
300
_TITLE
309
CELLSTYLE_END
300
CELLSTYLE
  1
TABLEFORMAT_BEGIN
 90
        5
170
     1
 91
        0
 92
        0
 62
   257
 93
        1
300
CONTENTFORMAT
  1
CONTENTFORMAT_BEGIN
 90
        0
 91
        0
 92
      512
 93
        0
300

 40
0.0
140
1.0
 94
        5
 62
     0
340
F
144
4.5
309
CONTENTFORMAT_END
171
     1
301
MARGIN
  1
CELLMARGIN_BEGIN
 40
1.5
 40
1.5
 40
1.5
 40
1.5
 40
0.18
 40
0.18
309
CELLMARGIN_END
 94
        6
 95
        1
302
GRIDFORMAT
  1
GRIDFORMAT_BEGIN
 90
        0
 91
        1
 62
     0
 92
       -2
340
0
 93
        0
 40
1.125
309
GRIDFORMAT_END
 95
        2
302
GRIDFORMAT
  1
GRIDFORMAT_BEGIN
 90
        0
 91
        1
 62
     0
 92
       -2
340
0
 93
        0
 40
1.125
309
GRIDFORMAT_END
 95
        4
302
GRIDFORMAT
  1
GRIDFORMAT_BEGIN
 90
        0
 91
        1
 62
     0
 92
       -2
340
0
 93
        0
 40
1.125
309
GRIDFORMAT_END
 95
        8
302
GRIDFORMAT
  1
GRIDFORMAT_BEGIN
 90
        0
 91
        1
 62
     0
 92
       -2
340
0
 93
        0
 40
1.125
309
GRIDFORMAT_END
 95
       16
302
GRIDFORMAT
  1
GRIDFORMAT_BEGIN
 90
        0
 91
        1
 62
     0
 92
       -2
340
0
 93
        0
 40
1.125
309
GRIDFORMAT_END
 95
       32
302
GRIDFORMAT
  1
GRIDFORMAT_BEGIN
 90
        0
 91
        1
 62
     0
 92
       -2
340
0
 93
        0
 40
1.125
309
GRIDFORMAT_END
309
TABLEFORMAT_END
  1
CELLSTYLE_BEGIN
 90
        2
 91
        1
300
_HEADER
309
CELLSTYLE_END
300
CELLSTYLE
  1
TABLEFORMAT_BEGIN
 90
        5
170
     1
 91
        0
 92
        0
 62
   257
 93
        1
300
CONTENTFORMAT
  1
CONTENTFORMAT_BEGIN
 90
        0
 91
        0
 92
      512
 93
        0
300

 40
0.0
140
1.0
 94
        2
 62
     0
340
F
144
4.5
309
CONTENTFORMAT_END
171
     1
301
MARGIN
  1
CELLMARGIN_BEGIN
 40
1.5
 40
1.5
 40
1.5
 40
1.5
 40
0.18
 40
0.18
309
CELLMARGIN_END
 94
        6
 95
        1
302
GRIDFORMAT
  1
GRIDFORMAT_BEGIN
 90
        0
 91
        1
 62
     0
 92
       -2
340
0
 93
        0
 40
1.125
309
GRIDFORMAT_END
 95
        2
302
GRIDFORMAT
  1
GRIDFORMAT_BEGIN
 90
        0
 91
        1
 62
     0
 92
       -2
340
0
 93
        0
 40
1.125
309
GRIDFORMAT_END
 95
        4
302
GRIDFORMAT
  1
GRIDFORMAT_BEGIN
 90
        0
 91
        1
 62
     0
 92
       -2
340
0
 93
        0
 40
1.125
309
GRIDFORMAT_END
 95
        8
302
GRIDFORMAT
  1
GRIDFORMAT_BEGIN
 90
        0
 91
        1
 62
     0
 92
       -2
340
0
 93
        0
 40
1.125
309
GRIDFORMAT_END
 95
       16
302
GRIDFORMAT
  1
GRIDFORMAT_BEGIN
 90
        0
 91
        1
 62
     0
 92
       -2
340
0
 93
        0
 40
1.125
309
GRIDFORMAT_END
 95
       32
302
GRIDFORMAT
  1
GRIDFORMAT_BEGIN
 90
        0
 91
        1
 62
     0
 92
       -2
340
0
 93
        0
 40
1.125
309
GRIDFORMAT_END
309
TABLEFORMAT_END
  1
CELLSTYLE_BEGIN
 90
        3
 91
        2
300
_DATA
309
CELLSTYLE_END
  0
XRECORD
  5
41EE
102
{ACAD_REACTORS
330
4115
102
}
330
4115
100
AcDbXrecord
280
     1
102
ACAD_ROUNDTRIP_PRE2007_TABLESTYLE
 90
      512
 91
        0
  1

 92
      512
 93
        0
  2

 94
      512
 95
        0
  3

  0
XRECORD
  5
41D3
102
{ACAD_REACTORS
330
41D2
102
}
330
41D2
100
AcDbXrecord
280
     1
102
RTVSPropertyOp0
 70
     1
102
RTVSPropertyOp1
 70
     1
102
RTVSPropertyOp2
 70
     1
102
RTVSPropertyOp3
 70
     1
102
RTVSPropertyOp4
 70
     1
102
RTVSPropertyOp5
 70
     1
102
RTVSPropertyOp6
 70
     1
102
RTVSPropertyOp7
 70
     1
102
RTVSPropertyOp8
 70
     1
102
RTVSPropertyOp9
 70
     1
102
RTVSPropertyOp10
 70
     1
102
RTVSPropertyOp11
 70
     1
102
RTVSPropertyOp12
 70
     1
102
RTVSPropertyOp13
 70
     1
102
RTVSPropertyOp14
 70
     1
102
RTVSPropertyOp15
 70
     1
102
RTVSPropertyOp16
 70
     1
102
RTVSPropertyOp17
 70
     1
102
RTVSPropertyOp18
 70
     1
102
RTVSPropertyOp19
 70
     1
102
RTVSPropertyOp20
 70
     1
102
RTVSPropertyOp21
 70
     1
102
RTVSPropertyOp22
 70
     1
102
RTVSPropertyOp23
 70
     1
102
RTVSPropertyOp24
 70
     1
102
RTVSPropertyOp25
 70
     1
102
RTVSPropertyOp26
 70
     1
102
RTVSPropertyOp27
 70
     1
102
RTVSPropertyOp28
 70
     1
102
RTVSPropertyOp29
 70
     1
102
RTVSPropertyOp30
 70
     1
102
RTVSPropertyOp31
 70
     1
102
RTVSPropertyOp32
 70
     1
  0
XRECORD
  5
41D7
102
{ACAD_REACTORS
330
41D6
102
}
330
41D6
100
AcDbXrecord
280
     1
102
RTVSPropertyOp0
 70
     1
102
RTVSPropertyOp1
 70
     1
102
RTVSPropertyOp2
 70
     1
102
RTVSPropertyOp3
 70
     1
102
RTVSPropertyOp4
 70
     1
102
RTVSPropertyOp5
 70
     1
102
RTVSPropertyOp6
 70
     1
102
RTVSPropertyOp7
 70
     1
102
RTVSPropertyOp8
 70
     1
102
RTVSPropertyOp9
 70
     1
102
RTVSPropertyOp10
 70
     1
102
RTVSPropertyOp11
 70
     1
102
RTVSPropertyOp12
 70
     1
102
RTVSPropertyOp13
 70
     1
102
RTVSPropertyOp14
 70
     1
102
RTVSPropertyOp15
 70
     1
102
RTVSPropertyOp16
 70
     1
102
RTVSPropertyOp17
 70
     1
102
RTVSPropertyOp18
 70
     1
102
RTVSPropertyOp19
 70
     1
102
RTVSPropertyOp20
 70
     1
102
RTVSPropertyOp21
 70
     1
102
RTVSPropertyOp22
 70
     1
102
RTVSPropertyOp23
 70
     1
102
RTVSPropertyOp24
 70
     1
102
RTVSPropertyOp25
 70
     1
102
RTVSPropertyOp26
 70
     1
102
RTVSPropertyOp27
 70
     1
102
RTVSPropertyOp28
 70
     1
102
RTVSPropertyOp29
 70
     1
102
RTVSPropertyOp30
 70
     1
102
RTVSPropertyOp31
 70
     1
102
RTVSPropertyOp32
 70
     1
  0
XRECORD
  5
41D5
102
{ACAD_REACTORS
330
41D4
102
}
330
41D4
100
AcDbXrecord
280
     1
102
RTVSPropertyOp0
 70
     1
102
RTVSPropertyOp1
 70
     1
102
RTVSPropertyOp2
 70
     1
102
RTVSPropertyOp3
 70
     1
102
RTVSPropertyOp4
 70
     1
102
RTVSPropertyOp5
 70
     1
102
RTVSPropertyOp6
 70
     1
102
RTVSPropertyOp7
 70
     1
102
RTVSPropertyOp8
 70
     1
102
RTVSPropertyOp9
 70
     1
102
RTVSPropertyOp10
 70
     1
102
RTVSPropertyOp11
 70
     1
102
RTVSPropertyOp12
 70
     1
102
RTVSPropertyOp13
 70
     1
102
RTVSPropertyOp14
 70
     1
102
RTVSPropertyOp15
 70
     1
102
RTVSPropertyOp16
 70
     1
102
RTVSPropertyOp17
 70
     1
102
RTVSPropertyOp18
 70
     1
102
RTVSPropertyOp19
 70
     1
102
RTVSPropertyOp20
 70
     1
102
RTVSPropertyOp21
 70
     1
102
RTVSPropertyOp22
 70
     1
102
RTVSPropertyOp23
 70
     1
102
RTVSPropertyOp24
 70
     1
102
RTVSPropertyOp25
 70
     1
102
RTVSPropertyOp26
 70
     1
102
RTVSPropertyOp27
 70
     1
102
RTVSPropertyOp28
 70
     1
102
RTVSPropertyOp29
 70
     1
102
RTVSPropertyOp30
 70
     1
102
RTVSPropertyOp31
 70
     1
102
RTVSPropertyOp32
 70
     1
  0
XRECORD
  5
41D1
102
{ACAD_REACTORS
330
41D0
102
}
330
41D0
100
AcDbXrecord
280
     1
102
RTVSPropertyOp0
 70
     1
102
RTVSPropertyOp1
 70
     1
102
RTVSPropertyOp2
 70
     1
102
RTVSPropertyOp3
 70
     1
102
RTVSPropertyOp4
 70
     1
102
RTVSPropertyOp5
 70
     1
102
RTVSPropertyOp6
 70
     1
102
RTVSPropertyOp7
 70
     1
102
RTVSPropertyOp8
 70
     1
102
RTVSPropertyOp9
 70
     1
102
RTVSPropertyOp10
 70
     1
102
RTVSPropertyOp11
 70
     1
102
RTVSPropertyOp12
 70
     1
102
RTVSPropertyOp13
 70
     1
102
RTVSPropertyOp14
 70
     1
102
RTVSPropertyOp15
 70
     1
102
RTVSPropertyOp16
 70
     1
102
RTVSPropertyOp17
 70
     1
102
RTVSPropertyOp18
 70
     1
102
RTVSPropertyOp19
 70
     1
102
RTVSPropertyOp20
 70
     1
102
RTVSPropertyOp21
 70
     1
102
RTVSPropertyOp22
 70
     1
102
RTVSPropertyOp23
 70
     1
102
RTVSPropertyOp24
 70
     1
102
RTVSPropertyOp25
 70
     1
102
RTVSPropertyOp26
 70
     1
102
RTVSPropertyOp27
 70
     1
102
RTVSPropertyOp28
 70
     1
102
RTVSPropertyOp29
 70
     1
102
RTVSPropertyOp30
 70
     1
102
RTVSPropertyOp31
 70
     1
102
RTVSPropertyOp32
 70
     1
  0
XRECORD
  5
41DF
102
{ACAD_REACTORS
330
41DE
102
}
330
41DE
100
AcDbXrecord
280
     1
102
RTVSPropertyOp0
 70
     1
102
RTVSPropertyOp1
 70
     1
102
RTVSPropertyOp2
 70
     1
102
RTVSPropertyOp3
 70
     1
102
RTVSPropertyOp4
 70
     1
102
RTVSPropertyOp5
 70
     1
102
RTVSPropertyOp6
 70
     1
102
RTVSPropertyOp7
 70
     1
102
RTVSPropertyOp8
 70
     1
102
RTVSPropertyOp9
 70
     1
102
RTVSPropertyOp10
 70
     1
102
RTVSPropertyOp11
 70
     1
102
RTVSPropertyOp12
 70
     1
102
RTVSPropertyOp13
 70
     1
102
RTVSPropertyOp14
 70
     1
102
RTVSPropertyOp15
 70
     1
102
RTVSPropertyOp16
 70
     1
102
RTVSPropertyOp17
 70
     1
102
RTVSPropertyOp18
 70
     1
102
RTVSPropertyOp19
 70
     1
102
RTVSPropertyOp20
 70
     1
102
RTVSPropertyOp21
 70
     1
102
RTVSPropertyOp22
 70
     1
102
RTVSPropertyOp23
 70
     1
102
RTVSPropertyOp24
 70
     1
102
RTVSPropertyOp25
 70
     1
102
RTVSPropertyOp26
 70
     1
102
RTVSPropertyOp27
 70
     1
102
RTVSPropertyOp28
 70
     1
102
RTVSPropertyOp29
 70
     1
102
RTVSPropertyOp30
 70
     1
102
RTVSPropertyOp31
 70
     1
102
RTVSPropertyOp32
 70
     1
  0
XRECORD
  5
41E7
102
{ACAD_REACTORS
330
41E6
102
}
330
41E6
100
AcDbXrecord
280
     1
102
RTVSPropertyOp0
 70
     1
102
RTVSPropertyOp1
 70
     1
102
RTVSPropertyOp2
 70
     1
102
RTVSPropertyOp3
 70
     1
102
RTVSPropertyOp4
 70
     1
102
RTVSPropertyOp5
 70
     1
102
RTVSPropertyOp6
 70
     1
102
RTVSPropertyOp7
 70
     1
102
RTVSPropertyOp8
 70
     1
102
RTVSPropertyOp9
 70
     1
102
RTVSPropertyOp10
 70
     1
102
RTVSPropertyOp11
 70
     1
102
RTVSPropertyOp12
 70
     1
102
RTVSPropertyOp13
 70
     1
102
RTVSPropertyOp14
 70
     1
102
RTVSPropertyOp15
 70
     1
102
RTVSPropertyOp16
 70
     1
102
RTVSPropertyOp17
 70
     1
102
RTVSPropertyOp18
 70
     1
102
RTVSPropertyOp19
 70
     1
102
RTVSPropertyOp20
 70
     1
102
RTVSPropertyOp21
 70
     1
102
RTVSPropertyOp22
 70
     1
102
RTVSPropertyOp23
 70
     1
102
RTVSPropertyOp24
 70
     1
102
RTVSPropertyOp25
 70
     1
102
RTVSPropertyOp26
 70
     1
102
RTVSPropertyOp27
 70
     1
102
RTVSPropertyOp28
 70
     1
102
RTVSPropertyOp29
 70
     1
102
RTVSPropertyOp30
 70
     1
102
RTVSPropertyOp31
 70
     1
102
RTVSPropertyOp32
 70
     1
  0
XRECORD
  5
41D9
102
{ACAD_REACTORS
330
41D8
102
}
330
41D8
100
AcDbXrecord
280
     1
102
RTVSPropertyOp0
 70
     1
102
RTVSPropertyOp1
 70
     1
102
RTVSPropertyOp2
 70
     1
102
RTVSPropertyOp3
 70
     1
102
RTVSPropertyOp4
 70
     1
102
RTVSPropertyOp5
 70
     1
102
RTVSPropertyOp6
 70
     1
102
RTVSPropertyOp7
 70
     1
102
RTVSPropertyOp8
 70
     1
102
RTVSPropertyOp9
 70
     1
102
RTVSPropertyOp10
 70
     1
102
RTVSPropertyOp11
 70
     1
102
RTVSPropertyOp12
 70
     1
102
RTVSPropertyOp13
 70
     1
102
RTVSPropertyOp14
 70
     1
102
RTVSPropertyOp15
 70
     1
102
RTVSPropertyOp16
 70
     1
102
RTVSPropertyOp17
 70
     1
102
RTVSPropertyOp18
 70
     1
102
RTVSPropertyOp19
 70
     1
102
RTVSPropertyOp20
 70
     1
102
RTVSPropertyOp21
 70
     1
102
RTVSPropertyOp22
 70
     1
102
RTVSPropertyOp23
 70
     1
102
RTVSPropertyOp24
 70
     1
102
RTVSPropertyOp25
 70
     1
102
RTVSPropertyOp26
 70
     1
102
RTVSPropertyOp27
 70
     1
102
RTVSPropertyOp28
 70
     1
102
RTVSPropertyOp29
 70
     1
102
RTVSPropertyOp30
 70
     1
102
RTVSPropertyOp31
 70
     1
102
RTVSPropertyOp32
 70
     1
  0
XRECORD
  5
41DD
102
{ACAD_REACTORS
330
41DC
102
}
330
41DC
100
AcDbXrecord
280
     1
102
RTVSPropertyOp0
 70
     1
102
RTVSPropertyOp1
 70
     1
102
RTVSPropertyOp2
 70
     1
102
RTVSPropertyOp3
 70
     1
102
RTVSPropertyOp4
 70
     1
102
RTVSPropertyOp5
 70
     1
102
RTVSPropertyOp6
 70
     1
102
RTVSPropertyOp7
 70
     1
102
RTVSPropertyOp8
 70
     1
102
RTVSPropertyOp9
 70
     1
102
RTVSPropertyOp10
 70
     1
102
RTVSPropertyOp11
 70
     1
102
RTVSPropertyOp12
 70
     1
102
RTVSPropertyOp13
 70
     1
102
RTVSPropertyOp14
 70
     1
102
RTVSPropertyOp15
 70
     1
102
RTVSPropertyOp16
 70
     1
102
RTVSPropertyOp17
 70
     1
102
RTVSPropertyOp18
 70
     1
102
RTVSPropertyOp19
 70
     1
102
RTVSPropertyOp20
 70
     1
102
RTVSPropertyOp21
 70
     1
102
RTVSPropertyOp22
 70
     1
102
RTVSPropertyOp23
 70
     1
102
RTVSPropertyOp24
 70
     1
102
RTVSPropertyOp25
 70
     1
102
RTVSPropertyOp26
 70
     1
102
RTVSPropertyOp27
 70
     1
102
RTVSPropertyOp28
 70
     1
102
RTVSPropertyOp29
 70
     1
102
RTVSPropertyOp30
 70
     1
102
RTVSPropertyOp31
 70
     1
102
RTVSPropertyOp32
 70
     1
  0
XRECORD
  5
41ED
102
{ACAD_REACTORS
330
41EC
102
}
330
41EC
100
AcDbXrecord
280
     1
102
RTVSPropertyOp0
 70
     0
102
RTVSPropertyOp1
 70
     0
102
RTVSPropertyOp2
 70
     0
102
RTVSPropertyOp3
 70
     0
102
RTVSPropertyOp4
 70
     0
102
RTVSPropertyOp5
 70
     0
102
RTVSPropertyOp6
 70
     0
102
RTVSPropertyOp7
 70
     0
102
RTVSPropertyOp8
 70
     0
102
RTVSPropertyOp9
 70
     0
102
RTVSPropertyOp10
 70
     0
102
RTVSPropertyOp11
 70
     0
102
RTVSPropertyOp12
 70
     0
102
RTVSPropertyOp13
 70
     0
102
RTVSPropertyOp14
 70
     2
102
RTVSPropertyOp15
 70
     0
102
RTVSPropertyOp16
 70
     0
102
RTVSPropertyOp17
 70
     0
102
RTVSPropertyOp18
 70
     0
102
RTVSPropertyOp19
 70
     0
102
RTVSPropertyOp20
 70
     0
102
RTVSPropertyOp21
 70
     0
102
RTVSPropertyOp22
 70
     0
102
RTVSPropertyOp23
 70
     0
102
RTVSPropertyOp24
 70
     0
102
RTVSPropertyOp25
 70
     0
102
RTVSPropertyOp26
 70
     0
102
RTVSPropertyOp27
 70
     0
102
RTVSPropertyOp28
 70
     1
102
RTVSPropertyOp29
 70
     1
102
RTVSPropertyOp30
 70
     1
102
RTVSPropertyOp31
 70
     1
102
RTVSPropertyOp32
 70
     1
  0
XRECORD
  5
41E5
102
{ACAD_REACTORS
330
41E4
102
}
330
41E4
100
AcDbXrecord
280
     1
102
RTVSPropertyOp0
 70
     1
102
RTVSPropertyOp1
 70
     1
102
RTVSPropertyOp2
 70
     1
102
RTVSPropertyOp3
 70
     1
102
RTVSPropertyOp4
 70
     1
102
RTVSPropertyOp5
 70
     1
102
RTVSPropertyOp6
 70
     1
102
RTVSPropertyOp7
 70
     1
102
RTVSPropertyOp8
 70
     1
102
RTVSPropertyOp9
 70
     1
102
RTVSPropertyOp10
 70
     1
102
RTVSPropertyOp11
 70
     1
102
RTVSPropertyOp12
 70
     1
102
RTVSPropertyOp13
 70
     1
102
RTVSPropertyOp14
 70
     1
102
RTVSPropertyOp15
 70
     1
102
RTVSPropertyOp16
 70
     1
102
RTVSPropertyOp17
 70
     1
102
RTVSPropertyOp18
 70
     1
102
RTVSPropertyOp19
 70
     1
102
RTVSPropertyOp20
 70
     1
102
RTVSPropertyOp21
 70
     1
102
RTVSPropertyOp22
 70
     1
102
RTVSPropertyOp23
 70
     1
102
RTVSPropertyOp24
 70
     1
102
RTVSPropertyOp25
 70
     1
102
RTVSPropertyOp26
 70
     1
102
RTVSPropertyOp27
 70
     1
102
RTVSPropertyOp28
 70
     1
102
RTVSPropertyOp29
 70
     1
102
RTVSPropertyOp30
 70
     1
102
RTVSPropertyOp31
 70
     1
102
RTVSPropertyOp32
 70
     1
  0
XRECORD
  5
41C9
102
{ACAD_REACTORS
330
41C8
102
}
330
41C8
100
AcDbXrecord
280
     1
102
RTVSPropertyOp0
 70
     1
102
RTVSPropertyOp1
 70
     1
102
RTVSPropertyOp2
 70
     1
102
RTVSPropertyOp3
 70
     1
102
RTVSPropertyOp4
 70
     1
102
RTVSPropertyOp5
 70
     1
102
RTVSPropertyOp6
 70
     1
102
RTVSPropertyOp7
 70
     1
102
RTVSPropertyOp8
 70
     1
102
RTVSPropertyOp9
 70
     1
102
RTVSPropertyOp10
 70
     1
102
RTVSPropertyOp11
 70
     1
102
RTVSPropertyOp12
 70
     1
102
RTVSPropertyOp13
 70
     1
102
RTVSPropertyOp14
 70
     1
102
RTVSPropertyOp15
 70
     1
102
RTVSPropertyOp16
 70
     1
102
RTVSPropertyOp17
 70
     1
102
RTVSPropertyOp18
 70
     1
102
RTVSPropertyOp19
 70
     1
102
RTVSPropertyOp20
 70
     1
102
RTVSPropertyOp21
 70
     1
102
RTVSPropertyOp22
 70
     1
102
RTVSPropertyOp23
 70
     1
102
RTVSPropertyOp24
 70
     1
102
RTVSPropertyOp25
 70
     1
102
RTVSPropertyOp26
 70
     1
102
RTVSPropertyOp27
 70
     1
102
RTVSPropertyOp28
 70
     1
102
RTVSPropertyOp29
 70
     1
102
RTVSPropertyOp30
 70
     1
102
RTVSPropertyOp31
 70
     1
102
RTVSPropertyOp32
 70
     1
  0
XRECORD
  5
41CB
102
{ACAD_REACTORS
330
41CA
102
}
330
41CA
100
AcDbXrecord
280
     1
102
RTVSPropertyOp0
 70
     1
102
RTVSPropertyOp1
 70
     1
102
RTVSPropertyOp2
 70
     1
102
RTVSPropertyOp3
 70
     1
102
RTVSPropertyOp4
 70
     1
102
RTVSPropertyOp5
 70
     1
102
RTVSPropertyOp6
 70
     1
102
RTVSPropertyOp7
 70
     1
102
RTVSPropertyOp8
 70
     1
102
RTVSPropertyOp9
 70
     1
102
RTVSPropertyOp10
 70
     1
102
RTVSPropertyOp11
 70
     1
102
RTVSPropertyOp12
 70
     1
102
RTVSPropertyOp13
 70
     1
102
RTVSPropertyOp14
 70
     1
102
RTVSPropertyOp15
 70
     1
102
RTVSPropertyOp16
 70
     1
102
RTVSPropertyOp17
 70
     1
102
RTVSPropertyOp18
 70
     1
102
RTVSPropertyOp19
 70
     1
102
RTVSPropertyOp20
 70
     1
102
RTVSPropertyOp21
 70
     1
102
RTVSPropertyOp22
 70
     1
102
RTVSPropertyOp23
 70
     1
102
RTVSPropertyOp24
 70
     1
102
RTVSPropertyOp25
 70
     1
102
RTVSPropertyOp26
 70
     1
102
RTVSPropertyOp27
 70
     1
102
RTVSPropertyOp28
 70
     1
102
RTVSPropertyOp29
 70
     1
102
RTVSPropertyOp30
 70
     1
102
RTVSPropertyOp31
 70
     1
102
RTVSPropertyOp32
 70
     1
  0
XRECORD
  5
41CD
102
{ACAD_REACTORS
330
41CC
102
}
330
41CC
100
AcDbXrecord
280
     1
102
RTVSPropertyOp0
 70
     1
102
RTVSPropertyOp1
 70
     1
102
RTVSPropertyOp2
 70
     1
102
RTVSPropertyOp3
 70
     1
102
RTVSPropertyOp4
 70
     1
102
RTVSPropertyOp5
 70
     1
102
RTVSPropertyOp6
 70
     1
102
RTVSPropertyOp7
 70
     1
102
RTVSPropertyOp8
 70
     1
102
RTVSPropertyOp9
 70
     1
102
RTVSPropertyOp10
 70
     1
102
RTVSPropertyOp11
 70
     1
102
RTVSPropertyOp12
 70
     1
102
RTVSPropertyOp13
 70
     1
102
RTVSPropertyOp14
 70
     1
102
RTVSPropertyOp15
 70
     1
102
RTVSPropertyOp16
 70
     1
102
RTVSPropertyOp17
 70
     1
102
RTVSPropertyOp18
 70
     1
102
RTVSPropertyOp19
 70
     1
102
RTVSPropertyOp20
 70
     1
102
RTVSPropertyOp21
 70
     1
102
RTVSPropertyOp22
 70
     1
102
RTVSPropertyOp23
 70
     1
102
RTVSPropertyOp24
 70
     1
102
RTVSPropertyOp25
 70
     1
102
RTVSPropertyOp26
 70
     1
102
RTVSPropertyOp27
 70
     1
102
RTVSPropertyOp28
 70
     1
102
RTVSPropertyOp29
 70
     1
102
RTVSPropertyOp30
 70
     1
102
RTVSPropertyOp31
 70
     1
102
RTVSPropertyOp32
 70
     1
  0
XRECORD
  5
41CF
102
{ACAD_REACTORS
330
41CE
102
}
330
41CE
100
AcDbXrecord
280
     1
102
RTVSPropertyOp0
 70
     1
102
RTVSPropertyOp1
 70
     1
102
RTVSPropertyOp2
 70
     1
102
RTVSPropertyOp3
 70
     1
102
RTVSPropertyOp4
 70
     1
102
RTVSPropertyOp5
 70
     1
102
RTVSPropertyOp6
 70
     1
102
RTVSPropertyOp7
 70
     1
102
RTVSPropertyOp8
 70
     1
102
RTVSPropertyOp9
 70
     1
102
RTVSPropertyOp10
 70
     1
102
RTVSPropertyOp11
 70
     1
102
RTVSPropertyOp12
 70
     1
102
RTVSPropertyOp13
 70
     1
102
RTVSPropertyOp14
 70
     1
102
RTVSPropertyOp15
 70
     1
102
RTVSPropertyOp16
 70
     1
102
RTVSPropertyOp17
 70
     1
102
RTVSPropertyOp18
 70
     1
102
RTVSPropertyOp19
 70
     1
102
RTVSPropertyOp20
 70
     1
102
RTVSPropertyOp21
 70
     1
102
RTVSPropertyOp22
 70
     1
102
RTVSPropertyOp23
 70
     1
102
RTVSPropertyOp24
 70
     1
102
RTVSPropertyOp25
 70
     1
102
RTVSPropertyOp26
 70
     1
102
RTVSPropertyOp27
 70
     1
102
RTVSPropertyOp28
 70
     1
102
RTVSPropertyOp29
 70
     1
102
RTVSPropertyOp30
 70
     1
102
RTVSPropertyOp31
 70
     1
102
RTVSPropertyOp32
 70
     1
  0
XRECORD
  5
41F2
102
{ACAD_REACTORS
330
41F1
102
}
330
41F1
100
AcDbXrecord
280
     1
102
RTVSPropertyOp0
 70
     1
102
RTVSPropertyOp1
 70
     1
102
RTVSPropertyOp2
 70
     1
102
RTVSPropertyOp3
 70
     1
102
RTVSPropertyOp4
 70
     1
102
RTVSPropertyOp5
 70
     1
102
RTVSPropertyOp6
 70
     1
102
RTVSPropertyOp7
 70
     1
102
RTVSPropertyOp8
 70
     1
102
RTVSPropertyOp9
 70
     1
102
RTVSPropertyOp10
 70
     1
102
RTVSPropertyOp11
 70
     1
102
RTVSPropertyOp12
 70
     1
102
RTVSPropertyOp13
 70
     1
102
RTVSPropertyOp14
 70
     1
102
RTVSPropertyOp15
 70
     1
102
RTVSPropertyOp16
 70
     1
102
RTVSPropertyOp17
 70
     1
102
RTVSPropertyOp18
 70
     1
102
RTVSPropertyOp19
 70
     1
102
RTVSPropertyOp20
 70
     1
102
RTVSPropertyOp21
 70
     1
102
RTVSPropertyOp22
 70
     1
102
RTVSPropertyOp23
 70
     1
102
RTVSPropertyOp24
 70
     1
102
RTVSPropertyOp25
 70
     1
102
RTVSPropertyOp26
 70
     1
102
RTVSPropertyOp27
 70
     1
102
RTVSPropertyOp28
 70
     1
102
RTVSPropertyOp29
 70
     1
102
RTVSPropertyOp30
 70
     1
102
RTVSPropertyOp31
 70
     1
102
RTVSPropertyOp32
 70
     1
  0
XRECORD
  5
41E9
102
{ACAD_REACTORS
330
41E8
102
}
330
41E8
100
AcDbXrecord
280
     1
102
RTVSPropertyOp0
 70
     0
102
RTVSPropertyOp1
 70
     0
102
RTVSPropertyOp2
 70
     0
102
RTVSPropertyOp3
 70
     0
102
RTVSPropertyOp4
 70
     0
102
RTVSPropertyOp5
 70
     0
102
RTVSPropertyOp6
 70
     0
102
RTVSPropertyOp7
 70
     0
102
RTVSPropertyOp8
 70
     0
102
RTVSPropertyOp9
 70
     0
102
RTVSPropertyOp10
 70
     0
102
RTVSPropertyOp11
 70
     0
102
RTVSPropertyOp12
 70
     0
102
RTVSPropertyOp13
 70
     0
102
RTVSPropertyOp14
 70
     2
102
RTVSPropertyOp15
 70
     0
102
RTVSPropertyOp16
 70
     0
102
RTVSPropertyOp17
 70
     0
102
RTVSPropertyOp18
 70
     0
102
RTVSPropertyOp19
 70
     0
102
RTVSPropertyOp20
 70
     0
102
RTVSPropertyOp21
 70
     0
102
RTVSPropertyOp22
 70
     0
102
RTVSPropertyOp23
 70
     0
102
RTVSPropertyOp24
 70
     0
102
RTVSPropertyOp25
 70
     0
102
RTVSPropertyOp26
 70
     0
102
RTVSPropertyOp27
 70
     0
102
RTVSPropertyOp28
 70
     1
102
RTVSPropertyOp29
 70
     1
102
RTVSPropertyOp30
 70
     1
102
RTVSPropertyOp31
 70
     1
102
RTVSPropertyOp32
 70
     1
  0
XRECORD
  5
41E3
102
{ACAD_REACTORS
330
41E2
102
}
330
41E2
100
AcDbXrecord
280
     1
102
RTVSPropertyOp0
 70
     1
102
RTVSPropertyOp1
 70
     1
102
RTVSPropertyOp2
 70
     1
102
RTVSPropertyOp3
 70
     1
102
RTVSPropertyOp4
 70
     1
102
RTVSPropertyOp5
 70
     1
102
RTVSPropertyOp6
 70
     1
102
RTVSPropertyOp7
 70
     1
102
RTVSPropertyOp8
 70
     1
102
RTVSPropertyOp9
 70
     1
102
RTVSPropertyOp10
 70
     1
102
RTVSPropertyOp11
 70
     1
102
RTVSPropertyOp12
 70
     1
102
RTVSPropertyOp13
 70
     1
102
RTVSPropertyOp14
 70
     1
102
RTVSPropertyOp15
 70
     1
102
RTVSPropertyOp16
 70
     1
102
RTVSPropertyOp17
 70
     1
102
RTVSPropertyOp18
 70
     1
102
RTVSPropertyOp19
 70
     1
102
RTVSPropertyOp20
 70
     1
102
RTVSPropertyOp21
 70
     1
102
RTVSPropertyOp22
 70
     1
102
RTVSPropertyOp23
 70
     1
102
RTVSPropertyOp24
 70
     1
102
RTVSPropertyOp25
 70
     1
102
RTVSPropertyOp26
 70
     1
102
RTVSPropertyOp27
 70
     1
102
RTVSPropertyOp28
 70
     1
102
RTVSPropertyOp29
 70
     1
102
RTVSPropertyOp30
 70
     1
102
RTVSPropertyOp31
 70
     1
102
RTVSPropertyOp32
 70
     1
  0
XRECORD
  5
41EB
102
{ACAD_REACTORS
330
41EA
102
}
330
41EA
100
AcDbXrecord
280
     1
102
RTVSPropertyOp0
 70
     0
102
RTVSPropertyOp1
 70
     0
102
RTVSPropertyOp2
 70
     0
102
RTVSPropertyOp3
 70
     0
102
RTVSPropertyOp4
 70
     0
102
RTVSPropertyOp5
 70
     0
102
RTVSPropertyOp6
 70
     0
102
RTVSPropertyOp7
 70
     0
102
RTVSPropertyOp8
 70
     0
102
RTVSPropertyOp9
 70
     0
102
RTVSPropertyOp10
 70
     0
102
RTVSPropertyOp11
 70
     0
102
RTVSPropertyOp12
 70
     0
102
RTVSPropertyOp13
 70
     0
102
RTVSPropertyOp14
 70
     2
102
RTVSPropertyOp15
 70
     0
102
RTVSPropertyOp16
 70
     0
102
RTVSPropertyOp17
 70
     0
102
RTVSPropertyOp18
 70
     0
102
RTVSPropertyOp19
 70
     0
102
RTVSPropertyOp20
 70
     0
102
RTVSPropertyOp21
 70
     0
102
RTVSPropertyOp22
 70
     0
102
RTVSPropertyOp23
 70
     0
102
RTVSPropertyOp24
 70
     0
102
RTVSPropertyOp25
 70
     0
102
RTVSPropertyOp26
 70
     0
102
RTVSPropertyOp27
 70
     0
102
RTVSPropertyOp28
 70
     1
102
RTVSPropertyOp29
 70
     1
102
RTVSPropertyOp30
 70
     1
102
RTVSPropertyOp31
 70
     1
102
RTVSPropertyOp32
 70
     1
  0
XRECORD
  5
41DB
102
{ACAD_REACTORS
330
41DA
102
}
330
41DA
100
AcDbXrecord
280
     1
102
RTVSPropertyOp0
 70
     1
102
RTVSPropertyOp1
 70
     1
102
RTVSPropertyOp2
 70
     1
102
RTVSPropertyOp3
 70
     1
102
RTVSPropertyOp4
 70
     1
102
RTVSPropertyOp5
 70
     1
102
RTVSPropertyOp6
 70
     1
102
RTVSPropertyOp7
 70
     1
102
RTVSPropertyOp8
 70
     1
102
RTVSPropertyOp9
 70
     1
102
RTVSPropertyOp10
 70
     1
102
RTVSPropertyOp11
 70
     1
102
RTVSPropertyOp12
 70
     1
102
RTVSPropertyOp13
 70
     1
102
RTVSPropertyOp14
 70
     1
102
RTVSPropertyOp15
 70
     1
102
RTVSPropertyOp16
 70
     1
102
RTVSPropertyOp17
 70
     1
102
RTVSPropertyOp18
 70
     1
102
RTVSPropertyOp19
 70
     1
102
RTVSPropertyOp20
 70
     1
102
RTVSPropertyOp21
 70
     1
102
RTVSPropertyOp22
 70
     1
102
RTVSPropertyOp23
 70
     1
102
RTVSPropertyOp24
 70
     1
102
RTVSPropertyOp25
 70
     1
102
RTVSPropertyOp26
 70
     1
102
RTVSPropertyOp27
 70
     1
102
RTVSPropertyOp28
 70
     1
102
RTVSPropertyOp29
 70
     1
102
RTVSPropertyOp30
 70
     1
102
RTVSPropertyOp31
 70
     1
102
RTVSPropertyOp32
 70
     1
  0
XRECORD
  5
41FC
102
{ACAD_REACTORS
330
41FB
102
}
330
41FB
100
AcDbXrecord
280
     1
102
RTVSPropertyOp0
 70
     1
102
RTVSPropertyOp1
 70
     1
102
RTVSPropertyOp2
 70
     1
102
RTVSPropertyOp3
 70
     1
102
RTVSPropertyOp4
 70
     1
102
RTVSPropertyOp5
 70
     1
102
RTVSPropertyOp6
 70
     1
102
RTVSPropertyOp7
 70
     1
102
RTVSPropertyOp8
 70
     1
102
RTVSPropertyOp9
 70
     1
102
RTVSPropertyOp10
 70
     1
102
RTVSPropertyOp11
 70
     1
102
RTVSPropertyOp12
 70
     1
102
RTVSPropertyOp13
 70
     1
102
RTVSPropertyOp14
 70
     1
102
RTVSPropertyOp15
 70
     1
102
RTVSPropertyOp16
 70
     1
102
RTVSPropertyOp17
 70
     1
102
RTVSPropertyOp18
 70
     1
102
RTVSPropertyOp19
 70
     1
102
RTVSPropertyOp20
 70
     1
102
RTVSPropertyOp21
 70
     1
102
RTVSPropertyOp22
 70
     1
102
RTVSPropertyOp23
 70
     1
102
RTVSPropertyOp24
 70
     1
102
RTVSPropertyOp25
 70
     1
102
RTVSPropertyOp26
 70
     1
102
RTVSPropertyOp27
 70
     1
102
RTVSPropertyOp28
 70
     1
102
RTVSPropertyOp29
 70
     1
102
RTVSPropertyOp30
 70
     1
102
RTVSPropertyOp31
 70
     1
102
RTVSPropertyOp32
 70
     1
  0
XRECORD
  5
41FA
102
{ACAD_REACTORS
330
41F9
102
}
330
41F9
100
AcDbXrecord
280
     1
102
RTVSPropertyOp0
 70
     1
102
RTVSPropertyOp1
 70
     1
102
RTVSPropertyOp2
 70
     1
102
RTVSPropertyOp3
 70
     1
102
RTVSPropertyOp4
 70
     1
102
RTVSPropertyOp5
 70
     1
102
RTVSPropertyOp6
 70
     1
102
RTVSPropertyOp7
 70
     1
102
RTVSPropertyOp8
 70
     1
102
RTVSPropertyOp9
 70
     1
102
RTVSPropertyOp10
 70
     1
102
RTVSPropertyOp11
 70
     1
102
RTVSPropertyOp12
 70
     1
102
RTVSPropertyOp13
 70
     1
102
RTVSPropertyOp14
 70
     1
102
RTVSPropertyOp15
 70
     1
102
RTVSPropertyOp16
 70
     1
102
RTVSPropertyOp17
 70
     1
102
RTVSPropertyOp18
 70
     1
102
RTVSPropertyOp19
 70
     1
102
RTVSPropertyOp20
 70
     1
102
RTVSPropertyOp21
 70
     1
102
RTVSPropertyOp22
 70
     1
102
RTVSPropertyOp23
 70
     1
102
RTVSPropertyOp24
 70
     1
102
RTVSPropertyOp25
 70
     1
102
RTVSPropertyOp26
 70
     1
102
RTVSPropertyOp27
 70
     1
102
RTVSPropertyOp28
 70
     1
102
RTVSPropertyOp29
 70
     1
102
RTVSPropertyOp30
 70
     1
102
RTVSPropertyOp31
 70
     1
102
RTVSPropertyOp32
 70
     1
  0
XRECORD
  5
41F4
102
{ACAD_REACTORS
330
41F3
102
}
330
41F3
100
AcDbXrecord
280
     1
102
RTVSPropertyOp0
 70
     1
102
RTVSPropertyOp1
 70
     1
102
RTVSPropertyOp2
 70
     1
102
RTVSPropertyOp3
 70
     1
102
RTVSPropertyOp4
 70
     1
102
RTVSPropertyOp5
 70
     1
102
RTVSPropertyOp6
 70
     1
102
RTVSPropertyOp7
 70
     1
102
RTVSPropertyOp8
 70
     1
102
RTVSPropertyOp9
 70
     1
102
RTVSPropertyOp10
 70
     1
102
RTVSPropertyOp11
 70
     1
102
RTVSPropertyOp12
 70
     1
102
RTVSPropertyOp13
 70
     1
102
RTVSPropertyOp14
 70
     1
102
RTVSPropertyOp15
 70
     1
102
RTVSPropertyOp16
 70
     1
102
RTVSPropertyOp17
 70
     1
102
RTVSPropertyOp18
 70
     1
102
RTVSPropertyOp19
 70
     1
102
RTVSPropertyOp20
 70
     1
102
RTVSPropertyOp21
 70
     1
102
RTVSPropertyOp22
 70
     1
102
RTVSPropertyOp23
 70
     1
102
RTVSPropertyOp24
 70
     1
102
RTVSPropertyOp25
 70
     1
102
RTVSPropertyOp26
 70
     1
102
RTVSPropertyOp27
 70
     1
102
RTVSPropertyOp28
 70
     1
102
RTVSPropertyOp29
 70
     1
102
RTVSPropertyOp30
 70
     1
102
RTVSPropertyOp31
 70
     1
102
RTVSPropertyOp32
 70
     1
  0
XRECORD
  5
41F6
102
{ACAD_REACTORS
330
41F5
102
}
330
41F5
100
AcDbXrecord
280
     1
102
RTVSPropertyOp0
 70
     1
102
RTVSPropertyOp1
 70
     1
102
RTVSPropertyOp2
 70
     1
102
RTVSPropertyOp3
 70
     1
102
RTVSPropertyOp4
 70
     1
102
RTVSPropertyOp5
 70
     1
102
RTVSPropertyOp6
 70
     1
102
RTVSPropertyOp7
 70
     1
102
RTVSPropertyOp8
 70
     1
102
RTVSPropertyOp9
 70
     1
102
RTVSPropertyOp10
 70
     1
102
RTVSPropertyOp11
 70
     1
102
RTVSPropertyOp12
 70
     1
102
RTVSPropertyOp13
 70
     1
102
RTVSPropertyOp14
 70
     1
102
RTVSPropertyOp15
 70
     1
102
RTVSPropertyOp16
 70
     1
102
RTVSPropertyOp17
 70
     1
102
RTVSPropertyOp18
 70
     1
102
RTVSPropertyOp19
 70
     1
102
RTVSPropertyOp20
 70
     1
102
RTVSPropertyOp21
 70
     1
102
RTVSPropertyOp22
 70
     1
102
RTVSPropertyOp23
 70
     1
102
RTVSPropertyOp24
 70
     1
102
RTVSPropertyOp25
 70
     1
102
RTVSPropertyOp26
 70
     1
102
RTVSPropertyOp27
 70
     1
102
RTVSPropertyOp28
 70
     1
102
RTVSPropertyOp29
 70
     1
102
RTVSPropertyOp30
 70
     1
102
RTVSPropertyOp31
 70
     1
102
RTVSPropertyOp32
 70
     1
  0
XRECORD
  5
41E1
102
{ACAD_REACTORS
330
41E0
102
}
330
41E0
100
AcDbXrecord
280
     1
102
RTVSPropertyOp0
 70
     1
102
RTVSPropertyOp1
 70
     1
102
RTVSPropertyOp2
 70
     1
102
RTVSPropertyOp3
 70
     1
102
RTVSPropertyOp4
 70
     1
102
RTVSPropertyOp5
 70
     1
102
RTVSPropertyOp6
 70
     1
102
RTVSPropertyOp7
 70
     1
102
RTVSPropertyOp8
 70
     1
102
RTVSPropertyOp9
 70
     1
102
RTVSPropertyOp10
 70
     1
102
RTVSPropertyOp11
 70
     1
102
RTVSPropertyOp12
 70
     1
102
RTVSPropertyOp13
 70
     1
102
RTVSPropertyOp14
 70
     1
102
RTVSPropertyOp15
 70
     1
102
RTVSPropertyOp16
 70
     1
102
RTVSPropertyOp17
 70
     1
102
RTVSPropertyOp18
 70
     1
102
RTVSPropertyOp19
 70
     1
102
RTVSPropertyOp20
 70
     1
102
RTVSPropertyOp21
 70
     1
102
RTVSPropertyOp22
 70
     1
102
RTVSPropertyOp23
 70
     1
102
RTVSPropertyOp24
 70
     1
102
RTVSPropertyOp25
 70
     1
102
RTVSPropertyOp26
 70
     1
102
RTVSPropertyOp27
 70
     1
102
RTVSPropertyOp28
 70
     1
102
RTVSPropertyOp29
 70
     1
102
RTVSPropertyOp30
 70
     1
102
RTVSPropertyOp31
 70
     1
102
RTVSPropertyOp32
 70
     1
  0
XRECORD
  5
41F0
102
{ACAD_REACTORS
330
41EF
102
}
330
41EF
100
AcDbXrecord
280
     1
102
RTVSPropertyOp0
 70
     1
102
RTVSPropertyOp1
 70
     1
102
RTVSPropertyOp2
 70
     1
102
RTVSPropertyOp3
 70
     1
102
RTVSPropertyOp4
 70
     1
102
RTVSPropertyOp5
 70
     1
102
RTVSPropertyOp6
 70
     1
102
RTVSPropertyOp7
 70
     1
102
RTVSPropertyOp8
 70
     1
102
RTVSPropertyOp9
 70
     1
102
RTVSPropertyOp10
 70
     1
102
RTVSPropertyOp11
 70
     1
102
RTVSPropertyOp12
 70
     1
102
RTVSPropertyOp13
 70
     1
102
RTVSPropertyOp14
 70
     1
102
RTVSPropertyOp15
 70
     1
102
RTVSPropertyOp16
 70
     1
102
RTVSPropertyOp17
 70
     1
102
RTVSPropertyOp18
 70
     1
102
RTVSPropertyOp19
 70
     1
102
RTVSPropertyOp20
 70
     1
102
RTVSPropertyOp21
 70
     1
102
RTVSPropertyOp22
 70
     1
102
RTVSPropertyOp23
 70
     1
102
RTVSPropertyOp24
 70
     1
102
RTVSPropertyOp25
 70
     1
102
RTVSPropertyOp26
 70
     1
102
RTVSPropertyOp27
 70
     1
102
RTVSPropertyOp28
 70
     1
102
RTVSPropertyOp29
 70
     1
102
RTVSPropertyOp30
 70
     1
102
RTVSPropertyOp31
 70
     1
102
RTVSPropertyOp32
 70
     1
  0
XRECORD
  5
41F8
102
{ACAD_REACTORS
330
41F7
102
}
330
41F7
100
AcDbXrecord
280
     1
102
RTVSPropertyOp0
 70
     1
102
RTVSPropertyOp1
 70
     1
102
RTVSPropertyOp2
 70
     1
102
RTVSPropertyOp3
 70
     1
102
RTVSPropertyOp4
 70
     1
102
RTVSPropertyOp5
 70
     1
102
RTVSPropertyOp6
 70
     1
102
RTVSPropertyOp7
 70
     1
102
RTVSPropertyOp8
 70
     1
102
RTVSPropertyOp9
 70
     1
102
RTVSPropertyOp10
 70
     1
102
RTVSPropertyOp11
 70
     1
102
RTVSPropertyOp12
 70
     1
102
RTVSPropertyOp13
 70
     1
102
RTVSPropertyOp14
 70
     1
102
RTVSPropertyOp15
 70
     1
102
RTVSPropertyOp16
 70
     1
102
RTVSPropertyOp17
 70
     1
102
RTVSPropertyOp18
 70
     1
102
RTVSPropertyOp19
 70
     1
102
RTVSPropertyOp20
 70
     1
102
RTVSPropertyOp21
 70
     1
102
RTVSPropertyOp22
 70
     1
102
RTVSPropertyOp23
 70
     1
102
RTVSPropertyOp24
 70
     1
102
RTVSPropertyOp25
 70
     1
102
RTVSPropertyOp26
 70
     1
102
RTVSPropertyOp27
 70
     1
102
RTVSPropertyOp28
 70
     1
102
RTVSPropertyOp29
 70
     1
102
RTVSPropertyOp30
 70
     1
102
RTVSPropertyOp31
 70
     1
102
RTVSPropertyOp32
 70
     1
  0
ENDSEC
  0
EOF
