  0
SECTION
  2
HEADER
  9
$ACADVER
  1
AC1032
  9
$ACADMAINTVER
 90
      174
  9
$DWGCODEPAGE
  3
ANSI_932
  9
$LASTSAVEDBY
  1
satoshi.ogura
  9
$REQUIREDVERSIONS
160
                 0
  9
$INSBASE
 10
268.4340021441085
 20
176.78614296069
 30
0.0
  9
$EXTMIN
 10
-47.28924530556582
 20
-134.7898766319069
 30
0.0
  9
$EXTMAX
 10
808.8500697795799
 20
164.1403198128669
 30
0.0
  9
$LIMMIN
 10
0.0
 20
0.0
  9
$LIMMAX
 10
554.0
 20
395.0
  9
$ORTHOMODE
 70
     1
  9
$REGENMODE
 70
     1
  9
$FILLMODE
 70
     1
  9
$QTEXTMODE
 70
     0
  9
$MIRRTEXT
 70
     1
  9
$LTSCALE
 40
2.0
  9
$ATTMODE
 70
     1
  9
$TEXTSIZE
 40
10.0
  9
$TRACEWID
 40
0.2
  9
$TEXTSTYLE
  7
KANJI
  9
$CLAYER
  8
1外形線
  9
$CELTYPE
  6
BYLAYER
  9
$CECOLOR
 62
   256
  9
$CELTSCALE
 40
3.0
  9
$DISPSILH
 70
     0
  9
$DIMSCALE
 40
1.0
  9
$DIMASZ
 40
1.0
  9
$DIMEXO
 40
1.0
  9
$DIMDLI
 40
6.0
  9
$DIMRND
 40
0.0
  9
$DIMDLE
 40
0.0
  9
$DIMEXE
 40
1.0
  9
$DIMTP
 40
0.0
  9
$DIMTM
 40
0.0
  9
$DIMTXT
 40
2.5
  9
$DIMCEN
 40
0.0
  9
$DIMTSZ
 40
0.0
  9
$DIMTOL
 70
     0
  9
$DIMLIM
 70
     0
  9
$DIMTIH
 70
     0
  9
$DIMTOH
 70
     0
  9
$DIMSE1
 70
     0
  9
$DIMSE2
 70
     0
  9
$DIMTAD
 70
     1
  9
$DIMZIN
 70
     8
  9
$DIMBLK
  1

  9
$DIMASO
 70
     1
  9
$DIMSHO
 70
     1
  9
$DIMPOST
  1

  9
$DIMAPOST
  1

  9
$DIMALT
 70
     0
  9
$DIMALTD
 70
     2
  9
$DIMALTF
 40
25.4
  9
$DIMLFAC
 40
1.0
  9
$DIMTOFL
 70
     1
  9
$DIMTVP
 40
0.0
  9
$DIMTIX
 70
     0
  9
$DIMSOXD
 70
     0
  9
$DIMSAH
 70
     1
  9
$DIMBLK1
  1
1
  9
$DIMBLK2
  1
1
  9
$DIMSTYLE
  2
STANDARD
  9
$DIMCLRD
 70
     0
  9
$DIMCLRE
 70
     0
  9
$DIMCLRT
 70
     0
  9
$DIMTFAC
 40
1.0
  9
$DIMGAP
 40
0.5
  9
$DIMJUST
 70
     0
  9
$DIMSD1
 70
     0
  9
$DIMSD2
 70
     0
  9
$DIMTOLJ
 70
     1
  9
$DIMTZIN
 70
     8
  9
$DIMALTZ
 70
     8
  9
$DIMALTTZ
 70
     8
  9
$DIMUPT
 70
     0
  9
$DIMDEC
 70
     4
  9
$DIMTDEC
 70
     4
  9
$DIMALTU
 70
     2
  9
$DIMALTTD
 70
     2
  9
$DIMTXSTY
  7
KANJI
  9
$DIMAUNIT
 70
     0
  9
$DIMADEC
 70
     0
  9
$DIMALTRND
 40
0.0
  9
$DIMAZIN
 70
     0
  9
$DIMDSEP
 70
    46
  9
$DIMATFIT
 70
     3
  9
$DIMFRAC
 70
     0
  9
$DIMLDRBLK
  1

  9
$DIMLUNIT
 70
     2
  9
$DIMLWD
 70
    -2
  9
$DIMLWE
 70
    -2
  9
$DIMTMOVE
 70
     0
  9
$DIMFXL
 40
1.0
  9
$DIMFXLON
 70
     0
  9
$DIMJOGANG
 40
0.7853981633974483
  9
$DIMTFILL
 70
     0
  9
$DIMTFILLCLR
 70
     0
  9
$DIMARCSYM
 70
     0
  9
$DIMLTYPE
  6

  9
$DIMLTEX1
  6

  9
$DIMLTEX2
  6

  9
$DIMTXTDIRECTION
 70
     0
  9
$LUNITS
 70
     2
  9
$LUPREC
 70
     4
  9
$SKETCHINC
 40
0.1
  9
$FILLETRAD
 40
0.0
  9
$AUNITS
 70
     0
  9
$AUPREC
 70
     0
  9
$MENU
  1
tcad-s
  9
$ELEVATION
 40
0.0
  9
$PELEVATION
 40
0.0
  9
$THICKNESS
 40
0.0
  9
$LIMCHECK
 70
     0
  9
$CHAMFERA
 40
0.0
  9
$CHAMFERB
 40
0.0
  9
$CHAMFERC
 40
0.0
  9
$CHAMFERD
 40
0.0
  9
$SKPOLY
 70
     0
  9
$TDCREATE
 40
2452045.546898148
  9
$TDUCREATE
 40
2452045.171898148
  9
$TDUPDATE
 40
2459600.751423611
  9
$TDUUPDATE
 40
2459600.376423611
  9
$TDINDWG
 40
0.0439878588
  9
$TDUSRTIMER
 40
0.0439878588
  9
$USRTIMER
 70
     1
  9
$ANGBASE
 50
0.0
  9
$ANGDIR
 70
     0
  9
$PDMODE
 70
     0
  9
$PDSIZE
 40
2.399999999999999
  9
$PLINEWID
 40
0.0
  9
$SPLFRAME
 70
     0
  9
$SPLINETYPE
 70
     6
  9
$SPLINESEGS
 70
     8
  9
$HANDSEED
  5
DFBC
  9
$SURFTAB1
 70
     6
  9
$SURFTAB2
 70
     6
  9
$SURFTYPE
 70
     6
  9
$SURFU
 70
     6
  9
$SURFV
 70
     6
  9
$UCSBASE
  2

  9
$UCSNAME
  2

  9
$UCSORG
 10
0.0
 20
0.0
 30
0.0
  9
$UCSXDIR
 10
1.0
 20
0.0
 30
0.0
  9
$UCSYDIR
 10
0.0
 20
1.0
 30
0.0
  9
$UCSORTHOREF
  2

  9
$UCSORTHOVIEW
 70
     0
  9
$UCSORGTOP
 10
0.0
 20
0.0
 30
0.0
  9
$UCSORGBOTTOM
 10
0.0
 20
0.0
 30
0.0
  9
$UCSORGLEFT
 10
0.0
 20
0.0
 30
0.0
  9
$UCSORGRIGHT
 10
0.0
 20
0.0
 30
0.0
  9
$UCSORGFRONT
 10
0.0
 20
0.0
 30
0.0
  9
$UCSORGBACK
 10
0.0
 20
0.0
 30
0.0
  9
$PUCSBASE
  2

  9
$PUCSNAME
  2

  9
$PUCSORG
 10
0.0
 20
0.0
 30
0.0
  9
$PUCSXDIR
 10
1.0
 20
0.0
 30
0.0
  9
$PUCSYDIR
 10
0.0
 20
1.0
 30
0.0
  9
$PUCSORTHOREF
  2

  9
$PUCSORTHOVIEW
 70
     0
  9
$PUCSORGTOP
 10
0.0
 20
0.0
 30
0.0
  9
$PUCSORGBOTTOM
 10
0.0
 20
0.0
 30
0.0
  9
$PUCSORGLEFT
 10
0.0
 20
0.0
 30
0.0
  9
$PUCSORGRIGHT
 10
0.0
 20
0.0
 30
0.0
  9
$PUCSORGFRONT
 10
0.0
 20
0.0
 30
0.0
  9
$PUCSORGBACK
 10
0.0
 20
0.0
 30
0.0
  9
$USERI1
 70
     0
  9
$USERI2
 70
     0
  9
$USERI3
 70
     0
  9
$USERI4
 70
     0
  9
$USERI5
 70
     0
  9
$USERR1
 40
0.0
  9
$USERR2
 40
0.0
  9
$USERR3
 40
0.0
  9
$USERR4
 40
0.0
  9
$USERR5
 40
0.0
  9
$WORLDVIEW
 70
     1
  9
$SHADEDGE
 70
     3
  9
$SHADEDIF
 70
    70
  9
$TILEMODE
 70
     1
  9
$MAXACTVP
 70
    16
  9
$PINSBASE
 10
0.0
 20
0.0
 30
0.0
  9
$PLIMCHECK
 70
     0
  9
$PEXTMIN
 10
1.000000000000000E+20
 20
1.000000000000000E+20
 30
1.000000000000000E+20
  9
$PEXTMAX
 10
-1.000000000000000E+20
 20
-1.000000000000000E+20
 30
-1.000000000000000E+20
  9
$PLIMMIN
 10
0.0
 20
0.0
  9
$PLIMMAX
 10
12.0
 20
9.0
  9
$UNITMODE
 70
     0
  9
$VISRETAIN
 70
     0
  9
$PLINEGEN
 70
     0
  9
$PSLTSCALE
 70
     0
  9
$TREEDEPTH
 70
  3020
  9
$CMLSTYLE
  2
STANDARD
  9
$CMLJUST
 70
     0
  9
$CMLSCALE
 40
1.0
  9
$PROXYGRAPHICS
 70
     1
  9
$MEASUREMENT
 70
     1
  9
$CELWEIGHT
370
    -1
  9
$ENDCAPS
280
     0
  9
$JOINSTYLE
280
     0
  9
$LWDISPLAY
290
     0
  9
$INSUNITS
 70
     0
  9
$HYPERLINKBASE
  1

  9
$STYLESHEET
  1

  9
$XEDIT
290
     1
  9
$CEPSNTYPE
380
     0
  9
$PSTYLEMODE
290
     1
  9
$FINGERPRINTGUID
  2
{C61B1941-34AF-2849-B5EB-1E15BC9BE57F}
  9
$VERSIONGUID
  2
{F693B7BB-AF76-8845-A8F1-75E80AE2FE3A}
  9
$EXTNAMES
290
     1
  9
$PSVPSCALE
 40
0.0
  9
$OLESTARTUP
290
     0
  9
$SORTENTS
280
    96
  9
$INDEXCTL
280
     0
  9
$HIDETEXT
280
     0
  9
$XCLIPFRAME
280
     2
  9
$HALOGAP
280
     0
  9
$OBSCOLOR
 70
   257
  9
$OBSLTYPE
280
     0
  9
$INTERSECTIONDISPLAY
280
     0
  9
$INTERSECTIONCOLOR
 70
   257
  9
$DIMASSOC
280
     1
  9
$PROJECTNAME
  1

  9
$CAMERADISPLAY
290
     0
  9
$LENSLENGTH
 40
50.0
  9
$CAMERAHEIGHT
 40
0.0
  9
$STEPSPERSEC
 40
2.0
  9
$STEPSIZE
 40
6.0
  9
$3DDWFPREC
 40
2.0
  9
$PSOLWIDTH
 40
0.25
  9
$PSOLHEIGHT
 40
4.0
  9
$LOFTANG1
 40
1.570796326794896
  9
$LOFTANG2
 40
1.570796326794896
  9
$LOFTMAG1
 40
0.0
  9
$LOFTMAG2
 40
0.0
  9
$LOFTPARAM
 70
     7
  9
$LOFTNORMALS
280
     1
  9
$LATITUDE
 40
37.795
  9
$LONGITUDE
 40
-122.394
  9
$NORTHDIRECTION
 40
0.0
  9
$TIMEZONE
 70
 -8000
  9
$LIGHTGLYPHDISPLAY
280
     1
  9
$TILEMODELIGHTSYNCH
280
     1
  9
$CMATERIAL
347
D874
  9
$SOLIDHIST
280
     0
  9
$SHOWHIST
280
     1
  9
$DWFFRAME
280
     2
  9
$DGNFRAME
280
     0
  9
$REALWORLDSCALE
290
     1
  9
$INTERFERECOLOR
 62
     1
  9
$INTERFEREOBJVS
345
D896
  9
$INTERFEREVPVS
346
D893
  9
$CSHADOW
280
     0
  9
$SHADOWPLANELOCATION
 40
0.0
  0
ENDSEC
  0
SECTION
  2
CLASSES
  0
CLASS
  1
DICTIONARYVAR
  2
AcDbDictionaryVar
  3
ObjectDBX Classes
 90
        0
 91
       11
280
     0
281
     0
  0
CLASS
  1
ACDBDICTIONARYWDFLT
  2
AcDbDictionaryWithDefault
  3
ObjectDBX Classes
 90
        0
 91
        1
280
     0
281
     0
  0
CLASS
  1
MATERIAL
  2
AcDbMaterial
  3
ObjectDBX Classes
 90
     1153
 91
        3
280
     0
281
     0
  0
CLASS
  1
VISUALSTYLE
  2
AcDbVisualStyle
  3
ObjectDBX Classes
 90
     4095
 91
       24
280
     0
281
     0
  0
CLASS
  1
TABLESTYLE
  2
AcDbTableStyle
  3
ObjectDBX Classes
 90
     4095
 91
        1
280
     0
281
     0
  0
CLASS
  1
SCALE
  2
AcDbScale
  3
ObjectDBX Classes
 90
     1153
 91
       17
280
     0
281
     0
  0
CLASS
  1
MLEADERSTYLE
  2
AcDbMLeaderStyle
  3
ACDB_MLEADERSTYLE_CLASS
 90
     4095
 91
        1
280
     0
281
     0
  0
CLASS
  1
ACDBSECTIONVIEWSTYLE
  2
AcDbSectionViewStyle
  3
ObjectDBX Classes
 90
     1025
 91
        2
280
     0
281
     0
  0
CLASS
  1
ACDBDETAILVIEWSTYLE
  2
AcDbDetailViewStyle
  3
ObjectDBX Classes
 90
     1025
 91
        2
280
     0
281
     0
  0
CLASS
  1
SORTENTSTABLE
  2
AcDbSortentsTable
  3
ObjectDBX Classes
 90
        0
 91
        2
280
     0
281
     0
  0
CLASS
  1
CELLSTYLEMAP
  2
AcDbCellStyleMap
  3
ObjectDBX Classes
 90
     1152
 91
        1
280
     0
281
     0
  0
ENDSEC
  0
SECTION
  2
TABLES
  0
TABLE
  2
VPORT
  5
8
330
0
100
AcDbSymbolTable
 70
     1
  0
VPORT
  5
D86F
330
8
100
AcDbSymbolTableRecord
100
AcDbViewportTableRecord
  2
*ACTIVE
 70
     0
 10
0.0
 20
0.0
 11
1.0
 21
1.0
 12
167.1400815900944
 22
-20.70527067631542
 13
0.0
 23
0.0
 14
1.0
 24
1.0
 15
0.0
 25
0.0
 16
0.0
 26
0.0
 36
1.0
 17
0.0
 27
0.0
 37
0.0
 40
399.9784991524216
 41
2.476129032258064
 42
50.0
 43
0.0
 44
0.0
 50
0.0
 51
0.0
 71
     0
 72
  1000
 73
     1
 74
     1
 75
     0
 76
     0
 77
     0
 78
     1
281
     0
 65
     1
110
0.0
120
0.0
130
0.0
111
1.0
121
0.0
131
0.0
112
0.0
122
1.0
132
0.0
 79
     0
146
0.0
348
D892
 60
     3
 61
     5
292
     1
282
     1
141
0.0
142
0.0
 63
   250
421
  3355443
1001
ACAD_NAV_VCDISPLAY
1070
     3
  0
ENDTAB
  0
TABLE
  2
LTYPE
  5
5
330
0
100
AcDbSymbolTable
 70
     3
  0
LTYPE
  5
11
330
5
100
AcDbSymbolTableRecord
100
AcDbLinetypeTableRecord
  2
BYBLOCK
 70
     0
  3

 72
    65
 73
     0
 40
0.0
  0
LTYPE
  5
12
330
5
100
AcDbSymbolTableRecord
100
AcDbLinetypeTableRecord
  2
BYLAYER
 70
     0
  3

 72
    65
 73
     0
 40
0.0
  0
LTYPE
  5
13
330
5
100
AcDbSymbolTableRecord
100
AcDbLinetypeTableRecord
  2
CONTINUOUS
 70
     0
  3
Solid line
 72
    65
 73
     0
 40
0.0
  0
LTYPE
  5
D949
330
5
100
AcDbSymbolTableRecord
100
AcDbLinetypeTableRecord
  2
CENTER
 70
     0
  3
____ _ ____ _ ____ _ ____ _ ____ _ ____ _ ____ 
 72
    65
 73
     4
 40
2.0
 49
1.25
 74
     0
 49
-0.25
 74
     0
 49
0.25
 74
     0
 49
-0.25
 74
     0
  0
ENDTAB
  0
TABLE
  2
LAYER
  5
2
102
{ACAD_XDICTIONARY
360
D953
102
}
330
0
100
AcDbSymbolTable
 70
     7
  0
LAYER
  5
E
102
{ACAD_XDICTIONARY
360
D8C8
102
}
330
2
100
AcDbSymbolTableRecord
100
AcDbLayerTableRecord
  2
0
 70
     0
 62
     7
  6
CONTINUOUS
370
    -3
390
D872
347
D884
348
0
  0
LAYER
  5
40
102
{ACAD_XDICTIONARY
360
D8CA
102
}
330
2
100
AcDbSymbolTableRecord
100
AcDbLayerTableRecord
  2
1外形線
 70
     0
 62
     3
  6
CONTINUOUS
370
    -3
390
D872
347
D884
348
0
  0
LAYER
  5
D94A
102
{ACAD_XDICTIONARY
360
D94B
102
}
330
2
100
AcDbSymbolTableRecord
100
AcDbLayerTableRecord
  2
C4
 70
     0
 62
     3
  6
CONTINUOUS
370
    -3
390
D872
347
D884
348
0
  0
LAYER
  5
D94C
330
2
100
AcDbSymbolTableRecord
100
AcDbLayerTableRecord
  2
DEFPOINTS
 70
     0
 62
     7
  6
CONTINUOUS
290
     0
370
    -3
390
D872
347
D884
348
0
  0
LAYER
  5
D94D
102
{ACAD_XDICTIONARY
360
D94E
102
}
330
2
100
AcDbSymbolTableRecord
100
AcDbLayerTableRecord
  2
2寸法線
 70
     0
 62
     2
  6
CONTINUOUS
370
    -3
390
D872
347
D884
348
0
  0
LAYER
  5
D94F
330
2
100
AcDbSymbolTableRecord
100
AcDbLayerTableRecord
  2
L7中心
 70
     0
 62
     4
  6
CENTER
370
     9
390
D872
347
D884
348
0
1001
AcAecLayerStandard
1000

1000

1001
ACCMTRANSPARENCY
1071
        0
  0
LAYER
  5
DBF8
102
{ACAD_XDICTIONARY
360
DBF9
102
}
330
2
100
AcDbSymbolTableRecord
100
AcDbLayerTableRecord
  2
1ﾀﾞｸﾄｶﾊﾞｰ
 70
     0
 62
     3
  6
CONTINUOUS
370
    -3
390
D872
347
D884
348
0
  0
ENDTAB
  0
TABLE
  2
STYLE
  5
3
330
0
100
AcDbSymbolTable
 70
     2
  0
STYLE
  5
F
330
3
100
AcDbSymbolTableRecord
100
AcDbTextStyleTableRecord
  2
STANDARD
 70
     0
 40
0.0
 41
1.0
 50
0.0
 71
     0
 42
0.2
  3
txt
  4

  0
STYLE
  5
3B
330
3
100
AcDbSymbolTableRecord
100
AcDbTextStyleTableRecord
  2
KANJI
 70
     0
 40
0.0
 41
1.0
 50
0.0
 71
     0
 42
10.0
  3
simplex
  4
bigfont
  0
ENDTAB
  0
TABLE
  2
VIEW
  5
6
330
0
100
AcDbSymbolTable
 70
     1
  0
ENDTAB
  0
TABLE
  2
UCS
  5
7
330
0
100
AcDbSymbolTable
 70
     0
  0
ENDTAB
  0
TABLE
  2
APPID
  5
9
330
0
100
AcDbSymbolTable
 70
     6
  0
APPID
  5
10
330
9
100
AcDbSymbolTableRecord
100
AcDbRegAppTableRecord
  2
ACAD
 70
     0
  0
APPID
  5
D8CC
330
9
100
AcDbSymbolTableRecord
100
AcDbRegAppTableRecord
  2
ACAD_NAV_VCDISPLAY
 70
     0
  0
APPID
  5
D8D6
330
9
100
AcDbSymbolTableRecord
100
AcDbRegAppTableRecord
  2
ACAD_EXEMPT_FROM_CAD_STANDARDS
 70
     0
  0
APPID
  5
D950
330
9
100
AcDbSymbolTableRecord
100
AcDbRegAppTableRecord
  2
ACAD_PSEXT
 70
     0
  0
APPID
  5
D951
330
9
100
AcDbSymbolTableRecord
100
AcDbRegAppTableRecord
  2
AcAecLayerStandard
 70
     0
  0
APPID
  5
D952
330
9
100
AcDbSymbolTableRecord
100
AcDbRegAppTableRecord
  2
ACCMTRANSPARENCY
 70
     0
  0
ENDTAB
  0
TABLE
  2
DIMSTYLE
  5
A
330
0
100
AcDbSymbolTable
 70
     1
100
AcDbDimStyleTable
 71
     0
  0
DIMSTYLE
105
E11
330
A
100
AcDbSymbolTableRecord
100
AcDbDimStyleTableRecord
  2
STANDARD
 70
     0
 41
1.0
 42
1.0
 43
6.0
 44
1.0
 73
     0
 74
     0
 77
     1
 78
     8
140
2.5
141
0.0
147
0.5
172
     1
173
     1
284
     8
285
     8
286
     8
340
3B
341
C7B3
343
C7B3
344
C7B3
  0
ENDTAB
  0
TABLE
  2
BLOCK_RECORD
  5
1
330
0
100
AcDbSymbolTable
 70
    46
  0
BLOCK_RECORD
  5
17
330
1
100
AcDbSymbolTableRecord
100
AcDbBlockTableRecord
  2
*MODEL_SPACE
340
D8C2
 70
     0
280
     1
281
     0
  0
BLOCK_RECORD
  5
14
330
1
100
AcDbSymbolTableRecord
100
AcDbBlockTableRecord
  2
*PAPER_SPACE
340
D8C3
 70
     0
280
     1
281
     0
  0
BLOCK_RECORD
  5
C7B3
330
1
100
AcDbSymbolTableRecord
100
AcDbBlockTableRecord
  2
1
340
0
102
{BLKREFS
331
DF49
331
DF4A
331
DF50
331
DF51
331
DF59
331
DF5A
331
DF62
331
DF63
331
DF6B
331
DF6C
331
DF74
331
DF75
331
DF7E
331
DF7F
331
DF88
331
DF89
331
DF91
331
DF92
331
DF9A
331
DF9B
331
DFA3
331
DFA4
331
DFAC
331
DFAD
102
}
 70
     0
280
     1
281
     0
  0
BLOCK_RECORD
  5
D8D8
330
1
100
AcDbSymbolTableRecord
100
AcDbBlockTableRecord
  2
Y2
340
0
102
{BLKREFS
331
DB6D
331
DB6E
331
DB79
331
DB7A
331
DB85
331
DB86
331
DB91
331
DB92
331
DB9E
331
DB9F
331
DBAB
331
DBAC
331
DBB7
331
DBB8
331
DBC3
331
DBC4
331
DBCF
331
DBD0
331
DBDB
331
DBDC
331
DBE7
331
DBE8
331
DBF1
331
DBF2
102
}
 70
     0
280
     1
281
     0
  0
BLOCK_RECORD
  5
DB5E
102
{ACAD_XDICTIONARY
360
DB5F
102
}
330
1
100
AcDbSymbolTableRecord
100
AcDbBlockTableRecord
  2
43435
340
0
310
2800000020000000200000000100080000000000000400000000000000000000000000000000000000000000000080000080000000808000800000008000800080800000C0C0C000C0DCC000F0CAA6000020400000206000002080000020A0000020C0000020E00000400000004020000040400000406000004080000040A0
310
000040C0000040E00000600000006020000060400000606000006080000060A0000060C0000060E00000800000008020000080400000806000008080000080A0000080C0000080E00000A0000000A0200000A0400000A0600000A0800000A0A00000A0C00000A0E00000C0000000C0200000C0400000C0600000C0800000C0
310
A00000C0C00000C0E00000E0000000E0200000E0400000E0600000E0800000E0A00000E0C00000E0E00040000000400020004000400040006000400080004000A0004000C0004000E00040200000402020004020400040206000402080004020A0004020C0004020E000404000004040200040404000404060004040800040
310
40A0004040C0004040E00040600000406020004060400040606000406080004060A0004060C0004060E00040800000408020004080400040806000408080004080A0004080C0004080E00040A0000040A0200040A0400040A0600040A0800040A0A00040A0C00040A0E00040C0000040C0200040C0400040C0600040C08000
310
40C0A00040C0C00040C0E00040E0000040E0200040E0400040E0600040E0800040E0A00040E0C00040E0E00080000000800020008000400080006000800080008000A0008000C0008000E00080200000802020008020400080206000802080008020A0008020C0008020E00080400000804020008040400080406000804080
310
008040A0008040C0008040E00080600000806020008060400080606000806080008060A0008060C0008060E00080800000808020008080400080806000808080008080A0008080C0008080E00080A0000080A0200080A0400080A0600080A0800080A0A00080A0C00080A0E00080C0000080C0200080C0400080C0600080C0
310
800080C0A00080C0C00080C0E00080E0000080E0200080E0400080E0600080E0800080E0A00080E0C00080E0E000C0000000C0002000C0004000C0006000C0008000C000A000C000C000C000E000C0200000C0202000C0204000C0206000C0208000C020A000C020C000C020E000C0400000C0402000C0404000C0406000C0
310
408000C040A000C040C000C040E000C0600000C0602000C0604000C0606000C0608000C060A000C060C000C060E000C0800000C0802000C0804000C0806000C0808000C080A000C080C000C080E000C0A00000C0A02000C0A04000C0A06000C0A08000C0A0A000C0A0C000C0A0E000C0C00000C0C02000C0C04000C0C06000
310
C0C08000C0C0A000F0FBFF00A4A0A000808080000000FF0000FF000000FFFF00FF000000FF00FF00FFFF0000FFFFFF000000000000000000000000000000000000000000000000000000000000000000000000FAFAFAFAFAFAFAFAFAFAFAFAFAFAFAFAFAFAFAFAFAFAFAFAFAFAFA0000000000FA0000000000000000000000
310
0000000000000000000000000000FAFA00000000FA00000000000000000000000000000000000000000000000000FAFA00000000FA00000000000000000000000000000000000000000000000000FAFA00000000FA00000000000000000000000000000000000000000000000000FAFA00000000FA00000000000000000000
310
000000000000000000000000000000FAFA00000000FA00000000000000000000000000000000000000000000000000FAFA00000000FA00000000000000000000000000000000000000000000000000FAFA000000FA00000000000000000000000000000000000000000000000000FAFA00000000FA00000000000000000000
310
000000000000000000000000000000FAFA00000000FA00000000000000000000000000000000000000000000000000FAFA00000000FA00000000000000000000000000000000000000000000000000FAFA00000000FA00000000000000000000000000000000000000000000000000FAFA00000000FA000000000000000000
310
00000000000000000000000000000000FAFA00000000FA00000000000000000000000000000000000000000000000000FAFA00000000FA00000000000000000000000000000000000000000000000000FAFA00000000FA00000000000000000000000000000000000000000000000000FAFA00000000FA0000000000000000
310
0000000000000000000000000000000000FAFA000000FA00000000000000000000000000000000000000000000000000FA00FA000000FA00000000000000000000000000000000000000000000000000FAFA00000000FAFA000000000000000000000000000000000000000000000000FAFA00000000FA00FA000000000000
310
00000000000000000000000000000000FAFA000000000000FA00FA0000000000000000000000000000000000000000FA00FA00000000000000FAFA0000000000000000000000000000000000000000FAFA000000000000000000FAFAFA0000000000000000000000000000000000FAFA0000000000000000000000FA00FA00
310
00000000000000000000000000FAFAFA00000000000000000000000000FAFAFAFAFA00000000000000000000FAFAFA00000000000000000000000000000000FA0000FAFA000000FAFAFAFAFAFA00000000000000000000000000000000000000FAFAFAFAFAFAFA00FAFAFA0000000000000000000000000000000000000000
310
0000000000FAFAFAFA0000000000000000000000000000000000000000000000000000000000000000000000000000000000000000000000
102
{BLKREFS
331
DDC6
102
}
 70
     0
280
     1
281
     1
  0
BLOCK_RECORD
  5
DB68
330
1
100
AcDbSymbolTableRecord
100
AcDbBlockTableRecord
  2
*D21
340
0
 70
     0
280
     1
281
     0
  0
BLOCK_RECORD
  5
DB74
330
1
100
AcDbSymbolTableRecord
100
AcDbBlockTableRecord
  2
*D22
340
0
 70
     0
280
     1
281
     0
  0
BLOCK_RECORD
  5
DB80
330
1
100
AcDbSymbolTableRecord
100
AcDbBlockTableRecord
  2
*D23
340
0
 70
     0
280
     1
281
     0
  0
BLOCK_RECORD
  5
DB8C
330
1
100
AcDbSymbolTableRecord
100
AcDbBlockTableRecord
  2
*D24
340
0
 70
     0
280
     1
281
     0
  0
BLOCK_RECORD
  5
DB98
330
1
100
AcDbSymbolTableRecord
100
AcDbBlockTableRecord
  2
*D25
340
0
 70
     0
280
     1
281
     0
  0
BLOCK_RECORD
  5
DBA4
330
1
100
AcDbSymbolTableRecord
100
AcDbBlockTableRecord
  2
*D26
340
0
 70
     0
280
     1
281
     0
  0
BLOCK_RECORD
  5
DBB2
330
1
100
AcDbSymbolTableRecord
100
AcDbBlockTableRecord
  2
*D27
340
0
 70
     0
280
     1
281
     0
  0
BLOCK_RECORD
  5
DBBE
330
1
100
AcDbSymbolTableRecord
100
AcDbBlockTableRecord
  2
*D28
340
0
 70
     0
280
     1
281
     0
  0
BLOCK_RECORD
  5
DBCA
330
1
100
AcDbSymbolTableRecord
100
AcDbBlockTableRecord
  2
*D29
340
0
 70
     0
280
     1
281
     0
  0
BLOCK_RECORD
  5
DBD6
330
1
100
AcDbSymbolTableRecord
100
AcDbBlockTableRecord
  2
*D30
340
0
 70
     0
280
     1
281
     0
  0
BLOCK_RECORD
  5
DBE2
330
1
100
AcDbSymbolTableRecord
100
AcDbBlockTableRecord
  2
*D31
340
0
 70
     0
280
     1
281
     0
  0
BLOCK_RECORD
  5
DBEE
330
1
100
AcDbSymbolTableRecord
100
AcDbBlockTableRecord
  2
*D32
340
0
 70
     0
280
     1
281
     0
  0
BLOCK_RECORD
  5
DEB6
330
1
100
AcDbSymbolTableRecord
100
AcDbBlockTableRecord
  2
*D34
340
0
 70
     0
280
     1
281
     0
  0
BLOCK_RECORD
  5
DEC2
330
1
100
AcDbSymbolTableRecord
100
AcDbBlockTableRecord
  2
*D35
340
0
 70
     0
280
     1
281
     0
  0
BLOCK_RECORD
  5
DECC
330
1
100
AcDbSymbolTableRecord
100
AcDbBlockTableRecord
  2
*D36
340
0
 70
     0
280
     1
281
     0
  0
BLOCK_RECORD
  5
DED8
330
1
100
AcDbSymbolTableRecord
100
AcDbBlockTableRecord
  2
*D37
340
0
 70
     0
280
     1
281
     0
  0
BLOCK_RECORD
  5
DEE4
330
1
100
AcDbSymbolTableRecord
100
AcDbBlockTableRecord
  2
*D38
340
0
 70
     0
280
     1
281
     0
  0
BLOCK_RECORD
  5
DEF0
330
1
100
AcDbSymbolTableRecord
100
AcDbBlockTableRecord
  2
*D39
340
0
 70
     0
280
     1
281
     0
  0
BLOCK_RECORD
  5
DEFC
330
1
100
AcDbSymbolTableRecord
100
AcDbBlockTableRecord
  2
*D40
340
0
 70
     0
280
     1
281
     0
  0
BLOCK_RECORD
  5
DF08
330
1
100
AcDbSymbolTableRecord
100
AcDbBlockTableRecord
  2
*D41
340
0
 70
     0
280
     1
281
     0
  0
BLOCK_RECORD
  5
DF16
330
1
100
AcDbSymbolTableRecord
100
AcDbBlockTableRecord
  2
*D42
340
0
 70
     0
280
     1
281
     0
  0
BLOCK_RECORD
  5
DF22
330
1
100
AcDbSymbolTableRecord
100
AcDbBlockTableRecord
  2
*D43
340
0
 70
     0
280
     1
281
     0
  0
BLOCK_RECORD
  5
DF2E
330
1
100
AcDbSymbolTableRecord
100
AcDbBlockTableRecord
  2
*D44
340
0
 70
     0
280
     1
281
     0
  0
BLOCK_RECORD
  5
DF3A
330
1
100
AcDbSymbolTableRecord
100
AcDbBlockTableRecord
  2
*D45
340
0
 70
     0
280
     1
281
     0
  0
ENDTAB
  0
ENDSEC
  0
SECTION
  2
BLOCKS
  0
BLOCK
  5
4F
330
17
100
AcDbEntity
  8
0
100
AcDbBlockBegin
  2
*MODEL_SPACE
 70
     0
 10
0.0
 20
0.0
 30
0.0
  3
*MODEL_SPACE
  1

  0
ENDBLK
  5
50
330
17
100
AcDbEntity
  8
0
100
AcDbBlockEnd
  0
BLOCK
  5
4D
330
14
100
AcDbEntity
 67
     1
  8
0
100
AcDbBlockBegin
  2
*PAPER_SPACE
 70
     0
 10
0.0
 20
0.0
 30
0.0
  3
*PAPER_SPACE
  1

  0
ENDBLK
  5
4E
330
14
100
AcDbEntity
 67
     1
  8
0
100
AcDbBlockEnd
  0
BLOCK
  5
C7B4
330
C7B3
100
AcDbEntity
  8
0
 48
2.0
100
AcDbBlockBegin
  2
1
 70
     0
 10
0.0
 20
0.0
 30
0.0
  3
1
  1

  0
SOLID
  5
C7B5
330
C7B3
100
AcDbEntity
  8
0
  6
ByBlock
 62
     0
100
AcDbTrace
 10
-1.811110924292052
 20
0.4852857095671653
 30
0.0
 11
-1.811110924292052
 21
-0.4852857095673642
 31
0.0
 12
0.0
 22
0.0
 32
0.0
 13
0.0
 23
0.0
 33
0.0
  0
ENDBLK
  5
C7B6
330
C7B3
100
AcDbEntity
  8
0
 48
2.0
100
AcDbBlockEnd
  0
BLOCK
  5
D8D9
330
D8D8
100
AcDbEntity
  8
0
 48
2.0
100
AcDbBlockBegin
  2
Y2
 70
     0
 10
0.0
 20
0.0
 30
0.0
  3
Y2
  1

  0
SOLID
  5
D8DA
330
D8D8
100
AcDbEntity
  8
0
  6
ByBlock
 62
     0
100
AcDbTrace
 10
-1.811110924292108
 20
0.485285709567151
 30
0.0
 11
-1.811110924292108
 21
-0.4852857095673784
 31
0.0
 12
-0.0000000000000568
 22
-0.0000000000000142
 32
0.0
 13
-0.0000000000000568
 23
-0.0000000000000142
 33
0.0
  0
ENDBLK
  5
D8DB
330
D8D8
100
AcDbEntity
  8
0
 48
2.0
100
AcDbBlockEnd
  0
BLOCK
  5
DB61
330
DB5E
100
AcDbEntity
  8
0
 48
2.0
100
AcDbBlockBegin
  2
43435
 70
     0
 10
0.0
 20
0.0
 30
0.0
  3
43435
  1

  0
ARC
  5
DB62
330
DB5E
100
AcDbEntity
  8
1ﾀﾞｸﾄｶﾊﾞｰ
 62
     3
100
AcDbCircle
 10
0.0
 20
-22.09999999999945
 30
0.0
 40
21.90000000000002
100
AcDbArc
 50
1.000000000001761
 51
157.2473020482621
  0
LINE
  5
DB63
330
DB5E
100
AcDbEntity
  8
1ﾀﾞｸﾄｶﾊﾞｰ
 62
     3
100
AcDbLine
 10
22.26116481519011
 20
-42.59999999999945
 30
0.0
 11
21.89666452392521
 21
-21.71779229902313
 31
0.0
  0
LINE
  5
DB64
330
DB5E
100
AcDbEntity
  8
1ﾀﾞｸﾄｶﾊﾞｰ
 62
     3
100
AcDbLine
 10
-18.13881826400757
 20
-42.59999999999945
 30
0.0
 11
22.26116481519011
 21
-42.59999999999945
 31
0.0
  0
LINE
  5
DB65
330
DB5E
100
AcDbEntity
  8
1ﾀﾞｸﾄｶﾊﾞｰ
100
AcDbLine
 10
-18.13881826400757
 20
-42.59999999999945
 30
0.0
 11
-18.50334909558296
 21
-21.71604680120891
 31
0.0
  0
ARC
  5
DB66
330
DB5E
100
AcDbEntity
  8
1ﾀﾞｸﾄｶﾊﾞｰ
100
AcDbCircle
 10
-40.49999999999999
 20
-22.09999999999945
 30
0.0
 40
22.00000000000006
100
AcDbArc
 50
1.000000000001761
 51
22.6435174819101
  0
ENDBLK
  5
DB67
330
DB5E
100
AcDbEntity
  8
0
 48
2.0
100
AcDbBlockEnd
  0
BLOCK
  5
DB69
330
DB68
100
AcDbEntity
  8
0
 48
2.0
100
AcDbBlockBegin
  2
*D21
 70
     1
 10
0.0
 20
0.0
 30
0.0
  3
*D21
  1

  0
LINE
  5
DB6A
330
DB68
100
AcDbEntity
  8
2寸法線
 62
     0
440
 16777216
 48
3.0
370
    -2
100
AcDbLine
 10
65.2570661862362
 20
221.3998934874066
 30
0.0
 11
65.2570661862362
 21
211.049382414622
 31
0.0
  0
LINE
  5
DB6B
330
DB68
100
AcDbEntity
  8
2寸法線
 62
     0
440
 16777216
 48
3.0
370
    -2
100
AcDbLine
 10
156.1577377909928
 20
221.3998934874066
 30
0.0
 11
156.1577377909928
 21
211.049382414622
 31
0.0
  0
LINE
  5
DB6C
330
DB68
100
AcDbEntity
  8
2寸法線
 62
     0
440
 16777216
 48
3.0
370
    -2
100
AcDbLine
 10
66.7570661862362
 20
212.0493824146219
 30
0.0
 11
154.6577377909927
 21
212.0493824146219
 31
0.0
  0
INSERT
  5
DB6D
330
DB68
100
AcDbEntity
  8
2寸法線
 62
     0
440
 16777216
 48
3.0
370
    -2
100
AcDbBlockReference
  2
Y2
 10
65.2570661862362
 20
212.0493824146219
 30
0.0
 41
1.5
 42
1.5
 43
1.5
 50
180.0
  0
INSERT
  5
DB6E
330
DB68
100
AcDbEntity
  8
2寸法線
 62
     0
440
 16777216
 48
3.0
370
    -2
100
AcDbBlockReference
  2
Y2
 10
156.1577377909928
 20
212.0493824146219
 30
0.0
 41
1.5
 42
1.5
 43
1.5
  0
MTEXT
  5
DB6F
330
DB68
100
AcDbEntity
  8
2寸法線
 62
     1
440
 16777216
 48
3.0
100
AcDbMText
 10
110.7074019886145
 20
214.799382414622
 30
0.0
 40
3.5
 41
0.0
 46
0.0
 71
     5
 72
     1
  1
\A1;91
  7
KANJI
 73
     1
 44
1.0
  0
POINT
  5
DB70
330
DB68
100
AcDbEntity
  8
DEFPOINTS
 62
     0
440
 16777216
 48
3.0
100
AcDbPoint
 10
65.2570661862362
 20
223.3998934874066
 30
0.0
  0
POINT
  5
DB71
330
DB68
100
AcDbEntity
  8
DEFPOINTS
 62
     0
440
 16777216
 48
3.0
100
AcDbPoint
 10
156.1577377909928
 20
223.3998934874066
 30
0.0
  0
POINT
  5
DB72
330
DB68
100
AcDbEntity
  8
DEFPOINTS
 62
     0
440
 16777216
 48
3.0
100
AcDbPoint
 10
156.1577377909928
 20
212.0493824146219
 30
0.0
  0
ENDBLK
  5
DB73
330
DB68
100
AcDbEntity
  8
0
 48
2.0
100
AcDbBlockEnd
  0
BLOCK
  5
DB75
330
DB74
100
AcDbEntity
  8
0
 48
2.0
100
AcDbBlockBegin
  2
*D22
 70
     1
 10
0.0
 20
0.0
 30
0.0
  3
*D22
  1

  0
LINE
  5
DB76
330
DB74
100
AcDbEntity
  8
2寸法線
 62
     0
440
 16777216
 48
3.0
370
    -2
100
AcDbLine
 10
198.6170533119583
 20
142.3789346599551
 30
0.0
 11
198.6170533119583
 21
132.7559503495759
 31
0.0
  0
LINE
  5
DB77
330
DB74
100
AcDbEntity
  8
2寸法線
 62
     0
440
 16777216
 48
3.0
370
    -2
100
AcDbLine
 10
240.6170528407091
 20
142.3789346599551
 30
0.0
 11
240.6170528407091
 21
132.7559503495759
 31
0.0
  0
LINE
  5
DB78
330
DB74
100
AcDbEntity
  8
2寸法線
 62
     0
440
 16777216
 48
3.0
370
    -2
100
AcDbLine
 10
200.1170533119583
 20
133.7559503495759
 30
0.0
 11
239.1170528407091
 21
133.7559503495759
 31
0.0
  0
INSERT
  5
DB79
330
DB74
100
AcDbEntity
  8
2寸法線
 62
     0
440
 16777216
 48
3.0
370
    -2
100
AcDbBlockReference
  2
Y2
 10
198.6170533119583
 20
133.7559503495759
 30
0.0
 41
1.5
 42
1.5
 43
1.5
 50
180.0
  0
INSERT
  5
DB7A
330
DB74
100
AcDbEntity
  8
2寸法線
 62
     0
440
 16777216
 48
3.0
370
    -2
100
AcDbBlockReference
  2
Y2
 10
240.6170528407091
 20
133.7559503495759
 30
0.0
 41
1.5
 42
1.5
 43
1.5
  0
MTEXT
  5
DB7B
330
DB74
100
AcDbEntity
  8
2寸法線
 62
     1
440
 16777216
 48
3.0
100
AcDbMText
 10
219.6170530763337
 20
136.5059503495758
 30
0.0
 40
3.5
 41
0.0
 46
0.0
 71
     5
 72
     1
  1
\A1;42
  7
KANJI
 73
     1
 44
1.0
  0
POINT
  5
DB7C
330
DB74
100
AcDbEntity
  8
DEFPOINTS
 62
     0
440
 16777216
 48
3.0
100
AcDbPoint
 10
198.6170533119583
 20
144.3789346599551
 30
0.0
  0
POINT
  5
DB7D
330
DB74
100
AcDbEntity
  8
DEFPOINTS
 62
     0
440
 16777216
 48
3.0
100
AcDbPoint
 10
240.6170528407091
 20
144.3789346599551
 30
0.0
  0
POINT
  5
DB7E
330
DB74
100
AcDbEntity
  8
DEFPOINTS
 62
     0
440
 16777216
 48
3.0
100
AcDbPoint
 10
240.6170528407091
 20
133.7559503495759
 30
0.0
  0
ENDBLK
  5
DB7F
330
DB74
100
AcDbEntity
  8
0
 48
2.0
100
AcDbBlockEnd
  0
BLOCK
  5
DB81
330
DB80
100
AcDbEntity
  8
0
 48
2.0
100
AcDbBlockBegin
  2
*D23
 70
     1
 10
0.0
 20
0.0
 30
0.0
  3
*D23
  1

  0
LINE
  5
DB82
330
DB80
100
AcDbEntity
  8
2寸法線
 62
     0
440
 16777216
 48
3.0
370
    -2
100
AcDbLine
 10
117.6157730336367
 20
90.48367785851496
 30
0.0
 11
178.6723826748597
 21
90.48367785851494
 31
0.0
  0
LINE
  5
DB83
330
DB80
100
AcDbEntity
  8
2寸法線
 62
     0
440
 16777216
 48
3.0
370
    -2
100
AcDbLine
 10
156.5661081541633
 20
70.48367878797489
 30
0.0
 11
178.6723826748597
 21
70.48367878797488
 31
0.0
  0
LINE
  5
DB84
330
DB80
100
AcDbEntity
  8
2寸法線
 62
     0
440
 16777216
 48
3.0
370
    -2
100
AcDbLine
 10
177.6723826748597
 20
88.98367785851496
 30
0.0
 11
177.6723826748597
 21
71.98367878797488
 31
0.0
  0
INSERT
  5
DB85
330
DB80
100
AcDbEntity
  8
2寸法線
 62
     0
440
 16777216
 48
3.0
370
    -2
100
AcDbBlockReference
  2
Y2
 10
177.6723826748597
 20
90.48367785851494
 30
0.0
 41
1.5
 42
1.5
 43
1.5
 50
90.0
  0
INSERT
  5
DB86
330
DB80
100
AcDbEntity
  8
2寸法線
 62
     0
440
 16777216
 48
3.0
370
    -2
100
AcDbBlockReference
  2
Y2
 10
177.6723826748597
 20
70.48367878797488
 30
0.0
 41
1.5
 42
1.5
 43
1.5
 50
270.0
  0
MTEXT
  5
DB87
330
DB80
100
AcDbEntity
  8
2寸法線
 62
     1
440
 16777216
 48
3.0
100
AcDbMText
 10
174.9223826748597
 20
80.48367832324494
 30
0.0
 40
3.5
 41
0.0
 46
0.0
 71
     5
 72
     1
  1
\A1;20
  7
KANJI
 11
0.0000000000000001
 21
1.0
 31
0.0
 73
     1
 44
1.0
  0
POINT
  5
DB88
330
DB80
100
AcDbEntity
  8
DEFPOINTS
 62
     0
440
 16777216
 48
3.0
100
AcDbPoint
 10
115.6157730336367
 20
90.48367785851496
 30
0.0
  0
POINT
  5
DB89
330
DB80
100
AcDbEntity
  8
DEFPOINTS
 62
     0
440
 16777216
 48
3.0
100
AcDbPoint
 10
154.5661081541633
 20
70.48367878797489
 30
0.0
  0
POINT
  5
DB8A
330
DB80
100
AcDbEntity
  8
DEFPOINTS
 62
     0
440
 16777216
 48
3.0
100
AcDbPoint
 10
177.6723826748597
 20
70.48367878797488
 30
0.0
  0
ENDBLK
  5
DB8B
330
DB80
100
AcDbEntity
  8
0
 48
2.0
100
AcDbBlockEnd
  0
BLOCK
  5
DB8D
330
DB8C
100
AcDbEntity
  8
0
 48
2.0
100
AcDbBlockBegin
  2
*D24
 70
     1
 10
0.0
 20
0.0
 30
0.0
  3
*D24
  1

  0
LINE
  5
DB8E
330
DB8C
100
AcDbEntity
  8
2寸法線
 62
     0
440
 16777216
 48
3.0
370
    -2
100
AcDbLine
 10
149.365772595915
 20
81.48367794419664
 30
0.0
 11
169.2751627640932
 21
81.48367794419662
 31
0.0
  0
LINE
  5
DB8F
330
DB8C
100
AcDbEntity
  8
2寸法線
 62
     0
440
 16777216
 48
3.0
370
    -2
100
AcDbLine
 10
156.5661081541633
 20
70.48367878797489
 30
0.0
 11
169.2751627640932
 21
70.48367878797488
 31
0.0
  0
LINE
  5
DB90
330
DB8C
100
AcDbEntity
  8
2寸法線
 62
     0
440
 16777216
 48
3.0
370
    -2
100
AcDbLine
 10
168.2751627640931
 20
79.98367794419663
 30
0.0
 11
168.2751627640931
 21
71.98367878797488
 31
0.0
  0
INSERT
  5
DB91
330
DB8C
100
AcDbEntity
  8
2寸法線
 62
     0
440
 16777216
 48
3.0
370
    -2
100
AcDbBlockReference
  2
Y2
 10
168.2751627640931
 20
81.48367794419662
 30
0.0
 41
1.5
 42
1.5
 43
1.5
 50
90.0
  0
INSERT
  5
DB92
330
DB8C
100
AcDbEntity
  8
2寸法線
 62
     0
440
 16777216
 48
3.0
370
    -2
100
AcDbBlockReference
  2
Y2
 10
168.2751627640931
 20
70.48367878797488
 30
0.0
 41
1.5
 42
1.5
 43
1.5
 50
270.0
  0
MTEXT
  5
DB93
330
DB8C
100
AcDbEntity
  8
2寸法線
 62
     1
440
 16777216
 48
3.0
100
AcDbMText
 10
165.5251627640931
 20
75.98367836608578
 30
0.0
 40
3.5
 41
0.0
 46
0.0
 71
     5
 72
     1
  1
\A1;11
  7
KANJI
 11
0.0000000000000001
 21
1.0
 31
0.0
 73
     1
 44
1.0
  0
POINT
  5
DB94
330
DB8C
100
AcDbEntity
  8
DEFPOINTS
 62
     0
440
 16777216
 48
3.0
100
AcDbPoint
 10
147.365772595915
 20
81.48367794419664
 30
0.0
  0
POINT
  5
DB95
330
DB8C
100
AcDbEntity
  8
DEFPOINTS
 62
     0
440
 16777216
 48
3.0
100
AcDbPoint
 10
154.5661081541633
 20
70.48367878797489
 30
0.0
  0
POINT
  5
DB96
330
DB8C
100
AcDbEntity
  8
DEFPOINTS
 62
     0
440
 16777216
 48
3.0
100
AcDbPoint
 10
168.2751627640931
 20
70.48367878797488
 30
0.0
  0
ENDBLK
  5
DB97
330
DB8C
100
AcDbEntity
  8
0
 48
2.0
100
AcDbBlockEnd
  0
BLOCK
  5
DB99
330
DB98
100
AcDbEntity
  8
0
 48
2.0
100
AcDbBlockBegin
  2
*D25
 70
     1
 10
0.0
 20
0.0
 30
0.0
  3
*D25
  1

  0
LINE
  5
DB9A
330
DB98
100
AcDbEntity
  8
2寸法線
 62
     0
440
 16777216
 48
3.0
370
    -2
100
AcDbLine
 10
108.6157730336366
 20
93.48367794419663
 30
0.0
 11
99.08790751049359
 21
93.48367794419663
 31
0.0
  0
LINE
  5
DB9B
330
DB98
100
AcDbEntity
  8
2寸法線
 62
     0
440
 16777216
 48
3.0
370
    -2
100
AcDbLine
 10
108.6157726257173
 20
87.48367794419664
 30
0.0
 11
99.08790751049359
 21
87.48367794419664
 31
0.0
  0
LINE
  5
DB9C
330
DB98
100
AcDbEntity
  8
2寸法線
 62
     0
440
 16777216
 48
3.0
370
    -2
100
AcDbLine
 10
100.0879075104936
 20
91.98367794419665
 30
0.0
 11
100.0879075104936
 21
88.98367794419664
 31
0.0
  0
MTEXT
  5
DB9D
330
DB98
100
AcDbEntity
  8
2寸法線
 62
     1
440
 16777216
 48
3.0
100
AcDbMText
 10
97.10344696234859
 20
90.48367794419664
 30
0.0
 40
3.5
 41
0.0
 46
0.0
 71
     5
 72
     1
  1
\A1;6
  7
KANJI
 11
0.0000000000000001
 21
1.0
 31
0.0
 73
     1
 44
1.0
  0
INSERT
  5
DB9E
330
DB98
100
AcDbEntity
  8
2寸法線
 62
     0
440
 16777216
 48
3.0
370
    -2
100
AcDbBlockReference
  2
Y2
 10
100.0879075104936
 20
93.48367794419663
 30
0.0
 41
1.5
 42
1.5
 43
1.5
 50
90.0
  0
INSERT
  5
DB9F
330
DB98
100
AcDbEntity
  8
2寸法線
 62
     0
440
 16777216
 48
3.0
370
    -2
100
AcDbBlockReference
  2
Y2
 10
100.0879075104936
 20
87.48367794419664
 30
0.0
 41
1.5
 42
1.5
 43
1.5
 50
270.0
  0
POINT
  5
DBA0
330
DB98
100
AcDbEntity
  8
DEFPOINTS
 62
     0
440
 16777216
 48
3.0
100
AcDbPoint
 10
110.6157730336366
 20
93.48367794419663
 30
0.0
  0
POINT
  5
DBA1
330
DB98
100
AcDbEntity
  8
DEFPOINTS
 62
     0
440
 16777216
 48
3.0
100
AcDbPoint
 10
110.6157726257173
 20
87.48367794419664
 30
0.0
  0
POINT
  5
DBA2
330
DB98
100
AcDbEntity
  8
DEFPOINTS
 62
     0
440
 16777216
 48
3.0
100
AcDbPoint
 10
100.0879075104936
 20
87.48367794419664
 30
0.0
  0
ENDBLK
  5
DBA3
330
DB98
100
AcDbEntity
  8
0
 48
2.0
100
AcDbBlockEnd
  0
BLOCK
  5
DBA5
330
DBA4
100
AcDbEntity
  8
0
 48
2.0
100
AcDbBlockBegin
  2
*D26
 70
     1
 10
0.0
 20
0.0
 30
0.0
  3
*D26
  1

  0
LINE
  5
DBA6
330
DBA4
100
AcDbEntity
  8
2寸法線
 62
     0
440
 16777216
 48
3.0
370
    -2
100
AcDbLine
 10
112.715772550839
 20
93.3836777266397
 30
0.0
 11
112.715772550839
 21
98.98367794866681
 31
0.0
  0
LINE
  5
DBA7
330
DBA4
100
AcDbEntity
  8
2寸法線
 62
     0
440
 16777216
 48
3.0
370
    -2
100
AcDbLine
 10
108.5157727005956
 20
93.38423873747206
 30
0.0
 11
108.5157727005956
 21
98.98367794866681
 31
0.0
  0
LINE
  5
DBA8
330
DBA4
100
AcDbEntity
  8
2寸法線
 62
     0
440
 16777216
 48
3.0
370
    -2
100
AcDbLine
 10
114.215772550839
 20
97.98367794866681
 30
0.0
 11
115.715772550839
 21
97.98367794866681
 31
0.0
  0
LINE
  5
DBA9
330
DBA4
100
AcDbEntity
  8
2寸法線
 62
     0
440
 16777216
 48
3.0
370
    -2
100
AcDbLine
 10
107.0157727005957
 20
97.98367794866681
 30
0.0
 11
96.18243936726235
 21
97.98367794866681
 31
0.0
  0
LINE
  5
DBAA
330
DBA4
100
AcDbEntity
  8
2寸法線
 62
     0
440
 16777216
 48
3.0
370
    -2
100
AcDbLine
 10
112.715772550839
 20
97.98367794866681
 30
0.0
 11
108.5157727005956
 21
97.98367794866681
 31
0.0
  0
INSERT
  5
DBAB
330
DBA4
100
AcDbEntity
  8
2寸法線
 62
     0
440
 16777216
 48
3.0
370
    -2
100
AcDbBlockReference
  2
Y2
 10
112.715772550839
 20
97.98367794866681
 30
0.0
 41
1.5
 42
1.5
 43
1.5
 50
180.0
  0
INSERT
  5
DBAC
330
DBA4
100
AcDbEntity
  8
2寸法線
 62
     0
440
 16777216
 48
3.0
370
    -2
100
AcDbBlockReference
  2
Y2
 10
108.5157727005956
 20
97.98367794866681
 30
0.0
 41
1.5
 42
1.5
 43
1.5
  0
MTEXT
  5
DBAD
330
DBA4
100
AcDbEntity
  8
2寸法線
 62
     1
440
 16777216
 48
3.0
100
AcDbMText
 10
100.849106033929
 20
100.7336779486668
 30
0.0
 40
3.5
 41
0.0
 46
0.0
 71
     5
 72
     1
  1
\A1;4.2
  7
KANJI
 73
     1
 44
1.0
  0
POINT
  5
DBAE
330
DBA4
100
AcDbEntity
  8
DEFPOINTS
 62
     0
440
 16777216
 48
3.0
100
AcDbPoint
 10
112.715772550839
 20
91.38367772663968
 30
0.0
  0
POINT
  5
DBAF
330
DBA4
100
AcDbEntity
  8
DEFPOINTS
 62
     0
440
 16777216
 48
3.0
100
AcDbPoint
 10
108.5157727005956
 20
91.38423873747205
 30
0.0
  0
POINT
  5
DBB0
330
DBA4
100
AcDbEntity
  8
DEFPOINTS
 62
     0
440
 16777216
 48
3.0
100
AcDbPoint
 10
108.5157727005956
 20
97.98367794866681
 30
0.0
  0
ENDBLK
  5
DBB1
330
DBA4
100
AcDbEntity
  8
0
 48
2.0
100
AcDbBlockEnd
  0
BLOCK
  5
DBB3
330
DBB2
100
AcDbEntity
  8
0
 48
2.0
100
AcDbBlockBegin
  2
*D27
 70
     1
 10
0.0
 20
0.0
 30
0.0
  3
*D27
  1

  0
LINE
  5
DBB4
330
DBB2
100
AcDbEntity
  8
2寸法線
 62
     0
440
 16777216
 48
3.0
370
    -2
100
AcDbLine
 10
155.8657728939382
 20
96.98367831672568
 30
0.0
 11
169.2751627640932
 21
96.98367831672566
 31
0.0
  0
LINE
  5
DBB5
330
DBB2
100
AcDbEntity
  8
2寸法線
 62
     0
440
 16777216
 48
3.0
370
    -2
100
AcDbLine
 10
157.3421186856202
 20
112.4836783167256
 30
0.0
 11
169.2751627640932
 21
112.4836783167256
 31
0.0
  0
LINE
  5
DBB6
330
DBB2
100
AcDbEntity
  8
2寸法線
 62
     0
440
 16777216
 48
3.0
370
    -2
100
AcDbLine
 10
168.2751627640931
 20
98.48367831672566
 30
0.0
 11
168.2751627640931
 21
110.9836783167256
 31
0.0
  0
INSERT
  5
DBB7
330
DBB2
100
AcDbEntity
  8
2寸法線
 62
     0
440
 16777216
 48
3.0
370
    -2
100
AcDbBlockReference
  2
Y2
 10
168.2751627640931
 20
96.98367831672566
 30
0.0
 41
1.5
 42
1.5
 43
1.5
 50
270.0
  0
INSERT
  5
DBB8
330
DBB2
100
AcDbEntity
  8
2寸法線
 62
     0
440
 16777216
 48
3.0
370
    -2
100
AcDbBlockReference
  2
Y2
 10
168.2751627640931
 20
112.4836783167256
 30
0.0
 41
1.5
 42
1.5
 43
1.5
 50
90.0
  0
MTEXT
  5
DBB9
330
DBB2
100
AcDbEntity
  8
2寸法線
 62
     1
440
 16777216
 48
3.0
100
AcDbMText
 10
165.5251627640931
 20
104.7336783167257
 30
0.0
 40
3.5
 41
0.0
 46
0.0
 71
     5
 72
     1
  1
\A1;16
  7
KANJI
 11
0.0000000000000001
 21
1.0
 31
0.0
 73
     1
 44
1.0
  0
POINT
  5
DBBA
330
DBB2
100
AcDbEntity
  8
DEFPOINTS
 62
     0
440
 16777216
 48
3.0
100
AcDbPoint
 10
153.8657728939383
 20
96.98367831672568
 30
0.0
  0
POINT
  5
DBBB
330
DBB2
100
AcDbEntity
  8
DEFPOINTS
 62
     0
440
 16777216
 48
3.0
100
AcDbPoint
 10
155.3421186856202
 20
112.4836783167256
 30
0.0
  0
POINT
  5
DBBC
330
DBB2
100
AcDbEntity
  8
DEFPOINTS
 62
     0
440
 16777216
 48
3.0
100
AcDbPoint
 10
168.2751627640931
 20
112.4836783167256
 30
0.0
  0
ENDBLK
  5
DBBD
330
DBB2
100
AcDbEntity
  8
0
 48
2.0
100
AcDbBlockEnd
  0
BLOCK
  5
DBBF
330
DBBE
100
AcDbEntity
  8
0
 48
2.0
100
AcDbBlockBegin
  2
*D28
 70
     1
 10
0.0
 20
0.0
 30
0.0
  3
*D28
  1

  0
LINE
  5
DBC0
330
DBBE
100
AcDbEntity
  8
2寸法線
 62
     0
440
 16777216
 48
3.0
370
    -2
100
AcDbLine
 10
196.6170533119583
 20
144.3789346599551
 30
0.0
 11
189.4624363315046
 21
144.3789346599551
 31
0.0
  0
LINE
  5
DBC1
330
DBBE
100
AcDbEntity
  8
2寸法線
 62
     0
440
 16777216
 48
3.0
370
    -2
100
AcDbLine
 10
196.6170533119583
 20
190.6790878503802
 30
0.0
 11
189.4624363315046
 21
190.6790878503803
 31
0.0
  0
LINE
  5
DBC2
330
DBBE
100
AcDbEntity
  8
2寸法線
 62
     0
440
 16777216
 48
3.0
370
    -2
100
AcDbLine
 10
190.4624363315046
 20
145.8789346599551
 30
0.0
 11
190.4624363315046
 21
189.1790878503803
 31
0.0
  0
INSERT
  5
DBC3
330
DBBE
100
AcDbEntity
  8
2寸法線
 62
     0
440
 16777216
 48
3.0
370
    -2
100
AcDbBlockReference
  2
Y2
 10
190.4624363315046
 20
144.3789346599551
 30
0.0
 41
1.5
 42
1.5
 43
1.5
 50
270.0
  0
INSERT
  5
DBC4
330
DBBE
100
AcDbEntity
  8
2寸法線
 62
     0
440
 16777216
 48
3.0
370
    -2
100
AcDbBlockReference
  2
Y2
 10
190.4624363315046
 20
190.6790878503803
 30
0.0
 41
1.5
 42
1.5
 43
1.5
 50
90.0
  0
MTEXT
  5
DBC5
330
DBBE
100
AcDbEntity
  8
2寸法線
 62
     1
440
 16777216
 48
3.0
100
AcDbMText
 10
187.7124363315046
 20
167.5290112551677
 30
0.0
 40
3.5
 41
0.0
 46
0.0
 71
     5
 72
     1
  1
\A1;46
  7
KANJI
 11
0.0000000000000001
 21
1.0
 31
0.0
 73
     1
 44
1.0
  0
POINT
  5
DBC6
330
DBBE
100
AcDbEntity
  8
DEFPOINTS
 62
     0
440
 16777216
 48
3.0
100
AcDbPoint
 10
198.6170533119583
 20
144.3789346599551
 30
0.0
  0
POINT
  5
DBC7
330
DBBE
100
AcDbEntity
  8
DEFPOINTS
 62
     0
440
 16777216
 48
3.0
100
AcDbPoint
 10
198.6170533119583
 20
190.6790878503802
 30
0.0
  0
POINT
  5
DBC8
330
DBBE
100
AcDbEntity
  8
DEFPOINTS
 62
     0
440
 16777216
 48
3.0
100
AcDbPoint
 10
190.4624363315046
 20
190.6790878503803
 30
0.0
  0
ENDBLK
  5
DBC9
330
DBBE
100
AcDbEntity
  8
0
 48
2.0
100
AcDbBlockEnd
  0
BLOCK
  5
DBCB
330
DBCA
100
AcDbEntity
  8
0
 48
2.0
100
AcDbBlockBegin
  2
*D29
 70
     1
 10
0.0
 20
0.0
 30
0.0
  3
*D29
  1

  0
LINE
  5
DBCC
330
DBCA
100
AcDbEntity
  8
2寸法線
 62
     0
440
 16777216
 48
3.0
370
    -2
100
AcDbLine
 10
281.633671750143
 20
146.3789346599551
 30
0.0
 11
281.633671750143
 21
201.0365244426594
 31
0.0
  0
LINE
  5
DBCD
330
DBCA
100
AcDbEntity
  8
2寸法線
 62
     0
440
 16777216
 48
3.0
370
    -2
100
AcDbLine
 10
374.534341993536
 20
146.3789346599551
 30
0.0
 11
374.534341993536
 21
201.0365244426594
 31
0.0
  0
LINE
  5
DBCE
330
DBCA
100
AcDbEntity
  8
2寸法線
 62
     0
440
 16777216
 48
3.0
370
    -2
100
AcDbLine
 10
283.133671750143
 20
200.0365244426594
 30
0.0
 11
373.034341993536
 21
200.0365244426594
 31
0.0
  0
INSERT
  5
DBCF
330
DBCA
100
AcDbEntity
  8
2寸法線
 62
     0
440
 16777216
 48
3.0
370
    -2
100
AcDbBlockReference
  2
Y2
 10
281.633671750143
 20
200.0365244426594
 30
0.0
 41
1.5
 42
1.5
 43
1.5
 50
180.0
  0
INSERT
  5
DBD0
330
DBCA
100
AcDbEntity
  8
2寸法線
 62
     0
440
 16777216
 48
3.0
370
    -2
100
AcDbBlockReference
  2
Y2
 10
374.534341993536
 20
200.0365244426594
 30
0.0
 41
1.5
 42
1.5
 43
1.5
  0
MTEXT
  5
DBD1
330
DBCA
100
AcDbEntity
  8
2寸法線
 62
     1
440
 16777216
 48
3.0
100
AcDbMText
 10
328.0840068718395
 20
202.7865244426593
 30
0.0
 40
3.5
 41
0.0
 46
0.0
 71
     5
 72
     1
  1
\A1;93
  7
KANJI
 73
     1
 44
1.0
  0
POINT
  5
DBD2
330
DBCA
100
AcDbEntity
  8
DEFPOINTS
 62
     0
440
 16777216
 48
3.0
100
AcDbPoint
 10
281.633671750143
 20
144.3789346599551
 30
0.0
  0
POINT
  5
DBD3
330
DBCA
100
AcDbEntity
  8
DEFPOINTS
 62
     0
440
 16777216
 48
3.0
100
AcDbPoint
 10
374.534341993536
 20
144.3789346599551
 30
0.0
  0
POINT
  5
DBD4
330
DBCA
100
AcDbEntity
  8
DEFPOINTS
 62
     0
440
 16777216
 48
3.0
100
AcDbPoint
 10
374.534341993536
 20
200.0365244426594
 30
0.0
  0
ENDBLK
  5
DBD5
330
DBCA
100
AcDbEntity
  8
0
 48
2.0
100
AcDbBlockEnd
  0
BLOCK
  5
DBD7
330
DBD6
100
AcDbEntity
  8
0
 48
2.0
100
AcDbBlockBegin
  2
*D30
 70
     1
 10
0.0
 20
0.0
 30
0.0
  3
*D30
  1

  0
LINE
  5
DBD8
330
DBD6
100
AcDbEntity
  8
2寸法線
 62
     0
440
 16777216
 48
3.0
370
    -2
100
AcDbLine
 10
330.0840068718512
 20
191.6789346599557
 30
0.0
 11
384.5494669721523
 21
191.6789346599557
 31
0.0
  0
LINE
  5
DBD9
330
DBD6
100
AcDbEntity
  8
2寸法線
 62
     0
440
 16777216
 48
3.0
370
    -2
100
AcDbLine
 10
376.534341993536
 20
144.3789346599551
 30
0.0
 11
384.5494669721523
 21
144.3789346599551
 31
0.0
  0
LINE
  5
DBDA
330
DBD6
100
AcDbEntity
  8
2寸法線
 62
     0
440
 16777216
 48
3.0
370
    -2
100
AcDbLine
 10
383.5494669721523
 20
190.1789346599557
 30
0.0
 11
383.5494669721523
 21
145.8789346599551
 31
0.0
  0
INSERT
  5
DBDB
330
DBD6
100
AcDbEntity
  8
2寸法線
 62
     0
440
 16777216
 48
3.0
370
    -2
100
AcDbBlockReference
  2
Y2
 10
383.5494669721523
 20
191.6789346599557
 30
0.0
 41
1.5
 42
1.5
 43
1.5
 50
90.0
  0
INSERT
  5
DBDC
330
DBD6
100
AcDbEntity
  8
2寸法線
 62
     0
440
 16777216
 48
3.0
370
    -2
100
AcDbBlockReference
  2
Y2
 10
383.5494669721523
 20
144.3789346599551
 30
0.0
 41
1.5
 42
1.5
 43
1.5
 50
270.0
  0
MTEXT
  5
DBDD
330
DBD6
100
AcDbEntity
  8
2寸法線
 62
     1
440
 16777216
 48
3.0
100
AcDbMText
 10
380.7994669721523
 20
168.0289346599555
 30
0.0
 40
3.5
 41
0.0
 46
0.0
 71
     5
 72
     1
  1
\A1;47.5
  7
KANJI
 11
0.0000000000000001
 21
1.0
 31
0.0
 73
     1
 44
1.0
  0
POINT
  5
DBDE
330
DBD6
100
AcDbEntity
  8
DEFPOINTS
 62
     0
440
 16777216
 48
3.0
100
AcDbPoint
 10
328.0840068718512
 20
191.6789346599557
 30
0.0
  0
POINT
  5
DBDF
330
DBD6
100
AcDbEntity
  8
DEFPOINTS
 62
     0
440
 16777216
 48
3.0
100
AcDbPoint
 10
374.534341993536
 20
144.3789346599551
 30
0.0
  0
POINT
  5
DBE0
330
DBD6
100
AcDbEntity
  8
DEFPOINTS
 62
     0
440
 16777216
 48
3.0
100
AcDbPoint
 10
383.5494669721523
 20
144.3789346599551
 30
0.0
  0
ENDBLK
  5
DBE1
330
DBD6
100
AcDbEntity
  8
0
 48
2.0
100
AcDbBlockEnd
  0
BLOCK
  5
DBE3
330
DBE2
100
AcDbEntity
  8
0
 48
2.0
100
AcDbBlockBegin
  2
*D31
 70
     1
 10
0.0
 20
0.0
 30
0.0
  3
*D31
  1

  0
LINE
  5
DBE4
330
DBE2
100
AcDbEntity
  8
2寸法線
 62
     0
440
 16777216
 48
3.0
370
    -2
100
AcDbLine
 10
285.4728251370174
 20
142.3789346599551
 30
0.0
 11
285.4728251370174
 21
132.7559503495759
 31
0.0
  0
LINE
  5
DBE5
330
DBE2
100
AcDbEntity
  8
2寸法線
 62
     0
440
 16777216
 48
3.0
370
    -2
100
AcDbLine
 10
330.1951886090022
 20
142.3789346599551
 30
0.0
 11
330.1951886090022
 21
132.7559503495759
 31
0.0
  0
LINE
  5
DBE6
330
DBE2
100
AcDbEntity
  8
2寸法線
 62
     0
440
 16777216
 48
3.0
370
    -2
100
AcDbLine
 10
286.9728251370174
 20
133.7559503495759
 30
0.0
 11
328.6951886090022
 21
133.7559503495759
 31
0.0
  0
INSERT
  5
DBE7
330
DBE2
100
AcDbEntity
  8
2寸法線
 62
     0
440
 16777216
 48
3.0
370
    -2
100
AcDbBlockReference
  2
Y2
 10
285.4728251370174
 20
133.7559503495759
 30
0.0
 41
1.5
 42
1.5
 43
1.5
 50
180.0
  0
INSERT
  5
DBE8
330
DBE2
100
AcDbEntity
  8
2寸法線
 62
     0
440
 16777216
 48
3.0
370
    -2
100
AcDbBlockReference
  2
Y2
 10
330.1951886090022
 20
133.7559503495759
 30
0.0
 41
1.5
 42
1.5
 43
1.5
  0
MTEXT
  5
DBE9
330
DBE2
100
AcDbEntity
  8
2寸法線
 62
     1
440
 16777216
 48
3.0
100
AcDbMText
 10
307.8340068730098
 20
136.5059503495758
 30
0.0
 40
3.5
 41
0.0
 46
0.0
 71
     5
 72
     1
  1
\A1;44.5
  7
KANJI
 73
     1
 44
1.0
  0
POINT
  5
DBEA
330
DBE2
100
AcDbEntity
  8
DEFPOINTS
 62
     0
440
 16777216
 48
3.0
100
AcDbPoint
 10
285.4728251370174
 20
144.3789346599551
 30
0.0
  0
POINT
  5
DBEB
330
DBE2
100
AcDbEntity
  8
DEFPOINTS
 62
     0
440
 16777216
 48
3.0
100
AcDbPoint
 10
330.1951886090022
 20
144.3789346599551
 30
0.0
  0
POINT
  5
DBEC
330
DBE2
100
AcDbEntity
  8
DEFPOINTS
 62
     0
440
 16777216
 48
3.0
100
AcDbPoint
 10
330.1951886090022
 20
133.7559503495759
 30
0.0
  0
ENDBLK
  5
DBED
330
DBE2
100
AcDbEntity
  8
0
 48
2.0
100
AcDbBlockEnd
  0
BLOCK
  5
DBEF
330
DBEE
100
AcDbEntity
  8
0
 48
2.0
100
AcDbBlockBegin
  2
*D32
 70
     1
 10
0.0
 20
0.0
 30
0.0
  3
*D32
  1

  0
LINE
  5
DBF0
330
DBEE
100
AcDbEntity
  8
2寸法線
 62
     0
440
 16777216
 48
3.0
370
    -2
100
AcDbLine
 10
307.8340068730098
 20
185.3789346599551
 30
0.0
 11
307.8340068730098
 21
145.8789346599551
 31
0.0
  0
INSERT
  5
DBF1
330
DBEE
100
AcDbEntity
  8
2寸法線
 62
     0
440
 16777216
 48
3.0
370
    -2
100
AcDbBlockReference
  2
Y2
 10
307.8340068730098
 20
186.8789346599551
 30
0.0
 41
1.5
 42
1.5
 43
1.5
 50
90.0
  0
INSERT
  5
DBF2
330
DBEE
100
AcDbEntity
  8
2寸法線
 62
     0
440
 16777216
 48
3.0
370
    -2
100
AcDbBlockReference
  2
Y2
 10
307.8340068730098
 20
144.3789346599551
 30
0.0
 41
1.5
 42
1.5
 43
1.5
 50
270.0
  0
MTEXT
  5
DBF3
330
DBEE
100
AcDbEntity
  8
2寸法線
 62
     1
440
 16777216
 48
3.0
100
AcDbMText
 10
305.0840068730098
 20
165.6289346599551
 30
0.0
 40
3.5
 41
0.0
 46
0.0
 71
     5
 72
     1
  1
\A1;43
  7
KANJI
 11
0.0000000000000001
 21
1.0
 31
0.0
 73
     1
 44
1.0
  0
POINT
  5
DBF4
330
DBEE
100
AcDbEntity
  8
DEFPOINTS
 62
     0
440
 16777216
 48
3.0
100
AcDbPoint
 10
307.8340068730098
 20
186.8789346599551
 30
0.0
  0
POINT
  5
DBF5
330
DBEE
100
AcDbEntity
  8
DEFPOINTS
 62
     0
440
 16777216
 48
3.0
100
AcDbPoint
 10
307.8340063465844
 20
144.3789346599551
 30
0.0
  0
POINT
  5
DBF6
330
DBEE
100
AcDbEntity
  8
DEFPOINTS
 62
     0
440
 16777216
 48
3.0
100
AcDbPoint
 10
307.8340068730098
 20
144.3789346599551
 30
0.0
  0
ENDBLK
  5
DBF7
330
DBEE
100
AcDbEntity
  8
0
 48
2.0
100
AcDbBlockEnd
  0
BLOCK
  5
DEB7
330
DEB6
100
AcDbEntity
  8
0
 48
3.0
100
AcDbBlockBegin
  2
*D34
 70
     1
 10
0.0
 20
0.0
 30
0.0
  3
*D34
  1

  0
LINE
  5
DF46
330
DEB6
100
AcDbEntity
  8
2寸法線
 62
     0
440
 16777216
 48
3.0
370
    -2
100
AcDbLine
 10
709.7734279444444
 20
30.14222304697842
 30
0.0
 11
709.7734279444444
 21
20.51923873659916
 31
0.0
  0
LINE
  5
DF47
330
DEB6
100
AcDbEntity
  8
2寸法線
 62
     0
440
 16777216
 48
3.0
370
    -2
100
AcDbLine
 10
754.4957914164292
 20
30.14222304697842
 30
0.0
 11
754.4957914164292
 21
20.51923873659916
 31
0.0
  0
LINE
  5
DF48
330
DEB6
100
AcDbEntity
  8
2寸法線
 62
     0
440
 16777216
 48
3.0
370
    -2
100
AcDbLine
 10
711.2734279444444
 20
21.51923873659916
 30
0.0
 11
752.9957914164292
 21
21.51923873659916
 31
0.0
  0
INSERT
  5
DF49
330
DEB6
100
AcDbEntity
  8
2寸法線
 62
     0
440
 16777216
 48
3.0
370
    -2
100
AcDbBlockReference
  2
1
 10
709.7734279444444
 20
21.51923873659916
 30
0.0
 41
1.5
 42
1.5
 43
1.5
 50
180.0
  0
INSERT
  5
DF4A
330
DEB6
100
AcDbEntity
  8
2寸法線
 62
     0
440
 16777216
 48
3.0
370
    -2
100
AcDbBlockReference
  2
1
 10
754.4957914164292
 20
21.51923873659916
 30
0.0
 41
1.5
 42
1.5
 43
1.5
  0
MTEXT
  5
DF4B
330
DEB6
100
AcDbEntity
  8
2寸法線
 62
     1
440
 16777216
 48
3.0
100
AcDbMText
 10
732.1346096804368
 20
24.26923873659916
 30
0.0
 40
3.5
 41
0.0
 46
0.0
 71
     5
 72
     1
  1
\A1;44.5
  7
KANJI
 73
     1
 44
1.0
  0
POINT
  5
DF4C
330
DEB6
100
AcDbEntity
  8
DEFPOINTS
 62
     0
440
 16777216
 48
3.0
100
AcDbPoint
 10
709.7734279444444
 20
32.14222304697841
 30
0.0
  0
POINT
  5
DF4D
330
DEB6
100
AcDbEntity
  8
DEFPOINTS
 62
     0
440
 16777216
 48
3.0
100
AcDbPoint
 10
754.4957914164292
 20
32.14222304697841
 30
0.0
  0
POINT
  5
DF4E
330
DEB6
100
AcDbEntity
  8
DEFPOINTS
 62
     0
440
 16777216
 48
3.0
100
AcDbPoint
 10
754.4957914164292
 20
21.51923873659916
 30
0.0
  0
ENDBLK
  5
DEB8
330
DEB6
100
AcDbEntity
  8
0
 48
3.0
100
AcDbBlockEnd
  0
BLOCK
  5
DEC3
330
DEC2
100
AcDbEntity
  8
0
 48
3.0
100
AcDbBlockBegin
  2
*D35
 70
     1
 10
0.0
 20
0.0
 30
0.0
  3
*D35
  1

  0
LINE
  5
DF4F
330
DEC2
100
AcDbEntity
  8
2寸法線
 62
     0
440
 16777216
 48
3.0
370
    -2
100
AcDbLine
 10
732.1346096804371
 20
73.14222304697844
 30
0.0
 11
732.1346096804371
 21
33.64222304697843
 31
0.0
  0
INSERT
  5
DF50
330
DEC2
100
AcDbEntity
  8
2寸法線
 62
     0
440
 16777216
 48
3.0
370
    -2
100
AcDbBlockReference
  2
1
 10
732.1346096804371
 20
74.64222304697845
 30
0.0
 41
1.5
 42
1.5
 43
1.5
 50
90.0
  0
INSERT
  5
DF51
330
DEC2
100
AcDbEntity
  8
2寸法線
 62
     0
440
 16777216
 48
3.0
370
    -2
100
AcDbBlockReference
  2
1
 10
732.1346096804371
 20
32.14222304697843
 30
0.0
 41
1.5
 42
1.5
 43
1.5
 50
270.0
  0
MTEXT
  5
DF52
330
DEC2
100
AcDbEntity
  8
2寸法線
 62
     1
440
 16777216
 48
3.0
100
AcDbMText
 10
729.3846096804371
 20
53.39222304697822
 30
0.0
 40
3.5
 41
0.0
 46
0.0
 71
     5
 72
     1
  1
\A1;43
  7
KANJI
 11
0.0000000000000001
 21
1.0
 31
0.0
 73
     1
 44
1.0
  0
POINT
  5
DF53
330
DEC2
100
AcDbEntity
  8
DEFPOINTS
 62
     0
440
 16777216
 48
3.0
100
AcDbPoint
 10
732.134609680437
 20
74.64222304697845
 30
0.0
  0
POINT
  5
DF54
330
DEC2
100
AcDbEntity
  8
DEFPOINTS
 62
     0
440
 16777216
 48
3.0
100
AcDbPoint
 10
732.1346091540116
 20
32.14222304697843
 30
0.0
  0
POINT
  5
DF55
330
DEC2
100
AcDbEntity
  8
DEFPOINTS
 62
     0
440
 16777216
 48
3.0
100
AcDbPoint
 10
732.1346096804371
 20
32.14222304697843
 30
0.0
  0
ENDBLK
  5
DEC4
330
DEC2
100
AcDbEntity
  8
0
 48
3.0
100
AcDbBlockEnd
  0
BLOCK
  5
DECD
330
DECC
100
AcDbEntity
  8
0
 48
3.0
100
AcDbBlockBegin
  2
*D36
 70
     1
 10
0.0
 20
0.0
 30
0.0
  3
*D36
  1

  0
LINE
  5
DF56
330
DECC
100
AcDbEntity
  8
2寸法線
 62
     0
440
 16777216
 48
3.0
370
    -2
100
AcDbLine
 10
489.5576689936632
 20
109.1631818744299
 30
0.0
 11
489.5576689936632
 21
98.81267080164526
 31
0.0
  0
LINE
  5
DF57
330
DECC
100
AcDbEntity
  8
2寸法線
 62
     0
440
 16777216
 48
3.0
370
    -2
100
AcDbLine
 10
580.4583405984198
 20
109.1631818744299
 30
0.0
 11
580.4583405984198
 21
98.81267080164526
 31
0.0
  0
LINE
  5
DF58
330
DECC
100
AcDbEntity
  8
2寸法線
 62
     0
440
 16777216
 48
3.0
370
    -2
100
AcDbLine
 10
491.0576689936632
 20
99.81267080164526
 30
0.0
 11
578.9583405984197
 21
99.81267080164526
 31
0.0
  0
INSERT
  5
DF59
330
DECC
100
AcDbEntity
  8
2寸法線
 62
     0
440
 16777216
 48
3.0
370
    -2
100
AcDbBlockReference
  2
1
 10
489.5576689936632
 20
99.81267080164526
 30
0.0
 41
1.5
 42
1.5
 43
1.5
 50
180.0
  0
INSERT
  5
DF5A
330
DECC
100
AcDbEntity
  8
2寸法線
 62
     0
440
 16777216
 48
3.0
370
    -2
100
AcDbBlockReference
  2
1
 10
580.4583405984198
 20
99.81267080164526
 30
0.0
 41
1.5
 42
1.5
 43
1.5
  0
MTEXT
  5
DF5B
330
DECC
100
AcDbEntity
  8
2寸法線
 62
     1
440
 16777216
 48
3.0
100
AcDbMText
 10
535.0080047960415
 20
102.5626708016452
 30
0.0
 40
3.5
 41
0.0
 46
0.0
 71
     5
 72
     1
  1
\A1;91
  7
KANJI
 73
     1
 44
1.0
  0
POINT
  5
DF5C
330
DECC
100
AcDbEntity
  8
DEFPOINTS
 62
     0
440
 16777216
 48
3.0
100
AcDbPoint
 10
489.5576689936632
 20
111.1631818744299
 30
0.0
  0
POINT
  5
DF5D
330
DECC
100
AcDbEntity
  8
DEFPOINTS
 62
     0
440
 16777216
 48
3.0
100
AcDbPoint
 10
580.4583405984198
 20
111.1631818744299
 30
0.0
  0
POINT
  5
DF5E
330
DECC
100
AcDbEntity
  8
DEFPOINTS
 62
     0
440
 16777216
 48
3.0
100
AcDbPoint
 10
580.4583405984198
 20
99.81267080164526
 30
0.0
  0
ENDBLK
  5
DECE
330
DECC
100
AcDbEntity
  8
0
 48
3.0
100
AcDbBlockEnd
  0
BLOCK
  5
DED9
330
DED8
100
AcDbEntity
  8
0
 48
3.0
100
AcDbBlockBegin
  2
*D37
 70
     1
 10
0.0
 20
0.0
 30
0.0
  3
*D37
  1

  0
LINE
  5
DF5F
330
DED8
100
AcDbEntity
  8
2寸法線
 62
     0
440
 16777216
 48
3.0
370
    -2
100
AcDbLine
 10
622.9176561193853
 20
30.14222304697842
 30
0.0
 11
622.9176561193853
 21
20.51923873659916
 31
0.0
  0
LINE
  5
DF60
330
DED8
100
AcDbEntity
  8
2寸法線
 62
     0
440
 16777216
 48
3.0
370
    -2
100
AcDbLine
 10
664.9176556481361
 20
30.14222304697842
 30
0.0
 11
664.9176556481361
 21
20.51923873659916
 31
0.0
  0
LINE
  5
DF61
330
DED8
100
AcDbEntity
  8
2寸法線
 62
     0
440
 16777216
 48
3.0
370
    -2
100
AcDbLine
 10
624.4176561193853
 20
21.51923873659916
 30
0.0
 11
663.4176556481361
 21
21.51923873659916
 31
0.0
  0
INSERT
  5
DF62
330
DED8
100
AcDbEntity
  8
2寸法線
 62
     0
440
 16777216
 48
3.0
370
    -2
100
AcDbBlockReference
  2
1
 10
622.9176561193853
 20
21.51923873659916
 30
0.0
 41
1.5
 42
1.5
 43
1.5
 50
180.0
  0
INSERT
  5
DF63
330
DED8
100
AcDbEntity
  8
2寸法線
 62
     0
440
 16777216
 48
3.0
370
    -2
100
AcDbBlockReference
  2
1
 10
664.9176556481361
 20
21.51923873659916
 30
0.0
 41
1.5
 42
1.5
 43
1.5
  0
MTEXT
  5
DF64
330
DED8
100
AcDbEntity
  8
2寸法線
 62
     1
440
 16777216
 48
3.0
100
AcDbMText
 10
643.9176558837607
 20
24.26923873659916
 30
0.0
 40
3.5
 41
0.0
 46
0.0
 71
     5
 72
     1
  1
\A1;42
  7
KANJI
 73
     1
 44
1.0
  0
POINT
  5
DF65
330
DED8
100
AcDbEntity
  8
DEFPOINTS
 62
     0
440
 16777216
 48
3.0
100
AcDbPoint
 10
622.9176561193853
 20
32.14222304697841
 30
0.0
  0
POINT
  5
DF66
330
DED8
100
AcDbEntity
  8
DEFPOINTS
 62
     0
440
 16777216
 48
3.0
100
AcDbPoint
 10
664.9176556481361
 20
32.14222304697841
 30
0.0
  0
POINT
  5
DF67
330
DED8
100
AcDbEntity
  8
DEFPOINTS
 62
     0
440
 16777216
 48
3.0
100
AcDbPoint
 10
664.9176556481361
 20
21.51923873659916
 30
0.0
  0
ENDBLK
  5
DEDA
330
DED8
100
AcDbEntity
  8
0
 48
3.0
100
AcDbBlockEnd
  0
BLOCK
  5
DEE5
330
DEE4
100
AcDbEntity
  8
0
 48
3.0
100
AcDbBlockBegin
  2
*D38
 70
     1
 10
0.0
 20
0.0
 30
0.0
  3
*D38
  1

  0
LINE
  5
DF68
330
DEE4
100
AcDbEntity
  8
2寸法線
 62
     0
440
 16777216
 48
3.0
370
    -2
100
AcDbLine
 10
541.916375841064
 20
-21.75303375446175
 30
0.0
 11
602.972985482287
 21
-21.75303375446174
 31
0.0
  0
LINE
  5
DF69
330
DEE4
100
AcDbEntity
  8
2寸法線
 62
     0
440
 16777216
 48
3.0
370
    -2
100
AcDbLine
 10
580.8667109615905
 20
-41.75303282500182
 30
0.0
 11
602.972985482287
 21
-41.75303282500181
 31
0.0
  0
LINE
  5
DF6A
330
DEE4
100
AcDbEntity
  8
2寸法線
 62
     0
440
 16777216
 48
3.0
370
    -2
100
AcDbLine
 10
601.9729854822871
 20
-23.25303375446174
 30
0.0
 11
601.9729854822871
 21
-40.25303282500181
 31
0.0
  0
INSERT
  5
DF6B
330
DEE4
100
AcDbEntity
  8
2寸法線
 62
     0
440
 16777216
 48
3.0
370
    -2
100
AcDbBlockReference
  2
1
 10
601.9729854822871
 20
-21.75303375446174
 30
0.0
 41
1.5
 42
1.5
 43
1.5
 50
90.0
  0
INSERT
  5
DF6C
330
DEE4
100
AcDbEntity
  8
2寸法線
 62
     0
440
 16777216
 48
3.0
370
    -2
100
AcDbBlockReference
  2
1
 10
601.9729854822871
 20
-41.75303282500181
 30
0.0
 41
1.5
 42
1.5
 43
1.5
 50
270.0
  0
MTEXT
  5
DF6D
330
DEE4
100
AcDbEntity
  8
2寸法線
 62
     1
440
 16777216
 48
3.0
100
AcDbMText
 10
599.2229854822869
 20
-31.75303328973194
 30
0.0
 40
3.5
 41
0.0
 46
0.0
 71
     5
 72
     1
  1
\A1;20
  7
KANJI
 11
0.0000000000000001
 21
1.0
 31
0.0
 73
     1
 44
1.0
  0
POINT
  5
DF6E
330
DEE4
100
AcDbEntity
  8
DEFPOINTS
 62
     0
440
 16777216
 48
3.0
100
AcDbPoint
 10
539.9163758410639
 20
-21.75303375446175
 30
0.0
  0
POINT
  5
DF6F
330
DEE4
100
AcDbEntity
  8
DEFPOINTS
 62
     0
440
 16777216
 48
3.0
100
AcDbPoint
 10
578.8667109615905
 20
-41.75303282500182
 30
0.0
  0
POINT
  5
DF70
330
DEE4
100
AcDbEntity
  8
DEFPOINTS
 62
     0
440
 16777216
 48
3.0
100
AcDbPoint
 10
601.9729854822871
 20
-41.75303282500181
 30
0.0
  0
ENDBLK
  5
DEE6
330
DEE4
100
AcDbEntity
  8
0
 48
3.0
100
AcDbBlockEnd
  0
BLOCK
  5
DEF1
330
DEF0
100
AcDbEntity
  8
0
 48
3.0
100
AcDbBlockBegin
  2
*D39
 70
     1
 10
0.0
 20
0.0
 30
0.0
  3
*D39
  1

  0
LINE
  5
DF71
330
DEF0
100
AcDbEntity
  8
2寸法線
 62
     0
440
 16777216
 48
3.0
370
    -2
100
AcDbLine
 10
573.6663754033422
 20
-30.75303366878008
 30
0.0
 11
593.5757655715205
 21
-30.75303366878007
 31
0.0
  0
LINE
  5
DF72
330
DEF0
100
AcDbEntity
  8
2寸法線
 62
     0
440
 16777216
 48
3.0
370
    -2
100
AcDbLine
 10
580.8667109615905
 20
-41.75303282500182
 30
0.0
 11
593.5757655715205
 21
-41.75303282500181
 31
0.0
  0
LINE
  5
DF73
330
DEF0
100
AcDbEntity
  8
2寸法線
 62
     0
440
 16777216
 48
3.0
370
    -2
100
AcDbLine
 10
592.5757655715204
 20
-32.25303366878007
 30
0.0
 11
592.5757655715204
 21
-40.25303282500181
 31
0.0
  0
INSERT
  5
DF74
330
DEF0
100
AcDbEntity
  8
2寸法線
 62
     0
440
 16777216
 48
3.0
370
    -2
100
AcDbBlockReference
  2
1
 10
592.5757655715204
 20
-30.75303366878007
 30
0.0
 41
1.5
 42
1.5
 43
1.5
 50
90.0
  0
INSERT
  5
DF75
330
DEF0
100
AcDbEntity
  8
2寸法線
 62
     0
440
 16777216
 48
3.0
370
    -2
100
AcDbBlockReference
  2
1
 10
592.5757655715204
 20
-41.75303282500181
 30
0.0
 41
1.5
 42
1.5
 43
1.5
 50
270.0
  0
MTEXT
  5
DF76
330
DEF0
100
AcDbEntity
  8
2寸法線
 62
     1
440
 16777216
 48
3.0
100
AcDbMText
 10
589.8257655715203
 20
-36.25303324689111
 30
0.0
 40
3.5
 41
0.0
 46
0.0
 71
     5
 72
     1
  1
\A1;11
  7
KANJI
 11
0.0000000000000001
 21
1.0
 31
0.0
 73
     1
 44
1.0
  0
POINT
  5
DF77
330
DEF0
100
AcDbEntity
  8
DEFPOINTS
 62
     0
440
 16777216
 48
3.0
100
AcDbPoint
 10
571.6663754033422
 20
-30.75303366878008
 30
0.0
  0
POINT
  5
DF78
330
DEF0
100
AcDbEntity
  8
DEFPOINTS
 62
     0
440
 16777216
 48
3.0
100
AcDbPoint
 10
578.8667109615905
 20
-41.75303282500182
 30
0.0
  0
POINT
  5
DF79
330
DEF0
100
AcDbEntity
  8
DEFPOINTS
 62
     0
440
 16777216
 48
3.0
100
AcDbPoint
 10
592.5757655715204
 20
-41.75303282500181
 30
0.0
  0
ENDBLK
  5
DEF2
330
DEF0
100
AcDbEntity
  8
0
 48
3.0
100
AcDbBlockEnd
  0
BLOCK
  5
DEFD
330
DEFC
100
AcDbEntity
  8
0
 48
3.0
100
AcDbBlockBegin
  2
*D40
 70
     1
 10
0.0
 20
0.0
 30
0.0
  3
*D40
  1

  0
LINE
  5
DF7A
330
DEFC
100
AcDbEntity
  8
2寸法線
 62
     0
440
 16777216
 48
3.0
370
    -2
100
AcDbLine
 10
532.9163758410638
 20
-18.75303366878007
 30
0.0
 11
523.3885103179208
 21
-18.75303366878007
 31
0.0
  0
LINE
  5
DF7B
330
DEFC
100
AcDbEntity
  8
2寸法線
 62
     0
440
 16777216
 48
3.0
370
    -2
100
AcDbLine
 10
532.9163754331445
 20
-24.75303366878008
 30
0.0
 11
523.3885103179208
 21
-24.75303366878008
 31
0.0
  0
LINE
  5
DF7C
330
DEFC
100
AcDbEntity
  8
2寸法線
 62
     0
440
 16777216
 48
3.0
370
    -2
100
AcDbLine
 10
524.3885103179207
 20
-20.25303366878007
 30
0.0
 11
524.3885103179207
 21
-23.25303366878007
 31
0.0
  0
MTEXT
  5
DF7D
330
DEFC
100
AcDbEntity
  8
2寸法線
 62
     1
440
 16777216
 48
3.0
100
AcDbMText
 10
521.4040497697756
 20
-21.75303366878006
 30
0.0
 40
3.5
 41
0.0
 46
0.0
 71
     5
 72
     1
  1
\A1;6
  7
KANJI
 11
0.0000000000000001
 21
1.0
 31
0.0
 73
     1
 44
1.0
  0
INSERT
  5
DF7E
330
DEFC
100
AcDbEntity
  8
2寸法線
 62
     0
440
 16777216
 48
3.0
370
    -2
100
AcDbBlockReference
  2
1
 10
524.3885103179207
 20
-18.75303366878007
 30
0.0
 41
1.5
 42
1.5
 43
1.5
 50
90.0
  0
INSERT
  5
DF7F
330
DEFC
100
AcDbEntity
  8
2寸法線
 62
     0
440
 16777216
 48
3.0
370
    -2
100
AcDbBlockReference
  2
1
 10
524.3885103179207
 20
-24.75303366878008
 30
0.0
 41
1.5
 42
1.5
 43
1.5
 50
270.0
  0
POINT
  5
DF80
330
DEFC
100
AcDbEntity
  8
DEFPOINTS
 62
     0
440
 16777216
 48
3.0
100
AcDbPoint
 10
534.9163758410639
 20
-18.75303366878007
 30
0.0
  0
POINT
  5
DF81
330
DEFC
100
AcDbEntity
  8
DEFPOINTS
 62
     0
440
 16777216
 48
3.0
100
AcDbPoint
 10
534.9163754331446
 20
-24.75303366878008
 30
0.0
  0
POINT
  5
DF82
330
DEFC
100
AcDbEntity
  8
DEFPOINTS
 62
     0
440
 16777216
 48
3.0
100
AcDbPoint
 10
524.3885103179207
 20
-24.75303366878008
 30
0.0
  0
ENDBLK
  5
DEFE
330
DEFC
100
AcDbEntity
  8
0
 48
3.0
100
AcDbBlockEnd
  0
BLOCK
  5
DF09
330
DF08
100
AcDbEntity
  8
0
 48
3.0
100
AcDbBlockBegin
  2
*D41
 70
     1
 10
0.0
 20
0.0
 30
0.0
  3
*D41
  1

  0
LINE
  5
DF83
330
DF08
100
AcDbEntity
  8
2寸法線
 62
     0
440
 16777216
 48
3.0
370
    -2
100
AcDbLine
 10
537.016375358266
 20
-18.85303388633701
 30
0.0
 11
537.016375358266
 21
-13.25303366430989
 31
0.0
  0
LINE
  5
DF84
330
DF08
100
AcDbEntity
  8
2寸法線
 62
     0
440
 16777216
 48
3.0
370
    -2
100
AcDbLine
 10
532.8163755080226
 20
-18.85247287550464
 30
0.0
 11
532.8163755080226
 21
-13.25303366430989
 31
0.0
  0
LINE
  5
DF85
330
DF08
100
AcDbEntity
  8
2寸法線
 62
     0
440
 16777216
 48
3.0
370
    -2
100
AcDbLine
 10
538.516375358266
 20
-14.25303366430989
 30
0.0
 11
540.016375358266
 21
-14.25303366430989
 31
0.0
  0
LINE
  5
DF86
330
DF08
100
AcDbEntity
  8
2寸法線
 62
     0
440
 16777216
 48
3.0
370
    -2
100
AcDbLine
 10
531.3163755080227
 20
-14.25303366430989
 30
0.0
 11
520.4830421746893
 21
-14.25303366430989
 31
0.0
  0
LINE
  5
DF87
330
DF08
100
AcDbEntity
  8
2寸法線
 62
     0
440
 16777216
 48
3.0
370
    -2
100
AcDbLine
 10
537.016375358266
 20
-14.25303366430989
 30
0.0
 11
532.8163755080226
 21
-14.25303366430989
 31
0.0
  0
INSERT
  5
DF88
330
DF08
100
AcDbEntity
  8
2寸法線
 62
     0
440
 16777216
 48
3.0
370
    -2
100
AcDbBlockReference
  2
1
 10
537.016375358266
 20
-14.25303366430989
 30
0.0
 41
1.5
 42
1.5
 43
1.5
 50
180.0
  0
INSERT
  5
DF89
330
DF08
100
AcDbEntity
  8
2寸法線
 62
     0
440
 16777216
 48
3.0
370
    -2
100
AcDbBlockReference
  2
1
 10
532.8163755080226
 20
-14.25303366430989
 30
0.0
 41
1.5
 42
1.5
 43
1.5
  0
MTEXT
  5
DF8A
330
DF08
100
AcDbEntity
  8
2寸法線
 62
     1
440
 16777216
 48
3.0
100
AcDbMText
 10
525.149708841356
 20
-11.50303366430989
 30
0.0
 40
3.5
 41
0.0
 46
0.0
 71
     5
 72
     1
  1
\A1;4.2
  7
KANJI
 73
     1
 44
1.0
  0
POINT
  5
DF8B
330
DF08
100
AcDbEntity
  8
DEFPOINTS
 62
     0
440
 16777216
 48
3.0
100
AcDbPoint
 10
537.016375358266
 20
-20.85303388633702
 30
0.0
  0
POINT
  5
DF8C
330
DF08
100
AcDbEntity
  8
DEFPOINTS
 62
     0
440
 16777216
 48
3.0
100
AcDbPoint
 10
532.8163755080226
 20
-20.85247287550465
 30
0.0
  0
POINT
  5
DF8D
330
DF08
100
AcDbEntity
  8
DEFPOINTS
 62
     0
440
 16777216
 48
3.0
100
AcDbPoint
 10
532.8163755080226
 20
-14.25303366430989
 30
0.0
  0
ENDBLK
  5
DF0A
330
DF08
100
AcDbEntity
  8
0
 48
3.0
100
AcDbBlockEnd
  0
BLOCK
  5
DF17
330
DF16
100
AcDbEntity
  8
0
 48
3.0
100
AcDbBlockBegin
  2
*D42
 70
     1
 10
0.0
 20
0.0
 30
0.0
  3
*D42
  1

  0
LINE
  5
DF8E
330
DF16
100
AcDbEntity
  8
2寸法線
 62
     0
440
 16777216
 48
3.0
370
    -2
100
AcDbLine
 10
580.1663757013654
 20
-15.25303329625104
 30
0.0
 11
593.5757655715205
 21
-15.25303329625104
 31
0.0
  0
LINE
  5
DF8F
330
DF16
100
AcDbEntity
  8
2寸法線
 62
     0
440
 16777216
 48
3.0
370
    -2
100
AcDbLine
 10
581.6427214930475
 20
0.2469667037489676
 30
0.0
 11
593.5757655715205
 21
0.2469667037489695
 31
0.0
  0
LINE
  5
DF90
330
DF16
100
AcDbEntity
  8
2寸法線
 62
     0
440
 16777216
 48
3.0
370
    -2
100
AcDbLine
 10
592.5757655715204
 20
-13.75303329625104
 30
0.0
 11
592.5757655715204
 21
-1.25303329625103
 31
0.0
  0
INSERT
  5
DF91
330
DF16
100
AcDbEntity
  8
2寸法線
 62
     0
440
 16777216
 48
3.0
370
    -2
100
AcDbBlockReference
  2
1
 10
592.5757655715204
 20
-15.25303329625103
 30
0.0
 41
1.5
 42
1.5
 43
1.5
 50
270.0
  0
INSERT
  5
DF92
330
DF16
100
AcDbEntity
  8
2寸法線
 62
     0
440
 16777216
 48
3.0
370
    -2
100
AcDbBlockReference
  2
1
 10
592.5757655715204
 20
0.2469667037489693
 30
0.0
 41
1.5
 42
1.5
 43
1.5
 50
90.0
  0
MTEXT
  5
DF93
330
DF16
100
AcDbEntity
  8
2寸法線
 62
     1
440
 16777216
 48
3.0
100
AcDbMText
 10
589.8257655715203
 20
-7.503033296251199
 30
0.0
 40
3.5
 41
0.0
 46
0.0
 71
     5
 72
     1
  1
\A1;16
  7
KANJI
 11
0.0000000000000001
 21
1.0
 31
0.0
 73
     1
 44
1.0
  0
POINT
  5
DF94
330
DF16
100
AcDbEntity
  8
DEFPOINTS
 62
     0
440
 16777216
 48
3.0
100
AcDbPoint
 10
578.1663757013655
 20
-15.25303329625104
 30
0.0
  0
POINT
  5
DF95
330
DF16
100
AcDbEntity
  8
DEFPOINTS
 62
     0
440
 16777216
 48
3.0
100
AcDbPoint
 10
579.6427214930474
 20
0.2469667037489672
 30
0.0
  0
POINT
  5
DF96
330
DF16
100
AcDbEntity
  8
DEFPOINTS
 62
     0
440
 16777216
 48
3.0
100
AcDbPoint
 10
592.5757655715204
 20
0.2469667037489693
 30
0.0
  0
ENDBLK
  5
DF18
330
DF16
100
AcDbEntity
  8
0
 48
3.0
100
AcDbBlockEnd
  0
BLOCK
  5
DF23
330
DF22
100
AcDbEntity
  8
0
 48
3.0
100
AcDbBlockBegin
  2
*D43
 70
     1
 10
0.0
 20
0.0
 30
0.0
  3
*D43
  1

  0
LINE
  5
DF97
330
DF22
100
AcDbEntity
  8
2寸法線
 62
     0
440
 16777216
 48
3.0
370
    -2
100
AcDbLine
 10
620.9176561193856
 20
32.14222304697843
 30
0.0
 11
613.7630391389319
 21
32.14222304697843
 31
0.0
  0
LINE
  5
DF98
330
DF22
100
AcDbEntity
  8
2寸法線
 62
     0
440
 16777216
 48
3.0
370
    -2
100
AcDbLine
 10
620.9176561193856
 20
78.44237623740358
 30
0.0
 11
613.7630391389319
 21
78.44237623740358
 31
0.0
  0
LINE
  5
DF99
330
DF22
100
AcDbEntity
  8
2寸法線
 62
     0
440
 16777216
 48
3.0
370
    -2
100
AcDbLine
 10
614.7630391389319
 20
33.64222304697843
 30
0.0
 11
614.7630391389319
 21
76.94237623740358
 31
0.0
  0
INSERT
  5
DF9A
330
DF22
100
AcDbEntity
  8
2寸法線
 62
     0
440
 16777216
 48
3.0
370
    -2
100
AcDbBlockReference
  2
1
 10
614.7630391389319
 20
32.14222304697843
 30
0.0
 41
1.5
 42
1.5
 43
1.5
 50
270.0
  0
INSERT
  5
DF9B
330
DF22
100
AcDbEntity
  8
2寸法線
 62
     0
440
 16777216
 48
3.0
370
    -2
100
AcDbBlockReference
  2
1
 10
614.7630391389319
 20
78.44237623740358
 30
0.0
 41
1.5
 42
1.5
 43
1.5
 50
90.0
  0
MTEXT
  5
DF9C
330
DF22
100
AcDbEntity
  8
2寸法線
 62
     1
440
 16777216
 48
3.0
100
AcDbMText
 10
612.0130391389318
 20
55.29229964219082
 30
0.0
 40
3.5
 41
0.0
 46
0.0
 71
     5
 72
     1
  1
\A1;46
  7
KANJI
 11
0.0000000000000001
 21
1.0
 31
0.0
 73
     1
 44
1.0
  0
POINT
  5
DF9D
330
DF22
100
AcDbEntity
  8
DEFPOINTS
 62
     0
440
 16777216
 48
3.0
100
AcDbPoint
 10
622.9176561193855
 20
32.14222304697843
 30
0.0
  0
POINT
  5
DF9E
330
DF22
100
AcDbEntity
  8
DEFPOINTS
 62
     0
440
 16777216
 48
3.0
100
AcDbPoint
 10
622.9176561193855
 20
78.44237623740358
 30
0.0
  0
POINT
  5
DF9F
330
DF22
100
AcDbEntity
  8
DEFPOINTS
 62
     0
440
 16777216
 48
3.0
100
AcDbPoint
 10
614.7630391389319
 20
78.44237623740358
 30
0.0
  0
ENDBLK
  5
DF24
330
DF22
100
AcDbEntity
  8
0
 48
3.0
100
AcDbBlockEnd
  0
BLOCK
  5
DF2F
330
DF2E
100
AcDbEntity
  8
0
 48
3.0
100
AcDbBlockBegin
  2
*D44
 70
     1
 10
0.0
 20
0.0
 30
0.0
  3
*D44
  1

  0
LINE
  5
DFA0
330
DF2E
100
AcDbEntity
  8
2寸法線
 62
     0
440
 16777216
 48
3.0
370
    -2
100
AcDbLine
 10
705.9342745575699
 20
34.14222304697842
 30
0.0
 11
705.9342745575699
 21
88.79981282968264
 31
0.0
  0
LINE
  5
DFA1
330
DF2E
100
AcDbEntity
  8
2寸法線
 62
     0
440
 16777216
 48
3.0
370
    -2
100
AcDbLine
 10
798.834944800963
 20
34.14222304697842
 30
0.0
 11
798.834944800963
 21
88.79981282968264
 31
0.0
  0
LINE
  5
DFA2
330
DF2E
100
AcDbEntity
  8
2寸法線
 62
     0
440
 16777216
 48
3.0
370
    -2
100
AcDbLine
 10
707.43427455757
 20
87.79981282968265
 30
0.0
 11
797.334944800963
 21
87.79981282968265
 31
0.0
  0
INSERT
  5
DFA3
330
DF2E
100
AcDbEntity
  8
2寸法線
 62
     0
440
 16777216
 48
3.0
370
    -2
100
AcDbBlockReference
  2
1
 10
705.9342745575699
 20
87.79981282968265
 30
0.0
 41
1.5
 42
1.5
 43
1.5
 50
180.0
  0
INSERT
  5
DFA4
330
DF2E
100
AcDbEntity
  8
2寸法線
 62
     0
440
 16777216
 48
3.0
370
    -2
100
AcDbBlockReference
  2
1
 10
798.834944800963
 20
87.79981282968265
 30
0.0
 41
1.5
 42
1.5
 43
1.5
  0
MTEXT
  5
DFA5
330
DF2E
100
AcDbEntity
  8
2寸法線
 62
     1
440
 16777216
 48
3.0
100
AcDbMText
 10
752.3846096792665
 20
90.54981282968265
 30
0.0
 40
3.5
 41
0.0
 46
0.0
 71
     5
 72
     1
  1
\A1;93
  7
KANJI
 73
     1
 44
1.0
  0
POINT
  5
DFA6
330
DF2E
100
AcDbEntity
  8
DEFPOINTS
 62
     0
440
 16777216
 48
3.0
100
AcDbPoint
 10
705.9342745575699
 20
32.14222304697841
 30
0.0
  0
POINT
  5
DFA7
330
DF2E
100
AcDbEntity
  8
DEFPOINTS
 62
     0
440
 16777216
 48
3.0
100
AcDbPoint
 10
798.834944800963
 20
32.14222304697841
 30
0.0
  0
POINT
  5
DFA8
330
DF2E
100
AcDbEntity
  8
DEFPOINTS
 62
     0
440
 16777216
 48
3.0
100
AcDbPoint
 10
798.834944800963
 20
87.79981282968265
 30
0.0
  0
ENDBLK
  5
DF30
330
DF2E
100
AcDbEntity
  8
0
 48
3.0
100
AcDbBlockEnd
  0
BLOCK
  5
DF3B
330
DF3A
100
AcDbEntity
  8
0
 48
3.0
100
AcDbBlockBegin
  2
*D45
 70
     1
 10
0.0
 20
0.0
 30
0.0
  3
*D45
  1

  0
LINE
  5
DFA9
330
DF3A
100
AcDbEntity
  8
2寸法線
 62
     0
440
 16777216
 48
3.0
370
    -2
100
AcDbLine
 10
754.3846096792783
 20
79.44222304697908
 30
0.0
 11
808.8500697795799
 21
79.44222304697909
 31
0.0
  0
LINE
  5
DFAA
330
DF3A
100
AcDbEntity
  8
2寸法線
 62
     0
440
 16777216
 48
3.0
370
    -2
100
AcDbLine
 10
800.8349448009635
 20
32.14222304697843
 30
0.0
 11
808.8500697795799
 21
32.14222304697843
 31
0.0
  0
LINE
  5
DFAB
330
DF3A
100
AcDbEntity
  8
2寸法線
 62
     0
440
 16777216
 48
3.0
370
    -2
100
AcDbLine
 10
807.8500697795799
 20
77.94222304697909
 30
0.0
 11
807.8500697795799
 21
33.64222304697843
 31
0.0
  0
INSERT
  5
DFAC
330
DF3A
100
AcDbEntity
  8
2寸法線
 62
     0
440
 16777216
 48
3.0
370
    -2
100
AcDbBlockReference
  2
1
 10
807.8500697795799
 20
79.44222304697909
 30
0.0
 41
1.5
 42
1.5
 43
1.5
 50
90.0
  0
INSERT
  5
DFAD
330
DF3A
100
AcDbEntity
  8
2寸法線
 62
     0
440
 16777216
 48
3.0
370
    -2
100
AcDbBlockReference
  2
1
 10
807.8500697795799
 20
32.14222304697843
 30
0.0
 41
1.5
 42
1.5
 43
1.5
 50
270.0
  0
MTEXT
  5
DFAE
330
DF3A
100
AcDbEntity
  8
2寸法線
 62
     1
440
 16777216
 48
3.0
100
AcDbMText
 10
805.1000697795796
 20
55.79222304697852
 30
0.0
 40
3.5
 41
0.0
 46
0.0
 71
     5
 72
     1
  1
\A1;47.5
  7
KANJI
 11
0.0000000000000001
 21
1.0
 31
0.0
 73
     1
 44
1.0
  0
POINT
  5
DFAF
330
DF3A
100
AcDbEntity
  8
DEFPOINTS
 62
     0
440
 16777216
 48
3.0
100
AcDbPoint
 10
752.3846096792783
 20
79.44222304697908
 30
0.0
  0
POINT
  5
DFB0
330
DF3A
100
AcDbEntity
  8
DEFPOINTS
 62
     0
440
 16777216
 48
3.0
100
AcDbPoint
 10
798.8349448009635
 20
32.14222304697843
 30
0.0
  0
POINT
  5
DFB1
330
DF3A
100
AcDbEntity
  8
DEFPOINTS
 62
     0
440
 16777216
 48
3.0
100
AcDbPoint
 10
807.8500697795799
 20
32.14222304697843
 30
0.0
  0
ENDBLK
  5
DF3C
330
DF3A
100
AcDbEntity
  8
0
 48
3.0
100
AcDbBlockEnd
  0
ENDSEC
  0
SECTION
  2
ENTITIES
  0
ARC
  5
DD5B
330
17
100
AcDbEntity
  8
1ﾀﾞｸﾄｶﾊﾞｰ
100
AcDbCircle
 10
204.1929545100749
 20
16.42285251275916
 30
0.0
 40
0.8000001665862047
100
AcDbArc
 50
95.70966359038727
 51
180.0775660206031
  0
LINE
  5
DD5C
330
17
100
AcDbEntity
  8
1ﾀﾞｸﾄｶﾊﾞｰ
100
AcDbLine
 10
204.1133628901068
 20
17.21888440411021
 30
0.0
 11
212.2020596381251
 21
18.0276300267451
 31
0.0
  0
LINE
  5
DD5D
330
17
100
AcDbEntity
  8
1ﾀﾞｸﾄｶﾊﾞｰ
100
AcDbLine
 10
242.8929544863265
 20
-29.15329851917068
 30
0.0
 11
214.5897881802146
 21
-29.15329851917068
 31
0.0
  0
LINE
  5
DD5E
330
17
100
AcDbEntity
  8
1ﾀﾞｸﾄｶﾊﾞｰ
100
AcDbLine
 10
214.5897881802146
 20
-29.15329851917068
 30
0.0
 11
212.2020596381251
 21
-29.15329851917068
 31
0.0
  0
LINE
  5
DD5F
330
17
100
AcDbEntity
  8
1ﾀﾞｸﾄｶﾊﾞｰ
100
AcDbLine
 10
245.3929546050702
 20
-7.937930456912908
 30
0.0
 11
245.3929546050702
 21
-29.15329851917068
 31
0.0
  0
LINE
  5
DD60
330
17
100
AcDbEntity
  8
1ﾀﾞｸﾄｶﾊﾞｰ
100
AcDbLine
 10
245.3929546050702
 20
-29.15329851917068
 30
0.0
 11
242.8929544863265
 21
-29.15329851917068
 31
0.0
  0
LINE
  5
DD61
330
17
100
AcDbEntity
  8
1ﾀﾞｸﾄｶﾊﾞｰ
100
AcDbLine
 10
204.1133628901068
 20
-29.15329851917068
 30
0.0
 11
212.2020596381251
 21
-29.15329851917068
 31
0.0
  0
ARC
  5
DD62
330
17
100
AcDbEntity
  8
1ﾀﾞｸﾄｶﾊﾞｰ
100
AcDbCircle
 10
214.5897871852751
 20
-5.8532986028913
 30
0.0
 40
24.0
100
AcDbArc
 50
90.0
 51
95.70972125625635
  0
ARC
  5
DD63
330
17
100
AcDbEntity
  8
1ﾀﾞｸﾄｶﾊﾞｰ
100
AcDbCircle
 10
242.8929545100753
 20
15.6467013971087
 30
0.0
 40
2.5
100
AcDbArc
 50
0.0
 51
90.0
  0
LINE
  5
DD64
330
17
100
AcDbEntity
  8
1ﾀﾞｸﾄｶﾊﾞｰ
100
AcDbLine
 10
245.3929546050702
 20
15.64670013945033
 30
0.0
 11
245.3929546050702
 21
-7.937930456912908
 31
0.0
  0
LINE
  5
DD65
330
17
100
AcDbEntity
  8
1ﾀﾞｸﾄｶﾊﾞｰ
100
AcDbLine
 10
242.8929544863265
 20
18.14670148055484
 30
0.0
 11
214.5897863175694
 21
18.14670148055484
 31
0.0
  0
LINE
  5
DD66
330
17
100
AcDbEntity
  8
1ﾀﾞｸﾄｶﾊﾞｰ
100
AcDbLine
 10
203.3929550763194
 20
-29.15329851917068
 30
0.0
 11
203.3929550763194
 21
16.42176948690621
 31
0.0
  0
LINE
  5
DD67
330
17
100
AcDbEntity
  8
1ﾀﾞｸﾄｶﾊﾞｰ
100
AcDbLine
 10
204.1133628901068
 20
-29.15329851917068
 30
0.0
 11
203.3929550763194
 21
-29.15329851917068
 31
0.0
  0
LINE
  5
DD68
330
17
100
AcDbEntity
  8
1ﾀﾞｸﾄｶﾊﾞｰ
100
AcDbLine
 10
379.3102437578971
 20
-29.15329851917068
 30
0.0
 11
376.6095279127019
 21
-29.15329851917068
 31
0.0
  0
LINE
  5
DD69
330
17
100
AcDbEntity
  8
1ﾀﾞｸﾄｶﾊﾞｰ
100
AcDbLine
 10
375.4710903733628
 20
-29.15329851917068
 30
0.0
 11
375.1065595417874
 21
-8.269345320380125
 31
0.0
  0
ARC
  5
DD6A
330
17
100
AcDbEntity
  8
1ﾀﾞｸﾄｶﾊﾞｰ
100
AcDbCircle
 10
353.1099086373708
 20
-8.653298519170675
 30
0.0
 40
22.00000000000006
100
AcDbArc
 50
1.000000000001775
 51
90.0
  0
ARC
  5
DD6B
330
17
100
AcDbEntity
  8
1ﾀﾞｸﾄｶﾊﾞｰ
100
AcDbCircle
 10
332.8599086373708
 20
0.1981137975167257
 30
0.0
 40
0.1000000000000979
100
AcDbArc
 50
203.610464754583
 51
336.3895352454437
  0
ARC
  5
DD6C
330
17
100
AcDbEntity
  8
1ﾀﾞｸﾄｶﾊﾞｰ
100
AcDbCircle
 10
332.8599086373708
 20
0.1981137975167257
 30
0.0
 40
0.1000000000000979
100
AcDbArc
 50
336.3895352454437
 51
336.3895352454723
  0
ARC
  5
DD6D
330
17
100
AcDbEntity
  8
1ﾀﾞｸﾄｶﾊﾞｰ
100
AcDbCircle
 10
312.6099086373709
 20
-8.653298519170675
 30
0.0
 40
22.00000000000009
100
AcDbArc
 50
23.61046475458305
 51
178.9999999999982
  0
LINE
  5
DD6E
330
17
100
AcDbEntity
  8
1ﾀﾞｸﾄｶﾊﾞｰ
100
AcDbLine
 10
290.6132577329538
 20
-8.269345320380125
 30
0.0
 11
290.2487269013784
 21
-29.15329851917068
 31
0.0
  0
LINE
  5
DD6F
330
17
100
AcDbEntity
  8
1ﾀﾞｸﾄｶﾊﾞｰ
100
AcDbLine
 10
289.1102893620393
 20
-29.15329851917068
 30
0.0
 11
290.2487269013784
 21
-29.15329851917068
 31
0.0
  0
LINE
  5
DD70
330
17
100
AcDbEntity
  8
1ﾀﾞｸﾄｶﾊﾞｰ
100
AcDbLine
 10
375.4710903733628
 20
-29.15329851917068
 30
0.0
 11
376.6095279127019
 21
-29.15329851917068
 31
0.0
  0
LINE
  5
DD71
330
17
100
AcDbEntity
  8
1ﾀﾞｸﾄｶﾊﾞｰ
100
AcDbLine
 10
334.9710903733633
 20
-29.15329851917113
 30
0.0
 11
286.409573514504
 21
-29.15329851917068
 31
0.0
  0
ELLIPSE
  5
DD72
330
17
100
AcDbEntity
  8
1ﾀﾞｸﾄｶﾊﾞｰ
100
AcDbEllipse
 10
70.66545157861333
 20
-61.84855429615618
 30
0.0
 11
-0.800121862435083
 21
0.0000000004454441
 31
0.0
210
0.0
220
0.0
230
1.0
 40
0.9998476951563885
 41
-1.570796326238261
 42
-0.0996535722240666
  0
LINE
  5
DD73
330
17
100
AcDbEntity
  8
1ﾀﾞｸﾄｶﾊﾞｰ
100
AcDbLine
 10
70.94164547676086
 20
-61.04855486240012
 30
0.0
 11
70.94164547676086
 21
-100.548554296156
 31
0.0
  0
ARC
  5
DD74
330
17
100
AcDbEntity
  8
1ﾀﾞｸﾄｶﾊﾞｰ
100
AcDbCircle
 10
71.44164547676087
 20
-100.548554296156
 30
0.0
 40
0.5
100
AcDbArc
 50
180.0
 51
270.0
  0
LINE
  5
DD75
330
17
100
AcDbEntity
  8
1ﾀﾞｸﾄｶﾊﾞｰ
100
AcDbLine
 10
159.3417041168943
 20
-101.048554296156
 30
0.0
 11
159.1398097213916
 21
-101.048554296156
 31
0.0
  0
LINE
  5
DD76
330
17
100
AcDbEntity
  8
1ﾀﾞｸﾄｶﾊﾞｰ
100
AcDbLine
 10
71.64146116261713
 20
-101.048554296156
 30
0.0
 11
71.44164547676087
 21
-101.048554296156
 31
0.0
  0
LINE
  5
DD77
330
17
100
AcDbEntity
  8
1ﾀﾞｸﾄｶﾊﾞｰ
100
AcDbLine
 10
72.79063544200403
 20
-101.048554296156
 30
0.0
 11
72.79063544200403
 21
-103.0485543911509
 31
0.0
  0
LINE
  5
DD78
330
17
100
AcDbEntity
  8
1ﾀﾞｸﾄｶﾊﾞｰ
100
AcDbLine
 10
68.94133967513084
 20
-100.5485543911509
 30
0.0
 11
68.94133967513084
 21
-72.24538796629531
 31
0.0
  0
ARC
  5
DD79
330
17
100
AcDbEntity
  8
1ﾀﾞｸﾄｶﾊﾞｰ
100
AcDbCircle
 10
71.44133967513084
 20
-100.5485543911509
 30
0.0
 40
2.5
100
AcDbArc
 50
180.0
 51
270.0
  0
ELLIPSE
  5
DD7A
330
17
100
AcDbEntity
  8
1ﾀﾞｸﾄｶﾊﾞｰ
100
AcDbEllipse
 10
92.94499614423079
 20
-72.24538779645991
 30
0.0
 11
24.00365587305378
 21
0.0000000010943009
 31
0.0
210
0.0
220
0.0
230
1.0
 40
0.9998476951565308
 41
3.041939080763279
 42
3.141592653544206
  0
LINE
  5
DD7B
330
17
100
AcDbEntity
  8
1ﾀﾞｸﾄｶﾊﾞｰ
100
AcDbLine
 10
69.06042975539207
 20
-69.85765942420584
 30
0.0
 11
69.86929831260681
 21
-61.76896267618758
 31
0.0
  0
LINE
  5
DD7C
330
17
100
AcDbEntity
  8
1ﾀﾞｸﾄｶﾊﾞｰ
100
AcDbLine
 10
159.8417041168943
 20
-61.04855486240012
 30
0.0
 11
159.8417041168943
 21
-100.548554296156
 31
0.0
  0
ARC
  5
DD7D
330
17
100
AcDbEntity
  8
1ﾀﾞｸﾄｶﾊﾞｰ
100
AcDbCircle
 10
159.3417041168943
 20
-100.548554296156
 30
0.0
 40
0.5
100
AcDbArc
 50
270.0
 51
0.0
  0
LINE
  5
DD7E
330
17
100
AcDbEntity
  8
1ﾀﾞｸﾄｶﾊﾞｰ
100
AcDbLine
 10
160.9140502130387
 20
-61.76895199607907
 30
0.0
 11
161.7278656064293
 21
-69.90711717419936
 31
0.0
  0
LINE
  5
DD7F
330
17
100
AcDbEntity
  8
1ﾀﾞｸﾄｶﾊﾞｰ
100
AcDbLine
 10
161.8420099185243
 20
-100.5485543911509
 30
0.0
 11
161.8420099185243
 21
-72.19569958093098
 31
0.0
  0
ARC
  5
DD80
330
17
100
AcDbEntity
  8
1ﾀﾞｸﾄｶﾊﾞｰ
100
AcDbCircle
 10
159.3420099185243
 20
-100.5485543911509
 30
0.0
 40
2.5
100
AcDbArc
 50
270.0
 51
0.0
  0
ARC
  5
DD81
330
17
100
AcDbEntity
  8
1ﾀﾞｸﾄｶﾊﾞｰ
100
AcDbCircle
 10
138.8420099185243
 20
-72.19569958093098
 30
0.0
 40
23.0
100
AcDbArc
 50
0.0
 51
5.710585299525044
  0
LINE
  5
DD82
330
17
100
AcDbEntity
  8
1ﾀﾞｸﾄｶﾊﾞｰ
100
AcDbLine
 10
159.3420099185243
 20
-103.0485543911509
 30
0.0
 11
71.44133967513084
 21
-103.0485543911509
 31
0.0
  0
LINE
  5
DD83
330
17
100
AcDbEntity
  8
1ﾀﾞｸﾄｶﾊﾞｰ
100
AcDbLine
 10
159.8417041168943
 20
-61.04855486240012
 30
0.0
 11
160.1180204499812
 21
-61.04855486240012
 31
0.0
  0
ARC
  5
DD84
330
17
100
AcDbEntity
  8
1ﾀﾞｸﾄｶﾊﾞｰ
100
AcDbCircle
 10
160.1180204499812
 20
-61.84855486240031
 30
0.0
 40
0.8
100
AcDbArc
 50
5.710585299525044
 51
90.0
  0
LINE
  5
DD85
330
17
100
AcDbEntity
  8
1ﾀﾞｸﾄｶﾊﾞｰ
100
AcDbLine
 10
70.66449959835722
 20
-61.04855486240012
 30
0.0
 11
159.8417041168943
 21
-61.04855486240012
 31
0.0
  0
LINE
  5
DD9C
330
17
100
AcDbEntity
  8
1ﾀﾞｸﾄｶﾊﾞｰ
100
AcDbLine
 10
115.4833037553046
 20
-103.0485543911509
 30
0.0
 11
115.3000458406907
 21
-103.0485543911509
 31
0.0
  0
LINE
  5
DD9D
330
17
100
AcDbEntity
  8
1ﾀﾞｸﾄｶﾊﾞｰ
100
AcDbLine
 10
161.8420099185243
 20
-29.15329851917068
 30
0.0
 11
68.94133967513084
 21
-29.15329851917068
 31
0.0
  0
SPLINE
  5
DD9E
330
17
100
AcDbEntity
  8
1ﾀﾞｸﾄｶﾊﾞｰ
100
AcDbSpline
210
0.0
220
0.0
230
1.0
 70
    24
 71
     3
 72
     8
 73
     4
 74
     0
 42
0.000000001
 43
0.0000000001
 40
0.0
 40
0.0
 40
0.0
 40
0.0
 40
0.0000020783432713
 40
0.0000020783432713
 40
0.0000020783432713
 40
0.0000020783432713
 10
69.51271572172505
 20
-7.896378235383508
 30
0.0
 10
69.51272781192824
 20
-7.895685588093328
 30
0.0
 10
69.51273990274899
 20
-7.894992905446088
 30
0.0
 10
69.51275199344604
 20
-7.894300229869713
 30
0.0
  0
SPLINE
  5
DD9F
330
17
100
AcDbEntity
  8
1ﾀﾞｸﾄｶﾊﾞｰ
100
AcDbSpline
210
0.0
220
0.0
230
1.0
 70
    24
 71
     3
 72
     8
 73
     4
 74
     0
 42
0.000000001
 43
0.0000000001
 40
0.0
 40
0.0
 40
0.0
 40
0.0
 40
0.0000020783432712
 40
0.0000020783432712
 40
0.0000020783432712
 40
0.0000020783432712
 10
134.9725248978832
 20
17.94670148082969
 30
0.0
 10
134.9732176506834
 20
17.94670148082969
 30
0.0
 10
134.9739104388452
 20
17.94670148082969
 30
0.0
 10
134.9746032199357
 20
17.94670148082969
 30
0.0
  0
ARC
  5
DDB6
330
17
100
AcDbEntity
  8
1ﾀﾞｸﾄｶﾊﾞｰ
100
AcDbCircle
 10
353.1099086373708
 20
-8.653298519170675
 30
0.0
 40
22.00000000000006
100
AcDbArc
 50
90.0
 51
156.3895352454169
  0
LINE
  5
DDB7
330
17
100
AcDbEntity
  8
1ﾀﾞｸﾄｶﾊﾞｰ
100
AcDbLine
 10
159.4678144822476
 20
-7.733110068078531
 30
0.0
 11
159.8417052624365
 21
-29.15329851917068
 31
0.0
  0
LINE
  5
DDB8
330
17
100
AcDbEntity
  8
1ﾀﾞｸﾄｶﾊﾞｰ
100
AcDbLine
 10
161.4675098725604
 20
-7.698205255203902
 30
0.0
 11
161.8420099185243
 21
-29.15329851917068
 31
0.0
  0
ARC
  5
DDB9
330
17
100
AcDbEntity
  8
1ﾀﾞｸﾄｶﾊﾞｰ
100
AcDbCircle
 10
135.2715002594625
 20
-8.155458303860541
 30
0.0
 40
24.20000000000039
100
AcDbArc
 50
0.9999999999757104
 51
89.41113436977687
  0
ARC
  5
DDBA
330
17
100
AcDbEntity
  8
1ﾀﾞｸﾄｶﾊﾞｰ
100
AcDbCircle
 10
135.2715002594625
 20
-8.155458303860541
 30
0.0
 40
26.20000000000038
100
AcDbArc
 50
0.9999999999757104
 51
89.41113436977687
  0
ARC
  5
DDBB
330
17
100
AcDbEntity
  8
1ﾀﾞｸﾄｶﾊﾞｰ
100
AcDbCircle
 10
115.391674796838
 20
-1942.36579851917
 30
0.0
 40
1958.5125
100
AcDbArc
 50
89.41113436977687
 51
90.5888656302231
  0
ARC
  5
DDBC
330
17
100
AcDbEntity
  8
1ﾀﾞｸﾄｶﾊﾞｰ
100
AcDbCircle
 10
115.391674796838
 20
-1942.36579851917
 30
0.0
 40
1960.5125
100
AcDbArc
 50
89.41113436977687
 51
90.5888656302231
  0
ARC
  5
DDBD
330
17
100
AcDbEntity
  8
1ﾀﾞｸﾄｶﾊﾞｰ
100
AcDbCircle
 10
95.51184933419177
 20
-8.15545830386145
 30
0.0
 40
24.20000000000031
100
AcDbArc
 50
90.5888656302231
 51
179.0000000000242
  0
ARC
  5
DDBE
330
17
100
AcDbEntity
  8
1ﾀﾞｸﾄｶﾊﾞｰ
100
AcDbCircle
 10
95.51184933419177
 20
-8.15545830386145
 30
0.0
 40
26.20000000000031
100
AcDbArc
 50
90.5888656302231
 51
179.0000000000242
  0
LINE
  5
DDBF
330
17
100
AcDbEntity
  8
1ﾀﾞｸﾄｶﾊﾞｰ
100
AcDbLine
 10
70.94164433121864
 20
-29.15329851917068
 30
0.0
 11
71.31553511140669
 21
-7.733110068078531
 31
0.0
  0
LINE
  5
DDC0
330
17
100
AcDbEntity
  8
1ﾀﾞｸﾄｶﾊﾞｰ
100
AcDbLine
 10
68.94133967513084
 20
-29.15329851917068
 30
0.0
 11
69.31583972109388
 21
-7.698205255203902
 31
0.0
  0
LINE
  5
DDC1
330
17
100
AcDbEntity
  8
1ﾀﾞｸﾄｶﾊﾞｰ
100
AcDbLine
 10
378.9357437119331
 20
-7.698205255203902
 30
0.0
 11
379.3102437578971
 21
-29.15329851917068
 31
0.0
  0
ARC
  5
DDC2
330
17
100
AcDbEntity
  8
1ﾀﾞｸﾄｶﾊﾞｰ
100
AcDbCircle
 10
352.7397340988357
 20
-8.155458303860541
 30
0.0
 40
26.20000000000038
100
AcDbArc
 50
0.9999999999757104
 51
89.41113436977687
  0
ARC
  5
DDC3
330
17
100
AcDbEntity
  8
1ﾀﾞｸﾄｶﾊﾞｰ
100
AcDbCircle
 10
332.8599086362112
 20
-1942.36579851917
 30
0.0
 40
1960.5125
100
AcDbArc
 50
89.41113436977687
 51
90.5888656302231
  0
ARC
  5
DDC4
330
17
100
AcDbEntity
  8
1ﾀﾞｸﾄｶﾊﾞｰ
100
AcDbCircle
 10
312.980083173565
 20
-8.15545830386145
 30
0.0
 40
26.20000000000031
100
AcDbArc
 50
90.5888656302231
 51
179.0000000000242
  0
LINE
  5
DDC5
330
17
100
AcDbEntity
  8
1ﾀﾞｸﾄｶﾊﾞｰ
100
AcDbLine
 10
286.409573514504
 20
-29.15329851917068
 30
0.0
 11
286.7840735604671
 21
-7.698205255203902
 31
0.0
  0
INSERT
  5
DDC6
330
17
100
AcDbEntity
  8
2寸法線
100
AcDbBlockReference
  2
43435
 10
353.1099086373708
 20
13.44670148082878
 30
0.0
  0
LINE
  5
DDC7
330
17
100
AcDbEntity
  8
1ﾀﾞｸﾄｶﾊﾞｰ
100
AcDbLine
 10
115.6916744440948
 20
-76.54855523045899
 30
0.0
 11
115.0916743360615
 21
-76.54855523045899
 31
0.0
  0
ARC
  5
DDC8
330
17
100
AcDbEntity
  8
1ﾀﾞｸﾄｶﾊﾞｰ
100
AcDbCircle
 10
115.0916743360615
 20
-75.54855523045898
 30
0.0
 40
1.0
100
AcDbArc
 50
180.0
 51
270.0
  0
LINE
  5
DDC9
330
17
100
AcDbEntity
  8
1ﾀﾞｸﾄｶﾊﾞｰ
100
AcDbLine
 10
117.1916744440948
 20
-67.04855486240012
 30
0.0
 11
117.1916744440948
 21
-70.04855486239967
 31
0.0
  0
LINE
  5
DDCA
330
17
100
AcDbEntity
  8
1ﾀﾞｸﾄｶﾊﾞｰ
100
AcDbLine
 10
116.6916744440948
 20
-70.54855486239967
 30
0.0
 11
116.6916744440948
 21
-75.54855523045898
 31
0.0
  0
ARC
  5
DDCB
330
17
100
AcDbEntity
  8
1ﾀﾞｸﾄｶﾊﾞｰ
100
AcDbCircle
 10
115.6916744440948
 20
-75.54855523045898
 30
0.0
 40
1.0
100
AcDbArc
 50
270.0
 51
0.0
  0
ARC
  5
DDCC
330
17
100
AcDbEntity
  8
1ﾀﾞｸﾄｶﾊﾞｰ
100
AcDbCircle
 10
117.1916744440943
 20
-70.54855486239967
 30
0.0
 40
0.5
100
AcDbArc
 50
90.0
 51
180.0
  0
LINE
  5
DDCD
330
17
100
AcDbEntity
  8
1ﾀﾞｸﾄｶﾊﾞｰ
100
AcDbLine
 10
159.6416746582993
 20
-77.54855486240012
 30
0.0
 11
159.6416746582993
 21
-78.54855486240012
 31
0.0
  0
ARC
  5
DDCE
330
17
100
AcDbEntity
  8
1ﾀﾞｸﾄｶﾊﾞｰ
100
AcDbCircle
 10
158.6416746582993
 20
-77.54855486240012
 30
0.0
 40
1.0
100
AcDbArc
 50
0.0
 51
90.0
  0
LINE
  5
DDD2
330
17
100
AcDbEntity
  8
1ﾀﾞｸﾄｶﾊﾞｰ
100
AcDbLine
 10
159.6416746582993
 20
-89.04855513993425
 30
0.0
 11
159.6416746582993
 21
-90.04855523492915
 31
0.0
  0
ARC
  5
DDD3
330
17
100
AcDbEntity
  8
1ﾀﾞｸﾄｶﾊﾞｰ
100
AcDbCircle
 10
158.6416746582993
 20
-90.04855523492915
 30
0.0
 40
1.0
100
AcDbArc
 50
270.0
 51
0.0
  0
LINE
  5
DDD4
330
17
100
AcDbEntity
  8
1ﾀﾞｸﾄｶﾊﾞｰ
100
AcDbLine
 10
158.6416746582993
 20
-91.04855523492915
 30
0.0
 11
153.141674360276
 21
-91.04855523492915
 31
0.0
  0
LINE
  5
DDD5
330
17
100
AcDbEntity
  8
1ﾀﾞｸﾄｶﾊﾞｰ
100
AcDbLine
 10
151.141674360276
 20
-91.04855523492915
 30
0.0
 11
120.1416749153443
 21
-91.04855523492915
 31
0.0
  0
LINE
  5
DDD6
330
17
100
AcDbEntity
  8
1ﾀﾞｸﾄｶﾊﾞｰ
100
AcDbLine
 10
118.1416749153443
 20
-91.04855523492915
 30
0.0
 11
112.6416738648124
 21
-91.04855523492915
 31
0.0
  0
LINE
  5
DDD7
330
17
100
AcDbEntity
  8
1ﾀﾞｸﾄｶﾊﾞｰ
100
AcDbLine
 10
110.6416738648124
 20
-91.04855523492915
 30
0.0
 11
79.6416744198807
 21
-91.04855523492915
 31
0.0
  0
LINE
  5
DDD8
330
17
100
AcDbEntity
  8
1ﾀﾞｸﾄｶﾊﾞｰ
100
AcDbLine
 10
77.6416744198807
 20
-91.04855523492915
 30
0.0
 11
72.14167412185748
 21
-91.04855523492915
 31
0.0
  0
LINE
  5
DDD9
330
17
100
AcDbEntity
  8
1ﾀﾞｸﾄｶﾊﾞｰ
100
AcDbLine
 10
113.5916743360615
 20
-70.04855486240012
 30
0.0
 11
113.5916743360615
 21
-67.04855486240012
 31
0.0
  0
LINE
  5
DDDA
330
17
100
AcDbEntity
  8
1ﾀﾞｸﾄｶﾊﾞｰ
100
AcDbLine
 10
114.0916743360615
 20
-75.54855523045898
 30
0.0
 11
114.0916743360615
 21
-70.54855486240012
 31
0.0
  0
ARC
  5
DDDB
330
17
100
AcDbEntity
  8
1ﾀﾞｸﾄｶﾊﾞｰ
100
AcDbCircle
 10
113.5916743360615
 20
-70.54855486240012
 30
0.0
 40
0.5
100
AcDbArc
 50
0.0
 51
90.0
  0
ARC
  5
DDDC
330
17
100
AcDbEntity
  8
1ﾀﾞｸﾄｶﾊﾞｰ
100
AcDbCircle
 10
115.3916743900784
 20
-82.14855523492905
 30
0.0
 40
2.100000000000022
100
AcDbArc
 50
0.0
 51
180.0
  0
LINE
  5
DDDD
330
17
100
AcDbEntity
  8
1ﾀﾞｸﾄｶﾊﾞｰ
100
AcDbLine
 10
113.2916744649567
 20
-83.94855518873555
 30
0.0
 11
113.2916744649567
 21
-82.1485554524861
 31
0.0
  0
ARC
  5
DDDE
330
17
100
AcDbEntity
  8
1ﾀﾞｸﾄｶﾊﾞｰ
100
AcDbCircle
 10
115.3916743900784
 20
-83.94855523492925
 30
0.0
 40
2.100000000000022
100
AcDbArc
 50
180.0
 51
0.0
  0
LINE
  5
DDDF
330
17
100
AcDbEntity
  8
1ﾀﾞｸﾄｶﾊﾞｰ
100
AcDbLine
 10
117.4916743152
 20
-82.1485554524861
 30
0.0
 11
117.4916743152
 21
-83.94855518873555
 31
0.0
  0
LINE
  5
DDE0
330
17
100
AcDbEntity
  8
1ﾀﾞｸﾄｶﾊﾞｰ
100
AcDbLine
 10
115.3916743900784
 20
-66.04855486240012
 30
0.0
 11
156.6416743900784
 21
-66.04855486240012
 31
0.0
  0
ARC
  5
DDE1
330
17
100
AcDbEntity
  8
1ﾀﾞｸﾄｶﾊﾞｰ
100
AcDbCircle
 10
156.6416743900784
 20
-67.04855486240012
 30
0.0
 40
1.0
100
AcDbArc
 50
0.0
 51
90.0
  0
LINE
  5
DDE2
330
17
100
AcDbEntity
  8
1ﾀﾞｸﾄｶﾊﾞｰ
100
AcDbLine
 10
157.6416743900784
 20
-76.54855486240013
 30
0.0
 11
158.6416746582993
 21
-76.54855486240013
 31
0.0
  0
ARC
  5
DDE3
330
17
100
AcDbEntity
  8
1ﾀﾞｸﾄｶﾊﾞｰ
100
AcDbCircle
 10
118.1916744440948
 20
-67.04855486240012
 30
0.0
 40
1.0
100
AcDbArc
 50
90.0
 51
180.0
  0
LINE
  5
DDE4
330
17
100
AcDbEntity
  8
1ﾀﾞｸﾄｶﾊﾞｰ
100
AcDbLine
 10
74.14167439007838
 20
-66.04855486240012
 30
0.0
 11
115.3916743900784
 21
-66.04855486239967
 31
0.0
  0
LINE
  5
DDE5
330
17
100
AcDbEntity
  8
1ﾀﾞｸﾄｶﾊﾞｰ
100
AcDbLine
 10
113.6416743360616
 20
-69.04855486240013
 30
0.0
 11
117.1416744440951
 21
-69.04855486239966
 31
0.0
  0
LINE
  5
DDE6
330
17
100
AcDbEntity
  8
1ﾀﾞｸﾄｶﾊﾞｰ
100
AcDbLine
 10
113.5916743360615
 20
-69.54855486240012
 30
0.0
 11
113.5916743360615
 21
-69.54855486240012
 31
0.0
  0
LINE
  5
DDE7
330
17
100
AcDbEntity
  8
1ﾀﾞｸﾄｶﾊﾞｰ
100
AcDbLine
 10
117.1916744440943
 20
-69.54855486239967
 30
0.0
 11
117.1916744440948
 21
-69.54855486239967
 31
0.0
  0
ARC
  5
DDE8
330
17
100
AcDbEntity
  8
1ﾀﾞｸﾄｶﾊﾞｰ
100
AcDbCircle
 10
112.5916743360615
 20
-67.04855486240012
 30
0.0
 40
1.0
100
AcDbArc
 50
0.0
 51
90.0
  0
LINE
  5
DDE9
330
17
100
AcDbEntity
  8
1ﾀﾞｸﾄｶﾊﾞｰ
100
AcDbLine
 10
123.1416742634185
 20
-91.64855526342762
 30
0.0
 11
126.1416747551568
 21
-91.64855526342762
 31
0.0
  0
LINE
  5
DDEA
330
17
100
AcDbEntity
  8
1ﾀﾞｸﾄｶﾊﾞｰ
100
AcDbLine
 10
123.1416742634185
 20
-91.04855523492915
 30
0.0
 11
123.1416742634185
 21
-91.64855526342762
 31
0.0
  0
LINE
  5
DDEB
330
17
100
AcDbEntity
  8
1ﾀﾞｸﾄｶﾊﾞｰ
100
AcDbLine
 10
126.1416747551568
 20
-91.04855523492915
 30
0.0
 11
126.1416747551568
 21
-91.64855526342762
 31
0.0
  0
LINE
  5
DDEC
330
17
100
AcDbEntity
  8
1ﾀﾞｸﾄｶﾊﾞｰ
100
AcDbLine
 10
85.64167370462497
 20
-91.04855523492915
 30
0.0
 11
85.64167370462497
 21
-91.64855526342762
 31
0.0
  0
LINE
  5
DDED
330
17
100
AcDbEntity
  8
1ﾀﾞｸﾄｶﾊﾞｰ
100
AcDbLine
 10
85.64167370462497
 20
-91.64855526342762
 30
0.0
 11
82.6416750755318
 21
-91.64855526342762
 31
0.0
  0
LINE
  5
DDEE
330
17
100
AcDbEntity
  8
1ﾀﾞｸﾄｶﾊﾞｰ
100
AcDbLine
 10
82.6416750755318
 20
-91.04855523492915
 30
0.0
 11
82.6416750755318
 21
-91.64855526342762
 31
0.0
  0
LINE
  5
DDEF
330
17
100
AcDbEntity
  8
1ﾀﾞｸﾄｶﾊﾞｰ
100
AcDbLine
 10
145.1416750755318
 20
-91.64855526342762
 30
0.0
 11
145.1416750755318
 21
-91.04855523492915
 31
0.0
  0
LINE
  5
DDF0
330
17
100
AcDbEntity
  8
1ﾀﾞｸﾄｶﾊﾞｰ
100
AcDbLine
 10
145.1416750755318
 20
-91.64855526342762
 30
0.0
 11
148.1416737046249
 21
-91.64855526342762
 31
0.0
  0
LINE
  5
DDF1
330
17
100
AcDbEntity
  8
1ﾀﾞｸﾄｶﾊﾞｰ
100
AcDbLine
 10
148.1416737046249
 20
-91.04855523492915
 30
0.0
 11
148.1416737046249
 21
-91.64855526342762
 31
0.0
  0
LINE
  5
DDF2
330
17
100
AcDbEntity
  8
1ﾀﾞｸﾄｶﾊﾞｰ
100
AcDbLine
 10
107.6416745167382
 20
-91.64855526342762
 30
0.0
 11
104.6416740249999
 21
-91.64855526342762
 31
0.0
  0
LINE
  5
DDF3
330
17
100
AcDbEntity
  8
1ﾀﾞｸﾄｶﾊﾞｰ
100
AcDbLine
 10
104.6416740249999
 20
-91.64855526342762
 30
0.0
 11
104.6416740249999
 21
-91.04855523492915
 31
0.0
  0
LINE
  5
DDF4
330
17
100
AcDbEntity
  8
1ﾀﾞｸﾄｶﾊﾞｰ
100
AcDbLine
 10
107.6416745167382
 20
-91.64855526342762
 30
0.0
 11
107.6416745167382
 21
-91.04855523492915
 31
0.0
  0
ARC
  5
DDF5
330
17
100
AcDbEntity
  8
1ﾀﾞｸﾄｶﾊﾞｰ
100
AcDbCircle
 10
124.1416743900783
 20
-98.04855523492916
 30
0.0
 40
1.0
100
AcDbArc
 50
180.0
 51
270.0
  0
ARC
  5
DDF6
330
17
100
AcDbEntity
  8
1ﾀﾞｸﾄｶﾊﾞｰ
100
AcDbCircle
 10
127.1416743900783
 20
-95.04855523492915
 30
0.0
 40
1.0
100
AcDbArc
 50
180.0
 51
270.0
  0
LINE
  5
DDF7
330
17
100
AcDbEntity
  8
1ﾀﾞｸﾄｶﾊﾞｰ
100
AcDbLine
 10
127.141673987747
 20
-96.04855512317044
 30
0.0
 11
144.141674911619
 21
-96.04855512317044
 31
0.0
  0
ARC
  5
DDF8
330
17
100
AcDbEntity
  8
1ﾀﾞｸﾄｶﾊﾞｰ
100
AcDbCircle
 10
144.1416743900784
 20
-95.04855523492915
 30
0.0
 40
1.0
100
AcDbArc
 50
270.0
 51
0.0
  0
ARC
  5
DDF9
330
17
100
AcDbEntity
  8
1ﾀﾞｸﾄｶﾊﾞｰ
100
AcDbCircle
 10
147.1416743900784
 20
-98.04855523492916
 30
0.0
 40
1.0
100
AcDbArc
 50
270.0
 51
0.0
  0
LINE
  5
DDFA
330
17
100
AcDbEntity
  8
1ﾀﾞｸﾄｶﾊﾞｰ
100
AcDbLine
 10
124.1416744273313
 20
-99.04855561490876
 30
0.0
 11
147.1416754033573
 21
-99.04855561490876
 31
0.0
  0
LINE
  5
DDFB
330
17
100
AcDbEntity
  8
1ﾀﾞｸﾄｶﾊﾞｰ
100
AcDbLine
 10
145.1416750755318
 20
-95.04855542491895
 30
0.0
 11
145.1416750755318
 21
-91.64855526342762
 31
0.0
  0
LINE
  5
DDFC
330
17
100
AcDbEntity
  8
1ﾀﾞｸﾄｶﾊﾞｰ
100
AcDbLine
 10
123.1416742634185
 20
-91.64855526342762
 30
0.0
 11
123.1416742634185
 21
-98.04855545099599
 31
0.0
  0
LINE
  5
DDFD
330
17
100
AcDbEntity
  8
1ﾀﾞｸﾄｶﾊﾞｰ
100
AcDbLine
 10
148.1416737046249
 20
-98.04855545099599
 30
0.0
 11
148.1416737046249
 21
-91.64855526342762
 31
0.0
  0
LINE
  5
DDFE
330
17
100
AcDbEntity
  8
1ﾀﾞｸﾄｶﾊﾞｰ
100
AcDbLine
 10
126.1416747551568
 20
-91.64855526342762
 30
0.0
 11
126.1416747551568
 21
-95.04855542491895
 31
0.0
  0
ARC
  5
DDFF
330
17
100
AcDbEntity
  8
1ﾀﾞｸﾄｶﾊﾞｰ
100
AcDbCircle
 10
86.64167439007838
 20
-95.04855523492915
 30
0.0
 40
1.0
100
AcDbArc
 50
180.0
 51
270.0
  0
LINE
  5
DE00
330
17
100
AcDbEntity
  8
1ﾀﾞｸﾄｶﾊﾞｰ
100
AcDbLine
 10
103.6416747924097
 20
-96.04855512317044
 30
0.0
 11
86.64167386853774
 21
-96.04855512317044
 31
0.0
  0
ARC
  5
DE01
330
17
100
AcDbEntity
  8
1ﾀﾞｸﾄｶﾊﾞｰ
100
AcDbCircle
 10
103.6416743900784
 20
-95.04855523492915
 30
0.0
 40
1.0
100
AcDbArc
 50
270.0
 51
0.0
  0
ARC
  5
DE02
330
17
100
AcDbEntity
  8
1ﾀﾞｸﾄｶﾊﾞｰ
100
AcDbCircle
 10
106.6416743900784
 20
-98.04855523492916
 30
0.0
 40
1.0
100
AcDbArc
 50
270.0
 51
0.0
  0
LINE
  5
DE03
330
17
100
AcDbEntity
  8
1ﾀﾞｸﾄｶﾊﾞｰ
100
AcDbLine
 10
106.6416743528254
 20
-99.04855561490876
 30
0.0
 11
83.64167337679942
 21
-99.04855561490876
 31
0.0
  0
ARC
  5
DE04
330
17
100
AcDbEntity
  8
1ﾀﾞｸﾄｶﾊﾞｰ
100
AcDbCircle
 10
83.64167439007838
 20
-98.04855523492916
 30
0.0
 40
1.0
100
AcDbArc
 50
180.0
 51
270.0
  0
LINE
  5
DE05
330
17
100
AcDbEntity
  8
1ﾀﾞｸﾄｶﾊﾞｰ
100
AcDbLine
 10
104.6416740249999
 20
-91.64855526342762
 30
0.0
 11
104.6416740249999
 21
-95.04855542491895
 31
0.0
  0
LINE
  5
DE06
330
17
100
AcDbEntity
  8
1ﾀﾞｸﾄｶﾊﾞｰ
100
AcDbLine
 10
82.6416750755318
 20
-98.04855545099599
 30
0.0
 11
82.6416750755318
 21
-91.64855526342762
 31
0.0
  0
LINE
  5
DE07
330
17
100
AcDbEntity
  8
1ﾀﾞｸﾄｶﾊﾞｰ
100
AcDbLine
 10
107.6416745167382
 20
-91.64855526342762
 30
0.0
 11
107.6416745167382
 21
-98.04855545099599
 31
0.0
  0
LINE
  5
DE08
330
17
100
AcDbEntity
  8
1ﾀﾞｸﾄｶﾊﾞｰ
100
AcDbLine
 10
85.64167370462497
 20
-95.04855542491895
 30
0.0
 11
85.64167370462497
 21
-91.64855526342762
 31
0.0
  0
LINE
  5
DE09
330
17
100
AcDbEntity
  8
1ﾀﾞｸﾄｶﾊﾞｰ
100
AcDbLine
 10
159.6416746582993
 20
-77.54855486240012
 30
0.0
 11
159.6416746582993
 21
-78.79855486240058
 31
0.0
  0
LINE
  5
DE0A
330
17
100
AcDbEntity
  8
1ﾀﾞｸﾄｶﾊﾞｰ
100
AcDbLine
 10
159.6416746582993
 20
-88.7985546388827
 30
0.0
 11
159.6416746582993
 21
-89.04855513993425
 31
0.0
  0
LINE
  5
DE0B
330
17
100
AcDbEntity
  8
1ﾀﾞｸﾄｶﾊﾞｰ
 48
2.0
100
AcDbLine
 10
157.6416743900784
 20
-67.04855486240012
 30
0.0
 11
157.6416743900784
 21
-76.54855486240013
 31
0.0
  0
LINE
  5
DE0C
330
17
100
AcDbEntity
  8
1ﾀﾞｸﾄｶﾊﾞｰ
100
AcDbLine
 10
71.14167412185747
 20
-77.54855486240012
 30
0.0
 11
71.14167412185747
 21
-78.54855486240012
 31
0.0
  0
ARC
  5
DE0D
330
17
100
AcDbEntity
  8
1ﾀﾞｸﾄｶﾊﾞｰ
100
AcDbCircle
 10
72.14167412185748
 20
-77.54855486240012
 30
0.0
 40
1.0
100
AcDbArc
 50
90.0
 51
180.0
  0
LINE
  5
DE11
330
17
100
AcDbEntity
  8
1ﾀﾞｸﾄｶﾊﾞｰ
100
AcDbLine
 10
71.14167412185747
 20
-89.04855513993425
 30
0.0
 11
71.14167412185747
 21
-90.04855523492915
 31
0.0
  0
ARC
  5
DE12
330
17
100
AcDbEntity
  8
1ﾀﾞｸﾄｶﾊﾞｰ
100
AcDbCircle
 10
72.14167412185748
 20
-90.04855523492915
 30
0.0
 40
1.0
100
AcDbArc
 50
180.0
 51
270.0
  0
ARC
  5
DE13
330
17
100
AcDbEntity
  8
1ﾀﾞｸﾄｶﾊﾞｰ
100
AcDbCircle
 10
74.14167439007838
 20
-67.04855486240012
 30
0.0
 40
1.0
100
AcDbArc
 50
90.0
 51
180.0
  0
LINE
  5
DE14
330
17
100
AcDbEntity
  8
1ﾀﾞｸﾄｶﾊﾞｰ
100
AcDbLine
 10
73.14167439007838
 20
-76.54855486240013
 30
0.0
 11
72.14167412185748
 21
-76.54855486240013
 31
0.0
  0
LINE
  5
DE15
330
17
100
AcDbEntity
  8
1ﾀﾞｸﾄｶﾊﾞｰ
100
AcDbLine
 10
71.14167412185747
 20
-77.54855486240012
 30
0.0
 11
71.14167412185747
 21
-78.79855486240058
 31
0.0
  0
LINE
  5
DE16
330
17
100
AcDbEntity
  8
1ﾀﾞｸﾄｶﾊﾞｰ
100
AcDbLine
 10
71.14167412185747
 20
-88.7985546388827
 30
0.0
 11
71.14167412185747
 21
-89.04855513993425
 31
0.0
  0
LINE
  5
DE17
330
17
100
AcDbEntity
  8
1ﾀﾞｸﾄｶﾊﾞｰ
 48
2.0
100
AcDbLine
 10
73.14167439007838
 20
-67.04855486240012
 30
0.0
 11
73.14167439007838
 21
-76.54855486240013
 31
0.0
  0
ARC
  5
DE18
330
17
100
AcDbEntity
  8
1外形線
 48
2.0
100
AcDbCircle
 10
152.141674360276
 20
-91.04855523492915
 30
0.0
 40
1.0
100
AcDbArc
 50
180.0
 51
0.0
  0
ARC
  5
DE19
330
17
100
AcDbEntity
  8
1外形線
 48
2.0
100
AcDbCircle
 10
119.1416749153443
 20
-91.04855523492915
 30
0.0
 40
1.0
100
AcDbArc
 50
180.0
 51
0.0
  0
ARC
  5
DE1A
330
17
100
AcDbEntity
  8
1外形線
 48
2.0
100
AcDbCircle
 10
78.6416744198807
 20
-91.04855523492915
 30
0.0
 40
1.0
100
AcDbArc
 50
180.0
 51
0.0
  0
ARC
  5
DE1B
330
17
100
AcDbEntity
  8
1外形線
 48
2.0
100
AcDbCircle
 10
111.6416738648124
 20
-91.04855523492915
 30
0.0
 40
1.0
100
AcDbArc
 50
180.0
 51
0.0
  0
LINE
  5
DE1C
330
17
100
AcDbEntity
  8
1ﾀﾞｸﾄｶﾊﾞｰ
 62
     3
100
AcDbLine
 10
71.14169325796069
 20
-99.84855439115108
 30
0.0
 11
113.241936982831
 21
-99.84855439115108
 31
0.0
  0
LINE
  5
DE1D
330
17
100
AcDbEntity
  8
1ﾀﾞｸﾄｶﾊﾞｰ
 62
     3
100
AcDbLine
 10
113.241936982831
 20
-99.84855439115108
 30
0.0
 11
113.241936982831
 21
-103.0485543911509
 31
0.0
  0
LINE
  5
DE1E
330
17
100
AcDbEntity
  8
1ﾀﾞｸﾄｶﾊﾞｰ
 62
     3
100
AcDbLine
 10
113.241936982831
 20
-103.0485543911509
 30
0.0
 11
72.74193698283102
 21
-103.0485543911509
 31
0.0
  0
LINE
  5
DE1F
330
17
100
AcDbEntity
  8
1ﾀﾞｸﾄｶﾊﾞｰ
 62
     3
100
AcDbLine
 10
72.74193698283102
 20
-101.0485543911509
 30
0.0
 11
72.74193698283102
 21
-103.0485543911509
 31
0.0
  0
LINE
  5
DE20
330
17
100
AcDbEntity
  8
1ﾀﾞｸﾄｶﾊﾞｰ
 62
     3
100
AcDbLine
 10
71.64176942198287
 20
-101.0485543911509
 30
0.0
 11
72.74193698283102
 21
-101.0485543911509
 31
0.0
  0
ELLIPSE
  5
DE21
330
17
100
AcDbEntity
  8
1ﾀﾞｸﾄｶﾊﾞｰ
 62
     3
100
AcDbEllipse
 10
71.64176942198287
 20
-100.5485543911509
 30
0.0
 11
-0.500076164021948
 21
0.0000000000000001
 31
0.0
210
0.0
220
0.0
230
1.0
 40
0.9998476951564029
 41
0.0
 42
1.570796326794896
  0
LINE
  5
DE22
330
17
100
AcDbEntity
  8
1ﾀﾞｸﾄｶﾊﾞｰ
 62
     3
100
AcDbLine
 10
71.14169325796069
 20
-99.84855439115108
 30
0.0
 11
71.14169325796069
 21
-100.5485543911509
 31
0.0
  0
LINE
  5
DE23
330
17
100
AcDbEntity
  8
1ﾀﾞｸﾄｶﾊﾞｰ
 62
     3
100
AcDbLine
 10
113.6064372740959
 20
-103.0485543911509
 30
0.0
 11
113.241936982831
 21
-103.0485543911509
 31
0.0
  0
LINE
  5
DE24
330
17
100
AcDbEntity
  8
1ﾀﾞｸﾄｶﾊﾞｰ
 62
     3
100
AcDbLine
 10
113.241936982831
 20
-99.84855439115108
 30
0.0
 11
113.6064372740959
 21
-99.84855439115108
 31
0.0
  0
LINE
  5
DE25
330
17
100
AcDbEntity
  8
1ﾀﾞｸﾄｶﾊﾞｰ
 62
     3
100
AcDbLine
 10
115.2531017980211
 20
-99.84855439115108
 30
0.0
 11
115.2531017980211
 21
-101.0485543911509
 31
0.0
  0
LINE
  5
DE26
330
17
100
AcDbEntity
  8
1ﾀﾞｸﾄｶﾊﾞｰ
 62
     3
100
AcDbLine
 10
115.2531017980211
 20
-101.0485543911509
 30
0.0
 11
115.2531017980211
 21
-103.0485543911509
 31
0.0
  0
LINE
  5
DE27
330
17
100
AcDbEntity
  8
1ﾀﾞｸﾄｶﾊﾞｰ
 62
     3
100
AcDbLine
 10
115.2531017980211
 20
-103.0485543911509
 30
0.0
 11
113.6064372740959
 21
-103.0485543911509
 31
0.0
  0
LINE
  5
DE28
330
17
100
AcDbEntity
  8
1ﾀﾞｸﾄｶﾊﾞｰ
 62
     3
100
AcDbLine
 10
113.6064372740959
 20
-99.84855439115108
 30
0.0
 11
115.2531017980211
 21
-99.84855439115108
 31
0.0
  0
LINE
  5
DE29
330
17
100
AcDbEntity
  8
1ﾀﾞｸﾄｶﾊﾞｰ
 62
     3
100
AcDbLine
 10
117.5393339011777
 20
-103.0485543911509
 30
0.0
 11
158.0393339011777
 21
-103.0485543911509
 31
0.0
  0
LINE
  5
DE2A
330
17
100
AcDbEntity
  8
1ﾀﾞｸﾄｶﾊﾞｰ
 62
     3
100
AcDbLine
 10
158.0393339011777
 20
-101.0485543911509
 30
0.0
 11
158.0393339011777
 21
-103.0485543911509
 31
0.0
  0
LINE
  5
DE2B
330
17
100
AcDbEntity
  8
1ﾀﾞｸﾄｶﾊﾞｰ
 62
     3
100
AcDbLine
 10
159.1395014620259
 20
-101.0485543911509
 30
0.0
 11
158.0393339011777
 21
-101.0485543911509
 31
0.0
  0
LINE
  5
DE2C
330
17
100
AcDbEntity
  8
1ﾀﾞｸﾄｶﾊﾞｰ
 62
     3
100
AcDbLine
 10
117.1748336099128
 20
-103.0485543911509
 30
0.0
 11
117.5393339011777
 21
-103.0485543911509
 31
0.0
  0
LINE
  5
DE2D
330
17
100
AcDbEntity
  8
1ﾀﾞｸﾄｶﾊﾞｰ
 62
     3
100
AcDbLine
 10
115.5281690859876
 20
-103.0485543911509
 30
0.0
 11
117.1748336099128
 21
-103.0485543911509
 31
0.0
  0
LINE
  5
DE30
330
17
100
AcDbEntity
  8
1ﾀﾞｸﾄｶﾊﾞｰ
100
AcDbLine
 10
300.1099093216648
 20
-23.653298548973
 30
0.0
 11
301.1099076229324
 21
-23.653298548973
 31
0.0
  0
LINE
  5
DE32
330
17
100
AcDbEntity
  8
1ﾀﾞｸﾄｶﾊﾞｰ
100
AcDbLine
 10
324.1099085989584
 20
-23.653298548973
 30
0.0
 11
325.1099087628712
 21
-23.653298548973
 31
0.0
  0
LINE
  5
DE34
330
17
100
AcDbEntity
  8
1ﾀﾞｸﾄｶﾊﾞｰ
100
AcDbLine
 10
323.6099085170021
 20
-23.653298548973
 30
0.0
 11
323.6099085170021
 21
-24.65329871288577
 31
0.0
  0
LINE
  5
DE35
330
17
100
AcDbEntity
  8
1ﾀﾞｸﾄｶﾊﾞｰ
100
AcDbLine
 10
301.6099086362113
 20
-23.653298548973
 30
0.0
 11
301.6099086362113
 21
-24.65329871288577
 31
0.0
  0
LINE
  5
DE36
330
17
100
AcDbEntity
  8
1ﾀﾞｸﾄｶﾊﾞｰ
100
AcDbLine
 10
324.1099085989584
 20
-23.653298548973
 30
0.0
 11
323.6099085170021
 21
-23.653298548973
 31
0.0
  0
LINE
  5
DE38
330
17
100
AcDbEntity
  8
1ﾀﾞｸﾄｶﾊﾞｰ
100
AcDbLine
 10
323.6099085170021
 20
-24.65329871288577
 30
0.0
 11
301.6099086362113
 21
-24.65329871288577
 31
0.0
  0
LINE
  5
DE39
330
17
100
AcDbEntity
  8
1ﾀﾞｸﾄｶﾊﾞｰ
100
AcDbLine
 10
301.6099086362113
 20
-23.653298548973
 30
0.0
 11
301.1099076229324
 21
-23.653298548973
 31
0.0
  0
LINE
  5
DE3A
330
17
100
AcDbEntity
  8
1ﾀﾞｸﾄｶﾊﾞｰ
100
AcDbLine
 10
325.1099087628712
 20
-23.653298548973
 30
0.0
 11
334.8750874976761
 21
-23.653298548973
 31
0.0
  0
LINE
  5
DE3B
330
17
100
AcDbEntity
  8
1ﾀﾞｸﾄｶﾊﾞｰ
100
AcDbLine
 10
300.1099093216648
 20
-23.653298548973
 30
0.0
 11
294.6099838870758
 21
-23.653298548973
 31
0.0
  0
LINE
  5
DE3C
330
17
100
AcDbEntity
  8
1ﾀﾞｸﾄｶﾊﾞｰ
100
AcDbLine
 10
294.6099838870758
 20
-23.653298548973
 30
0.0
 11
294.6099838870758
 21
-20.15329874268809
 31
0.0
  0
ARC
  5
DE3D
330
17
100
AcDbEntity
  8
1ﾀﾞｸﾄｶﾊﾞｰ
100
AcDbCircle
 10
293.6099838870758
 20
-20.15329874268809
 30
0.0
 40
1.0
100
AcDbArc
 50
0.0
 51
90.0
  0
LINE
  5
DE3E
330
17
100
AcDbEntity
  8
1ﾀﾞｸﾄｶﾊﾞｰ
100
AcDbLine
 10
293.6099838870758
 20
-19.15329874268809
 30
0.0
 11
291.0966306374397
 21
-19.15329874268809
 31
0.0
  0
ARC
  5
DE3F
330
17
100
AcDbEntity
  8
1ﾀﾞｸﾄｶﾊﾞｰ
100
AcDbCircle
 10
291.0966306374397
 20
-20.15329874268809
 30
0.0
 40
1.0
100
AcDbArc
 50
90.0
 51
124.6657982811154
  0
LINE
  5
DE40
330
17
100
AcDbEntity
  8
1ﾀﾞｸﾄｶﾊﾞｰ
 48
2.0
100
AcDbLine
 10
290.4188635380105
 20
-19.40617907397563
 30
0.0
 11
290.5278419799882
 21
-19.33081502664572
 31
0.0
  0
ARC
  5
DE41
330
17
100
AcDbEntity
  8
1ﾀﾞｸﾄｶﾊﾞｰ
 48
2.0
100
AcDbCircle
 10
312.6099081109454
 20
-24.65329871288577
 30
0.0
 40
0.5
100
AcDbArc
 50
0.0
 51
180.0
  0
LINE
  5
DE55
330
17
100
AcDbEntity
  8
1ﾀﾞｸﾄｶﾊﾞｰ
100
AcDbLine
 10
113.9416747968275
 20
-29.15329851917068
 30
0.0
 11
71.14167452860693
 21
-29.15329851917068
 31
0.0
  0
ARC
  5
DE56
330
17
100
AcDbEntity
  8
1ﾀﾞｸﾄｶﾊﾞｰ
100
AcDbCircle
 10
113.9416747968275
 20
-28.95329851917086
 30
0.0
 40
0.2
100
AcDbArc
 50
270.0
 51
0.0000000000260551
  0
LINE
  5
DE57
330
17
100
AcDbEntity
  8
1ﾀﾞｸﾄｶﾊﾞｰ
100
AcDbLine
 10
113.9416747968275
 20
-28.75329851917058
 30
0.0
 11
113.6416747968278
 21
-28.75329851917058
 31
0.0
  0
LINE
  5
DE58
330
17
100
AcDbEntity
  8
1ﾀﾞｸﾄｶﾊﾞｰ
100
AcDbLine
 10
74.77025792647919
 20
-22.15329851917068
 30
0.0
 11
73.75520938705813
 21
-22.15329851917068
 31
0.0
  0
LINE
  5
DE59
330
17
100
AcDbEntity
  8
1ﾀﾞｸﾄｶﾊﾞｰ
100
AcDbLine
 10
115.3916747968278
 20
-27.15329851917068
 30
0.0
 11
113.6416747968278
 21
-27.15329851917068
 31
0.0
  0
LINE
  5
DE5A
330
17
100
AcDbEntity
  8
1ﾀﾞｸﾄｶﾊﾞｰ
100
AcDbLine
 10
111.1416747968278
 20
-27.15329851917068
 30
0.0
 11
76.14167479682783
 21
-27.15329851917068
 31
0.0
  0
ARC
  5
DE5B
330
17
100
AcDbEntity
  8
1ﾀﾞｸﾄｶﾊﾞｰ
100
AcDbCircle
 10
111.1416747968278
 20
-26.65329851917068
 30
0.0
 40
0.5
100
AcDbArc
 50
270.0
 51
0.0
  0
LINE
  5
DE5C
330
17
100
AcDbEntity
  8
1ﾀﾞｸﾄｶﾊﾞｰ
100
AcDbLine
 10
76.28090472419081
 20
-19.15329874268809
 30
0.0
 11
73.62832127897082
 21
-19.15329874268809
 31
0.0
  0
ARC
  5
DE5D
330
17
100
AcDbEntity
  8
1ﾀﾞｸﾄｶﾊﾞｰ
100
AcDbCircle
 10
73.62832127897082
 20
-20.15329874268809
 30
0.0
 40
1.0
100
AcDbArc
 50
90.0
 51
124.6657982811154
  0
ARC
  5
DE5E
330
17
100
AcDbEntity
  8
1ﾀﾞｸﾄｶﾊﾞｰ
100
AcDbCircle
 10
71.78723425568114
 20
-20.818587800155
 30
0.0
 40
0.5
100
AcDbArc
 50
124.6657982811154
 51
178.9999955631284
  0
LINE
  5
DE5F
330
17
100
AcDbEntity
  8
1ﾀﾞｸﾄｶﾊﾞｰ
  6
CENTER
100
AcDbLine
 10
113.6416747968278
 20
-29.15329851917068
 30
0.0
 11
113.6416747968278
 21
-27.15329851917068
 31
0.0
  0
LINE
  5
DE60
330
17
100
AcDbEntity
  8
1ﾀﾞｸﾄｶﾊﾞｰ
 48
2.0
100
AcDbLine
 10
71.5028399269554
 20
-20.40734594213427
 30
0.0
 11
73.05953262151979
 21
-19.33081502664572
 31
0.0
  0
LINE
  5
DE61
330
17
100
AcDbEntity
  8
1ﾀﾞｸﾄｶﾊﾞｰ
  6
CENTER
100
AcDbLine
 10
117.1416747968278
 20
-29.15329851917068
 30
0.0
 11
117.1416747968278
 21
-25.3532985191705
 31
0.0
  0
LINE
  5
DE62
330
17
100
AcDbEntity
  8
1ﾀﾞｸﾄｶﾊﾞｰ
  6
CENTER
100
AcDbLine
 10
116.6416747968278
 20
-28.95329851917086
 30
0.0
 11
116.6416747968278
 21
-28.95329851917086
 31
0.0
  0
ARC
  5
DE63
330
17
100
AcDbEntity
  8
1ﾀﾞｸﾄｶﾊﾞｰ
100
AcDbCircle
 10
116.8416747968276
 20
-28.95329851917086
 30
0.0
 40
0.2
100
AcDbArc
 50
89.99999999997395
 51
180.0
  0
LINE
  5
DE64
330
17
100
AcDbEntity
  8
1ﾀﾞｸﾄｶﾊﾞｰ
  6
CENTER
100
AcDbLine
 10
119.1416747968278
 20
-26.65329851917068
 30
0.0
 11
119.1416747968278
 21
-25.3532985191705
 31
0.0
  0
LINE
  5
DE65
330
17
100
AcDbEntity
  8
1ﾀﾞｸﾄｶﾊﾞｰ
100
AcDbLine
 10
71.28731040877847
 20
-20.80986155822348
 30
0.0
 11
71.14167452860693
 21
-29.15329851917068
 31
0.0
  0
LINE
  5
DE66
330
17
100
AcDbEntity
  8
1ﾀﾞｸﾄｶﾊﾞｰ
100
AcDbLine
 10
73.25528554015545
 20
-22.64457227723915
 30
0.0
 11
73.14167479682783
 21
-29.15329851917068
 31
0.0
  0
ARC
  5
DE67
330
17
100
AcDbEntity
  8
1ﾀﾞｸﾄｶﾊﾞｰ
100
AcDbCircle
 10
73.75520938705813
 20
-22.65329851917067
 30
0.0
 40
0.5
100
AcDbArc
 50
90.0
 51
178.9999955631284
  0
ARC
  5
DE68
330
17
100
AcDbEntity
  8
1ﾀﾞｸﾄｶﾊﾞｰ
100
AcDbCircle
 10
76.14175004769186
 20
-20.15329874268809
 30
0.0
 40
1.0
100
AcDbArc
 50
0.0
 51
90.0
  0
LINE
  5
DE69
330
17
100
AcDbEntity
  8
1ﾀﾞｸﾄｶﾊﾞｰ
100
AcDbLine
 10
77.14167452860692
 20
-27.15329851917068
 30
0.0
 11
77.14167452860692
 21
-20.15329874268809
 31
0.0
  0
LINE
  5
DE6A
330
17
100
AcDbEntity
  8
1ﾀﾞｸﾄｶﾊﾞｰ
100
AcDbLine
 10
116.8416747968276
 20
-29.15329851917068
 30
0.0
 11
159.6416750650487
 21
-29.15329851917068
 31
0.0
  0
ARC
  5
DE6B
330
17
100
AcDbEntity
  8
1ﾀﾞｸﾄｶﾊﾞｰ
100
AcDbCircle
 10
116.8416747968276
 20
-28.95329851917086
 30
0.0
 40
0.2
100
AcDbArc
 50
180.0
 51
270.0
  0
LINE
  5
DE6C
330
17
100
AcDbEntity
  8
1ﾀﾞｸﾄｶﾊﾞｰ
100
AcDbLine
 10
116.8416747968276
 20
-28.75329851917058
 30
0.0
 11
117.1416747968278
 21
-28.75329851917104
 31
0.0
  0
LINE
  5
DE6D
330
17
100
AcDbEntity
  8
1ﾀﾞｸﾄｶﾊﾞｰ
100
AcDbLine
 10
115.3916747968278
 20
-24.85329851917049
 30
0.0
 11
116.6416747968278
 21
-24.85329851917049
 31
0.0
  0
ARC
  5
DE6E
330
17
100
AcDbEntity
  8
1ﾀﾞｸﾄｶﾊﾞｰ
100
AcDbCircle
 10
116.6416747968278
 20
-25.3532985191705
 30
0.0
 40
0.5
100
AcDbArc
 50
0.0
 51
90.0
  0
ARC
  5
DE6F
330
17
100
AcDbEntity
  8
1ﾀﾞｸﾄｶﾊﾞｰ
100
AcDbCircle
 10
116.6416747968278
 20
-25.3532985191705
 30
0.0
 40
2.5
100
AcDbArc
 50
0.0
 51
90.0
  0
LINE
  5
DE70
330
17
100
AcDbEntity
  8
1ﾀﾞｸﾄｶﾊﾞｰ
100
AcDbLine
 10
114.1564766816291
 20
-22.85329851917049
 30
0.0
 11
116.6416747968278
 21
-22.85329851917049
 31
0.0
  0
LINE
  5
DE71
330
17
100
AcDbEntity
  8
1ﾀﾞｸﾄｶﾊﾞｰ
100
AcDbLine
 10
156.1416747968278
 20
-22.15329851917068
 30
0.0
 11
157.0281402065975
 21
-22.15329851917068
 31
0.0
  0
LINE
  5
DE72
330
17
100
AcDbEntity
  8
1ﾀﾞｸﾄｶﾊﾞｰ
100
AcDbLine
 10
115.3916747968278
 20
-27.15329851917068
 30
0.0
 11
117.1416747968278
 21
-27.15329851917068
 31
0.0
  0
LINE
  5
DE73
330
17
100
AcDbEntity
  8
1ﾀﾞｸﾄｶﾊﾞｰ
100
AcDbLine
 10
119.6416747968278
 20
-27.15329851917068
 30
0.0
 11
154.6416747968278
 21
-27.15329851917068
 31
0.0
  0
ARC
  5
DE74
330
17
100
AcDbEntity
  8
1ﾀﾞｸﾄｶﾊﾞｰ
100
AcDbCircle
 10
119.6416747968278
 20
-26.65329851917068
 30
0.0
 40
0.5
100
AcDbArc
 50
180.0
 51
270.0
  0
LINE
  5
DE75
330
17
100
AcDbEntity
  8
1ﾀﾞｸﾄｶﾊﾞｰ
100
AcDbLine
 10
154.5024448694648
 20
-19.15329874268809
 30
0.0
 11
157.1550283146844
 21
-19.15329874268809
 31
0.0
  0
ARC
  5
DE76
330
17
100
AcDbEntity
  8
1ﾀﾞｸﾄｶﾊﾞｰ
100
AcDbCircle
 10
157.1550283146844
 20
-20.15329874268809
 30
0.0
 40
1.0
100
AcDbArc
 50
55.33420171888462
 51
90.0
  0
ARC
  5
DE77
330
17
100
AcDbEntity
  8
1ﾀﾞｸﾄｶﾊﾞｰ
100
AcDbCircle
 10
158.9961153379745
 20
-20.818587800155
 30
0.0
 40
0.5
100
AcDbArc
 50
1.000004436871642
 51
55.33420171888462
  0
LINE
  5
DE78
330
17
100
AcDbEntity
  8
1ﾀﾞｸﾄｶﾊﾞｰ
 48
2.0
100
AcDbLine
 10
159.2805096666998
 20
-20.40734594213427
 30
0.0
 11
157.7238169721358
 21
-19.33081502664572
 31
0.0
  0
LINE
  5
DE79
330
17
100
AcDbEntity
  8
1ﾀﾞｸﾄｶﾊﾞｰ
100
AcDbLine
 10
159.4960391848767
 20
-20.80986155822348
 30
0.0
 11
159.6416750650487
 21
-29.15329851917068
 31
0.0
  0
LINE
  5
DE7A
330
17
100
AcDbEntity
  8
1ﾀﾞｸﾄｶﾊﾞｰ
100
AcDbLine
 10
157.5280640535002
 20
-22.64457227723915
 30
0.0
 11
157.6416747968278
 21
-29.15329851917068
 31
0.0
  0
ARC
  5
DE7B
330
17
100
AcDbEntity
  8
1ﾀﾞｸﾄｶﾊﾞｰ
100
AcDbCircle
 10
157.0281402065975
 20
-22.65329851917067
 30
0.0
 40
0.5
100
AcDbArc
 50
1.000004436871642
 51
90.0
  0
ARC
  5
DE7C
330
17
100
AcDbEntity
  8
1ﾀﾞｸﾄｶﾊﾞｰ
100
AcDbCircle
 10
154.6415995459638
 20
-20.15329874268809
 30
0.0
 40
1.0
100
AcDbArc
 50
90.0
 51
180.0
  0
LINE
  5
DE7D
330
17
100
AcDbEntity
  8
1ﾀﾞｸﾄｶﾊﾞｰ
100
AcDbLine
 10
153.6416750650487
 20
-27.15329851917068
 30
0.0
 11
153.6416750650487
 21
-20.15329874268809
 31
0.0
  0
ARC
  5
DE7E
330
17
100
AcDbEntity
  8
1ﾀﾞｸﾄｶﾊﾞｰ
100
AcDbCircle
 10
76.14167479682783
 20
-26.15329851917068
 30
0.0
 40
1.0
100
AcDbArc
 50
180.0
 51
270.0
  0
LINE
  5
DE7F
330
17
100
AcDbEntity
  8
1ﾀﾞｸﾄｶﾊﾞｰ
 48
2.0
100
AcDbLine
 10
75.14167479682782
 20
-26.15329851917068
 30
0.0
 11
75.14167479682782
 21
-22.65329851917067
 31
0.0
  0
ARC
  5
DE80
330
17
100
AcDbEntity
  8
1ﾀﾞｸﾄｶﾊﾞｰ
 48
2.0
100
AcDbCircle
 10
74.64167479682783
 20
-22.65329851917067
 30
0.0
 40
0.5
100
AcDbArc
 50
0.0
 51
90.0
  0
ARC
  5
DE81
330
17
100
AcDbEntity
  8
1ﾀﾞｸﾄｶﾊﾞｰ
100
AcDbCircle
 10
154.6416747968278
 20
-26.15329851917068
 30
0.0
 40
1.0
100
AcDbArc
 50
270.0
 51
0.0
  0
LINE
  5
DE82
330
17
100
AcDbEntity
  8
1ﾀﾞｸﾄｶﾊﾞｰ
 48
2.0
100
AcDbLine
 10
155.6416747968278
 20
-26.15329851917068
 30
0.0
 11
155.6416747968278
 21
-22.65329851917067
 31
0.0
  0
ARC
  5
DE83
330
17
100
AcDbEntity
  8
1ﾀﾞｸﾄｶﾊﾞｰ
 48
2.0
100
AcDbCircle
 10
156.1416747968278
 20
-22.65329851917067
 30
0.0
 40
0.5
100
AcDbArc
 50
90.0
 51
180.0
  0
LINE
  5
DE84
330
17
100
AcDbEntity
  8
1ﾀﾞｸﾄｶﾊﾞｰ
  6
CENTER
100
AcDbLine
 10
113.6416747968278
 20
-29.15329851917068
 30
0.0
 11
113.6416747968278
 21
-25.3532985191705
 31
0.0
  0
LINE
  5
DE85
330
17
100
AcDbEntity
  8
1ﾀﾞｸﾄｶﾊﾞｰ
  6
CENTER
100
AcDbLine
 10
114.1416747968278
 20
-28.9532985191704
 30
0.0
 11
114.1416747968278
 21
-28.95329851917086
 31
0.0
  0
ARC
  5
DE86
330
17
100
AcDbEntity
  8
1ﾀﾞｸﾄｶﾊﾞｰ
100
AcDbCircle
 10
113.9416747968275
 20
-28.95329851917086
 30
0.0
 40
0.2
100
AcDbArc
 50
0.0
 51
90.0
  0
LINE
  5
DE87
330
17
100
AcDbEntity
  8
1ﾀﾞｸﾄｶﾊﾞｰ
  6
CENTER
100
AcDbLine
 10
111.6416747968278
 20
-26.65329851917068
 30
0.0
 11
111.6416747968278
 21
-25.3532985191705
 31
0.0
  0
LINE
  5
DE88
330
17
100
AcDbEntity
  8
1ﾀﾞｸﾄｶﾊﾞｰ
100
AcDbLine
 10
115.3916747968278
 20
-24.85329851917049
 30
0.0
 11
114.1416747968278
 21
-24.85329851917049
 31
0.0
  0
ARC
  5
DE89
330
17
100
AcDbEntity
  8
1ﾀﾞｸﾄｶﾊﾞｰ
100
AcDbCircle
 10
114.1416747968278
 20
-25.3532985191705
 30
0.0
 40
0.5
100
AcDbArc
 50
90.0
 51
180.0
  0
ARC
  5
DE8A
330
17
100
AcDbEntity
  8
1ﾀﾞｸﾄｶﾊﾞｰ
100
AcDbCircle
 10
114.1416747968278
 20
-25.3532985191705
 30
0.0
 40
2.5
100
AcDbArc
 50
90.0
 51
180.0
  0
LINE
  5
DE8B
330
17
100
AcDbEntity
  8
1外形線
 48
2.0
100
AcDbLine
 10
116.8416747968276
 20
-29.15329851917068
 30
0.0
 11
113.9416747968275
 21
-29.15329851917068
 31
0.0
  0
ELLIPSE
  5
DE8C
330
17
100
AcDbEntity
  8
1ﾀﾞｸﾄｶﾊﾞｰ
100
AcDbEllipse
 10
70.75708053476126
 20
50.66765974203645
 30
0.0
 11
0.8001218624350931
 21
0.0000000001105628
 31
0.0
210
0.0
220
0.0
230
-1.0
 40
0.9998476951563755
 41
1.570796326933057
 42
3.041939080947124
  0
LINE
  5
DE8D
330
17
100
AcDbEntity
  8
1ﾀﾞｸﾄｶﾊﾞｰ
100
AcDbLine
 10
69.03296863127877
 20
89.36765983703162
 30
0.0
 11
69.03296863127877
 21
61.06449341217603
 31
0.0
  0
ARC
  5
DE8E
330
17
100
AcDbEntity
  8
1ﾀﾞｸﾄｶﾊﾞｰ
100
AcDbCircle
 10
71.53296863127877
 20
89.36765983703162
 30
0.0
 40
2.5
100
AcDbArc
 50
90.0
 51
180.0
  0
ELLIPSE
  5
DE8F
330
17
100
AcDbEntity
  8
1ﾀﾞｸﾄｶﾊﾞｰ
100
AcDbEllipse
 10
93.03662510037872
 20
61.06449324233972
 30
0.0
 11
-24.00365587305379
 21
0.0000000026053652
 31
0.0
210
0.0
220
0.0
230
-1.0
 40
0.9998476951567537
 41
-0.0996535728894572
 42
-0.0000000001085425
  0
LINE
  5
DE90
330
17
100
AcDbEntity
  8
1ﾀﾞｸﾄｶﾊﾞｰ
100
AcDbLine
 10
69.15205871154
 20
58.67676487008657
 30
0.0
 11
69.96092726875474
 21
50.58806812206831
 31
0.0
  0
LINE
  5
DE91
330
17
100
AcDbEntity
  8
1ﾀﾞｸﾄｶﾊﾞｰ
100
AcDbLine
 10
115.4822643981523
 20
91.86765983703116
 30
0.0
 11
71.53296863127877
 21
91.86765983703162
 31
0.0
  0
LINE
  5
DE92
330
17
100
AcDbEntity
  8
1ﾀﾞｸﾄｶﾊﾞｰ
100
AcDbLine
 10
70.75612855450515
 20
49.86766030828085
 30
0.0
 11
115.4822643981523
 21
49.86766030828085
 31
0.0
  0
LINE
  5
DE93
330
17
100
AcDbEntity
  8
1ﾀﾞｸﾄｶﾊﾞｰ
100
AcDbLine
 10
115.5749327114525
 20
91.86765983703162
 30
0.0
 11
115.3916747968386
 21
91.86765983703162
 31
0.0
  0
ELLIPSE
  5
DE94
330
17
100
AcDbEntity
  8
1ﾀﾞｸﾄｶﾊﾞｰ
100
AcDbEllipse
 10
160.2095269711893
 20
50.66765974203645
 30
0.0
 11
-0.8001218624350931
 21
0.0000000001105628
 31
0.0
210
0.0
220
0.0
230
1.0
 40
0.9998476951563755
 41
1.570796326933057
 42
3.041939080947124
  0
LINE
  5
DE95
330
17
100
AcDbEntity
  8
1ﾀﾞｸﾄｶﾊﾞｰ
100
AcDbLine
 10
161.9336388746723
 20
89.36765983703162
 30
0.0
 11
161.9336388746723
 21
61.06449341217603
 31
0.0
  0
ARC
  5
DE96
330
17
100
AcDbEntity
  8
1ﾀﾞｸﾄｶﾊﾞｰ
100
AcDbCircle
 10
159.4336388746723
 20
89.36765983703162
 30
0.0
 40
2.5
100
AcDbArc
 50
0.0
 51
90.0
  0
ELLIPSE
  5
DE97
330
17
100
AcDbEntity
  8
1ﾀﾞｸﾄｶﾊﾞｰ
100
AcDbEllipse
 10
137.9299824055719
 20
61.06449324233972
 30
0.0
 11
24.00365587305379
 21
0.0000000026053652
 31
0.0
210
0.0
220
0.0
230
1.0
 40
0.9998476951567537
 41
-0.0996535728894572
 42
-0.0000000001085425
  0
LINE
  5
DE98
330
17
100
AcDbEntity
  8
1ﾀﾞｸﾄｶﾊﾞｰ
100
AcDbLine
 10
161.814548794411
 20
58.67676487008657
 30
0.0
 11
161.0056802371963
 21
50.58806812206831
 31
0.0
  0
LINE
  5
DE99
330
17
100
AcDbEntity
  8
1ﾀﾞｸﾄｶﾊﾞｰ
100
AcDbLine
 10
115.4822643981523
 20
91.86765983703116
 30
0.0
 11
159.4336388746723
 21
91.86765983703162
 31
0.0
  0
LINE
  5
DE9A
330
17
100
AcDbEntity
  8
1ﾀﾞｸﾄｶﾊﾞｰ
100
AcDbLine
 10
160.210478951445
 20
49.86766030828085
 30
0.0
 11
115.4822643981523
 21
49.86766030828085
 31
0.0
  0
LINE
  5
DE9E
330
17
100
AcDbEntity
  8
1ﾀﾞｸﾄｶﾊﾞｰ
100
AcDbLine
 10
159.3417041168943
 20
-101.048554296156
 30
0.0
 11
115.2531017980211
 21
-101.0485542961564
 31
0.0
  0
ENDSEC
  0
SECTION
  2
OBJECTS
  0
DICTIONARY
  5
C
330
0
100
AcDbDictionary
281
     1
  3
ACAD_CIP_PREVIOUS_PRODUCT_INFO
350
D8C7
  3
ACAD_COLOR
350
D8A5
  3
ACAD_DETAILVIEWSTYLE
350
D8BF
  3
ACAD_GROUP
350
D
  3
ACAD_LAYOUT
350
D8A6
  3
ACAD_MATERIAL
350
D873
  3
ACAD_MLEADERSTYLE
350
D8BB
  3
ACAD_MLINESTYLE
350
1A
  3
ACAD_PLOTSETTINGS
350
D8C1
  3
ACAD_PLOTSTYLENAME
350
D871
  3
ACAD_SCALELIST
350
D8A9
  3
ACAD_SECTIONVIEWSTYLE
350
D8BD
  3
ACAD_TABLESTYLE
350
D8A7
  3
ACAD_VISUALSTYLE
350
D88C
  3
ACDB_RECOMPOSE_DATA
350
DFBB
  3
ACDBVARIABLEDICTIONARY
350
51
  0
DICTIONARY
  5
D953
330
2
100
AcDbDictionary
280
     1
281
     1
  3
ACAD_LAYERSTATES
360
D954
  0
DICTIONARY
  5
D8C8
330
E
100
AcDbDictionary
280
     1
281
     1
  3
ADSK_XREC_LAYER_RECONCILED
360
D8C9
  0
DICTIONARY
  5
D8CA
330
40
100
AcDbDictionary
280
     1
281
     1
  3
ADSK_XREC_LAYER_RECONCILED
360
D8CB
  0
DICTIONARY
  5
D94B
330
D94A
100
AcDbDictionary
280
     1
281
     1
  0
DICTIONARY
  5
D94E
330
D94D
100
AcDbDictionary
280
     1
281
     1
  0
DICTIONARY
  5
DBF9
330
DBF8
100
AcDbDictionary
280
     1
281
     1
  0
DICTIONARY
  5
DB5F
330
DB5E
100
AcDbDictionary
280
     1
281
     1
  3
ACAD_SORTENTS
360
DB60
  0
XRECORD
  5
D8C7
102
{ACAD_REACTORS
330
C
102
}
330
C
100
AcDbXrecord
280
     1
300
ACDLT
300
2021
300

  0
DICTIONARY
  5
D8A5
102
{ACAD_REACTORS
330
C
102
}
330
C
100
AcDbDictionary
281
     1
  0
DICTIONARY
  5
D8BF
102
{ACAD_REACTORS
330
C
102
}
330
C
100
AcDbDictionary
281
     1
  3
Imperial24
350
D956
  3
Metric50
350
D8C0
  0
DICTIONARY
  5
D
102
{ACAD_REACTORS
330
C
102
}
330
C
100
AcDbDictionary
281
     1
  0
DICTIONARY
  5
D8A6
102
{ACAD_REACTORS
330
C
102
}
330
C
100
AcDbDictionary
281
     1
  3
Model
350
D8C2
  3
レイアウト1
350
D8C3
  0
DICTIONARY
  5
D873
102
{ACAD_REACTORS
330
C
102
}
330
C
100
AcDbDictionary
281
     1
  3
ByBlock
350
D87C
  3
ByLayer
350
D874
  3
Global
350
D884
  0
DICTIONARY
  5
D8BB
102
{ACAD_REACTORS
330
C
102
}
330
C
100
AcDbDictionary
281
     1
  3
Standard
350
D8BC
  0
DICTIONARY
  5
1A
102
{ACAD_REACTORS
330
C
102
}
330
C
100
AcDbDictionary
281
     1
  3
STANDARD
350
1B
  0
DICTIONARY
  5
D8C1
102
{ACAD_REACTORS
330
C
102
}
330
C
100
AcDbDictionary
281
     1
  0
ACDBDICTIONARYWDFLT
  5
D871
102
{ACAD_REACTORS
330
C
102
}
330
C
100
AcDbDictionary
281
     1
  3
Normal
350
D872
100
AcDbDictionaryWithDefault
340
D872
  0
DICTIONARY
  5
D8A9
102
{ACAD_REACTORS
330
C
102
}
330
C
100
AcDbDictionary
281
     1
  3
A0
350
D8AA
  3
A1
350
D8AB
  3
A2
350
D8AC
  3
A3
350
D8AD
  3
A4
350
D8AE
  3
A5
350
D8AF
  3
A6
350
D8B0
  3
A7
350
D8B1
  3
A8
350
D8B2
  3
A9
350
D8B3
  3
B0
350
D8B4
  3
B1
350
D8B5
  3
B2
350
D8B6
  3
B3
350
D8B7
  3
B4
350
D8B8
  3
B5
350
D8B9
  3
B6
350
D8BA
  0
DICTIONARY
  5
D8BD
102
{ACAD_REACTORS
330
C
102
}
330
C
100
AcDbDictionary
281
     1
  3
Imperial24
350
D955
  3
Metric50
350
D8BE
  0
DICTIONARY
  5
D8A7
102
{ACAD_REACTORS
330
C
102
}
330
C
100
AcDbDictionary
281
     1
  3
Standard
350
D8A8
  0
DICTIONARY
  5
D88C
102
{ACAD_REACTORS
330
C
102
}
330
C
100
AcDbDictionary
281
     1
  3
2dWireframe
350
D892
  3
Basic
350
D891
  3
Brighten
350
D898
  3
ColorChange
350
D89C
  3
Conceptual
350
D895
  3
Dim
350
D897
  3
EdgeColorOff
350
D8A4
  3
Facepattern
350
D89B
  3
Flat
350
D88D
  3
FlatWithEdges
350
D88E
  3
Gouraud
350
D88F
  3
GouraudWithEdges
350
D890
  3
Hidden
350
D894
  3
JitterOff
350
D8A2
  3
Linepattern
350
D89A
  3
OverhangOff
350
D8A3
  3
Realistic
350
D896
  3
Shaded
350
D8A1
  3
Shaded with edges
350
D8A0
  3
Shades of Gray
350
D89D
  3
Sketchy
350
D89E
  3
Thicken
350
D899
  3
Wireframe
350
D893
  3
X-Ray
350
D89F
  0
XRECORD
  5
DFBB
102
{ACAD_REACTORS
330
C
102
}
330
C
100
AcDbXrecord
280
     1
 90
        1
330
D8A8
  0
DICTIONARY
  5
51
102
{ACAD_REACTORS
330
C
102
}
330
C
100
AcDbDictionary
281
     1
  3
CANNOSCALE
350
DB54
  3
CMLEADERSTYLE
350
DB50
  3
CTABLESTYLE
350
DB4F
  3
CVIEWDETAILSTYLE
350
DB51
  3
CVIEWSECTIONSTYLE
350
DB52
  3
DIMADEC
350
52
  3
LAYEREVAL
350
DB56
  3
LAYERNOTIFY
350
DB57
  3
LIGHTINGUNITS
350
DB55
  3
MSLTSCALE
350
DB53
  3
SORTENTS
350
D1FE
  0
DICTIONARY
  5
D954
102
{ACAD_REACTORS
330
D953
102
}
330
D953
100
AcDbDictionary
281
     1
  0
XRECORD
  5
D8C9
102
{ACAD_REACTORS
330
D8C8
102
}
330
D8C8
100
AcDbXrecord
280
     1
290
     1
  0
XRECORD
  5
D8CB
102
{ACAD_REACTORS
330
D8CA
102
}
330
D8CA
100
AcDbXrecord
280
     1
290
     1
  0
SORTENTSTABLE
  5
DB60
102
{ACAD_REACTORS
330
DB5F
102
}
330
DB5F
100
AcDbSortentsTable
330
DB5E
  0
ACDBDETAILVIEWSTYLE
  5
D956
102
{ACAD_REACTORS
330
D8BF
102
}
330
D8BF
100
AcDbModelDocViewStyle
 70
     0
  3
Imperial24
290
     0
300
Imperial24
 90
        0
100
AcDbDetailViewStyle
 70
     0
 71
     0
 90
        3
 71
     1
340
F
 62
   256
 40
0.24
340
0
 62
   256
 40
0.24
300

 40
0.36
280
     3
 71
     2
340
13
 90
       25
 62
   256
 71
     3
340
F
 62
   256
 40
0.24
 90
        1
 40
0.75
 90
        1
300
%<\AcVar ViewType \f "%tc1">% %<\AcVar ViewDetailId>%\PSCALE %<\AcVar ViewScale \f "%sn">%
 71
     4
340
13
 90
       25
 62
   256
340
13
 90
       25
 62
   256
280
     0
  0
ACDBDETAILVIEWSTYLE
  5
D8C0
102
{ACAD_REACTORS
330
D8BF
102
}
330
D8BF
100
AcDbModelDocViewStyle
 70
     0
  3
Metric50
290
     1
300
Metric50
 90
        0
100
AcDbDetailViewStyle
 70
     0
 71
     0
 90
        3
 71
     1
340
F
 62
   256
 40
5.0
340
0
 62
   256
 40
5.0
300

 40
0.0
280
     1
 71
     2
340
13
 90
       25
 62
   256
 71
     3
340
F
 62
   256
 40
5.0
 90
        0
 40
15.0
 90
        1
300
%<\AcVar ViewDetailId>% (%<\AcVar ViewScale \f "%sn">%)
 71
     4
340
13
 90
       25
 62
   256
340
13
 90
       25
 62
   256
280
     0
  0
LAYOUT
  5
D8C2
102
{ACAD_REACTORS
330
D8A6
102
}
330
D8A6
100
AcDbPlotSettings
  1

  2
OneNote for Windows 10
  4

  6

 40
0.0
 41
0.0
 42
0.0
 43
0.0
 44
0.0
 45
0.0
 46
0.0
 47
0.0
 48
0.0
 49
0.0
140
0.0
141
0.0
142
1.0
143
1.0
 70
  1712
 72
     0
 73
     0
 74
     0
  7

 75
     0
147
1.0
 76
     0
 77
     2
 78
   300
148
0.0
149
0.0
100
AcDbLayout
  1
Model
 70
     1
 71
     0
 10
0.0
 20
0.0
 11
12.0
 21
9.0
 12
0.0
 22
0.0
 32
0.0
 14
0.0
 24
0.0
 34
0.0
 15
0.0
 25
0.0
 35
0.0
146
0.0
 13
0.0
 23
0.0
 33
0.0
 16
1.0
 26
0.0
 36
0.0
 17
0.0
 27
1.0
 37
0.0
 76
     0
330
17
331
D86F
  0
LAYOUT
  5
D8C3
102
{ACAD_REACTORS
330
D8A6
102
}
330
D8A6
100
AcDbPlotSettings
  1

  2
OneNote for Windows 10
  4

  6

 40
0.0
 41
0.0
 42
0.0
 43
0.0
 44
0.0
 45
0.0
 46
0.0
 47
0.0
 48
0.0
 49
0.0
140
0.0
141
0.0
142
1.0
143
1.0
 70
   688
 72
     0
 73
     0
 74
     5
  7

 75
    16
147
1.0
 76
     0
 77
     2
 78
   300
148
0.0
149
0.0
100
AcDbLayout
  1
レイアウト1
 70
     0
 71
     1
 10
0.0
 20
0.0
 11
12.0
 21
9.0
 12
0.0
 22
0.0
 32
0.0
 14
1.000000000000000E+20
 24
1.000000000000000E+20
 34
1.000000000000000E+20
 15
-1.000000000000000E+20
 25
-1.000000000000000E+20
 35
-1.000000000000000E+20
146
0.0
 13
0.0
 23
0.0
 33
0.0
 16
1.0
 26
0.0
 36
0.0
 17
0.0
 27
1.0
 37
0.0
 76
     0
330
14
  0
MATERIAL
  5
D87C
102
{ACAD_XDICTIONARY
360
D87D
102
}
102
{ACAD_REACTORS
330
D873
102
}
330
D873
100
AcDbMaterial
  1
ByBlock
 72
     0
 43
0.0208333333333333
 43
0.0
 43
0.0
 43
0.0
 43
0.0
 43
0.0208333333333333
 43
0.0
 43
0.0
 43
0.0
 43
0.0
 43
1.0
 43
0.0
 43
0.0
 43
0.0
 43
0.0
 43
1.0
 77
     0
 47
0.0208333333333333
 47
0.0
 47
0.0
 47
0.0
 47
0.0
 47
0.0208333333333333
 47
0.0
 47
0.0
 47
0.0
 47
0.0
 47
1.0
 47
0.0
 47
0.0
 47
0.0
 47
0.0
 47
1.0
171
     0
 49
0.0208333333333333
 49
0.0
 49
0.0
 49
0.0
 49
0.0
 49
0.0208333333333333
 49
0.0
 49
0.0
 49
0.0
 49
0.0
 49
1.0
 49
0.0
 49
0.0
 49
0.0
 49
0.0
 49
1.0
175
     0
142
0.0208333333333333
142
0.0
142
0.0
142
0.0
142
0.0
142
0.0208333333333333
142
0.0
142
0.0
142
0.0
142
0.0
142
1.0
142
0.0
142
0.0
142
0.0
142
0.0
142
1.0
179
     0
144
0.0208333333333333
144
0.0
144
0.0
144
0.0
144
0.0
144
0.0208333333333333
144
0.0
144
0.0
144
0.0
144
0.0
144
1.0
144
0.0
144
0.0
144
0.0
144
0.0
144
1.0
147
0.0208333333333333
147
0.0
147
0.0
147
0.0
147
0.0
147
0.0208333333333333
147
0.0
147
0.0
147
0.0
147
0.0
147
1.0
147
0.0
147
0.0
147
0.0
147
0.0
147
1.0
  0
MATERIAL
  5
D874
102
{ACAD_XDICTIONARY
360
D875
102
}
102
{ACAD_REACTORS
330
D873
102
}
330
D873
100
AcDbMaterial
  1
ByLayer
 72
     0
 43
0.0208333333333333
 43
0.0
 43
0.0
 43
0.0
 43
0.0
 43
0.0208333333333333
 43
0.0
 43
0.0
 43
0.0
 43
0.0
 43
1.0
 43
0.0
 43
0.0
 43
0.0
 43
0.0
 43
1.0
 77
     0
 47
0.0208333333333333
 47
0.0
 47
0.0
 47
0.0
 47
0.0
 47
0.0208333333333333
 47
0.0
 47
0.0
 47
0.0
 47
0.0
 47
1.0
 47
0.0
 47
0.0
 47
0.0
 47
0.0
 47
1.0
171
     0
 49
0.0208333333333333
 49
0.0
 49
0.0
 49
0.0
 49
0.0
 49
0.0208333333333333
 49
0.0
 49
0.0
 49
0.0
 49
0.0
 49
1.0
 49
0.0
 49
0.0
 49
0.0
 49
0.0
 49
1.0
175
     0
142
0.0208333333333333
142
0.0
142
0.0
142
0.0
142
0.0
142
0.0208333333333333
142
0.0
142
0.0
142
0.0
142
0.0
142
1.0
142
0.0
142
0.0
142
0.0
142
0.0
142
1.0
179
     0
144
0.0208333333333333
144
0.0
144
0.0
144
0.0
144
0.0
144
0.0208333333333333
144
0.0
144
0.0
144
0.0
144
0.0
144
1.0
144
0.0
144
0.0
144
0.0
144
0.0
144
1.0
147
0.0208333333333333
147
0.0
147
0.0
147
0.0
147
0.0
147
0.0208333333333333
147
0.0
147
0.0
147
0.0
147
0.0
147
1.0
147
0.0
147
0.0
147
0.0
147
0.0
147
1.0
  0
MATERIAL
  5
D884
102
{ACAD_XDICTIONARY
360
D885
102
}
102
{ACAD_REACTORS
330
D873
102
}
330
D873
100
AcDbMaterial
  1
Global
 72
     0
 43
0.0208333333333333
 43
0.0
 43
0.0
 43
0.0
 43
0.0
 43
0.0208333333333333
 43
0.0
 43
0.0
 43
0.0
 43
0.0
 43
1.0
 43
0.0
 43
0.0
 43
0.0
 43
0.0
 43
1.0
 77
     0
 47
0.0208333333333333
 47
0.0
 47
0.0
 47
0.0
 47
0.0
 47
0.0208333333333333
 47
0.0
 47
0.0
 47
0.0
 47
0.0
 47
1.0
 47
0.0
 47
0.0
 47
0.0
 47
0.0
 47
1.0
171
     0
 49
0.0208333333333333
 49
0.0
 49
0.0
 49
0.0
 49
0.0
 49
0.0208333333333333
 49
0.0
 49
0.0
 49
0.0
 49
0.0
 49
1.0
 49
0.0
 49
0.0
 49
0.0
 49
0.0
 49
1.0
175
     0
142
0.0208333333333333
142
0.0
142
0.0
142
0.0
142
0.0
142
0.0208333333333333
142
0.0
142
0.0
142
0.0
142
0.0
142
1.0
142
0.0
142
0.0
142
0.0
142
0.0
142
1.0
179
     0
144
0.0208333333333333
144
0.0
144
0.0
144
0.0
144
0.0
144
0.0208333333333333
144
0.0
144
0.0
144
0.0
144
0.0
144
1.0
144
0.0
144
0.0
144
0.0
144
0.0
144
1.0
147
0.0208333333333333
147
0.0
147
0.0
147
0.0
147
0.0
147
0.0208333333333333
147
0.0
147
0.0
147
0.0
147
0.0
147
1.0
147
0.0
147
0.0
147
0.0
147
0.0
147
1.0
  0
MLEADERSTYLE
  5
D8BC
102
{ACAD_REACTORS
330
D8BB
102
}
330
D8BB
100
AcDbMLeaderStyle
179
     2
170
     2
171
     1
172
     0
 90
        2
 40
0.0
 41
0.0
173
     1
 91
-1056964608
340
11
 92
       -2
290
     1
 42
2.0
291
     1
 43
0.36
  3
Standard
 44
4.0
300

342
F
174
     1
178
     6
175
     1
176
     0
 93
-1056964608
 45
4.0
292
     0
297
     0
 46
4.0
 94
-1056964608
 47
1.0
 49
1.0
140
1.0
293
     1
141
0.0
294
     1
177
     0
142
1.0
295
     1
296
     0
143
0.125
271
     0
272
     9
273
     9
298
     1
  0
MLINESTYLE
  5
1B
102
{ACAD_REACTORS
330
1A
102
}
330
1A
100
AcDbMlineStyle
  2
STANDARD
 70
     0
  3

 62
   256
 51
90.0
 52
90.0
 71
     2
 49
0.5
 62
   256
  6
BYLAYER
 49
-0.5
 62
   256
  6
BYLAYER
  0
ACDBPLACEHOLDER
  5
D872
102
{ACAD_REACTORS
330
D871
102
}
330
D871
  0
SCALE
  5
D8AA
102
{ACAD_REACTORS
330
D8A9
102
}
330
D8A9
100
AcDbScale
 70
     0
300
1:1
140
1.0
141
1.0
290
     1
  0
SCALE
  5
D8AB
102
{ACAD_REACTORS
330
D8A9
102
}
330
D8A9
100
AcDbScale
 70
     0
300
1:2
140
1.0
141
2.0
290
     0
  0
SCALE
  5
D8AC
102
{ACAD_REACTORS
330
D8A9
102
}
330
D8A9
100
AcDbScale
 70
     0
300
1:4
140
1.0
141
4.0
290
     0
  0
SCALE
  5
D8AD
102
{ACAD_REACTORS
330
D8A9
102
}
330
D8A9
100
AcDbScale
 70
     0
300
1:5
140
1.0
141
5.0
290
     0
  0
SCALE
  5
D8AE
102
{ACAD_REACTORS
330
D8A9
102
}
330
D8A9
100
AcDbScale
 70
     0
300
1:8
140
1.0
141
8.0
290
     0
  0
SCALE
  5
D8AF
102
{ACAD_REACTORS
330
D8A9
102
}
330
D8A9
100
AcDbScale
 70
     0
300
1:10
140
1.0
141
10.0
290
     0
  0
SCALE
  5
D8B0
102
{ACAD_REACTORS
330
D8A9
102
}
330
D8A9
100
AcDbScale
 70
     0
300
1:16
140
1.0
141
16.0
290
     0
  0
SCALE
  5
D8B1
102
{ACAD_REACTORS
330
D8A9
102
}
330
D8A9
100
AcDbScale
 70
     0
300
1:20
140
1.0
141
20.0
290
     0
  0
SCALE
  5
D8B2
102
{ACAD_REACTORS
330
D8A9
102
}
330
D8A9
100
AcDbScale
 70
     0
300
1:30
140
1.0
141
30.0
290
     0
  0
SCALE
  5
D8B3
102
{ACAD_REACTORS
330
D8A9
102
}
330
D8A9
100
AcDbScale
 70
     0
300
1:40
140
1.0
141
40.0
290
     0
  0
SCALE
  5
D8B4
102
{ACAD_REACTORS
330
D8A9
102
}
330
D8A9
100
AcDbScale
 70
     0
300
1:50
140
1.0
141
50.0
290
     0
  0
SCALE
  5
D8B5
102
{ACAD_REACTORS
330
D8A9
102
}
330
D8A9
100
AcDbScale
 70
     0
300
1:100
140
1.0
141
100.0
290
     0
  0
SCALE
  5
D8B6
102
{ACAD_REACTORS
330
D8A9
102
}
330
D8A9
100
AcDbScale
 70
     0
300
2:1
140
2.0
141
1.0
290
     0
  0
SCALE
  5
D8B7
102
{ACAD_REACTORS
330
D8A9
102
}
330
D8A9
100
AcDbScale
 70
     0
300
4:1
140
4.0
141
1.0
290
     0
  0
SCALE
  5
D8B8
102
{ACAD_REACTORS
330
D8A9
102
}
330
D8A9
100
AcDbScale
 70
     0
300
8:1
140
8.0
141
1.0
290
     0
  0
SCALE
  5
D8B9
102
{ACAD_REACTORS
330
D8A9
102
}
330
D8A9
100
AcDbScale
 70
     0
300
10:1
140
10.0
141
1.0
290
     0
  0
SCALE
  5
D8BA
102
{ACAD_REACTORS
330
D8A9
102
}
330
D8A9
100
AcDbScale
 70
     0
300
100:1
140
100.0
141
1.0
290
     0
  0
ACDBSECTIONVIEWSTYLE
  5
D955
102
{ACAD_REACTORS
330
D8BD
102
}
330
D8BD
100
AcDbModelDocViewStyle
 70
     0
  3
Imperial24
290
     0
300
Imperial24
 90
        0
100
AcDbSectionViewStyle
 70
     0
 71
     0
 90
       78
 71
     1
340
F
 62
   256
 40
0.24
340
0
340
0
 62
   256
 40
0.24
300
I, O, Q, S, X, Z
 40
0.48
 90
        3
 40
0.18
 90
        1
 71
     2
340
13
 90
       25
 62
   256
340
13
 90
       50
 62
   256
 40
0.24
 40
0.0
 40
0.24
 71
     3
340
F
 62
   256
 40
0.24
 90
        1
 40
0.75
 90
        1
300
%<\AcVar ViewType \f "%tc1">% %<\AcVar ViewSectionStartId>%-%<\AcVar ViewSectionEndId>%\PSCALE %<\AcVar ViewScale \f "%sn">%
 71
     4
 62
   256
 62
   257
300
ANSI31
 40
1.0
 90
        0
290
     0
290
     0
 90
        6
 40
0.0
 40
1.570796326794896
 40
0.2617993877991494
 40
1.308996938995747
 40
-0.2617993877991494
 40
1.832595714594046
  0
ACDBSECTIONVIEWSTYLE
  5
D8BE
102
{ACAD_REACTORS
330
D8BD
102
}
330
D8BD
100
AcDbModelDocViewStyle
 70
     0
  3
Metric50
290
     1
300
Metric50
 90
        0
100
AcDbSectionViewStyle
 70
     0
 71
     0
 90
      102
 71
     1
340
F
 62
   256
 40
5.0
340
0
340
0
 62
   256
 40
5.0
300
I, O, Q, S, X, Z
 40
10.0
 90
        0
 40
2.5
 90
        0
 71
     2
340
13
 90
       25
 62
   256
340
13
 90
       50
 62
   256
 40
5.0
 40
2.5
 40
5.0
 71
     3
340
F
 62
   256
 40
5.0
 90
        0
 40
15.0
 90
        1
300
%<\AcVar ViewSectionStartId>%-%<\AcVar ViewSectionEndId>% (%<\AcVar ViewScale \f "%sn">%)
 71
     4
 62
   256
 62
   257
300
ANSI31
 40
1.0
 90
        0
290
     0
290
     0
 90
        6
 40
0.0
 40
1.570796326794896
 40
0.2617993877991494
 40
1.308996938995747
 40
-0.2617993877991494
 40
1.832595714594046
  0
TABLESTYLE
  5
D8A8
102
{ACAD_XDICTIONARY
360
DFB9
102
}
102
{ACAD_REACTORS
330
D8A7
102
}
330
D8A7
100
AcDbTableStyle
280
     0
  3
Standard
 70
     0
 71
     0
 40
1.5
 41
1.5
280
     0
281
     0
  7
STANDARD
140
4.5
170
     2
 62
     0
 63
     7
283
     0
 90
      512
 91
        0
  1

274
    -2
284
     1
 64
     0
275
    -2
285
     1
 65
     0
276
    -2
286
     1
 66
     0
277
    -2
287
     1
 67
     0
278
    -2
288
     1
 68
     0
279
    -2
289
     1
 69
     0
  7
STANDARD
140
6.0
170
     5
 62
     0
 63
     7
283
     0
 90
      512
 91
        0
  1

274
    -2
284
     1
 64
     0
275
    -2
285
     1
 65
     0
276
    -2
286
     1
 66
     0
277
    -2
287
     1
 67
     0
278
    -2
288
     1
 68
     0
279
    -2
289
     1
 69
     0
  7
STANDARD
140
4.5
170
     5
 62
     0
 63
     7
283
     0
 90
      512
 91
        0
  1

274
    -2
284
     1
 64
     0
275
    -2
285
     1
 65
     0
276
    -2
286
     1
 66
     0
277
    -2
287
     1
 67
     0
278
    -2
288
     1
 68
     0
279
    -2
289
     1
 69
     0
  0
VISUALSTYLE
  5
D892
102
{ACAD_REACTORS
330
D88C
102
}
330
D88C
100
AcDbVisualStyle
  2
2dWireframe
 70
     4
177
     3
291
     0
 70
    58
 90
        0
176
     1
 90
        2
176
     1
 90
        0
176
     1
 90
        0
176
     1
 40
0.6
176
     1
 40
30.0
176
     1
 62
     7
420
 16777215
176
     1
 90
        1
176
     1
 90
        4
176
     1
 62
     7
176
     1
 62
   257
176
     1
 90
        1
176
     1
 90
        1
176
     1
 40
1.0
176
     1
 90
        0
176
     1
 62
   257
176
     1
 40
1.0
176
     1
 90
        1
176
     1
 90
        6
176
     1
 90
        2
176
     1
 62
     7
176
     1
 90
        5
176
     1
 90
        0
176
     1
 90
        0
176
     1
290
     0
176
     1
 90
        1
176
     1
 40
0.0
176
     1
 90
        0
176
     1
290
     1
176
     1
290
     1
176
     1
290
     0
176
     1
290
     0
176
     1
290
     0
176
     1
290
     0
176
     1
290
     0
176
     1
290
     0
176
     1
290
     0
176
     1
 90
       50
176
     1
 40
0.0
176
     1
 40
1.0
176
     1
 90
        0
176
     1
 62
    18
420
        0
176
     1
 90
       50
176
     1
 90
        3
176
     1
 62
     5
420
      255
176
     1
290
     0
176
     1
 90
       50
176
     1
 90
       50
176
     1
 90
       50
176
     1
290
     0
176
     1
 90
       50
176
     1
 62
   256
176
     0
 40
1.0
176
     0
 90
        2
176
     1
  1
strokes_ogs.tif
176
     1
290
     0
176
     1
 40
1.0
176
     1
 40
1.0
176
     1
  0
VISUALSTYLE
  5
D891
102
{ACAD_REACTORS
330
D88C
102
}
330
D88C
100
AcDbVisualStyle
  2
Basic
 70
     7
177
     3
291
     1
 70
    58
 90
        1
176
     1
 90
        0
176
     1
 90
        1
176
     1
 90
        0
176
     1
 40
0.6
176
     1
 40
30.0
176
     1
 62
     7
420
 16777215
176
     1
 90
        0
176
     1
 90
        4
176
     1
 62
     7
176
     1
 62
   257
176
     1
 90
        1
176
     1
 90
        1
176
     1
 40
1.0
176
     1
 90
        8
176
     1
 62
     7
176
     1
 40
1.0
176
     1
 90
        1
176
     1
 90
        6
176
     1
 90
        2
176
     1
 62
     7
176
     1
 90
        5
176
     1
 90
        0
176
     1
 90
        0
176
     1
290
     0
176
     1
 90
        1
176
     1
 40
0.0
176
     1
 90
        0
176
     1
290
     0
176
     1
290
     1
176
     1
290
     1
176
     1
290
     0
176
     1
290
     0
176
     1
290
     0
176
     1
290
     0
176
     1
290
     0
176
     1
290
     0
176
     1
 90
       50
176
     1
 40
0.0
176
     1
 40
1.0
176
     1
 90
        0
176
     1
 62
    18
420
        0
176
     1
 90
       50
176
     1
 90
        3
176
     1
 62
     5
420
      255
176
     1
290
     0
176
     1
 90
       50
176
     1
 90
       50
176
     1
 90
       50
176
     1
290
     0
176
     1
 90
       50
176
     1
 62
   256
176
     0
 40
1.0
176
     0
 90
        2
176
     1
  1
strokes_ogs.tif
176
     1
290
     0
176
     1
 40
1.0
176
     1
 40
1.0
176
     1
  0
VISUALSTYLE
  5
D898
102
{ACAD_REACTORS
330
D88C
102
}
330
D88C
100
AcDbVisualStyle
  2
Brighten
 70
    12
177
     3
291
     1
 70
    58
 90
        2
176
     1
 90
        2
176
     1
 90
        0
176
     1
 90
        0
176
     1
 40
0.6
176
     1
 40
30.0
176
     1
 62
     7
420
 16777215
176
     1
 90
        1
176
     1
 90
        4
176
     1
 62
     7
176
     1
 62
   257
176
     1
 90
        1
176
     1
 90
        1
176
     1
 40
1.0
176
     1
 90
        8
176
     1
 62
     7
176
     1
 40
1.0
176
     1
 90
        1
176
     1
 90
        6
176
     1
 90
        2
176
     1
 62
     7
176
     1
 90
        5
176
     1
 90
        0
176
     1
 90
        0
176
     1
290
     0
176
     1
 90
        1
176
     1
 40
50.0
176
     1
 90
        0
176
     1
290
     0
176
     1
290
     1
176
     1
290
     1
176
     1
290
     0
176
     1
290
     0
176
     1
290
     0
176
     1
290
     0
176
     1
290
     0
176
     1
290
     0
176
     1
 90
       50
176
     1
 40
0.0
176
     1
 40
1.0
176
     1
 90
        0
176
     1
 62
    18
420
        0
176
     1
 90
       50
176
     1
 90
        3
176
     1
 62
     5
420
      255
176
     1
290
     0
176
     1
 90
       50
176
     1
 90
       50
176
     1
 90
       50
176
     1
290
     0
176
     1
 90
       50
176
     1
 62
   256
176
     0
 40
1.0
176
     0
 90
        2
176
     1
  1
strokes_ogs.tif
176
     1
290
     0
176
     1
 40
1.0
176
     1
 40
1.0
176
     1
  0
VISUALSTYLE
  5
D89C
102
{ACAD_REACTORS
330
D88C
102
}
330
D88C
100
AcDbVisualStyle
  2
ColorChange
 70
    16
177
     3
291
     1
 70
    58
 90
        2
176
     1
 90
        2
176
     1
 90
        3
176
     1
 90
        0
176
     1
 40
0.6
176
     1
 40
30.0
176
     1
 62
     8
420
  8421504
176
     1
 90
        1
176
     1
 90
        4
176
     1
 62
     7
176
     1
 62
   257
176
     1
 90
        1
176
     1
 90
        1
176
     1
 40
1.0
176
     1
 90
        8
176
     1
 62
     8
420
  8421504
176
     1
 40
1.0
176
     1
 90
        1
176
     1
 90
        6
176
     1
 90
        2
176
     1
 62
     7
176
     1
 90
        5
176
     1
 90
        0
176
     1
 90
        0
176
     1
290
     0
176
     1
 90
        1
176
     1
 40
0.0
176
     1
 90
        0
176
     1
290
     0
176
     1
290
     1
176
     1
290
     1
176
     1
290
     0
176
     1
290
     0
176
     1
290
     0
176
     1
290
     0
176
     1
290
     0
176
     1
290
     0
176
     1
 90
       50
176
     1
 40
0.0
176
     1
 40
1.0
176
     1
 90
        0
176
     1
 62
    18
420
        0
176
     1
 90
       50
176
     1
 90
        3
176
     1
 62
     5
420
      255
176
     1
290
     0
176
     1
 90
       50
176
     1
 90
       50
176
     1
 90
       50
176
     1
290
     0
176
     1
 90
       50
176
     1
 62
   256
176
     0
 40
1.0
176
     0
 90
        2
176
     1
  1
strokes_ogs.tif
176
     1
290
     0
176
     1
 40
1.0
176
     1
 40
1.0
176
     1
  0
VISUALSTYLE
  5
D895
102
{ACAD_REACTORS
330
D88C
102
}
330
D88C
100
AcDbVisualStyle
  2
Conceptual
 70
     9
177
     3
291
     0
 70
    58
 90
        3
176
     1
 90
        2
176
     1
 90
        0
176
     1
 90
        0
176
     1
 40
0.6
176
     1
 40
30.0
176
     1
 62
     7
420
 16777215
176
     1
 90
        2
176
     1
 90
        2
176
     1
 62
     7
176
     1
 62
   257
176
     1
 90
        1
176
     1
 90
        1
176
     1
 40
179.0
176
     1
 90
        8
176
     1
 62
     7
176
     1
 40
1.0
176
     1
 90
        1
176
     1
 90
        6
176
     1
 90
        2
176
     1
 62
     7
176
     1
 90
        3
176
     1
 90
        0
176
     1
 90
        0
176
     1
290
     0
176
     1
 90
        1
176
     1
 40
0.0
176
     1
 90
        0
176
     1
290
     0
176
     1
290
     1
176
     1
290
     1
176
     1
290
     0
176
     1
290
     0
176
     1
290
     0
176
     1
290
     0
176
     1
290
     0
176
     1
290
     0
176
     1
 90
       50
176
     1
 40
0.0
176
     1
 40
1.0
176
     1
 90
        0
176
     1
 62
    18
420
        0
176
     1
 90
       50
176
     1
 90
        3
176
     1
 62
     5
420
      255
176
     1
290
     0
176
     1
 90
       50
176
     1
 90
       50
176
     1
 90
       50
176
     1
290
     0
176
     1
 90
       50
176
     1
 62
   256
176
     0
 40
1.0
176
     0
 90
        2
176
     1
  1
strokes_ogs.tif
176
     1
290
     0
176
     1
 40
1.0
176
     1
 40
1.0
176
     1
  0
VISUALSTYLE
  5
D897
102
{ACAD_REACTORS
330
D88C
102
}
330
D88C
100
AcDbVisualStyle
  2
Dim
 70
    11
177
     3
291
     1
 70
    58
 90
        2
176
     1
 90
        2
176
     1
 90
        0
176
     1
 90
        0
176
     1
 40
0.6
176
     1
 40
30.0
176
     1
 62
     7
420
 16777215
176
     1
 90
        1
176
     1
 90
        4
176
     1
 62
     7
176
     1
 62
   257
176
     1
 90
        1
176
     1
 90
        1
176
     1
 40
1.0
176
     1
 90
        8
176
     1
 62
     7
176
     1
 40
1.0
176
     1
 90
        1
176
     1
 90
        6
176
     1
 90
        2
176
     1
 62
     7
176
     1
 90
        5
176
     1
 90
        0
176
     1
 90
        0
176
     1
290
     0
176
     1
 90
        1
176
     1
 40
-50.0
176
     1
 90
        0
176
     1
290
     0
176
     1
290
     1
176
     1
290
     1
176
     1
290
     0
176
     1
290
     0
176
     1
290
     0
176
     1
290
     0
176
     1
290
     0
176
     1
290
     0
176
     1
 90
       50
176
     1
 40
0.0
176
     1
 40
1.0
176
     1
 90
        0
176
     1
 62
    18
420
        0
176
     1
 90
       50
176
     1
 90
        3
176
     1
 62
     5
420
      255
176
     1
290
     0
176
     1
 90
       50
176
     1
 90
       50
176
     1
 90
       50
176
     1
290
     0
176
     1
 90
       50
176
     1
 62
   256
176
     0
 40
1.0
176
     0
 90
        2
176
     1
  1
strokes_ogs.tif
176
     1
290
     0
176
     1
 40
1.0
176
     1
 40
1.0
176
     1
  0
VISUALSTYLE
  5
D8A4
102
{ACAD_REACTORS
330
D88C
102
}
330
D88C
100
AcDbVisualStyle
  2
EdgeColorOff
 70
    22
177
     3
291
     1
 70
    58
 90
        2
176
     0
 90
        2
176
     0
 90
        0
176
     0
 90
        0
176
     0
 40
0.6
176
     0
 40
30.0
176
     0
 62
     7
420
 16777215
176
     0
 90
        1
176
     0
 90
        4
176
     0
 62
     7
176
     0
 62
   257
176
     0
 90
        1
176
     0
 90
        1
176
     0
 40
1.0
176
     0
 90
        8
176
     2
 62
     7
176
     0
 40
1.0
176
     0
 90
        1
176
     0
 90
        6
176
     0
 90
        2
176
     0
 62
     7
176
     0
 90
        5
176
     0
 90
        0
176
     0
 90
        0
176
     0
290
     0
176
     0
 90
        1
176
     0
 40
0.0
176
     0
 90
        0
176
     0
290
     0
176
     0
290
     1
176
     0
290
     1
176
     0
290
     0
176
     0
290
     0
176
     0
290
     0
176
     0
290
     0
176
     0
290
     0
176
     0
290
     0
176
     0
 90
       50
176
     0
 40
0.0
176
     0
 40
1.0
176
     0
 90
        0
176
     0
 62
    18
420
        0
176
     0
 90
       50
176
     0
 90
        3
176
     0
 62
     5
420
      255
176
     0
290
     0
176
     0
 90
       50
176
     0
 90
       50
176
     0
 90
       50
176
     0
290
     0
176
     0
 90
       50
176
     0
 62
   256
176
     0
 40
1.0
176
     0
 90
        2
176
     0
  1
strokes_ogs.tif
176
     0
290
     0
176
     0
 40
1.0
176
     0
 40
1.0
176
     0
  0
VISUALSTYLE
  5
D89B
102
{ACAD_REACTORS
330
D88C
102
}
330
D88C
100
AcDbVisualStyle
  2
Facepattern
 70
    15
177
     3
291
     1
 70
    58
 90
        2
176
     1
 90
        2
176
     1
 90
        0
176
     1
 90
        0
176
     1
 40
0.6
176
     1
 40
30.0
176
     1
 62
     7
420
 16777215
176
     1
 90
        1
176
     1
 90
        4
176
     1
 62
     7
176
     1
 62
   257
176
     1
 90
        1
176
     1
 90
        1
176
     1
 40
1.0
176
     1
 90
        8
176
     1
 62
     7
176
     1
 40
1.0
176
     1
 90
        1
176
     1
 90
        6
176
     1
 90
        2
176
     1
 62
     7
176
     1
 90
        5
176
     1
 90
        0
176
     1
 90
        0
176
     1
290
     0
176
     1
 90
        1
176
     1
 40
0.0
176
     1
 90
        0
176
     1
290
     0
176
     1
290
     1
176
     1
290
     1
176
     1
290
     0
176
     1
290
     0
176
     1
290
     0
176
     1
290
     0
176
     1
290
     0
176
     1
290
     0
176
     1
 90
       50
176
     1
 40
0.0
176
     1
 40
1.0
176
     1
 90
        0
176
     1
 62
    18
420
        0
176
     1
 90
       50
176
     1
 90
        3
176
     1
 62
     5
420
      255
176
     1
290
     0
176
     1
 90
       50
176
     1
 90
       50
176
     1
 90
       50
176
     1
290
     0
176
     1
 90
       50
176
     1
 62
   256
176
     0
 40
1.0
176
     0
 90
        2
176
     1
  1
strokes_ogs.tif
176
     1
290
     0
176
     1
 40
1.0
176
     1
 40
1.0
176
     1
  0
VISUALSTYLE
  5
D88D
102
{ACAD_REACTORS
330
D88C
102
}
330
D88C
100
AcDbVisualStyle
  2
Flat
 70
     0
177
     3
291
     1
 70
    58
 90
        2
176
     1
 90
        1
176
     1
 90
        1
176
     1
 90
        2
176
     1
 40
0.6
176
     1
 40
30.0
176
     1
 62
     7
420
 16777215
176
     1
 90
        0
176
     1
 90
        0
176
     1
 62
     7
176
     1
 62
   257
176
     1
 90
        1
176
     1
 90
        1
176
     1
 40
1.0
176
     1
 90
        8
176
     1
 62
     7
176
     1
 40
1.0
176
     1
 90
        1
176
     1
 90
        6
176
     1
 90
        2
176
     1
 62
     7
176
     1
 90
        5
176
     1
 90
        0
176
     1
 90
        0
176
     1
290
     0
176
     1
 90
       13
176
     1
 40
0.0
176
     1
 90
        0
176
     1
290
     0
176
     1
290
     1
176
     1
290
     1
176
     1
290
     0
176
     1
290
     0
176
     1
290
     0
176
     1
290
     0
176
     1
290
     0
176
     1
290
     0
176
     1
 90
       50
176
     1
 40
0.0
176
     1
 40
1.0
176
     1
 90
        0
176
     1
 62
    18
420
        0
176
     1
 90
       50
176
     1
 90
        3
176
     1
 62
     5
420
      255
176
     1
290
     0
176
     1
 90
       50
176
     1
 90
       50
176
     1
 90
       50
176
     1
290
     0
176
     1
 90
       50
176
     1
 62
   256
176
     0
 40
1.0
176
     0
 90
        2
176
     1
  1
strokes_ogs.tif
176
     1
290
     0
176
     1
 40
1.0
176
     1
 40
1.0
176
     1
  0
VISUALSTYLE
  5
D88E
102
{ACAD_REACTORS
330
D88C
102
}
330
D88C
100
AcDbVisualStyle
  2
FlatWithEdges
 70
     1
177
     3
291
     1
 70
    58
 90
        2
176
     1
 90
        1
176
     1
 90
        1
176
     1
 90
        2
176
     1
 40
0.6
176
     1
 40
30.0
176
     1
 62
     7
420
 16777215
176
     1
 90
        1
176
     1
 90
        0
176
     1
 62
     7
176
     1
 62
   257
176
     1
 90
        1
176
     1
 90
        1
176
     1
 40
1.0
176
     1
 90
        0
176
     1
 62
   257
176
     1
 40
1.0
176
     1
 90
        1
176
     1
 90
        6
176
     1
 90
        2
176
     1
 62
     7
176
     1
 90
        5
176
     1
 90
        0
176
     1
 90
        0
176
     1
290
     0
176
     1
 90
       13
176
     1
 40
0.0
176
     1
 90
        0
176
     1
290
     0
176
     1
290
     1
176
     1
290
     1
176
     1
290
     0
176
     1
290
     0
176
     1
290
     0
176
     1
290
     0
176
     1
290
     0
176
     1
290
     0
176
     1
 90
       50
176
     1
 40
0.0
176
     1
 40
1.0
176
     1
 90
        0
176
     1
 62
    18
420
        0
176
     1
 90
       50
176
     1
 90
        3
176
     1
 62
     5
420
      255
176
     1
290
     0
176
     1
 90
       50
176
     1
 90
       50
176
     1
 90
       50
176
     1
290
     0
176
     1
 90
       50
176
     1
 62
   256
176
     0
 40
1.0
176
     0
 90
        2
176
     1
  1
strokes_ogs.tif
176
     1
290
     0
176
     1
 40
1.0
176
     1
 40
1.0
176
     1
  0
VISUALSTYLE
  5
D88F
102
{ACAD_REACTORS
330
D88C
102
}
330
D88C
100
AcDbVisualStyle
  2
Gouraud
 70
     2
177
     3
291
     1
 70
    58
 90
        2
176
     1
 90
        2
176
     1
 90
        1
176
     1
 90
        2
176
     1
 40
0.6
176
     1
 40
30.0
176
     1
 62
     7
420
 16777215
176
     1
 90
        0
176
     1
 90
        0
176
     1
 62
     7
176
     1
 62
   257
176
     1
 90
        1
176
     1
 90
        1
176
     1
 40
1.0
176
     1
 90
        0
176
     1
 62
     7
176
     1
 40
1.0
176
     1
 90
        1
176
     1
 90
        6
176
     1
 90
        2
176
     1
 62
     7
176
     1
 90
        5
176
     1
 90
        0
176
     1
 90
        0
176
     1
290
     0
176
     1
 90
       13
176
     1
 40
0.0
176
     1
 90
        0
176
     1
290
     0
176
     1
290
     1
176
     1
290
     1
176
     1
290
     0
176
     1
290
     0
176
     1
290
     0
176
     1
290
     0
176
     1
290
     0
176
     1
290
     0
176
     1
 90
       50
176
     1
 40
0.0
176
     1
 40
1.0
176
     1
 90
        0
176
     1
 62
    18
420
        0
176
     1
 90
       50
176
     1
 90
        3
176
     1
 62
     5
420
      255
176
     1
290
     0
176
     1
 90
       50
176
     1
 90
       50
176
     1
 90
       50
176
     1
290
     0
176
     1
 90
       50
176
     1
 62
   256
176
     0
 40
1.0
176
     0
 90
        2
176
     1
  1
strokes_ogs.tif
176
     1
290
     0
176
     1
 40
1.0
176
     1
 40
1.0
176
     1
  0
VISUALSTYLE
  5
D890
102
{ACAD_REACTORS
330
D88C
102
}
330
D88C
100
AcDbVisualStyle
  2
GouraudWithEdges
 70
     3
177
     3
291
     1
 70
    58
 90
        2
176
     1
 90
        2
176
     1
 90
        1
176
     1
 90
        2
176
     1
 40
0.6
176
     1
 40
30.0
176
     1
 62
     7
420
 16777215
176
     1
 90
        1
176
     1
 90
        0
176
     1
 62
     7
176
     1
 62
   257
176
     1
 90
        1
176
     1
 90
        1
176
     1
 40
1.0
176
     1
 90
        0
176
     1
 62
   257
176
     1
 40
1.0
176
     1
 90
        1
176
     1
 90
        6
176
     1
 90
        2
176
     1
 62
     7
176
     1
 90
        5
176
     1
 90
        0
176
     1
 90
        0
176
     1
290
     0
176
     1
 90
       13
176
     1
 40
0.0
176
     1
 90
        0
176
     1
290
     0
176
     1
290
     1
176
     1
290
     1
176
     1
290
     0
176
     1
290
     0
176
     1
290
     0
176
     1
290
     0
176
     1
290
     0
176
     1
290
     0
176
     1
 90
       50
176
     1
 40
0.0
176
     1
 40
1.0
176
     1
 90
        0
176
     1
 62
    18
420
        0
176
     1
 90
       50
176
     1
 90
        3
176
     1
 62
     5
420
      255
176
     1
290
     0
176
     1
 90
       50
176
     1
 90
       50
176
     1
 90
       50
176
     1
290
     0
176
     1
 90
       50
176
     1
 62
   256
176
     0
 40
1.0
176
     0
 90
        2
176
     1
  1
strokes_ogs.tif
176
     1
290
     0
176
     1
 40
1.0
176
     1
 40
1.0
176
     1
  0
VISUALSTYLE
  5
D894
102
{ACAD_REACTORS
330
D88C
102
}
330
D88C
100
AcDbVisualStyle
  2
Hidden
 70
     6
177
     3
291
     0
 70
    58
 90
        1
176
     1
 90
        2
176
     1
 90
        2
176
     1
 90
        0
176
     1
 40
0.6
176
     1
 40
30.0
176
     1
 62
     7
420
 16777215
176
     1
 90
        2
176
     1
 90
        2
176
     1
 62
     7
176
     1
 62
   257
176
     1
 90
        2
176
     1
 90
        1
176
     1
 40
40.0
176
     1
 90
        0
176
     1
 62
   257
176
     1
 40
1.0
176
     1
 90
        1
176
     1
 90
        6
176
     1
 90
        2
176
     1
 62
     7
176
     1
 90
        3
176
     1
 90
        0
176
     1
 90
        0
176
     1
290
     0
176
     1
 90
        1
176
     1
 40
0.0
176
     1
 90
        0
176
     1
290
     0
176
     1
290
     1
176
     1
290
     1
176
     1
290
     0
176
     1
290
     0
176
     1
290
     0
176
     1
290
     0
176
     1
290
     0
176
     1
290
     0
176
     1
 90
       50
176
     1
 40
0.0
176
     1
 40
1.0
176
     1
 90
        0
176
     1
 62
    18
420
        0
176
     1
 90
       50
176
     1
 90
        3
176
     1
 62
     5
420
      255
176
     1
290
     0
176
     1
 90
       50
176
     1
 90
       50
176
     1
 90
       50
176
     1
290
     0
176
     1
 90
       50
176
     1
 62
   256
176
     0
 40
1.0
176
     0
 90
        2
176
     1
  1
strokes_ogs.tif
176
     1
290
     0
176
     1
 40
1.0
176
     1
 40
1.0
176
     1
  0
VISUALSTYLE
  5
D8A2
102
{ACAD_REACTORS
330
D88C
102
}
330
D88C
100
AcDbVisualStyle
  2
JitterOff
 70
    20
177
     3
291
     1
 70
    58
 90
        2
176
     0
 90
        2
176
     0
 90
        0
176
     0
 90
        0
176
     0
 40
0.6
176
     0
 40
30.0
176
     0
 62
     7
420
 16777215
176
     0
 90
        1
176
     0
 90
        4
176
     0
 62
     7
176
     0
 62
   257
176
     0
 90
        1
176
     0
 90
        1
176
     0
 40
1.0
176
     0
 90
       10
176
     2
 62
     7
176
     0
 40
1.0
176
     0
 90
        1
176
     0
 90
        6
176
     0
 90
        2
176
     0
 62
     7
176
     0
 90
        5
176
     0
 90
        0
176
     0
 90
        0
176
     0
290
     0
176
     0
 90
        1
176
     0
 40
0.0
176
     0
 90
        0
176
     0
290
     0
176
     0
290
     1
176
     0
290
     1
176
     0
290
     0
176
     0
290
     0
176
     0
290
     0
176
     0
290
     0
176
     0
290
     0
176
     0
290
     0
176
     0
 90
       50
176
     0
 40
0.0
176
     0
 40
1.0
176
     0
 90
        0
176
     0
 62
    18
420
        0
176
     0
 90
       50
176
     0
 90
        3
176
     0
 62
     5
420
      255
176
     0
290
     0
176
     0
 90
       50
176
     0
 90
       50
176
     0
 90
       50
176
     0
290
     0
176
     0
 90
       50
176
     0
 62
   256
176
     0
 40
1.0
176
     0
 90
        2
176
     0
  1
strokes_ogs.tif
176
     0
290
     0
176
     0
 40
1.0
176
     0
 40
1.0
176
     0
  0
VISUALSTYLE
  5
D89A
102
{ACAD_REACTORS
330
D88C
102
}
330
D88C
100
AcDbVisualStyle
  2
Linepattern
 70
    14
177
     3
291
     1
 70
    58
 90
        2
176
     1
 90
        2
176
     1
 90
        0
176
     1
 90
        0
176
     1
 40
0.6
176
     1
 40
30.0
176
     1
 62
     7
420
 16777215
176
     1
 90
        1
176
     1
 90
        4
176
     1
 62
     7
176
     1
 62
   257
176
     1
 90
        7
176
     1
 90
        7
176
     1
 40
1.0
176
     1
 90
        8
176
     1
 62
     7
176
     1
 40
1.0
176
     1
 90
        1
176
     1
 90
        6
176
     1
 90
        2
176
     1
 62
     7
176
     1
 90
        5
176
     1
 90
        0
176
     1
 90
        0
176
     1
290
     0
176
     1
 90
        1
176
     1
 40
0.0
176
     1
 90
        0
176
     1
290
     0
176
     1
290
     1
176
     1
290
     1
176
     1
290
     0
176
     1
290
     0
176
     1
290
     0
176
     1
290
     0
176
     1
290
     0
176
     1
290
     0
176
     1
 90
       50
176
     1
 40
0.0
176
     1
 40
1.0
176
     1
 90
        0
176
     1
 62
    18
420
        0
176
     1
 90
       50
176
     1
 90
        3
176
     1
 62
     5
420
      255
176
     1
290
     0
176
     1
 90
       50
176
     1
 90
       50
176
     1
 90
       50
176
     1
290
     0
176
     1
 90
       50
176
     1
 62
   256
176
     0
 40
1.0
176
     0
 90
        2
176
     1
  1
strokes_ogs.tif
176
     1
290
     0
176
     1
 40
1.0
176
     1
 40
1.0
176
     1
  0
VISUALSTYLE
  5
D8A3
102
{ACAD_REACTORS
330
D88C
102
}
330
D88C
100
AcDbVisualStyle
  2
OverhangOff
 70
    21
177
     3
291
     1
 70
    58
 90
        2
176
     0
 90
        2
176
     0
 90
        0
176
     0
 90
        0
176
     0
 40
0.6
176
     0
 40
30.0
176
     0
 62
     7
420
 16777215
176
     0
 90
        1
176
     0
 90
        4
176
     0
 62
     7
176
     0
 62
   257
176
     0
 90
        1
176
     0
 90
        1
176
     0
 40
1.0
176
     0
 90
        9
176
     2
 62
     7
176
     0
 40
1.0
176
     0
 90
        1
176
     0
 90
        6
176
     0
 90
        2
176
     0
 62
     7
176
     0
 90
        5
176
     0
 90
        0
176
     0
 90
        0
176
     0
290
     0
176
     0
 90
        1
176
     0
 40
0.0
176
     0
 90
        0
176
     0
290
     0
176
     0
290
     1
176
     0
290
     1
176
     0
290
     0
176
     0
290
     0
176
     0
290
     0
176
     0
290
     0
176
     0
290
     0
176
     0
290
     0
176
     0
 90
       50
176
     0
 40
0.0
176
     0
 40
1.0
176
     0
 90
        0
176
     0
 62
    18
420
        0
176
     0
 90
       50
176
     0
 90
        3
176
     0
 62
     5
420
      255
176
     0
290
     0
176
     0
 90
       50
176
     0
 90
       50
176
     0
 90
       50
176
     0
290
     0
176
     0
 90
       50
176
     0
 62
   256
176
     0
 40
1.0
176
     0
 90
        2
176
     0
  1
strokes_ogs.tif
176
     0
290
     0
176
     0
 40
1.0
176
     0
 40
1.0
176
     0
  0
VISUALSTYLE
  5
D896
102
{ACAD_REACTORS
330
D88C
102
}
330
D88C
100
AcDbVisualStyle
  2
Realistic
 70
     8
177
     3
291
     0
 70
    58
 90
        2
176
     1
 90
        3
176
     1
 90
        0
176
     1
 90
        2
176
     1
 40
0.6
176
     1
 40
30.0
176
     1
 62
     7
420
 16777215
176
     1
 90
        0
176
     1
 90
        0
176
     1
 62
     7
176
     1
 62
   257
176
     1
 90
        1
176
     1
 90
        1
176
     1
 40
1.0
176
     1
 90
        8
176
     1
 62
   257
176
     1
 40
1.0
176
     1
 90
        1
176
     1
 90
        6
176
     1
 90
        2
176
     1
 62
     7
176
     1
 90
        3
176
     1
 90
        0
176
     1
 90
        0
176
     1
290
     0
176
     1
 90
       13
176
     1
 40
0.0
176
     1
 90
        0
176
     1
290
     0
176
     1
290
     1
176
     1
290
     1
176
     1
290
     0
176
     1
290
     0
176
     1
290
     0
176
     1
290
     0
176
     1
290
     0
176
     1
290
     0
176
     1
 90
       50
176
     1
 40
0.0
176
     1
 40
1.0
176
     1
 90
        0
176
     1
 62
    18
420
        0
176
     1
 90
       50
176
     1
 90
        3
176
     1
 62
     5
420
      255
176
     1
290
     0
176
     1
 90
       50
176
     1
 90
       50
176
     1
 90
       50
176
     1
290
     0
176
     1
 90
       50
176
     1
 62
   256
176
     0
 40
1.0
176
     0
 90
        2
176
     1
  1
strokes_ogs.tif
176
     1
290
     0
176
     1
 40
1.0
176
     1
 40
1.0
176
     1
  0
VISUALSTYLE
  5
D8A1
102
{ACAD_REACTORS
330
D88C
102
}
330
D88C
100
AcDbVisualStyle
  2
Shaded
 70
    27
177
     3
291
     0
 70
    58
 90
        2
176
     1
 90
        2
176
     1
 90
        1
176
     1
 90
        2
176
     1
 40
0.6
176
     1
 40
30.0
176
     1
 62
     7
420
 16777215
176
     1
 90
        0
176
     1
 90
        4
176
     1
 62
     7
176
     1
 62
   257
176
     1
 90
        1
176
     1
 90
        1
176
     1
 40
1.0
176
     1
 90
        8
176
     1
 62
   257
176
     1
 40
1.0
176
     1
 90
        1
176
     1
 90
        6
176
     1
 90
        2
176
     1
 62
     8
420
  7895160
176
     1
 90
        3
176
     1
 90
        0
176
     1
 90
        0
176
     1
290
     0
176
     1
 90
        5
176
     1
 40
0.0
176
     1
 90
        0
176
     1
290
     0
176
     1
290
     1
176
     1
290
     1
176
     1
290
     0
176
     1
290
     0
176
     1
290
     0
176
     1
290
     0
176
     1
290
     0
176
     1
290
     0
176
     1
 90
       50
176
     1
 40
0.0
176
     1
 40
1.0
176
     1
 90
        0
176
     1
 62
    18
420
        0
176
     1
 90
       50
176
     1
 90
        3
176
     1
 62
     5
420
      255
176
     1
290
     0
176
     1
 90
       50
176
     1
 90
       50
176
     1
 90
       50
176
     1
290
     0
176
     1
 90
       50
176
     1
 62
   256
176
     0
 40
1.0
176
     0
 90
        2
176
     1
  1
strokes_ogs.tif
176
     1
290
     0
176
     1
 40
1.0
176
     1
 40
1.0
176
     1
  0
VISUALSTYLE
  5
D8A0
102
{ACAD_REACTORS
330
D88C
102
}
330
D88C
100
AcDbVisualStyle
  2
Shaded with edges
 70
    26
177
     3
291
     0
 70
    58
 90
        2
176
     1
 90
        2
176
     1
 90
        1
176
     1
 90
        2
176
     1
 40
0.6
176
     1
 40
30.0
176
     1
 62
     7
420
 16777215
176
     1
 90
        1
176
     1
 90
        2
176
     1
 62
     7
176
     1
 62
   257
176
     1
 90
        2
176
     1
 90
        1
176
     1
 40
1.0
176
     1
 90
        8
176
     1
 62
   257
176
     1
 40
1.0
176
     1
 90
        1
176
     1
 90
        6
176
     1
 90
        2
176
     1
 62
     7
176
     1
 90
        3
176
     1
 90
        0
176
     1
 90
        0
176
     1
290
     0
176
     1
 90
        5
176
     1
 40
0.0
176
     1
 90
        0
176
     1
290
     0
176
     1
290
     1
176
     1
290
     1
176
     1
290
     0
176
     1
290
     0
176
     1
290
     0
176
     1
290
     0
176
     1
290
     0
176
     1
290
     0
176
     1
 90
       50
176
     1
 40
0.0
176
     1
 40
1.0
176
     1
 90
        0
176
     1
 62
    18
420
        0
176
     1
 90
       50
176
     1
 90
        3
176
     1
 62
     5
420
      255
176
     1
290
     0
176
     1
 90
       50
176
     1
 90
       50
176
     1
 90
       50
176
     1
290
     0
176
     1
 90
       50
176
     1
 62
   256
176
     0
 40
1.0
176
     0
 90
        2
176
     1
  1
strokes_ogs.tif
176
     1
290
     0
176
     1
 40
1.0
176
     1
 40
1.0
176
     1
  0
VISUALSTYLE
  5
D89D
102
{ACAD_REACTORS
330
D88C
102
}
330
D88C
100
AcDbVisualStyle
  2
Shades of Gray
 70
    23
177
     3
291
     0
 70
    58
 90
        2
176
     1
 90
        2
176
     1
 90
        3
176
     1
 90
        0
176
     1
 40
0.6
176
     1
 40
30.0
176
     1
 62
     7
420
 16777215
176
     1
 90
        2
176
     1
 90
        2
176
     1
 62
     7
176
     1
 62
     7
176
     1
 90
        1
176
     1
 90
        1
176
     1
 40
40.0
176
     1
 90
        8
176
     1
 62
     7
176
     1
 40
1.0
176
     1
 90
        1
176
     1
 90
        6
176
     1
 90
        2
176
     1
 62
     7
176
     1
 90
        3
176
     1
 90
        0
176
     1
 90
        0
176
     1
290
     0
176
     1
 90
        1
176
     1
 40
0.0
176
     1
 90
        0
176
     1
290
     0
176
     1
290
     1
176
     1
290
     1
176
     1
290
     0
176
     1
290
     0
176
     1
290
     0
176
     1
290
     0
176
     1
290
     0
176
     1
290
     0
176
     1
 90
       50
176
     1
 40
0.0
176
     1
 40
1.0
176
     1
 90
        0
176
     1
 62
    18
420
        0
176
     1
 90
       50
176
     1
 90
        3
176
     1
 62
     5
420
      255
176
     1
290
     0
176
     1
 90
       50
176
     1
 90
       50
176
     1
 90
       50
176
     1
290
     0
176
     1
 90
       50
176
     1
 62
   256
176
     0
 40
1.0
176
     0
 90
        2
176
     1
  1
strokes_ogs.tif
176
     1
290
     0
176
     1
 40
1.0
176
     1
 40
1.0
176
     1
  0
VISUALSTYLE
  5
D89E
102
{ACAD_REACTORS
330
D88C
102
}
330
D88C
100
AcDbVisualStyle
  2
Sketchy
 70
    24
177
     3
291
     0
 70
    58
 90
        1
176
     1
 90
        2
176
     1
 90
        2
176
     1
 90
        0
176
     1
 40
0.6
176
     1
 40
30.0
176
     1
 62
     7
420
 16777215
176
     1
 90
        2
176
     1
 90
        2
176
     1
 62
     7
176
     1
 62
     7
176
     1
 90
        1
176
     1
 90
        1
176
     1
 40
40.0
176
     1
 90
       11
176
     1
 62
     7
176
     1
 40
1.0
176
     1
 90
        1
176
     1
 90
        6
176
     1
 90
        2
176
     1
 62
     7
176
     1
 90
        6
176
     1
 90
        0
176
     1
 90
        0
176
     1
290
     0
176
     1
 90
        1
176
     1
 40
0.0
176
     1
 90
        0
176
     1
290
     0
176
     1
290
     1
176
     1
290
     1
176
     1
290
     0
176
     1
290
     0
176
     1
290
     0
176
     1
290
     0
176
     1
290
     0
176
     1
290
     0
176
     1
 90
       50
176
     1
 40
0.0
176
     1
 40
1.0
176
     1
 90
        0
176
     1
 62
    18
420
        0
176
     1
 90
       50
176
     1
 90
        3
176
     1
 62
     5
420
      255
176
     1
290
     0
176
     1
 90
       50
176
     1
 90
       50
176
     1
 90
       50
176
     1
290
     0
176
     1
 90
       50
176
     1
 62
   256
176
     0
 40
1.0
176
     0
 90
        2
176
     1
  1
strokes_ogs.tif
176
     1
290
     0
176
     1
 40
1.0
176
     1
 40
1.0
176
     1
  0
VISUALSTYLE
  5
D899
102
{ACAD_REACTORS
330
D88C
102
}
330
D88C
100
AcDbVisualStyle
  2
Thicken
 70
    13
177
     3
291
     1
 70
    58
 90
        2
176
     1
 90
        2
176
     1
 90
        0
176
     1
 90
        0
176
     1
 40
0.6
176
     1
 40
30.0
176
     1
 62
     7
420
 16777215
176
     1
 90
        1
176
     1
 90
        4
176
     1
 62
     7
176
     1
 62
   257
176
     1
 90
        1
176
     1
 90
        1
176
     1
 40
1.0
176
     1
 90
       12
176
     1
 62
     7
176
     1
 40
1.0
176
     1
 90
        1
176
     1
 90
        6
176
     1
 90
        2
176
     1
 62
     7
176
     1
 90
        5
176
     1
 90
        0
176
     1
 90
        0
176
     1
290
     0
176
     1
 90
        1
176
     1
 40
0.0
176
     1
 90
        0
176
     1
290
     0
176
     1
290
     1
176
     1
290
     1
176
     1
290
     0
176
     1
290
     0
176
     1
290
     0
176
     1
290
     0
176
     1
290
     0
176
     1
290
     0
176
     1
 90
       50
176
     1
 40
0.0
176
     1
 40
1.0
176
     1
 90
        0
176
     1
 62
    18
420
        0
176
     1
 90
       50
176
     1
 90
        3
176
     1
 62
     5
420
      255
176
     1
290
     0
176
     1
 90
       50
176
     1
 90
       50
176
     1
 90
       50
176
     1
290
     0
176
     1
 90
       50
176
     1
 62
   256
176
     0
 40
1.0
176
     0
 90
        2
176
     1
  1
strokes_ogs.tif
176
     1
290
     0
176
     1
 40
1.0
176
     1
 40
1.0
176
     1
  0
VISUALSTYLE
  5
D893
102
{ACAD_REACTORS
330
D88C
102
}
330
D88C
100
AcDbVisualStyle
  2
Wireframe
 70
     5
177
     3
291
     0
 70
    58
 90
        0
176
     1
 90
        2
176
     1
 90
        0
176
     1
 90
        0
176
     1
 40
0.6
176
     1
 40
30.0
176
     1
 62
     7
420
 16777215
176
     1
 90
        1
176
     1
 90
        4
176
     1
 62
     7
176
     1
 62
   257
176
     1
 90
        1
176
     1
 90
        1
176
     1
 40
1.0
176
     1
 90
        0
176
     1
 62
   257
176
     1
 40
1.0
176
     1
 90
        1
176
     1
 90
        6
176
     1
 90
        2
176
     1
 62
     7
176
     1
 90
        3
176
     1
 90
        0
176
     1
 90
        0
176
     1
290
     0
176
     1
 90
        1
176
     1
 40
0.0
176
     1
 90
        0
176
     1
290
     0
176
     1
290
     1
176
     1
290
     1
176
     1
290
     0
176
     1
290
     0
176
     1
290
     0
176
     1
290
     0
176
     1
290
     0
176
     1
290
     0
176
     1
 90
       50
176
     1
 40
0.0
176
     1
 40
1.0
176
     1
 90
        0
176
     1
 62
    18
420
        0
176
     1
 90
       50
176
     1
 90
        3
176
     1
 62
     5
420
      255
176
     1
290
     0
176
     1
 90
       50
176
     1
 90
       50
176
     1
 90
       50
176
     1
290
     0
176
     1
 90
       50
176
     1
 62
   256
176
     0
 40
1.0
176
     0
 90
        2
176
     1
  1
strokes_ogs.tif
176
     1
290
     0
176
     1
 40
1.0
176
     1
 40
1.0
176
     1
  0
VISUALSTYLE
  5
D89F
102
{ACAD_REACTORS
330
D88C
102
}
330
D88C
100
AcDbVisualStyle
  2
X-Ray
 70
    25
177
     3
291
     0
 70
    58
 90
        2
176
     1
 90
        2
176
     1
 90
        1
176
     1
 90
        1
176
     1
 40
0.5
176
     1
 40
30.0
176
     1
 62
     7
420
 16777215
176
     1
 90
        1
176
     1
 90
        0
176
     1
 62
     7
176
     1
 62
   257
176
     1
 90
        1
176
     1
 90
        1
176
     1
 40
1.0
176
     1
 90
        8
176
     1
 62
     7
176
     1
 40
1.0
176
     1
 90
        1
176
     1
 90
        6
176
     1
 90
        2
176
     1
 62
     7
176
     1
 90
        3
176
     1
 90
        0
176
     1
 90
        0
176
     1
290
     0
176
     1
 90
       13
176
     1
 40
0.0
176
     1
 90
        0
176
     1
290
     0
176
     1
290
     1
176
     1
290
     1
176
     1
290
     0
176
     1
290
     0
176
     1
290
     0
176
     1
290
     0
176
     1
290
     0
176
     1
290
     0
176
     1
 90
       50
176
     1
 40
0.0
176
     1
 40
1.0
176
     1
 90
        0
176
     1
 62
    18
420
        0
176
     1
 90
       50
176
     1
 90
        3
176
     1
 62
     5
420
      255
176
     1
290
     0
176
     1
 90
       50
176
     1
 90
       50
176
     1
 90
       50
176
     1
290
     0
176
     1
 90
       50
176
     1
 62
   256
176
     0
 40
1.0
176
     0
 90
        2
176
     1
  1
strokes_ogs.tif
176
     1
290
     0
176
     1
 40
1.0
176
     1
 40
1.0
176
     1
  0
DICTIONARYVAR
  5
DB54
102
{ACAD_REACTORS
330
51
102
}
330
51
100
DictionaryVariables
280
     0
  1
1:1
  0
DICTIONARYVAR
  5
DB50
102
{ACAD_REACTORS
330
51
102
}
330
51
100
DictionaryVariables
280
     0
  1
STANDARD
  0
DICTIONARYVAR
  5
DB4F
102
{ACAD_REACTORS
330
51
102
}
330
51
100
DictionaryVariables
280
     0
  1
STANDARD
  0
DICTIONARYVAR
  5
DB51
102
{ACAD_REACTORS
330
51
102
}
330
51
100
DictionaryVariables
280
     0
  1
Metric50
  0
DICTIONARYVAR
  5
DB52
102
{ACAD_REACTORS
330
51
102
}
330
51
100
DictionaryVariables
280
     0
  1
Metric50
  0
DICTIONARYVAR
  5
52
102
{ACAD_REACTORS
330
51
102
}
330
51
100
DictionaryVariables
280
     0
  1
0
  0
DICTIONARYVAR
  5
DB56
102
{ACAD_REACTORS
330
51
102
}
330
51
100
DictionaryVariables
280
     0
  1
1
  0
DICTIONARYVAR
  5
DB57
102
{ACAD_REACTORS
330
51
102
}
330
51
100
DictionaryVariables
280
     0
  1
15
  0
DICTIONARYVAR
  5
DB55
102
{ACAD_REACTORS
330
51
102
}
330
51
100
DictionaryVariables
280
     0
  1
0
  0
DICTIONARYVAR
  5
DB53
102
{ACAD_REACTORS
330
51
102
}
330
51
100
DictionaryVariables
280
     0
  1
0
  0
DICTIONARYVAR
  5
D1FE
102
{ACAD_REACTORS
330
51
102
}
330
51
100
DictionaryVariables
280
     0
  1
96
  0
DICTIONARY
  5
D87D
330
D87C
100
AcDbDictionary
280
     1
281
     1
  3
BUMPTILE
360
D87F
  3
DIFFUSETILE
360
D87E
  3
OPACITYTILE
360
D882
  3
REFLECTIONTILE
360
D881
  3
REFRACTIONTILE
360
D883
  3
SPECULARTILE
360
D880
  0
DICTIONARY
  5
D875
330
D874
100
AcDbDictionary
280
     1
281
     1
  3
BUMPTILE
360
D877
  3
DIFFUSETILE
360
D876
  3
OPACITYTILE
360
D87A
  3
REFLECTIONTILE
360
D879
  3
REFRACTIONTILE
360
D87B
  3
SPECULARTILE
360
D878
  0
DICTIONARY
  5
D885
330
D884
100
AcDbDictionary
280
     1
281
     1
  3
BUMPTILE
360
D887
  3
DIFFUSETILE
360
D886
  3
OPACITYTILE
360
D88A
  3
REFLECTIONTILE
360
D889
  3
REFRACTIONTILE
360
D88B
  3
SPECULARTILE
360
D888
  0
DICTIONARY
  5
DFB9
330
D8A8
100
AcDbDictionary
280
     1
281
     1
  3
ACAD_ROUNDTRIP_2008_TABLESTYLE_CELLSTYLEMAP
360
DFBA
  0
XRECORD
  5
D87F
102
{ACAD_REACTORS
330
D87D
102
}
330
D87D
100
AcDbXrecord
280
     1
270
     1
271
     1
  0
XRECORD
  5
D87E
102
{ACAD_REACTORS
330
D87D
102
}
330
D87D
100
AcDbXrecord
280
     1
270
     1
271
     1
  0
XRECORD
  5
D882
102
{ACAD_REACTORS
330
D87D
102
}
330
D87D
100
AcDbXrecord
280
     1
270
     1
271
     1
  0
XRECORD
  5
D881
102
{ACAD_REACTORS
330
D87D
102
}
330
D87D
100
AcDbXrecord
280
     1
270
     1
271
     1
  0
XRECORD
  5
D883
102
{ACAD_REACTORS
330
D87D
102
}
330
D87D
100
AcDbXrecord
280
     1
270
     1
271
     1
  0
XRECORD
  5
D880
102
{ACAD_REACTORS
330
D87D
102
}
330
D87D
100
AcDbXrecord
280
     1
270
     1
271
     1
  0
XRECORD
  5
D877
102
{ACAD_REACTORS
330
D875
102
}
330
D875
100
AcDbXrecord
280
     1
270
     1
271
     1
  0
XRECORD
  5
D876
102
{ACAD_REACTORS
330
D875
102
}
330
D875
100
AcDbXrecord
280
     1
270
     1
271
     1
  0
XRECORD
  5
D87A
102
{ACAD_REACTORS
330
D875
102
}
330
D875
100
AcDbXrecord
280
     1
270
     1
271
     1
  0
XRECORD
  5
D879
102
{ACAD_REACTORS
330
D875
102
}
330
D875
100
AcDbXrecord
280
     1
270
     1
271
     1
  0
XRECORD
  5
D87B
102
{ACAD_REACTORS
330
D875
102
}
330
D875
100
AcDbXrecord
280
     1
270
     1
271
     1
  0
XRECORD
  5
D878
102
{ACAD_REACTORS
330
D875
102
}
330
D875
100
AcDbXrecord
280
     1
270
     1
271
     1
  0
XRECORD
  5
D887
102
{ACAD_REACTORS
330
D885
102
}
330
D885
100
AcDbXrecord
280
     1
270
     1
271
     1
  0
XRECORD
  5
D886
102
{ACAD_REACTORS
330
D885
102
}
330
D885
100
AcDbXrecord
280
     1
270
     1
271
     1
  0
XRECORD
  5
D88A
102
{ACAD_REACTORS
330
D885
102
}
330
D885
100
AcDbXrecord
280
     1
270
     1
271
     1
  0
XRECORD
  5
D889
102
{ACAD_REACTORS
330
D885
102
}
330
D885
100
AcDbXrecord
280
     1
270
     1
271
     1
  0
XRECORD
  5
D88B
102
{ACAD_REACTORS
330
D885
102
}
330
D885
100
AcDbXrecord
280
     1
270
     1
271
     1
  0
XRECORD
  5
D888
102
{ACAD_REACTORS
330
D885
102
}
330
D885
100
AcDbXrecord
280
     1
270
     1
271
     1
  0
CELLSTYLEMAP
  5
DFBA
102
{ACAD_REACTORS
330
DFB9
102
}
330
DFB9
100
AcDbCellStyleMap
 90
        3
300
CELLSTYLE
  1
TABLEFORMAT_BEGIN
 90
        5
170
     1
 91
        0
 92
    32768
 62
   257
 93
        1
300
CONTENTFORMAT
  1
CONTENTFORMAT_BEGIN
 90
        0
 91
        0
 92
      512
 93
        0
300

 40
0.0
140
1.0
 94
        5
 62
     0
340
F
144
6.0
309
CONTENTFORMAT_END
171
     1
301
MARGIN
  1
CELLMARGIN_BEGIN
 40
1.5
 40
1.5
 40
1.5
 40
1.5
 40
4.5
 40
4.5
309
CELLMARGIN_END
 94
        6
 95
        1
302
GRIDFORMAT
  1
GRIDFORMAT_BEGIN
 90
        0
 91
        1
 62
     0
 92
       -2
340
0
 93
        0
 40
1.125
309
GRIDFORMAT_END
 95
        2
302
GRIDFORMAT
  1
GRIDFORMAT_BEGIN
 90
        0
 91
        1
 62
     0
 92
       -2
340
0
 93
        0
 40
1.125
309
GRIDFORMAT_END
 95
        4
302
GRIDFORMAT
  1
GRIDFORMAT_BEGIN
 90
        0
 91
        1
 62
     0
 92
       -2
340
0
 93
        0
 40
1.125
309
GRIDFORMAT_END
 95
        8
302
GRIDFORMAT
  1
GRIDFORMAT_BEGIN
 90
        0
 91
        1
 62
     0
 92
       -2
340
0
 93
        0
 40
1.125
309
GRIDFORMAT_END
 95
       16
302
GRIDFORMAT
  1
GRIDFORMAT_BEGIN
 90
        0
 91
        1
 62
     0
 92
       -2
340
0
 93
        0
 40
1.125
309
GRIDFORMAT_END
 95
       32
302
GRIDFORMAT
  1
GRIDFORMAT_BEGIN
 90
        0
 91
        1
 62
     0
 92
       -2
340
0
 93
        0
 40
1.125
309
GRIDFORMAT_END
309
TABLEFORMAT_END
  1
CELLSTYLE_BEGIN
 90
        1
 91
        1
300
_TITLE
309
CELLSTYLE_END
300
CELLSTYLE
  1
TABLEFORMAT_BEGIN
 90
        5
170
     1
 91
        0
 92
        0
 62
   257
 93
        1
300
CONTENTFORMAT
  1
CONTENTFORMAT_BEGIN
 90
        0
 91
        0
 92
      512
 93
        0
300

 40
0.0
140
1.0
 94
        5
 62
     0
340
F
144
4.5
309
CONTENTFORMAT_END
171
     1
301
MARGIN
  1
CELLMARGIN_BEGIN
 40
1.5
 40
1.5
 40
1.5
 40
1.5
 40
4.5
 40
4.5
309
CELLMARGIN_END
 94
        6
 95
        1
302
GRIDFORMAT
  1
GRIDFORMAT_BEGIN
 90
        0
 91
        1
 62
     0
 92
       -2
340
0
 93
        0
 40
1.125
309
GRIDFORMAT_END
 95
        2
302
GRIDFORMAT
  1
GRIDFORMAT_BEGIN
 90
        0
 91
        1
 62
     0
 92
       -2
340
0
 93
        0
 40
1.125
309
GRIDFORMAT_END
 95
        4
302
GRIDFORMAT
  1
GRIDFORMAT_BEGIN
 90
        0
 91
        1
 62
     0
 92
       -2
340
0
 93
        0
 40
1.125
309
GRIDFORMAT_END
 95
        8
302
GRIDFORMAT
  1
GRIDFORMAT_BEGIN
 90
        0
 91
        1
 62
     0
 92
       -2
340
0
 93
        0
 40
1.125
309
GRIDFORMAT_END
 95
       16
302
GRIDFORMAT
  1
GRIDFORMAT_BEGIN
 90
        0
 91
        1
 62
     0
 92
       -2
340
0
 93
        0
 40
1.125
309
GRIDFORMAT_END
 95
       32
302
GRIDFORMAT
  1
GRIDFORMAT_BEGIN
 90
        0
 91
        1
 62
     0
 92
       -2
340
0
 93
        0
 40
1.125
309
GRIDFORMAT_END
309
TABLEFORMAT_END
  1
CELLSTYLE_BEGIN
 90
        2
 91
        1
300
_HEADER
309
CELLSTYLE_END
300
CELLSTYLE
  1
TABLEFORMAT_BEGIN
 90
        5
170
     1
 91
        0
 92
        0
 62
   257
 93
        1
300
CONTENTFORMAT
  1
CONTENTFORMAT_BEGIN
 90
        0
 91
        0
 92
      512
 93
        0
300

 40
0.0
140
1.0
 94
        2
 62
     0
340
F
144
4.5
309
CONTENTFORMAT_END
171
     1
301
MARGIN
  1
CELLMARGIN_BEGIN
 40
1.5
 40
1.5
 40
1.5
 40
1.5
 40
4.5
 40
4.5
309
CELLMARGIN_END
 94
        6
 95
        1
302
GRIDFORMAT
  1
GRIDFORMAT_BEGIN
 90
        0
 91
        1
 62
     0
 92
       -2
340
0
 93
        0
 40
1.125
309
GRIDFORMAT_END
 95
        2
302
GRIDFORMAT
  1
GRIDFORMAT_BEGIN
 90
        0
 91
        1
 62
     0
 92
       -2
340
0
 93
        0
 40
1.125
309
GRIDFORMAT_END
 95
        4
302
GRIDFORMAT
  1
GRIDFORMAT_BEGIN
 90
        0
 91
        1
 62
     0
 92
       -2
340
0
 93
        0
 40
1.125
309
GRIDFORMAT_END
 95
        8
302
GRIDFORMAT
  1
GRIDFORMAT_BEGIN
 90
        0
 91
        1
 62
     0
 92
       -2
340
0
 93
        0
 40
1.125
309
GRIDFORMAT_END
 95
       16
302
GRIDFORMAT
  1
GRIDFORMAT_BEGIN
 90
        0
 91
        1
 62
     0
 92
       -2
340
0
 93
        0
 40
1.125
309
GRIDFORMAT_END
 95
       32
302
GRIDFORMAT
  1
GRIDFORMAT_BEGIN
 90
        0
 91
        1
 62
     0
 92
       -2
340
0
 93
        0
 40
1.125
309
GRIDFORMAT_END
309
TABLEFORMAT_END
  1
CELLSTYLE_BEGIN
 90
        3
 91
        2
300
_DATA
309
CELLSTYLE_END
  0
ENDSEC
  0
SECTION
  2
ACDSDATA
 70
     2
 71
     8
  0
ACDSSCHEMA
 90
        0
  1
AcDb_Thumbnail_Schema
  2
AcDbDs::ID
280
    10
 91
        8
  2
Thumbnail_Data
280
    15
 91
        0
101
ACDSRECORD
 95
        0
 90
        1
  2
AcDbDs::TreatedAsObjectData
280
     1
291
     1
101
ACDSRECORD
 95
        0
 90
        2
  2
AcDbDs::Legacy
280
     1
291
     1
101
ACDSRECORD
  1
AcDbDs::ID
 90
        3
  2
AcDs:Indexable
280
     1
291
     1
101
ACDSRECORD
  1
AcDbDs::ID
 90
        4
  2
AcDbDs::HandleAttribute
280
     7
282
     1
  0
ACDSSCHEMA
 90
        1
  1
AcDbDs::TreatedAsObjectDataSchema
  2
AcDbDs::TreatedAsObjectData
280
     1
 91
        0
  0
ACDSSCHEMA
 90
        2
  1
AcDbDs::LegacySchema
  2
AcDbDs::Legacy
280
     1
 91
        0
  0
ACDSSCHEMA
 90
        3
  1
AcDbDs::IndexedPropertySchema
  2
AcDs:Indexable
280
     1
 91
        0
  0
ACDSSCHEMA
 90
        4
  1
AcDbDs::HandleAttributeSchema
  2
AcDbDs::HandleAttribute
280
     7
 91
        1
284
     1
  0
ACDSRECORD
 90
        0
  2
AcDbDs::ID
280
    10
320
D8C2
  2
Thumbnail_Data
280
    15
 94
     1165
310
89504E470D0A1A0A0000000D4948445200000100000000670803000000D82A6C0200000300504C5445000000FFFFFF0000000000000000000000000000000000000000000000000000000000330000660000990000CC0000FF0033000033330033660033990033CC0033FF0066000066330066660066990066CC0066FF0099
310
000099330099660099990099CC0099FF00CC0000CC3300CC6600CC9900CCCC00CCFF00FF0000FF3300FF6600FF9900FFCC00FFFF3300003300333300663300993300CC3300FF3333003333333333663333993333CC3333FF3366003366333366663366993366CC3366FF3399003399333399663399993399CC3399FF33CC00
310
33CC3333CC6633CC9933CCCC33CCFF33FF0033FF3333FF6633FF9933FFCC33FFFF6600006600336600666600996600CC6600FF6633006633336633666633996633CC6633FF6666006666336666666666996666CC6666FF6699006699336699666699996699CC6699FF66CC0066CC3366CC6666CC9966CCCC66CCFF66FF0066
310
FF3366FF6666FF9966FFCC66FFFF9900009900339900669900999900CC9900FF9933009933339933669933999933CC9933FF9966009966339966669966999966CC9966FF9999009999339999669999999999CC9999FF99CC0099CC3399CC6699CC9999CCCC99CCFF99FF0099FF3399FF6699FF9999FFCC99FFFFCC0000CC00
310
33CC0066CC0099CC00CCCC00FFCC3300CC3333CC3366CC3399CC33CCCC33FFCC6600CC6633CC6666CC6699CC66CCCC66FFCC9900CC9933CC9966CC9999CC99CCCC99FFCCCC00CCCC33CCCC66CCCC99CCCCCCCCCCFFCCFF00CCFF33CCFF66CCFF99CCFFCCCCFFFFFF0000FF0033FF0066FF0099FF00CCFF00FFFF3300FF3333
310
FF3366FF3399FF33CCFF33FFFF6600FF6633FF6666FF6699FF66CCFF66FFFF9900FF9933FF9966FF9999FF99CCFF99FFFFCC00FFCC33FFCC66FFCC99FFCCCCFFCCFFFFFF00FFFF33FFFF66FFFF99FFFFCCFFFFFF0000000D0D0D1A1A1A2828283535354343435050505D5D5D6B6B6B787878868686939393A1A1A1AEAEAEBB
310
BBBBC9C9C9D6D6D6E4E4E4F1F1F1FFFFFF0000000000000000000000000000000000000000000000000000000000003AE5ACE9000001484944415478DAEDDC5B6E83301005509673F7BFC2B62A8144B1311F7D80E7DC2F6B1229F8C4264C5ECB22223F9BFC572E0350EC7101B4B6C0E7D13CD6E4D7A8DA0AC83AED3CCE08F5
310
00BEA7BDAD859200EB1E28B902BC0A00000000000000670E2F5500FEA089B502000000000000000000005C13E0D73FCED10D0200000000802900322BC0F135C0B95BFAD70ED707C871214F136ECCFF7D7C37800C4AE9D5B3D7D202BA09C0F0A0D32B672BA6BD442669867AC3BCEF8CE62E2800B0F4CE12530364302C04B0DC
310
1B20A3EAF40019147B00990EA07336EF02E475705F80C15B62DD2DB0DD73768061F5B81FD00E03000000000000F7BD0E00303BC0D9BE1EC094002FCDE0E0CDBD4957C0A8C59F1FA0F1B4C7B7C52B6D81FD27B5599E06B500D639EF4FBF2D50670BF89A9C6E1000000000005400A8FE474A22222222222222222222222272C9
310
7C0039EA9629D7782A250000000049454E44AE426082
  0
ENDSEC
  0
EOF
