  0
SECTION
  2
HEADER
  9
$ACADVER
  1
AC1032
  9
$ACADMAINTVER
 90
      174
  9
$DWGCODEPAGE
  3
ANSI_932
  9
$LASTSAVEDBY
  1
satoshi.ogura
  9
$REQUIREDVERSIONS
160
                 0
  9
$INSBASE
 10
268.4340021441085
 20
176.78614296069
 30
0.0
  9
$EXTMIN
 10
366.7493303720696
 20
354.1879091166875
 30
0.0
  9
$EXTMAX
 10
962.5027839794851
 20
618.4337152848836
 30
0.0
  9
$LIMMIN
 10
0.0
 20
0.0
  9
$LIMMAX
 10
554.0
 20
395.0
  9
$ORTHOMODE
 70
     1
  9
$REGENMODE
 70
     1
  9
$FILLMODE
 70
     1
  9
$QTEXTMODE
 70
     0
  9
$MIRRTEXT
 70
     1
  9
$LTSCALE
 40
2.0
  9
$ATTMODE
 70
     1
  9
$TEXTSIZE
 40
10.0
  9
$TRACEWID
 40
0.2
  9
$TEXTSTYLE
  7
KANJI
  9
$CLAYER
  8
1外形線
  9
$CELTYPE
  6
BYLAYER
  9
$CECOLOR
 62
   256
  9
$CELTSCALE
 40
3.0
  9
$DISPSILH
 70
     0
  9
$DIMSCALE
 40
1.0
  9
$DIMASZ
 40
1.0
  9
$DIMEXO
 40
1.0
  9
$DIMDLI
 40
6.0
  9
$DIMRND
 40
0.0
  9
$DIMDLE
 40
0.0
  9
$DIMEXE
 40
1.0
  9
$DIMTP
 40
0.0
  9
$DIMTM
 40
0.0
  9
$DIMTXT
 40
2.5
  9
$DIMCEN
 40
0.0
  9
$DIMTSZ
 40
0.0
  9
$DIMTOL
 70
     0
  9
$DIMLIM
 70
     0
  9
$DIMTIH
 70
     0
  9
$DIMTOH
 70
     0
  9
$DIMSE1
 70
     0
  9
$DIMSE2
 70
     0
  9
$DIMTAD
 70
     1
  9
$DIMZIN
 70
     8
  9
$DIMBLK
  1

  9
$DIMASO
 70
     1
  9
$DIMSHO
 70
     1
  9
$DIMPOST
  1

  9
$DIMAPOST
  1

  9
$DIMALT
 70
     0
  9
$DIMALTD
 70
     2
  9
$DIMALTF
 40
25.4
  9
$DIMLFAC
 40
1.0
  9
$DIMTOFL
 70
     1
  9
$DIMTVP
 40
0.0
  9
$DIMTIX
 70
     0
  9
$DIMSOXD
 70
     0
  9
$DIMSAH
 70
     1
  9
$DIMBLK1
  1
1
  9
$DIMBLK2
  1
1
  9
$DIMSTYLE
  2
STANDARD
  9
$DIMCLRD
 70
     0
  9
$DIMCLRE
 70
     0
  9
$DIMCLRT
 70
     0
  9
$DIMTFAC
 40
1.0
  9
$DIMGAP
 40
0.5
  9
$DIMJUST
 70
     0
  9
$DIMSD1
 70
     0
  9
$DIMSD2
 70
     0
  9
$DIMTOLJ
 70
     1
  9
$DIMTZIN
 70
     8
  9
$DIMALTZ
 70
     8
  9
$DIMALTTZ
 70
     8
  9
$DIMUPT
 70
     0
  9
$DIMDEC
 70
     4
  9
$DIMTDEC
 70
     4
  9
$DIMALTU
 70
     2
  9
$DIMALTTD
 70
     2
  9
$DIMTXSTY
  7
KANJI
  9
$DIMAUNIT
 70
     0
  9
$DIMADEC
 70
     0
  9
$DIMALTRND
 40
0.0
  9
$DIMAZIN
 70
     0
  9
$DIMDSEP
 70
    46
  9
$DIMATFIT
 70
     3
  9
$DIMFRAC
 70
     0
  9
$DIMLDRBLK
  1

  9
$DIMLUNIT
 70
     2
  9
$DIMLWD
 70
    -2
  9
$DIMLWE
 70
    -2
  9
$DIMTMOVE
 70
     0
  9
$DIMFXL
 40
1.0
  9
$DIMFXLON
 70
     0
  9
$DIMJOGANG
 40
0.7853981633974483
  9
$DIMTFILL
 70
     0
  9
$DIMTFILLCLR
 70
     0
  9
$DIMARCSYM
 70
     0
  9
$DIMLTYPE
  6

  9
$DIMLTEX1
  6

  9
$DIMLTEX2
  6

  9
$DIMTXTDIRECTION
 70
     0
  9
$LUNITS
 70
     2
  9
$LUPREC
 70
     4
  9
$SKETCHINC
 40
0.1
  9
$FILLETRAD
 40
0.0
  9
$AUNITS
 70
     0
  9
$AUPREC
 70
     0
  9
$MENU
  1
tcad-s
  9
$ELEVATION
 40
0.0
  9
$PELEVATION
 40
0.0
  9
$THICKNESS
 40
0.0
  9
$LIMCHECK
 70
     0
  9
$CHAMFERA
 40
0.0
  9
$CHAMFERB
 40
0.0
  9
$CHAMFERC
 40
0.0
  9
$CHAMFERD
 40
0.0
  9
$SKPOLY
 70
     0
  9
$TDCREATE
 40
2452040.657719908
  9
$TDUCREATE
 40
2452040.282727292
  9
$TDUPDATE
 40
2459600.726805556
  9
$TDUUPDATE
 40
2459600.351805556
  9
$TDINDWG
 40
0.2010469444
  9
$TDUSRTIMER
 40
0.2010469444
  9
$USRTIMER
 70
     1
  9
$ANGBASE
 50
0.0
  9
$ANGDIR
 70
     0
  9
$PDMODE
 70
     0
  9
$PDSIZE
 40
2.399999999999999
  9
$PLINEWID
 40
0.0
  9
$SPLFRAME
 70
     0
  9
$SPLINETYPE
 70
     6
  9
$SPLINESEGS
 70
     8
  9
$HANDSEED
  5
17F81
  9
$SURFTAB1
 70
     6
  9
$SURFTAB2
 70
     6
  9
$SURFTYPE
 70
     6
  9
$SURFU
 70
     6
  9
$SURFV
 70
     6
  9
$UCSBASE
  2

  9
$UCSNAME
  2

  9
$UCSORG
 10
0.0
 20
0.0
 30
0.0
  9
$UCSXDIR
 10
1.0
 20
0.0
 30
0.0
  9
$UCSYDIR
 10
0.0
 20
1.0
 30
0.0
  9
$UCSORTHOREF
  2

  9
$UCSORTHOVIEW
 70
     0
  9
$UCSORGTOP
 10
0.0
 20
0.0
 30
0.0
  9
$UCSORGBOTTOM
 10
0.0
 20
0.0
 30
0.0
  9
$UCSORGLEFT
 10
0.0
 20
0.0
 30
0.0
  9
$UCSORGRIGHT
 10
0.0
 20
0.0
 30
0.0
  9
$UCSORGFRONT
 10
0.0
 20
0.0
 30
0.0
  9
$UCSORGBACK
 10
0.0
 20
0.0
 30
0.0
  9
$PUCSBASE
  2

  9
$PUCSNAME
  2

  9
$PUCSORG
 10
0.0
 20
0.0
 30
0.0
  9
$PUCSXDIR
 10
1.0
 20
0.0
 30
0.0
  9
$PUCSYDIR
 10
0.0
 20
1.0
 30
0.0
  9
$PUCSORTHOREF
  2

  9
$PUCSORTHOVIEW
 70
     0
  9
$PUCSORGTOP
 10
0.0
 20
0.0
 30
0.0
  9
$PUCSORGBOTTOM
 10
0.0
 20
0.0
 30
0.0
  9
$PUCSORGLEFT
 10
0.0
 20
0.0
 30
0.0
  9
$PUCSORGRIGHT
 10
0.0
 20
0.0
 30
0.0
  9
$PUCSORGFRONT
 10
0.0
 20
0.0
 30
0.0
  9
$PUCSORGBACK
 10
0.0
 20
0.0
 30
0.0
  9
$USERI1
 70
     0
  9
$USERI2
 70
     0
  9
$USERI3
 70
     0
  9
$USERI4
 70
     0
  9
$USERI5
 70
     0
  9
$USERR1
 40
0.0
  9
$USERR2
 40
0.0
  9
$USERR3
 40
0.0
  9
$USERR4
 40
0.0
  9
$USERR5
 40
0.0
  9
$WORLDVIEW
 70
     1
  9
$SHADEDGE
 70
     3
  9
$SHADEDIF
 70
    70
  9
$TILEMODE
 70
     1
  9
$MAXACTVP
 70
    16
  9
$PINSBASE
 10
0.0
 20
0.0
 30
0.0
  9
$PLIMCHECK
 70
     0
  9
$PEXTMIN
 10
1.000000000000000E+20
 20
1.000000000000000E+20
 30
1.000000000000000E+20
  9
$PEXTMAX
 10
-1.000000000000000E+20
 20
-1.000000000000000E+20
 30
-1.000000000000000E+20
  9
$PLIMMIN
 10
0.0
 20
0.0
  9
$PLIMMAX
 10
12.0
 20
9.0
  9
$UNITMODE
 70
     0
  9
$VISRETAIN
 70
     0
  9
$PLINEGEN
 70
     0
  9
$PSLTSCALE
 70
     0
  9
$TREEDEPTH
 70
  3020
  9
$CMLSTYLE
  2
STANDARD
  9
$CMLJUST
 70
     0
  9
$CMLSCALE
 40
1.0
  9
$PROXYGRAPHICS
 70
     1
  9
$MEASUREMENT
 70
     1
  9
$CELWEIGHT
370
    -1
  9
$ENDCAPS
280
     0
  9
$JOINSTYLE
280
     0
  9
$LWDISPLAY
290
     0
  9
$INSUNITS
 70
     0
  9
$HYPERLINKBASE
  1

  9
$STYLESHEET
  1

  9
$XEDIT
290
     1
  9
$CEPSNTYPE
380
     0
  9
$PSTYLEMODE
290
     1
  9
$FINGERPRINTGUID
  2
{FA3C1835-F1C4-4CF6-8EF1-CCF541A7EB67}
  9
$VERSIONGUID
  2
{398126A2-9AC8-1341-9826-F95C6C217518}
  9
$EXTNAMES
290
     1
  9
$PSVPSCALE
 40
0.0
  9
$OLESTARTUP
290
     0
  9
$SORTENTS
280
    96
  9
$INDEXCTL
280
     0
  9
$HIDETEXT
280
     0
  9
$XCLIPFRAME
280
     2
  9
$HALOGAP
280
     0
  9
$OBSCOLOR
 70
   257
  9
$OBSLTYPE
280
     0
  9
$INTERSECTIONDISPLAY
280
     0
  9
$INTERSECTIONCOLOR
 70
   257
  9
$DIMASSOC
280
     1
  9
$PROJECTNAME
  1

  9
$CAMERADISPLAY
290
     0
  9
$LENSLENGTH
 40
50.0
  9
$CAMERAHEIGHT
 40
0.0
  9
$STEPSPERSEC
 40
2.0
  9
$STEPSIZE
 40
6.0
  9
$3DDWFPREC
 40
2.0
  9
$PSOLWIDTH
 40
0.25
  9
$PSOLHEIGHT
 40
4.0
  9
$LOFTANG1
 40
1.570796326794896
  9
$LOFTANG2
 40
1.570796326794896
  9
$LOFTMAG1
 40
0.0
  9
$LOFTMAG2
 40
0.0
  9
$LOFTPARAM
 70
     7
  9
$LOFTNORMALS
280
     1
  9
$LATITUDE
 40
37.795
  9
$LONGITUDE
 40
-122.394
  9
$NORTHDIRECTION
 40
0.0
  9
$TIMEZONE
 70
 -8000
  9
$LIGHTGLYPHDISPLAY
280
     1
  9
$TILEMODELIGHTSYNCH
280
     1
  9
$CMATERIAL
347
DD72
  9
$SOLIDHIST
280
     0
  9
$SHOWHIST
280
     1
  9
$DWFFRAME
280
     2
  9
$DGNFRAME
280
     0
  9
$REALWORLDSCALE
290
     1
  9
$INTERFERECOLOR
 62
     1
  9
$INTERFEREOBJVS
345
DD94
  9
$INTERFEREVPVS
346
DD91
  9
$CSHADOW
280
     0
  9
$SHADOWPLANELOCATION
 40
0.0
  0
ENDSEC
  0
SECTION
  2
CLASSES
  0
CLASS
  1
DICTIONARYVAR
  2
AcDbDictionaryVar
  3
ObjectDBX Classes
 90
        0
 91
       11
280
     0
281
     0
  0
CLASS
  1
ACDBDICTIONARYWDFLT
  2
AcDbDictionaryWithDefault
  3
ObjectDBX Classes
 90
        0
 91
        1
280
     0
281
     0
  0
CLASS
  1
MATERIAL
  2
AcDbMaterial
  3
ObjectDBX Classes
 90
     1153
 91
        3
280
     0
281
     0
  0
CLASS
  1
VISUALSTYLE
  2
AcDbVisualStyle
  3
ObjectDBX Classes
 90
     4095
 91
       25
280
     0
281
     0
  0
CLASS
  1
TABLESTYLE
  2
AcDbTableStyle
  3
ObjectDBX Classes
 90
     4095
 91
        1
280
     0
281
     0
  0
CLASS
  1
SCALE
  2
AcDbScale
  3
ObjectDBX Classes
 90
     1153
 91
       17
280
     0
281
     0
  0
CLASS
  1
MLEADERSTYLE
  2
AcDbMLeaderStyle
  3
ACDB_MLEADERSTYLE_CLASS
 90
     4095
 91
        1
280
     0
281
     0
  0
CLASS
  1
MULTILEADER
  2
AcDbMLeader
  3
ACDB_MLEADER_CLASS
 90
     1025
 91
        0
280
     0
281
     1
  0
CLASS
  1
SORTENTSTABLE
  2
AcDbSortentsTable
  3
ObjectDBX Classes
 90
        0
 91
        3
280
     0
281
     0
  0
CLASS
  1
ACDBSECTIONVIEWSTYLE
  2
AcDbSectionViewStyle
  3
ObjectDBX Classes
 90
     1025
 91
        2
280
     0
281
     0
  0
CLASS
  1
ACDBDETAILVIEWSTYLE
  2
AcDbDetailViewStyle
  3
ObjectDBX Classes
 90
     1025
 91
        2
280
     0
281
     0
  0
CLASS
  1
CELLSTYLEMAP
  2
AcDbCellStyleMap
  3
ObjectDBX Classes
 90
     1152
 91
        2
280
     0
281
     0
  0
ENDSEC
  0
SECTION
  2
TABLES
  0
TABLE
  2
VPORT
  5
8
330
0
100
AcDbSymbolTable
 70
     1
  0
VPORT
  5
DD6D
330
8
100
AcDbSymbolTableRecord
100
AcDbViewportTableRecord
  2
*ACTIVE
 70
     0
 10
0.0
 20
0.0
 11
1.0
 21
1.0
 12
698.9633840561978
 22
471.6657365232989
 13
0.0
 23
0.0
 14
1.0
 24
1.0
 15
0.0
 25
0.0
 16
0.0
 26
0.0
 36
1.0
 17
0.0
 27
0.0
 37
0.0
 40
536.5209482656716
 41
2.476129032258064
 42
50.0
 43
0.0
 44
0.0
 50
0.0
 51
0.0
 71
     0
 72
  1000
 73
     1
 74
     1
 75
     0
 76
     0
 77
     0
 78
     1
281
     0
 65
     1
110
0.0
120
0.0
130
0.0
111
1.0
121
0.0
131
0.0
112
0.0
122
1.0
132
0.0
 79
     0
146
0.0
348
DD90
 60
     3
 61
     5
292
     1
282
     1
141
0.0
142
0.0
 63
   250
421
  3355443
1001
ACAD_NAV_VCDISPLAY
1070
     3
  0
ENDTAB
  0
TABLE
  2
LTYPE
  5
5
330
0
100
AcDbSymbolTable
 70
     7
  0
LTYPE
  5
11
330
5
100
AcDbSymbolTableRecord
100
AcDbLinetypeTableRecord
  2
BYBLOCK
 70
     0
  3

 72
    65
 73
     0
 40
0.0
  0
LTYPE
  5
12
330
5
100
AcDbSymbolTableRecord
100
AcDbLinetypeTableRecord
  2
BYLAYER
 70
     0
  3

 72
    65
 73
     0
 40
0.0
  0
LTYPE
  5
13
330
5
100
AcDbSymbolTableRecord
100
AcDbLinetypeTableRecord
  2
CONTINUOUS
 70
     0
  3
Solid line
 72
    65
 73
     0
 40
0.0
  0
LTYPE
  5
DEDE
330
5
100
AcDbSymbolTableRecord
100
AcDbLinetypeTableRecord
  2
CENTER
 70
     0
  3
____ _ ____ _ ____ _ ____ _ ____ _ ____ _ ____ 
 72
    65
 73
     4
 40
2.0
 49
1.25
 74
     0
 49
-0.25
 74
     0
 49
0.25
 74
     0
 49
-0.25
 74
     0
  0
LTYPE
  5
E394
330
5
100
AcDbSymbolTableRecord
100
AcDbLinetypeTableRecord
  2
PHANTOM2
 70
     0
  3
Phantom (.5x) ___ _ _ ___ _ _ ___ _ _ ___ _ _
 72
    65
 73
     6
 40
31.75
 49
15.875
 74
     0
 49
-3.174999999999999
 74
     0
 49
3.174999999999999
 74
     0
 49
-3.174999999999999
 74
     0
 49
3.174999999999999
 74
     0
 49
-3.174999999999999
 74
     0
  0
LTYPE
  5
E395
330
5
100
AcDbSymbolTableRecord
100
AcDbLinetypeTableRecord
  2
PHANTOM
 70
     0
  3
______  __  __  ______  __  __  ______  __  __ 
 72
    65
 73
     6
 40
2.5
 49
1.25
 74
     0
 49
-0.25
 74
     0
 49
0.25
 74
     0
 49
-0.25
 74
     0
 49
0.25
 74
     0
 49
-0.25
 74
     0
  0
LTYPE
  5
FAC0
330
5
100
AcDbSymbolTableRecord
100
AcDbLinetypeTableRecord
  2
中心線1
 70
     0
  3
___ _ ___ _ ___
 72
    65
 73
     4
 40
18.0
 49
12.0
 74
     0
 49
-2.0
 74
     0
 49
2.0
 74
     0
 49
-2.0
 74
     0
  0
LTYPE
  5
1323B
330
5
100
AcDbSymbolTableRecord
100
AcDbLinetypeTableRecord
  2
HIDDENX2
 70
     0
  3
Hidden (2x) ____ ____ ____ ____ ____ ____ ____
 72
    65
 73
     2
 40
0.75
 49
0.5
 74
     0
 49
-0.25
 74
     0
  0
LTYPE
  5
14845
330
5
100
AcDbSymbolTableRecord
100
AcDbLinetypeTableRecord
  2
AM_ISO02W050x2
 70
     0
  3
 _ _ _ _ _ _ _ _ _ _ _ _
 72
    65
 73
     2
 40
3.75
 49
3.0
 74
     0
 49
-0.75
 74
     0
  0
ENDTAB
  0
TABLE
  2
LAYER
  5
2
102
{ACAD_XDICTIONARY
360
DEE4
102
}
330
0
100
AcDbSymbolTable
 70
    17
  0
LAYER
  5
E
102
{ACAD_XDICTIONARY
360
F85A
102
}
330
2
100
AcDbSymbolTableRecord
100
AcDbLayerTableRecord
  2
0
 70
     0
 62
     7
  6
CONTINUOUS
370
    -3
390
DD70
347
DD82
348
0
  0
LAYER
  5
40
102
{ACAD_XDICTIONARY
360
F85C
102
}
330
2
100
AcDbSymbolTableRecord
100
AcDbLayerTableRecord
  2
1外形線
 70
     0
 62
     3
  6
CONTINUOUS
370
    -3
390
DD70
347
DD82
348
0
  0
LAYER
  5
DEDF
102
{ACAD_XDICTIONARY
360
DEE0
102
}
330
2
100
AcDbSymbolTableRecord
100
AcDbLayerTableRecord
  2
2寸法線
 70
     0
 62
     2
  6
CONTINUOUS
370
    -3
390
DD70
347
DD82
348
0
  0
LAYER
  5
DEE1
330
2
100
AcDbSymbolTableRecord
100
AcDbLayerTableRecord
  2
DEFPOINTS
 70
     0
 62
     7
  6
CONTINUOUS
290
     0
370
    -3
390
DD70
347
DD82
348
0
  0
LAYER
  5
E396
102
{ACAD_XDICTIONARY
360
E397
102
}
330
2
100
AcDbSymbolTableRecord
100
AcDbLayerTableRecord
  2
6図枠
 70
     0
 62
     7
  6
CONTINUOUS
370
    -3
390
DD70
347
DD82
348
0
  0
LAYER
  5
E398
102
{ACAD_XDICTIONARY
360
E399
102
}
330
2
100
AcDbSymbolTableRecord
100
AcDbLayerTableRecord
  2
C4
 70
     0
 62
     3
  6
CONTINUOUS
370
    -3
390
DD70
347
DD82
348
0
  0
LAYER
  5
E39A
102
{ACAD_XDICTIONARY
360
E39B
102
}
330
2
100
AcDbSymbolTableRecord
100
AcDbLayerTableRecord
  2
SUNPOU
 70
     0
 62
     2
  6
CONTINUOUS
370
    -3
390
DD70
347
DD82
348
0
  0
LAYER
  5
E39C
102
{ACAD_XDICTIONARY
360
E39D
102
}
330
2
100
AcDbSymbolTableRecord
100
AcDbLayerTableRecord
  2
3補助線
 70
     0
 62
     4
  6
CONTINUOUS
370
     9
390
DD70
347
DD82
348
0
  0
LAYER
  5
FAC1
102
{ACAD_XDICTIONARY
360
FAC2
102
}
330
2
100
AcDbSymbolTableRecord
100
AcDbLayerTableRecord
  2
1ﾀﾞｸﾄｶﾊﾞｰ
 70
     0
 62
     3
  6
CONTINUOUS
370
    -3
390
DD70
347
DD82
348
0
  0
LAYER
  5
FAC3
102
{ACAD_XDICTIONARY
360
FAC4
102
}
330
2
100
AcDbSymbolTableRecord
100
AcDbLayerTableRecord
  2
4寸法線
 70
     0
 62
     2
  6
CONTINUOUS
370
    -3
390
DD70
347
DD82
348
0
  0
LAYER
  5
FAC5
102
{ACAD_XDICTIONARY
360
FAC6
102
}
330
2
100
AcDbSymbolTableRecord
100
AcDbLayerTableRecord
  2
5図枠
 70
     0
 62
     7
  6
CONTINUOUS
370
    -3
390
DD70
347
DD82
348
0
  0
LAYER
  5
FAC7
102
{ACAD_XDICTIONARY
360
FAC8
102
}
330
2
100
AcDbSymbolTableRecord
100
AcDbLayerTableRecord
  2
2ｶﾊﾞｰ
 70
     0
 62
     3
  6
CONTINUOUS
370
    -3
390
DD70
347
DD82
348
0
  0
LAYER
  5
FAC9
330
2
100
AcDbSymbolTableRecord
100
AcDbLayerTableRecord
  2
L6文字
 70
     0
 62
     2
  6
CONTINUOUS
370
     9
390
DD70
347
DD82
348
0
1001
AcAecLayerStandard
1000

1000

1001
ACCMTRANSPARENCY
1071
        0
  0
LAYER
  5
10E22
330
2
100
AcDbSymbolTableRecord
100
AcDbLayerTableRecord
  2
L7中心
 70
     0
 62
     4
  6
CENTER
370
     9
390
DD70
347
DD82
348
0
1001
AcAecLayerStandard
1000

1000

1001
ACCMTRANSPARENCY
1071
        0
  0
LAYER
  5
10E23
102
{ACAD_XDICTIONARY
360
10E24
102
}
330
2
100
AcDbSymbolTableRecord
100
AcDbLayerTableRecord
  2
5寸法線
 70
     0
 62
     2
  6
CONTINUOUS
370
    -3
390
DD70
347
DD82
348
0
  0
LAYER
  5
10E25
102
{ACAD_XDICTIONARY
360
10E26
102
}
330
2
100
AcDbSymbolTableRecord
100
AcDbLayerTableRecord
  2
キャップ
 70
     0
 62
     5
  6
CONTINUOUS
370
    -3
390
DD70
347
DD82
348
0
  0
LAYER
  5
10E27
102
{ACAD_XDICTIONARY
360
10E28
102
}
330
2
100
AcDbSymbolTableRecord
100
AcDbLayerTableRecord
  2
ｶﾊﾞｰ
 70
     0
 62
     3
  6
CONTINUOUS
370
    -3
390
DD70
347
DD82
348
0
  0
ENDTAB
  0
TABLE
  2
STYLE
  5
3
330
0
100
AcDbSymbolTable
 70
     6
  0
STYLE
  5
F
330
3
100
AcDbSymbolTableRecord
100
AcDbTextStyleTableRecord
  2
STANDARD
 70
     0
 40
0.0
 41
1.0
 50
0.0
 71
     0
 42
0.2
  3
txt
  4

  0
STYLE
  5
3B
330
3
100
AcDbSymbolTableRecord
100
AcDbTextStyleTableRecord
  2
KANJI
 70
     0
 40
0.0
 41
1.0
 50
0.0
 71
     0
 42
10.0
  3
simplex
  4
bigfont
  0
STYLE
  5
E39E
330
3
100
AcDbSymbolTableRecord
100
AcDbTextStyleTableRecord
  2
NAKAMUKI
 70
     0
 40
0.0
 41
1.0
 50
0.0
 71
     0
 42
4.0
  3
swissbo.ttf
  4

1001
ACAD
1000
Swis721 BdOul BT
1071
       82
  0
STYLE
  5
E39F
330
3
100
AcDbSymbolTableRecord
100
AcDbTextStyleTableRecord
  2
S_KANJI_M
 70
     0
 40
2.799999999999998
 41
0.8
 50
0.0
 71
     0
 42
2.799999999999998
  3
simplex.shx
  4
bigfont.shx
1001
ACADANNOTATIVE
1000
AnnotativeData
1002
{
1070
     1
1070
     1
1002
}
  0
STYLE
  5
FACA
330
3
100
AcDbSymbolTableRecord
100
AcDbTextStyleTableRecord
  2
ｺﾞｼｯｸ
 70
     0
 40
0.0
 41
1.0
 50
0.0
 71
     0
 42
2.5
  3

  4

1001
ACAD
1000
MS PGothic
1071
    32818
  0
STYLE
  5
14846
330
3
100
AcDbSymbolTableRecord
100
AcDbTextStyleTableRecord
  2
ゴシック
 70
     0
 40
0.0
 41
0.8
 50
0.0
 71
     0
 42
4.0
  3

  4

1001
ACAD
1000
MS Gothic
1071
    32817
  0
ENDTAB
  0
TABLE
  2
VIEW
  5
6
330
0
100
AcDbSymbolTable
 70
     1
  0
ENDTAB
  0
TABLE
  2
UCS
  5
7
330
0
100
AcDbSymbolTable
 70
     0
  0
ENDTAB
  0
TABLE
  2
APPID
  5
9
330
0
100
AcDbSymbolTable
 70
    14
  0
APPID
  5
10
330
9
100
AcDbSymbolTableRecord
100
AcDbRegAppTableRecord
  2
ACAD
 70
     0
  0
APPID
  5
DE72
330
9
100
AcDbSymbolTableRecord
100
AcDbRegAppTableRecord
  2
ACAD_NAV_VCDISPLAY
 70
     0
  0
APPID
  5
DE7C
330
9
100
AcDbSymbolTableRecord
100
AcDbRegAppTableRecord
  2
ACAD_EXEMPT_FROM_CAD_STANDARDS
 70
     0
  0
APPID
  5
DEE2
330
9
100
AcDbSymbolTableRecord
100
AcDbRegAppTableRecord
  2
ACAD_DSTYLE_DIMRADIAL_EXTENSION
 70
     0
  0
APPID
  5
DEE3
330
9
100
AcDbSymbolTableRecord
100
AcDbRegAppTableRecord
  2
ACAD_PSEXT
 70
     0
  0
APPID
  5
E3A2
330
9
100
AcDbSymbolTableRecord
100
AcDbRegAppTableRecord
  2
ACAD_DSTYLE_DIMJAG
 70
     0
  0
APPID
  5
E3A3
330
9
100
AcDbSymbolTableRecord
100
AcDbRegAppTableRecord
  2
ACAD_DSTYLE_DIMBREAK
 70
     0
  0
APPID
  5
E3A4
330
9
100
AcDbSymbolTableRecord
100
AcDbRegAppTableRecord
  2
ACAD_DSTYLE_DIMTALN
 70
     0
  0
APPID
  5
E3A5
330
9
100
AcDbSymbolTableRecord
100
AcDbRegAppTableRecord
  2
ACADANNOTATIVE
 70
     0
  0
APPID
  5
EF75
330
9
100
AcDbSymbolTableRecord
100
AcDbRegAppTableRecord
  2
AcDbDynamicBlockGUID
 70
     0
  0
APPID
  5
EF76
330
9
100
AcDbSymbolTableRecord
100
AcDbRegAppTableRecord
  2
GradientColor1ACI
 70
     0
  0
APPID
  5
EF77
330
9
100
AcDbSymbolTableRecord
100
AcDbRegAppTableRecord
  2
GradientColor2ACI
 70
     0
  0
APPID
  5
FACC
330
9
100
AcDbSymbolTableRecord
100
AcDbRegAppTableRecord
  2
AcAecLayerStandard
 70
     0
  0
APPID
  5
FACD
330
9
100
AcDbSymbolTableRecord
100
AcDbRegAppTableRecord
  2
ACCMTRANSPARENCY
 70
     0
  0
ENDTAB
  0
TABLE
  2
DIMSTYLE
  5
A
330
0
100
AcDbSymbolTable
 70
     5
100
AcDbDimStyleTable
 71
     1
340
E11
  0
DIMSTYLE
105
E11
330
A
100
AcDbSymbolTableRecord
100
AcDbDimStyleTableRecord
  2
STANDARD
 70
     0
 41
1.0
 42
1.0
 43
6.0
 44
1.0
 73
     0
 74
     0
 77
     1
 78
     8
140
2.5
141
0.0
147
0.5
172
     1
173
     1
284
     8
285
     8
286
     8
340
3B
341
C7B3
343
C7B3
344
C7B3
  0
DIMSTYLE
105
E3A0
330
A
100
AcDbSymbolTableRecord
100
AcDbDimStyleTableRecord
  2
M
 70
     0
 40
0.0
 41
2.0
 42
1.0
 43
0.0
 44
1.0
 73
     0
 74
     0
 77
     1
 78
     8
140
2.5
141
0.0
147
0.5
172
     1
173
     1
284
     8
340
3B
341
E2C6
343
E2C6
344
E2C6
  0
DIMSTYLE
105
E3A1
330
A
100
AcDbSymbolTableRecord
100
AcDbDimStyleTableRecord
  2
M$4
 70
     0
 40
0.0
 41
2.0
 42
1.0
 43
0.0
 44
1.0
 73
     0
 77
     1
 78
     8
140
2.5
141
0.0
147
0.5
173
     1
284
     8
340
3B
341
E2C6
343
E2C6
344
E2C6
1001
ACAD_DSTYLE_DIMBREAK
1070
   391
1040
3.75
1001
ACAD_DSTYLE_DIMJAG
1070
   388
1040
1.5
1001
ACAD_DSTYLE_DIMTALN
1070
   392
1070
     0
  0
DIMSTYLE
105
EF74
330
A
100
AcDbSymbolTableRecord
100
AcDbDimStyleTableRecord
  2
SYS_STANDARD
 70
     0
  4
"
 41
1.0
 42
1.0
 43
7.0
 44
1.0
 47
0.1
 48
0.1
 73
     0
 74
     0
 77
     1
 78
     8
 79
     2
140
3.0
141
0.0
143
0.0393701
146
0.71
147
0.4999999999999992
172
     1
176
   256
177
   256
178
     2
271
     2
272
     2
283
     0
284
     8
340
F
341
EDA8
342
EDAE
371
    -1
372
    -1
  0
DIMSTYLE
105
FACB
330
A
100
AcDbSymbolTableRecord
100
AcDbDimStyleTableRecord
  2
STANDARD$4
 70
     0
 41
1.0
 42
1.0
 43
6.0
 44
1.0
 73
     0
 77
     1
 78
     8
140
2.5
141
0.0
147
0.5
173
     1
284
     8
285
     8
286
     8
340
3B
341
E2C2
343
E2C2
344
E2C2
  0
ENDTAB
  0
TABLE
  2
BLOCK_RECORD
  5
1
330
0
100
AcDbSymbolTable
 70
    62
  0
BLOCK_RECORD
  5
17
330
1
100
AcDbSymbolTableRecord
100
AcDbBlockTableRecord
  2
*MODEL_SPACE
340
DDBC
 70
     0
280
     1
281
     0
  0
BLOCK_RECORD
  5
14
330
1
100
AcDbSymbolTableRecord
100
AcDbBlockTableRecord
  2
*PAPER_SPACE
340
DDBD
 70
     0
280
     1
281
     0
  0
BLOCK_RECORD
  5
C7B3
330
1
100
AcDbSymbolTableRecord
100
AcDbBlockTableRecord
  2
1
340
0
102
{BLKREFS
331
17F65
331
17F66
331
17F6E
331
17F6F
102
}
 70
     0
280
     1
281
     0
  0
BLOCK_RECORD
  5
E2BD
330
1
100
AcDbSymbolTableRecord
100
AcDbBlockTableRecord
  2
Y1
340
0
 70
     0
280
     1
281
     0
  0
BLOCK_RECORD
  5
E2C2
330
1
100
AcDbSymbolTableRecord
100
AcDbBlockTableRecord
  2
Y2
340
0
102
{BLKREFS
331
17E5F
331
17E60
331
17E6B
331
17E6C
102
}
 70
     0
280
     1
281
     0
  0
BLOCK_RECORD
  5
E2C6
330
1
100
AcDbSymbolTableRecord
100
AcDbBlockTableRecord
  2
2
340
0
102
{BLKREFS
102
}
 70
     0
280
     1
281
     0
  0
BLOCK_RECORD
  5
EDA8
330
1
100
AcDbSymbolTableRecord
100
AcDbBlockTableRecord
  2
_OPEN30
340
0
 70
     0
280
     1
281
     0
  0
BLOCK_RECORD
  5
EDAE
330
1
100
AcDbSymbolTableRecord
100
AcDbBlockTableRecord
  2
_Dot
340
0
 70
     0
280
     1
281
     0
  0
BLOCK_RECORD
  5
EDB3
330
1
100
AcDbSymbolTableRecord
100
AcDbBlockTableRecord
  2
SW_CENTERMARKSYMBOL_0
340
0
 70
     0
280
     1
281
     0
  0
BLOCK_RECORD
  5
EDBE
330
1
100
AcDbSymbolTableRecord
100
AcDbBlockTableRecord
  2
SW_CENTERMARKSYMBOL_1
340
0
 70
     0
280
     1
281
     0
  0
BLOCK_RECORD
  5
EDC9
330
1
100
AcDbSymbolTableRecord
100
AcDbBlockTableRecord
  2
SW_CENTERMARKSYMBOL_2
340
0
 70
     0
280
     1
281
     0
  0
BLOCK_RECORD
  5
EDD4
102
{ACAD_XDICTIONARY
360
EDD5
102
}
330
1
100
AcDbSymbolTableRecord
100
AcDbBlockTableRecord
  2
1259
340
0
310
2800000020000000200000000100080000000000000400000000000000000000000000000000000000000000000080000080000000808000800000008000800080800000C0C0C000C0DCC000F0CAA6000020400000206000002080000020A0000020C0000020E00000400000004020000040400000406000004080000040A0
310
000040C0000040E00000600000006020000060400000606000006080000060A0000060C0000060E00000800000008020000080400000806000008080000080A0000080C0000080E00000A0000000A0200000A0400000A0600000A0800000A0A00000A0C00000A0E00000C0000000C0200000C0400000C0600000C0800000C0
310
A00000C0C00000C0E00000E0000000E0200000E0400000E0600000E0800000E0A00000E0C00000E0E00040000000400020004000400040006000400080004000A0004000C0004000E00040200000402020004020400040206000402080004020A0004020C0004020E000404000004040200040404000404060004040800040
310
40A0004040C0004040E00040600000406020004060400040606000406080004060A0004060C0004060E00040800000408020004080400040806000408080004080A0004080C0004080E00040A0000040A0200040A0400040A0600040A0800040A0A00040A0C00040A0E00040C0000040C0200040C0400040C0600040C08000
310
40C0A00040C0C00040C0E00040E0000040E0200040E0400040E0600040E0800040E0A00040E0C00040E0E00080000000800020008000400080006000800080008000A0008000C0008000E00080200000802020008020400080206000802080008020A0008020C0008020E00080400000804020008040400080406000804080
310
008040A0008040C0008040E00080600000806020008060400080606000806080008060A0008060C0008060E00080800000808020008080400080806000808080008080A0008080C0008080E00080A0000080A0200080A0400080A0600080A0800080A0A00080A0C00080A0E00080C0000080C0200080C0400080C0600080C0
310
800080C0A00080C0C00080C0E00080E0000080E0200080E0400080E0600080E0800080E0A00080E0C00080E0E000C0000000C0002000C0004000C0006000C0008000C000A000C000C000C000E000C0200000C0202000C0204000C0206000C0208000C020A000C020C000C020E000C0400000C0402000C0404000C0406000C0
310
408000C040A000C040C000C040E000C0600000C0602000C0604000C0606000C0608000C060A000C060C000C060E000C0800000C0802000C0804000C0806000C0808000C080A000C080C000C080E000C0A00000C0A02000C0A04000C0A06000C0A08000C0A0A000C0A0C000C0A0E000C0C00000C0C02000C0C04000C0C06000
310
C0C08000C0C0A000F0FBFF00A4A0A000808080000000FF0000FF000000FFFF00FF000000FF00FF00FFFF0000FFFFFF0000000000000000000000000000000000000000000000000000000000000000000000000000FAFAFAFAFAFAFAFAFAFAFAFAFAFAFAFAFAFAFAFAFAFAFAFAFA000000FAFAFAFAFAFA0000FA0000000000
310
0000000000000000000000000000FAFA0000FAFAFAFAFAFA00FA000000000000000000000000000000000000000000FA000000000000FAFAFAFAFAFAFAFAFAFAFAFAFAFAFAFAFAFAFAFAFAFAFAFAFAFA000000000000FAFAFAFAFAFAFAFAFAFAFAFAFAFAFAFAFAFAFAFAFA00000000FA000000000000000000000000000000
310
0000000000000000000000FAFA000000FA000000000000000000000000000000000000000000000000000000FA000000FA000000000000000000000000000000000000000000000000000000FA000000FA000000000000000000000000000000000000000000000000000000FA000000FA0000000000000000000000000000
310
00000000000000000000000000FA000000FA000000000000000000000000000000000000000000000000000000FA000000FA000000000000000000000000000000000000000000000000000000FA000000FA000000000000000000000000000000000000000000000000000000FA000000FA00000000000000000000000000
310
0000000000000000000000000000FA0000FAFA000000000000000000000000000000000000000000000000000000FA00FA00FA000000000000000000000000000000000000000000000000000000FAFA0000FA000000000000000000000000000000000000000000000000000000FAFA0000FA000000000000000000000000
310
000000000000000000000000000000FAFA0000FA000000000000000000000000000000000000000000000000000000FAFA0000FA000000000000000000000000000000000000000000000000000000FAFA0000FA000000000000000000000000000000000000000000000000000000FAFA0000FA0000000000000000000000
310
00000000000000000000000000000000FAFA00FAFA000000000000000000000000000000000000000000000000000000FAFAFA00FA000000000000000000000000000000000000000000000000000000FAFA0000FA000000000000000000000000000000000000000000000000000000FAFAFAFAFA00000000000000000000
310
0000000000000000000000000000000000FAFAFAFAFA0000000000000000000000000000000000000000000000000000000000FAFA000000000000000000000000000000000000000000000000000000000000FAFA000000000000000000000000000000000000000000000000000000000000FAFA00000000000000000000
310
0000000000000000000000000000000000000000FAFA00000000000000000000000000000000000000000000000000000000000000000000
 70
     0
280
     1
281
     1
1001
AcDbDynamicBlockGUID
1000
{E70C141A-DF6A-4307-90FA-AE875971D1BB}
  0
BLOCK_RECORD
  5
F8A8
102
{ACAD_XDICTIONARY
360
F8A9
102
}
330
1
100
AcDbSymbolTableRecord
100
AcDbBlockTableRecord
  2
A$C4FFE3C00
340
0
 70
     0
280
     1
281
     0
1001
AcDbDynamicBlockGUID
1000
{F9C93A90-A83F-4247-AB95-5338C370B6E9}
  0
BLOCK_RECORD
  5
F8B3
330
1
100
AcDbSymbolTableRecord
100
AcDbBlockTableRecord
  2
_DotSmall
340
0
 70
     0
280
     1
281
     0
  0
BLOCK_RECORD
  5
F8B7
330
1
100
AcDbSymbolTableRecord
100
AcDbBlockTableRecord
  2
_None
340
0
 70
     0
280
     1
281
     0
  0
BLOCK_RECORD
  5
17E5A
330
1
100
AcDbSymbolTableRecord
100
AcDbBlockTableRecord
  2
*D57
340
0
 70
     0
280
     1
281
     0
  0
BLOCK_RECORD
  5
17E66
330
1
100
AcDbSymbolTableRecord
100
AcDbBlockTableRecord
  2
*D58
340
0
 70
     0
280
     1
281
     0
  0
BLOCK_RECORD
  5
17F4A
330
1
100
AcDbSymbolTableRecord
100
AcDbBlockTableRecord
  2
*D60
340
0
 70
     0
280
     1
281
     0
  0
BLOCK_RECORD
  5
17F56
330
1
100
AcDbSymbolTableRecord
100
AcDbBlockTableRecord
  2
*D61
340
0
 70
     0
280
     1
281
     0
  0
ENDTAB
  0
ENDSEC
  0
SECTION
  2
BLOCKS
  0
BLOCK
  5
4F
330
17
100
AcDbEntity
  8
0
100
AcDbBlockBegin
  2
*MODEL_SPACE
 70
     0
 10
0.0
 20
0.0
 30
0.0
  3
*MODEL_SPACE
  1

  0
ENDBLK
  5
50
330
17
100
AcDbEntity
  8
0
100
AcDbBlockEnd
  0
BLOCK
  5
4D
330
14
100
AcDbEntity
 67
     1
  8
0
100
AcDbBlockBegin
  2
*PAPER_SPACE
 70
     0
 10
0.0
 20
0.0
 30
0.0
  3
*PAPER_SPACE
  1

  0
ENDBLK
  5
4E
330
14
100
AcDbEntity
 67
     1
  8
0
100
AcDbBlockEnd
  0
BLOCK
  5
C7B4
330
C7B3
100
AcDbEntity
  8
0
 48
2.0
100
AcDbBlockBegin
  2
1
 70
     0
 10
0.0
 20
0.0
 30
0.0
  3
1
  1

  0
SOLID
  5
C7B5
330
C7B3
100
AcDbEntity
  8
0
  6
ByBlock
 62
     0
100
AcDbTrace
 10
-1.811110924292052
 20
0.4852857095671653
 30
0.0
 11
-1.811110924292052
 21
-0.4852857095673642
 31
0.0
 12
0.0
 22
0.0
 32
0.0
 13
0.0
 23
0.0
 33
0.0
  0
ENDBLK
  5
C7B6
330
C7B3
100
AcDbEntity
  8
0
 48
2.0
100
AcDbBlockEnd
  0
BLOCK
  5
E2BE
330
E2BD
100
AcDbEntity
  8
0
 48
2.0
100
AcDbBlockBegin
  2
Y1
 70
     0
 10
0.0
 20
0.0
 30
0.0
  3
Y1
  1

  0
LINE
  5
E2BF
330
E2BD
100
AcDbEntity
  8
0
  6
ByBlock
 62
     0
 48
2.0
100
AcDbLine
 10
-4.000000000000056
 20
-0.0000000000000142
 30
0.0
 11
-0.0000000000000568
 21
0.0
 31
0.0
  0
SOLID
  5
E2C0
330
E2BD
100
AcDbEntity
  8
0
  6
ByBlock
 62
     0
100
AcDbTrace
 10
-1.811110924292108
 20
0.485285709567151
 30
0.0
 11
-1.811110924292108
 21
-0.4852857095673784
 31
0.0
 12
-0.0000000000000568
 22
-0.0000000000000142
 32
0.0
 13
-0.0000000000000568
 23
-0.0000000000000142
 33
0.0
  0
ENDBLK
  5
E2C1
330
E2BD
100
AcDbEntity
  8
0
 48
2.0
100
AcDbBlockEnd
  0
BLOCK
  5
E2C3
330
E2C2
100
AcDbEntity
  8
0
 48
2.0
100
AcDbBlockBegin
  2
Y2
 70
     0
 10
0.0
 20
0.0
 30
0.0
  3
Y2
  1

  0
SOLID
  5
E2C4
330
E2C2
100
AcDbEntity
  8
0
  6
ByBlock
 62
     0
100
AcDbTrace
 10
-1.811110924292108
 20
0.485285709567151
 30
0.0
 11
-1.811110924292108
 21
-0.4852857095673784
 31
0.0
 12
-0.0000000000000568
 22
-0.0000000000000142
 32
0.0
 13
-0.0000000000000568
 23
-0.0000000000000142
 33
0.0
  0
ENDBLK
  5
E2C5
330
E2C2
100
AcDbEntity
  8
0
 48
2.0
100
AcDbBlockEnd
  0
BLOCK
  5
E2C7
330
E2C6
100
AcDbEntity
  8
0
 48
3.0
100
AcDbBlockBegin
  2
2
 70
     0
 10
0.0
 20
0.0
 30
0.0
  3
2
  1

  0
HATCH
  5
E2C8
330
E2C6
100
AcDbEntity
  8
0
  6
ByBlock
 62
     0
 48
3.0
100
AcDbHatch
 10
0.0
 20
0.0
 30
0.0
210
0.0
220
0.0
230
1.0
  2
SOLID
 70
     1
 71
     0
 91
        1
 92
        1
 93
        3
 72
     1
 10
-0.9999999999983517
 20
0.2679491924306774
 11
0.0
 21
0.0
 72
     1
 10
0.0
 20
0.0
 11
-0.9999999999983517
 21
-0.2679491924306765
 72
     1
 10
-0.9999999999983524
 20
-0.267949192430676
 11
-0.9999999999983524
 21
0.2679491924306774
 97
        0
 75
     0
 76
     1
 98
        1
 10
2.995745117231336
 20
-4.124946096263201
450
        0
451
        0
460
0.0
461
0.0
452
        0
462
0.0
453
        0
470

  0
ENDBLK
  5
E2C9
330
E2C6
100
AcDbEntity
  8
0
 48
3.0
100
AcDbBlockEnd
  0
BLOCK
  5
EDA9
330
EDA8
100
AcDbEntity
  8
0
100
AcDbBlockBegin
  2
_OPEN30
 70
     0
 10
0.0
 20
0.0
 30
0.0
  3
_OPEN30
  1

  0
LINE
  5
EDAA
330
EDA8
100
AcDbEntity
  8
0
  6
ByBlock
 62
     0
100
AcDbLine
 10
-1.0
 20
0.26794919
 30
0.0
 11
0.0
 21
0.0
 31
0.0
  0
LINE
  5
EDAB
330
EDA8
100
AcDbEntity
  8
0
  6
ByBlock
 62
     0
100
AcDbLine
 10
0.0
 20
0.0
 30
0.0
 11
-1.0
 21
-0.26794919
 31
0.0
  0
LINE
  5
EDAC
330
EDA8
100
AcDbEntity
  8
0
  6
ByBlock
 62
     0
100
AcDbLine
 10
0.0
 20
0.0
 30
0.0
 11
-1.0
 21
0.0
 31
0.0
  0
ENDBLK
  5
EDAD
330
EDA8
100
AcDbEntity
  8
0
100
AcDbBlockEnd
  0
BLOCK
  5
EDAF
330
EDAE
100
AcDbEntity
  8
0
100
AcDbBlockBegin
  2
_Dot
 70
     0
 10
0.0
 20
0.0
 30
0.0
  3
_Dot
  1

  0
LWPOLYLINE
  5
EDB0
330
EDAE
100
AcDbEntity
  8
0
  6
ByBlock
 62
     0
100
AcDbPolyline
 90
        2
 70
     1
 43
0.5
 10
-0.25
 20
0.0
 42
1.0
 10
0.25
 20
0.0
 42
1.0
  0
LINE
  5
EDB1
330
EDAE
100
AcDbEntity
  8
0
  6
ByBlock
 62
     0
370
    -2
100
AcDbLine
 10
-0.5
 20
0.0
 30
0.0
 11
-1.0
 21
0.0
 31
0.0
  0
ENDBLK
  5
EDB2
330
EDAE
100
AcDbEntity
  8
0
100
AcDbBlockEnd
  0
BLOCK
  5
EDB4
330
EDB3
100
AcDbEntity
  8
0
100
AcDbBlockBegin
  2
SW_CENTERMARKSYMBOL_0
 70
     0
 10
0.0
 20
0.0
 30
0.0
  3
SW_CENTERMARKSYMBOL_0
  1

  0
LINE
  5
EDB5
330
EDB3
100
AcDbEntity
  8
0
  6
Continuous
 62
     0
370
     0
100
AcDbLine
 10
0.0
 20
0.0
 30
0.0
 11
0.0
 21
2.500000000000002
 31
0.0
  0
LINE
  5
EDB6
330
EDB3
100
AcDbEntity
  8
0
  6
Continuous
 62
     0
370
     0
100
AcDbLine
 10
0.0
 20
0.0
 30
0.0
 11
-2.500000000000002
 21
0.0
 31
0.0
  0
LINE
  5
EDB7
330
EDB3
100
AcDbEntity
  8
0
  6
Continuous
 62
     0
370
     0
100
AcDbLine
 10
0.0
 20
0.0
 30
0.0
 11
0.0
 21
-2.500000000000002
 31
0.0
  0
LINE
  5
EDB8
330
EDB3
100
AcDbEntity
  8
0
  6
Continuous
 62
     0
370
     0
100
AcDbLine
 10
0.0
 20
0.0
 30
0.0
 11
2.500000000000002
 21
0.0
 31
0.0
  0
LINE
  5
EDB9
330
EDB3
100
AcDbEntity
  8
0
  6
Continuous
 62
     0
370
     0
100
AcDbLine
 10
0.0
 20
5.000000000000004
 30
0.0
 11
0.0
 21
6.600000000000022
 31
0.0
  0
LINE
  5
EDBA
330
EDB3
100
AcDbEntity
  8
0
  6
Continuous
 62
     0
370
     0
100
AcDbLine
 10
-5.000000000000004
 20
0.0
 30
0.0
 11
-6.599999999999994
 21
0.0
 31
0.0
  0
LINE
  5
EDBB
330
EDB3
100
AcDbEntity
  8
0
  6
Continuous
 62
     0
370
     0
100
AcDbLine
 10
0.0
 20
-5.000000000000004
 30
0.0
 11
0.0
 21
-6.599999999999994
 31
0.0
  0
LINE
  5
EDBC
330
EDB3
100
AcDbEntity
  8
0
  6
Continuous
 62
     0
370
     0
100
AcDbLine
 10
5.000000000000004
 20
0.0
 30
0.0
 11
6.600000000000022
 21
0.0
 31
0.0
  0
ENDBLK
  5
EDBD
330
EDB3
100
AcDbEntity
  8
0
100
AcDbBlockEnd
  0
BLOCK
  5
EDBF
330
EDBE
100
AcDbEntity
  8
0
100
AcDbBlockBegin
  2
SW_CENTERMARKSYMBOL_1
 70
     0
 10
0.0
 20
0.0
 30
0.0
  3
SW_CENTERMARKSYMBOL_1
  1

  0
LINE
  5
EDC0
330
EDBE
100
AcDbEntity
  8
0
  6
Continuous
 62
     0
370
     0
100
AcDbLine
 10
0.0
 20
0.0
 30
0.0
 11
0.0
 21
2.500000000000002
 31
0.0
  0
LINE
  5
EDC1
330
EDBE
100
AcDbEntity
  8
0
  6
Continuous
 62
     0
370
     0
100
AcDbLine
 10
0.0
 20
0.0
 30
0.0
 11
-2.50000000000003
 21
0.0
 31
0.0
  0
LINE
  5
EDC2
330
EDBE
100
AcDbEntity
  8
0
  6
Continuous
 62
     0
370
     0
100
AcDbLine
 10
0.0
 20
0.0
 30
0.0
 11
0.0
 21
-2.500000000000002
 31
0.0
  0
LINE
  5
EDC3
330
EDBE
100
AcDbEntity
  8
0
  6
Continuous
 62
     0
370
     0
100
AcDbLine
 10
0.0
 20
0.0
 30
0.0
 11
2.500000000000002
 21
0.0
 31
0.0
  0
LINE
  5
EDC4
330
EDBE
100
AcDbEntity
  8
0
  6
Continuous
 62
     0
370
     0
100
AcDbLine
 10
0.0
 20
5.000000000000004
 30
0.0
 11
0.0
 21
6.599999999999994
 31
0.0
  0
LINE
  5
EDC5
330
EDBE
100
AcDbEntity
  8
0
  6
Continuous
 62
     0
370
     0
100
AcDbLine
 10
-5.000000000000031
 20
0.0
 30
0.0
 11
-6.600000000000022
 21
0.0
 31
0.0
  0
LINE
  5
EDC6
330
EDBE
100
AcDbEntity
  8
0
  6
Continuous
 62
     0
370
     0
100
AcDbLine
 10
0.0
 20
-5.000000000000004
 30
0.0
 11
0.0
 21
-6.599999999999994
 31
0.0
  0
LINE
  5
EDC7
330
EDBE
100
AcDbEntity
  8
0
  6
Continuous
 62
     0
370
     0
100
AcDbLine
 10
5.000000000000004
 20
0.0
 30
0.0
 11
6.599999999999994
 21
0.0
 31
0.0
  0
ENDBLK
  5
EDC8
330
EDBE
100
AcDbEntity
  8
0
100
AcDbBlockEnd
  0
BLOCK
  5
EDCA
330
EDC9
100
AcDbEntity
  8
0
100
AcDbBlockBegin
  2
SW_CENTERMARKSYMBOL_2
 70
     0
 10
0.0
 20
0.0
 30
0.0
  3
SW_CENTERMARKSYMBOL_2
  1

  0
LINE
  5
EDCB
330
EDC9
100
AcDbEntity
  8
0
  6
Continuous
 62
     0
370
     0
100
AcDbLine
 10
0.0
 20
0.0
 30
0.0
 11
0.0
 21
2.500000000000002
 31
0.0
  0
LINE
  5
EDCC
330
EDC9
100
AcDbEntity
  8
0
  6
Continuous
 62
     0
370
     0
100
AcDbLine
 10
0.0
 20
0.0
 30
0.0
 11
-2.50000000000003
 21
0.0
 31
0.0
  0
LINE
  5
EDCD
330
EDC9
100
AcDbEntity
  8
0
  6
Continuous
 62
     0
370
     0
100
AcDbLine
 10
0.0
 20
0.0
 30
0.0
 11
0.0
 21
-2.500000000000002
 31
0.0
  0
LINE
  5
EDCE
330
EDC9
100
AcDbEntity
  8
0
  6
Continuous
 62
     0
370
     0
100
AcDbLine
 10
0.0
 20
0.0
 30
0.0
 11
2.500000000000002
 21
0.0
 31
0.0
  0
LINE
  5
EDCF
330
EDC9
100
AcDbEntity
  8
0
  6
Continuous
 62
     0
370
     0
100
AcDbLine
 10
0.0
 20
4.99999999999999
 30
0.0
 11
0.0
 21
6.600000000000008
 31
0.0
  0
LINE
  5
EDD0
330
EDC9
100
AcDbEntity
  8
0
  6
Continuous
 62
     0
370
     0
100
AcDbLine
 10
-5.000000000000031
 20
0.0
 30
0.0
 11
-6.600000000000022
 21
0.0
 31
0.0
  0
LINE
  5
EDD1
330
EDC9
100
AcDbEntity
  8
0
  6
Continuous
 62
     0
370
     0
100
AcDbLine
 10
0.0
 20
-5.000000000000004
 30
0.0
 11
0.0
 21
-6.600000000000008
 31
0.0
  0
LINE
  5
EDD2
330
EDC9
100
AcDbEntity
  8
0
  6
Continuous
 62
     0
370
     0
100
AcDbLine
 10
5.000000000000004
 20
0.0
 30
0.0
 11
6.599999999999994
 21
0.0
 31
0.0
  0
ENDBLK
  5
EDD3
330
EDC9
100
AcDbEntity
  8
0
100
AcDbBlockEnd
  0
BLOCK
  5
EDD7
330
EDD4
100
AcDbEntity
  8
0
 48
2.0
100
AcDbBlockBegin
  2
1259
 70
     0
 10
0.0
 20
0.0
 30
0.0
  3
1259
  1

  0
LINE
  5
EDD8
330
EDD4
100
AcDbEntity
  8
1外形線
100
AcDbLine
 10
0.0000000000002274
 20
64.49999660253524
 30
0.0
 11
-9.499999776482582
 21
64.49999660253524
 31
0.0
  0
LINE
  5
EDD9
330
EDD4
100
AcDbEntity
  8
1外形線
100
AcDbLine
 10
0.0000000000002274
 20
63.00000101327896
 30
0.0
 11
0.0000000000002274
 21
64.49999660253524
 31
0.0
  0
LINE
  5
EDDA
330
EDD4
100
AcDbEntity
  8
1外形線
100
AcDbLine
 10
0.0000000000002274
 20
63.00000101327896
 30
0.0
 11
-7.499999832361936
 21
63.00000101327896
 31
0.0
  0
LINE
  5
EDDB
330
EDD4
100
AcDbEntity
  8
1外形線
100
AcDbLine
 10
-7.499999832361936
 20
63.00000101327896
 30
0.0
 11
-7.499999832361936
 21
59.99999865889549
 31
0.0
  0
LINE
  5
EDDC
330
EDD4
100
AcDbEntity
  8
1外形線
100
AcDbLine
 10
-7.499999832361936
 20
38.49999979138374
 30
0.0
 11
-7.499999832361936
 21
59.99999865889549
 31
0.0
  0
LINE
  5
EDDD
330
EDD4
100
AcDbEntity
  8
1外形線
100
AcDbLine
 10
-7.499999832361936
 20
38.49999979138374
 30
0.0
 11
0.0
 21
30.99999949336052
 31
0.0
  0
LINE
  5
EDDE
330
EDD4
100
AcDbEntity
  8
1外形線
100
AcDbLine
 10
0.0
 20
30.99999949336052
 30
0.0
 11
0.0
 21
7.999999832361936
 31
0.0
  0
LINE
  5
EDDF
330
EDD4
100
AcDbEntity
  8
1外形線
100
AcDbLine
 10
-59.99999865889549
 20
7.499999832361936
 30
0.0
 11
-0.5
 21
7.499999832361936
 31
0.0
  0
LINE
  5
EDE0
330
EDD4
100
AcDbEntity
  8
1外形線
100
AcDbLine
 10
-63.00000101327896
 20
7.499999832361936
 30
0.0
 11
-59.99999865889549
 21
7.499999832361936
 31
0.0
  0
LINE
  5
EDE1
330
EDD4
100
AcDbEntity
  8
1外形線
100
AcDbLine
 10
-63.00000101327896
 20
0.0
 30
0.0
 11
-63.00000101327896
 21
7.499999832361936
 31
0.0
  0
LINE
  5
EDE2
330
EDD4
100
AcDbEntity
  8
1外形線
100
AcDbLine
 10
-63.00000101327896
 20
0.0
 30
0.0
 11
-64.49999660253524
 21
0.0
 31
0.0
  0
LINE
  5
EDE3
330
EDD4
100
AcDbEntity
  8
1外形線
100
AcDbLine
 10
-64.49999660253524
 20
0.0
 30
0.0
 11
-64.49999660253524
 21
8.500000461935997
 31
0.0
  0
LINE
  5
EDE4
330
EDD4
100
AcDbEntity
  8
1外形線
100
AcDbLine
 10
-17.00000092387199
 20
8.500000461935997
 30
0.0
 11
-64.49999660253524
 21
8.500000461935997
 31
0.0
  0
ARC
  5
EDE5
330
EDD4
100
AcDbEntity
  8
1外形線
100
AcDbCircle
 10
-16.99999999999988
 20
17.0
 30
0.0
 40
8.5
100
AcDbArc
 50
270.0
 51
0.0
  0
LINE
  5
EDE6
330
EDD4
100
AcDbEntity
  8
1外形線
100
AcDbLine
 10
-8.500000461935997
 20
17.00000092387199
 30
0.0
 11
-8.500000461935997
 21
64.49999660253524
 31
0.0
  0
LINE
  5
EDE7
330
EDD4
100
AcDbEntity
  8
1外形線
100
AcDbLine
 10
-9.999999776482582
 20
39.08578628401455
 30
0.0
 11
-9.999999776482582
 21
63.99999660253524
 31
0.0
  0
LINE
  5
EDE8
330
EDD4
100
AcDbEntity
  8
1外形線
100
AcDbLine
 10
-9.399999864399433
 20
17.00000092387199
 30
0.0
 11
-9.399999864399433
 21
38.27868029475212
 31
0.0
  0
LINE
  5
EDE9
330
EDD4
100
AcDbEntity
  8
1外形線
100
AcDbLine
 10
-9.399999864399433
 20
38.27868029475212
 30
0.0
 11
-9.853552892681952
 21
38.73223261902758
 31
0.0
  0
ARC
  5
EDEA
330
EDD4
100
AcDbEntity
  8
1外形線
100
AcDbCircle
 10
-16.99999999999988
 20
17.0
 30
0.0
 40
7.600000000000008
100
AcDbArc
 50
292.9195421515707
 51
0.0
  0
SPLINE
  5
EDEB
330
EDD4
100
AcDbEntity
  8
1外形線
100
AcDbSpline
210
0.0
220
0.0
230
1.0
 70
    24
 71
     3
 72
    12
 73
     8
 74
     0
 42
0.000000001
 43
0.0000000001
 40
0.0
 40
0.0
 40
0.0
 40
0.0
 40
0.4999999999999984
 40
0.4999999999999984
 40
0.7499999999999992
 40
0.7499999999999992
 40
1.0
 40
1.0
 40
1.0
 40
1.0
 10
-14.04027028261009
 20
10.0
 30
0.0
 10
-14.48448038190702
 20
10.0
 30
0.0
 10
-14.95147591234922
 20
10.0
 30
0.0
 10
-15.69642998062613
 20
10.0
 30
0.0
 10
-15.95497674714625
 20
10.0
 30
0.0
 10
-16.47404326400305
 20
10.0
 30
0.0
 10
-16.73581744524506
 20
10.0
 30
0.0
 10
-16.99999999999988
 20
10.0
 30
0.0
  0
LINE
  5
EDEC
330
EDD4
100
AcDbEntity
  8
1外形線
100
AcDbLine
 10
-17.00000092387199
 20
9.999999776482582
 30
0.0
 11
-63.99999660253524
 21
9.999999776482582
 31
0.0
  0
LINE
  5
EDED
330
EDD4
100
AcDbEntity
  8
1外形線
100
AcDbLine
 10
-64.49999660253524
 20
8.500000461935997
 30
0.0
 11
-64.49999660253524
 21
9.499999776482582
 31
0.0
  0
ARC
  5
EDEE
330
EDD4
100
AcDbEntity
  8
1外形線
100
AcDbCircle
 10
-0.4999999999998864
 20
53.70710678118644
 30
0.0
 40
0.5
100
AcDbArc
 50
225.0000000000046
 51
0.0
  0
LINE
  5
EDEF
330
EDD4
100
AcDbEntity
  8
1外形線
100
AcDbLine
 10
-7.499999832361936
 20
59.99999865889549
 30
0.0
 11
-0.8535534143447875
 21
53.35355177521705
 31
0.0
  0
LINE
  5
EDF0
330
EDD4
100
AcDbEntity
  8
1外形線
100
AcDbLine
 10
0.0000000000001137
 20
53.70710790157318
 30
0.0
 11
0.0000000000002274
 21
63.00000101327896
 31
0.0
  0
LINE
  5
EDF1
330
EDD4
100
AcDbEntity
  8
1外形線
100
AcDbLine
 10
-59.99999865889549
 20
7.499999832361936
 30
0.0
 11
-53.35355177521705
 21
0.8535534143447875
 31
0.0
  0
ARC
  5
EDF2
330
EDD4
100
AcDbEntity
  8
1外形線
100
AcDbCircle
 10
-53.70710678118644
 20
0.5
 30
0.0
 40
0.5
100
AcDbArc
 50
270.0
 51
44.99999999999539
  0
LINE
  5
EDF3
330
EDD4
100
AcDbEntity
  8
1外形線
100
AcDbLine
 10
-53.70710790157318
 20
0.0
 30
0.0
 11
-63.00000101327896
 21
0.0
 31
0.0
  0
LINE
  5
EDF4
330
EDD4
100
AcDbEntity
  8
1外形線
100
AcDbLine
 10
0.0000000000001137
 20
30.99999949336052
 30
0.0
 11
0.0000000000001137
 21
53.70710790157318
 31
0.0
  0
ARC
  5
EDF5
330
EDD4
100
AcDbEntity
  8
1外形線
100
AcDbCircle
 10
-2.0
 20
2.0
 30
0.0
 40
2.000000000000028
100
AcDbArc
 50
270.0
 51
0.0
  0
LINE
  5
EDF6
330
EDD4
100
AcDbEntity
  8
1外形線
100
AcDbLine
 10
-2.000000094994902
 20
0.0
 30
0.0
 11
-53.70710790157318
 21
0.0
 31
0.0
  0
LINE
  5
EDF7
330
EDD4
100
AcDbEntity
  8
1外形線
100
AcDbLine
 10
0.0
 20
2.000000094994902
 30
0.0
 11
0.0
 21
7.999999832361936
 31
0.0
  0
LINE
  5
EDF8
330
EDD4
100
AcDbEntity
  8
1外形線
100
AcDbLine
 10
-5.499999970197677
 20
73.49999994039535
 30
0.0
 11
-5.499999970197677
 21
74.50000196695327
 31
0.0
  0
LINE
  5
EDF9
330
EDD4
100
AcDbEntity
  8
1外形線
100
AcDbLine
 10
-5.499999970197677
 20
74.50000196695327
 30
0.0
 11
-2.499999944120645
 21
74.50000196695327
 31
0.0
  0
LINE
  5
EDFA
330
EDD4
100
AcDbEntity
  8
1外形線
100
AcDbLine
 10
-2.499999944120645
 20
74.50000196695327
 30
0.0
 11
-2.499999944120645
 21
73.49999994039535
 31
0.0
  0
LINE
  5
EDFB
330
EDD4
100
AcDbEntity
  8
1外形線
100
AcDbLine
 10
-5.499999970197677
 20
73.49999994039535
 30
0.0
 11
-5.499999970197676
 21
64.99999660253525
 31
0.0
  0
LINE
  5
EDFC
330
EDD4
100
AcDbEntity
  8
1外形線
100
AcDbLine
 10
-2.499999944120645
 20
73.49999994039535
 30
0.0
 11
-2.499999944120645
 21
64.49999660253524
 31
0.0
  0
LINE
  5
EDFD
330
EDD4
100
AcDbEntity
  8
1外形線
100
AcDbLine
 10
-73.49999994039535
 20
2.499999944120645
 30
0.0
 11
-64.49999660253524
 21
2.499999944120645
 31
0.0
  0
LINE
  5
EDFE
330
EDD4
100
AcDbEntity
  8
1外形線
100
AcDbLine
 10
-73.49999994039535
 20
5.499999970197677
 30
0.0
 11
-64.99507278203964
 21
5.499999970197677
 31
0.0
  0
LINE
  5
EDFF
330
EDD4
100
AcDbEntity
  8
1外形線
100
AcDbLine
 10
-64.49999660253524
 20
5.0014303997159
 30
0.0
 11
-64.99507278203964
 21
5.499999970197677
 31
0.0
  0
LINE
  5
EE00
330
EDD4
100
AcDbEntity
  8
1外形線
100
AcDbLine
 10
-74.50000196695327
 20
2.499999944120645
 30
0.0
 11
-74.50000196695327
 21
5.499999970197677
 31
0.0
  0
LINE
  5
EE01
330
EDD4
100
AcDbEntity
  8
1外形線
100
AcDbLine
 10
-74.50000196695327
 20
5.499999970197677
 30
0.0
 11
-73.49999994039535
 21
5.499999970197677
 31
0.0
  0
LINE
  5
EE02
330
EDD4
100
AcDbEntity
  8
1外形線
100
AcDbLine
 10
-73.49999994039535
 20
2.499999944120645
 30
0.0
 11
-74.50000196695327
 21
2.499999944120645
 31
0.0
  0
ARC
  5
EE03
330
EDD4
100
AcDbEntity
  8
1外形線
100
AcDbCircle
 10
-9.499999776482582
 20
39.08578628401455
 30
0.0
 40
0.5
100
AcDbArc
 50
180.0
 51
225.0000444674185
  0
ARC
  5
EE04
330
EDD4
100
AcDbEntity
  8
1外形線
100
AcDbCircle
 10
-0.5
 20
7.999999832361936
 30
0.0
 40
0.5
100
AcDbArc
 50
270.0
 51
0.0
  0
LINE
  5
EE05
330
EDD4
100
AcDbEntity
  8
1外形線
100
AcDbLine
 10
-5.499999970197676
 20
64.99999660253525
 30
0.0
 11
-4.999999970197676
 21
64.49999660253524
 31
0.0
  0
ARC
  5
EE06
330
EDD4
100
AcDbEntity
  8
1外形線
100
AcDbCircle
 10
-63.99999660253524
 20
9.499999776482582
 30
0.0
 40
0.5
100
AcDbArc
 50
90.0
 51
180.0
  0
ARC
  5
EE07
330
EDD4
100
AcDbEntity
  8
1外形線
100
AcDbCircle
 10
-9.499999776482582
 20
63.99999660253524
 30
0.0
 40
0.5
100
AcDbArc
 50
90.0
 51
180.0
  0
ENDBLK
  5
EE08
330
EDD4
100
AcDbEntity
  8
0
 48
2.0
100
AcDbBlockEnd
  0
BLOCK
  5
F8AA
330
F8A8
100
AcDbEntity
  8
0
 48
2.0
100
AcDbBlockBegin
  2
A$C4FFE3C00
 70
     0
 10
0.0
 20
0.0
 30
0.0
  3
A$C4FFE3C00
  1

  0
TEXT
  5
F8AB
330
F8A8
100
AcDbEntity
  8
SUNPOU
 48
2.0
100
AcDbText
 10
0.9989589034928441
 20
0.0000002688717586
 30
0.0
 40
2.5
  1
B-16
  7
KANJI
 72
     1
 11
5.522768427302366
 21
0.0000002688717586
 31
0.0
100
AcDbText
  0
LINE
  5
F8AC
330
F8A8
100
AcDbEntity
  8
2寸法線
 48
2.0
100
AcDbLine
 10
-0.0000000047239155
 20
0.0043600932849586
 30
0.0
 11
0.4999999952760846
 21
0.0043600932849586
 31
0.0
  0
LINE
  5
F8AD
330
F8A8
100
AcDbEntity
  8
2寸法線
 48
2.0
100
AcDbLine
 10
-0.0000000047239155
 20
2.49799043967323
 30
0.0
 11
0.4999999952760846
 21
2.49799043967323
 31
0.0
  0
LINE
  5
F8AE
330
F8A8
100
AcDbEntity
  8
2寸法線
 48
2.0
100
AcDbLine
 10
0.2499999952760845
 20
0.0043600932849586
 30
0.0
 11
0.2499999952760845
 21
2.49799043967323
 31
0.0
  0
LINE
  5
F8AF
330
F8A8
100
AcDbEntity
  8
2寸法線
 48
2.0
100
AcDbLine
 10
10.82274956841655
 20
0.0043600932849586
 30
0.0
 11
11.32274956841655
 21
0.0043600932849586
 31
0.0
  0
LINE
  5
F8B0
330
F8A8
100
AcDbEntity
  8
2寸法線
 48
2.0
100
AcDbLine
 10
11.07274956841655
 20
0.0043600932849586
 30
0.0
 11
11.07274956841655
 21
2.49799043967323
 31
0.0
  0
LINE
  5
F8B1
330
F8A8
100
AcDbEntity
  8
2寸法線
 48
2.0
100
AcDbLine
 10
10.82274956841655
 20
2.49799043967323
 30
0.0
 11
11.32274956841655
 21
2.49799043967323
 31
0.0
  0
ENDBLK
  5
F8B2
330
F8A8
100
AcDbEntity
  8
0
 48
2.0
100
AcDbBlockEnd
  0
BLOCK
  5
F8B4
330
F8B3
100
AcDbEntity
  8
0
 48
3.0
100
AcDbBlockBegin
  2
_DotSmall
 70
     0
 10
0.0
 20
0.0
 30
0.0
  3
_DotSmall
  1

  0
LWPOLYLINE
  5
F8B5
330
F8B3
100
AcDbEntity
  8
0
  6
ByBlock
 62
     0
100
AcDbPolyline
 90
        2
 70
     1
 43
0.5
 10
-0.0625
 20
0.0
 42
1.0
 10
0.0625
 20
0.0
 42
1.0
  0
ENDBLK
  5
F8B6
330
F8B3
100
AcDbEntity
  8
0
 48
3.0
100
AcDbBlockEnd
  0
BLOCK
  5
F8B8
330
F8B7
100
AcDbEntity
  8
0
 62
     0
 48
3.0
100
AcDbBlockBegin
  2
_None
 70
     0
 10
0.0
 20
0.0
 30
0.0
  3
_None
  1

  0
ENDBLK
  5
F8B9
330
F8B7
100
AcDbEntity
  8
0
 62
     0
 48
3.0
100
AcDbBlockEnd
  0
BLOCK
  5
17E5B
330
17E5A
100
AcDbEntity
  8
0
 48
2.0
100
AcDbBlockBegin
  2
*D57
 70
     1
 10
0.0
 20
0.0
 30
0.0
  3
*D57
  1

  0
LINE
  5
17E5C
330
17E5A
100
AcDbEntity
  8
2寸法線
 62
     0
440
 16777216
 48
3.0
370
    -2
100
AcDbLine
 10
95.50216260740155
 20
224.6849301038158
 30
0.0
 11
151.729797794953
 21
224.6849301038158
 31
0.0
  0
LINE
  5
17E5D
330
17E5A
100
AcDbEntity
  8
2寸法線
 62
     0
440
 16777216
 48
3.0
370
    -2
100
AcDbLine
 10
139.7521626074017
 20
179.5849301038153
 30
0.0
 11
151.7297977949529
 21
179.5849301038153
 31
0.0
  0
LINE
  5
17E5E
330
17E5A
100
AcDbEntity
  8
2寸法線
 62
     0
440
 16777216
 48
3.0
370
    -2
100
AcDbLine
 10
150.729797794953
 20
223.1849301038157
 30
0.0
 11
150.7297977949529
 21
181.0849301038152
 31
0.0
  0
INSERT
  5
17E5F
330
17E5A
100
AcDbEntity
  8
2寸法線
 62
     0
440
 16777216
 48
3.0
370
    -2
100
AcDbBlockReference
  2
Y2
 10
150.729797794953
 20
224.6849301038158
 30
0.0
 41
1.5
 42
1.5
 43
1.5
 50
90.0
  0
INSERT
  5
17E60
330
17E5A
100
AcDbEntity
  8
2寸法線
 62
     0
440
 16777216
 48
3.0
370
    -2
100
AcDbBlockReference
  2
Y2
 10
150.7297977949529
 20
179.5849301038153
 30
0.0
 41
1.5
 42
1.5
 43
1.5
 50
270.0
  0
MTEXT
  5
17E61
330
17E5A
100
AcDbEntity
  8
2寸法線
 62
     1
440
 16777216
 48
3.0
100
AcDbMText
 10
147.9797977949529
 20
202.1349301038156
 30
0.0
 40
3.5
 41
0.0
 46
0.0
 71
     5
 72
     1
  1
\A1;45
  7
KANJI
 11
0.0000000000000001
 21
1.0
 31
0.0
 73
     1
 44
1.0
  0
POINT
  5
17E62
330
17E5A
100
AcDbEntity
  8
DEFPOINTS
 62
     0
440
 16777216
 48
3.0
100
AcDbPoint
 10
93.50216260740154
 20
224.6849301038158
 30
0.0
  0
POINT
  5
17E63
330
17E5A
100
AcDbEntity
  8
DEFPOINTS
 62
     0
440
 16777216
 48
3.0
100
AcDbPoint
 10
137.7521626074017
 20
179.5849301038153
 30
0.0
  0
POINT
  5
17E64
330
17E5A
100
AcDbEntity
  8
DEFPOINTS
 62
     0
440
 16777216
 48
3.0
100
AcDbPoint
 10
150.7297977949529
 20
179.5849301038153
 30
0.0
  0
ENDBLK
  5
17E65
330
17E5A
100
AcDbEntity
  8
0
 48
2.0
100
AcDbBlockEnd
  0
BLOCK
  5
17E67
330
17E66
100
AcDbEntity
  8
0
 48
2.0
100
AcDbBlockBegin
  2
*D58
 70
     1
 10
0.0
 20
0.0
 30
0.0
  3
*D58
  1

  0
LINE
  5
17E68
330
17E66
100
AcDbEntity
  8
2寸法線
 62
     0
440
 16777216
 48
3.0
370
    -2
100
AcDbLine
 10
49.25216260740177
 20
177.5849301038154
 30
0.0
 11
49.25216260740177
 21
168.1380470287897
 31
0.0
  0
LINE
  5
17E69
330
17E66
100
AcDbEntity
  8
2寸法線
 62
     0
440
 16777216
 48
3.0
370
    -2
100
AcDbLine
 10
137.7521626074017
 20
177.5849301038153
 30
0.0
 11
137.7521626074017
 21
168.1380470287897
 31
0.0
  0
LINE
  5
17E6A
330
17E66
100
AcDbEntity
  8
2寸法線
 62
     0
440
 16777216
 48
3.0
370
    -2
100
AcDbLine
 10
50.75216260740177
 20
169.1380470287897
 30
0.0
 11
136.2521626074018
 21
169.1380470287897
 31
0.0
  0
INSERT
  5
17E6B
330
17E66
100
AcDbEntity
  8
2寸法線
 62
     0
440
 16777216
 48
3.0
370
    -2
100
AcDbBlockReference
  2
Y2
 10
49.25216260740177
 20
169.1380470287897
 30
0.0
 41
1.5
 42
1.5
 43
1.5
 50
180.0
  0
INSERT
  5
17E6C
330
17E66
100
AcDbEntity
  8
2寸法線
 62
     0
440
 16777216
 48
3.0
370
    -2
100
AcDbBlockReference
  2
Y2
 10
137.7521626074017
 20
169.1380470287897
 30
0.0
 41
1.5
 42
1.5
 43
1.5
  0
MTEXT
  5
17E6D
330
17E66
100
AcDbEntity
  8
2寸法線
 62
     1
440
 16777216
 48
3.0
100
AcDbMText
 10
93.50216260740177
 20
171.8880470287897
 30
0.0
 40
3.5
 41
0.0
 46
0.0
 71
     5
 72
     1
  1
\A1;89
  7
KANJI
 73
     1
 44
1.0
  0
POINT
  5
17E6E
330
17E66
100
AcDbEntity
  8
DEFPOINTS
 62
     0
440
 16777216
 48
3.0
100
AcDbPoint
 10
49.25216260740177
 20
179.5849301038154
 30
0.0
  0
POINT
  5
17E6F
330
17E66
100
AcDbEntity
  8
DEFPOINTS
 62
     0
440
 16777216
 48
3.0
100
AcDbPoint
 10
137.7521626074017
 20
179.5849301038153
 30
0.0
  0
POINT
  5
17E70
330
17E66
100
AcDbEntity
  8
DEFPOINTS
 62
     0
440
 16777216
 48
3.0
100
AcDbPoint
 10
137.7521626074017
 20
169.1380470287897
 30
0.0
  0
ENDBLK
  5
17E71
330
17E66
100
AcDbEntity
  8
0
 48
2.0
100
AcDbBlockEnd
  0
BLOCK
  5
17F4B
330
17F4A
100
AcDbEntity
  8
0
 48
3.0
100
AcDbBlockBegin
  2
*D60
 70
     1
 10
0.0
 20
0.0
 30
0.0
  3
*D60
  1

  0
LINE
  5
17F62
330
17F4A
100
AcDbEntity
  8
2寸法線
 62
     0
440
 16777216
 48
3.0
370
    -2
100
AcDbLine
 10
412.9993303720698
 20
516.7199955922162
 30
0.0
 11
469.2269655596213
 21
516.7199955922162
 31
0.0
  0
LINE
  5
17F63
330
17F4A
100
AcDbEntity
  8
2寸法線
 62
     0
440
 16777216
 48
3.0
370
    -2
100
AcDbLine
 10
457.24933037207
 20
471.6199955922158
 30
0.0
 11
469.2269655596213
 21
471.6199955922158
 31
0.0
  0
LINE
  5
17F64
330
17F4A
100
AcDbEntity
  8
2寸法線
 62
     0
440
 16777216
 48
3.0
370
    -2
100
AcDbLine
 10
468.2269655596213
 20
515.2199955922163
 30
0.0
 11
468.2269655596213
 21
473.1199955922158
 31
0.0
  0
INSERT
  5
17F65
330
17F4A
100
AcDbEntity
  8
2寸法線
 62
     0
440
 16777216
 48
3.0
370
    -2
100
AcDbBlockReference
  2
1
 10
468.2269655596213
 20
516.7199955922162
 30
0.0
 41
1.5
 42
1.5
 43
1.5
 50
90.0
  0
INSERT
  5
17F66
330
17F4A
100
AcDbEntity
  8
2寸法線
 62
     0
440
 16777216
 48
3.0
370
    -2
100
AcDbBlockReference
  2
1
 10
468.2269655596213
 20
471.6199955922158
 30
0.0
 41
1.5
 42
1.5
 43
1.5
 50
270.0
  0
MTEXT
  5
17F67
330
17F4A
100
AcDbEntity
  8
2寸法線
 62
     1
440
 16777216
 48
3.0
100
AcDbMText
 10
465.4769655596213
 20
494.1699955922158
 30
0.0
 40
3.5
 41
0.0
 46
0.0
 71
     5
 72
     1
  1
\A1;45
  7
KANJI
 11
0.0000000000000001
 21
1.0
 31
0.0
 73
     1
 44
1.0
  0
POINT
  5
17F68
330
17F4A
100
AcDbEntity
  8
DEFPOINTS
 62
     0
440
 16777216
 48
3.0
100
AcDbPoint
 10
410.9993303720698
 20
516.7199955922162
 30
0.0
  0
POINT
  5
17F69
330
17F4A
100
AcDbEntity
  8
DEFPOINTS
 62
     0
440
 16777216
 48
3.0
100
AcDbPoint
 10
455.2493303720701
 20
471.6199955922158
 30
0.0
  0
POINT
  5
17F6A
330
17F4A
100
AcDbEntity
  8
DEFPOINTS
 62
     0
440
 16777216
 48
3.0
100
AcDbPoint
 10
468.2269655596213
 20
471.6199955922158
 30
0.0
  0
ENDBLK
  5
17F4C
330
17F4A
100
AcDbEntity
  8
0
 48
3.0
100
AcDbBlockEnd
  0
BLOCK
  5
17F57
330
17F56
100
AcDbEntity
  8
0
 48
3.0
100
AcDbBlockBegin
  2
*D61
 70
     1
 10
0.0
 20
0.0
 30
0.0
  3
*D61
  1

  0
LINE
  5
17F6B
330
17F56
100
AcDbEntity
  8
2寸法線
 62
     0
440
 16777216
 48
3.0
370
    -2
100
AcDbLine
 10
366.7493303720698
 20
469.6199955922157
 30
0.0
 11
366.7493303720698
 21
460.1731125171901
 31
0.0
  0
LINE
  5
17F6C
330
17F56
100
AcDbEntity
  8
2寸法線
 62
     0
440
 16777216
 48
3.0
370
    -2
100
AcDbLine
 10
455.2493303720698
 20
469.6199955922156
 30
0.0
 11
455.2493303720698
 21
460.1731125171901
 31
0.0
  0
LINE
  5
17F6D
330
17F56
100
AcDbEntity
  8
2寸法線
 62
     0
440
 16777216
 48
3.0
370
    -2
100
AcDbLine
 10
368.2493303720698
 20
461.1731125171901
 30
0.0
 11
453.7493303720698
 21
461.1731125171901
 31
0.0
  0
INSERT
  5
17F6E
330
17F56
100
AcDbEntity
  8
2寸法線
 62
     0
440
 16777216
 48
3.0
370
    -2
100
AcDbBlockReference
  2
1
 10
366.7493303720698
 20
461.1731125171901
 30
0.0
 41
1.5
 42
1.5
 43
1.5
 50
180.0
  0
INSERT
  5
17F6F
330
17F56
100
AcDbEntity
  8
2寸法線
 62
     0
440
 16777216
 48
3.0
370
    -2
100
AcDbBlockReference
  2
1
 10
455.2493303720698
 20
461.1731125171901
 30
0.0
 41
1.5
 42
1.5
 43
1.5
  0
MTEXT
  5
17F70
330
17F56
100
AcDbEntity
  8
2寸法線
 62
     1
440
 16777216
 48
3.0
100
AcDbMText
 10
410.9993303720698
 20
463.92311251719
 30
0.0
 40
3.5
 41
0.0
 46
0.0
 71
     5
 72
     1
  1
\A1;89
  7
KANJI
 73
     1
 44
1.0
  0
POINT
  5
17F71
330
17F56
100
AcDbEntity
  8
DEFPOINTS
 62
     0
440
 16777216
 48
3.0
100
AcDbPoint
 10
366.7493303720698
 20
471.6199955922157
 30
0.0
  0
POINT
  5
17F72
330
17F56
100
AcDbEntity
  8
DEFPOINTS
 62
     0
440
 16777216
 48
3.0
100
AcDbPoint
 10
455.2493303720698
 20
471.6199955922156
 30
0.0
  0
POINT
  5
17F73
330
17F56
100
AcDbEntity
  8
DEFPOINTS
 62
     0
440
 16777216
 48
3.0
100
AcDbPoint
 10
455.2493303720698
 20
461.1731125171901
 30
0.0
  0
ENDBLK
  5
17F58
330
17F56
100
AcDbEntity
  8
0
 48
3.0
100
AcDbBlockEnd
  0
ENDSEC
  0
SECTION
  2
ENTITIES
  0
LINE
  5
179E1
330
17
100
AcDbEntity
  8
1ﾀﾞｸﾄｶﾊﾞｰ
100
AcDbLine
 10
824.4785817294914
 20
451.1054362068654
 30
0.0
 11
824.4785817294914
 21
445.5054345438958
 31
0.0
  0
LINE
  5
179E2
330
17
100
AcDbEntity
  8
1ﾀﾞｸﾄｶﾊﾞｰ
100
AcDbLine
 10
819.9785800605614
 20
483.3338626325832
 30
0.0
 11
819.9785800605614
 21
452.1054363707782
 31
0.0
  0
LINE
  5
179E3
330
17
100
AcDbEntity
  8
1ﾀﾞｸﾄｶﾊﾞｰ
100
AcDbLine
 10
824.4785817294914
 20
483.3338626325832
 30
0.0
 11
819.9785800605614
 21
483.3338626325832
 31
0.0
  0
LINE
  5
179E4
330
17
100
AcDbEntity
  8
1ﾀﾞｸﾄｶﾊﾞｰ
100
AcDbLine
 10
824.4785817294914
 20
518.5054371963025
 30
0.0
 11
824.4785817294914
 21
483.3338626325832
 31
0.0
  0
LINE
  5
179E5
330
17
100
AcDbEntity
  8
1ﾀﾞｸﾄｶﾊﾞｰ
100
AcDbLine
 10
824.4785817294914
 20
518.5054371963025
 30
0.0
 11
819.9785800605614
 21
518.5054371963025
 31
0.0
  0
LINE
  5
179E6
330
17
100
AcDbEntity
  8
1ﾀﾞｸﾄｶﾊﾞｰ
100
AcDbLine
 10
819.9785800605614
 20
520.5054337988378
 30
0.0
 11
819.9785800605614
 21
518.5054371963025
 31
0.0
  0
ARC
  5
179E7
330
17
100
AcDbEntity
  8
1ﾀﾞｸﾄｶﾊﾞｰ
100
AcDbCircle
 10
820.4785800009567
 20
520.5054355273724
 30
0.0
 40
0.5
100
AcDbArc
 50
90.0
 51
180.0
  0
LINE
  5
179E8
330
17
100
AcDbEntity
  8
1ﾀﾞｸﾄｶﾊﾞｰ
100
AcDbLine
 10
825.978581044038
 20
521.0054348121167
 30
0.0
 11
820.4785810738403
 21
521.0054348121167
 31
0.0
  0
LINE
  5
179E9
330
17
100
AcDbEntity
  8
1ﾀﾞｸﾄｶﾊﾞｰ
100
AcDbLine
 10
825.978581044038
 20
521.0054348121167
 30
0.0
 11
825.978581044038
 21
515.5054348419191
 31
0.0
  0
LINE
  5
179EA
330
17
100
AcDbEntity
  8
1ﾀﾞｸﾄｶﾊﾞｰ
100
AcDbLine
 10
860.5785800098974
 20
515.5054348419191
 30
0.0
 11
842.9785790174797
 21
515.5054348419188
 31
0.0
  0
LINE
  5
179EB
330
17
100
AcDbEntity
  8
1ﾀﾞｸﾄｶﾊﾞｰ
100
AcDbLine
 10
840.9785790174796
 20
515.5054348419188
 30
0.0
 11
825.978581044038
 21
515.5054348419191
 31
0.0
  0
ARC
  5
179ED
330
17
100
AcDbEntity
  8
1ﾀﾞｸﾄｶﾊﾞｰ
100
AcDbCircle
 10
861.5785800009561
 20
531.0054355273725
 30
0.0
 40
1.000000000000192
100
AcDbArc
 50
90.0
 51
110.4873151147173
  0
LINE
  5
179EE
330
17
100
AcDbEntity
  8
1ﾀﾞｸﾄｶﾊﾞｰ
100
AcDbLine
 10
862.8785800027262
 20
532.0054347525121
 30
0.0
 11
861.5785799991872
 21
532.0054347525121
 31
0.0
  0
ARC
  5
179EF
330
17
100
AcDbEntity
  8
1ﾀﾞｸﾄｶﾊﾞｰ
100
AcDbCircle
 10
862.8785800009564
 20
531.0054355273725
 30
0.0
 40
1.000000000000192
100
AcDbArc
 50
69.51268488528288
 51
90.0
  0
LINE
  5
179F1
330
17
100
AcDbEntity
  8
1ﾀﾞｸﾄｶﾊﾞｰ
100
AcDbLine
 10
898.4785789578754
 20
515.5054348419191
 30
0.0
 11
883.478580984433
 21
515.5054348419188
 31
0.0
  0
LINE
  5
179F2
330
17
100
AcDbEntity
  8
1ﾀﾞｸﾄｶﾊﾞｰ
100
AcDbLine
 10
881.4785809844329
 20
515.5054348419188
 30
0.0
 11
863.878579992016
 21
515.5054348419191
 31
0.0
  0
LINE
  5
179F3
330
17
100
AcDbEntity
  8
1ﾀﾞｸﾄｶﾊﾞｰ
100
AcDbLine
 10
898.4785789578754
 20
515.5054348419191
 30
0.0
 11
898.4785789578754
 21
521.0054348121167
 31
0.0
  0
LINE
  5
179F4
330
17
100
AcDbEntity
  8
1ﾀﾞｸﾄｶﾊﾞｰ
100
AcDbLine
 10
903.9785789280731
 20
521.0054348121167
 30
0.0
 11
898.4785789578754
 21
521.0054348121167
 31
0.0
  0
ARC
  5
179F5
330
17
100
AcDbEntity
  8
1ﾀﾞｸﾄｶﾊﾞｰ
100
AcDbCircle
 10
903.9785800009568
 20
520.5054355273724
 30
0.0
 40
0.5
100
AcDbArc
 50
0.0
 51
90.0
  0
LINE
  5
179F6
330
17
100
AcDbEntity
  8
1ﾀﾞｸﾄｶﾊﾞｰ
100
AcDbLine
 10
904.4785799413521
 20
520.5054337988378
 30
0.0
 11
904.4785799413521
 21
518.5054371963025
 31
0.0
  0
LINE
  5
179F7
330
17
100
AcDbEntity
  8
1ﾀﾞｸﾄｶﾊﾞｰ
100
AcDbLine
 10
899.978578272422
 20
518.5054371963025
 30
0.0
 11
904.4785799413521
 21
518.5054371963025
 31
0.0
  0
LINE
  5
179F8
330
17
100
AcDbEntity
  8
1ﾀﾞｸﾄｶﾊﾞｰ
100
AcDbLine
 10
899.978578272422
 20
518.5054371963025
 30
0.0
 11
899.978578272422
 21
483.3338626325832
 31
0.0
  0
LINE
  5
179F9
330
17
100
AcDbEntity
  8
1ﾀﾞｸﾄｶﾊﾞｰ
100
AcDbLine
 10
899.978578272422
 20
483.3338626325832
 30
0.0
 11
904.4785799413521
 21
483.3338626325832
 31
0.0
  0
LINE
  5
179FA
330
17
100
AcDbEntity
  8
1ﾀﾞｸﾄｶﾊﾞｰ
100
AcDbLine
 10
904.4785799413521
 20
483.3338626325832
 30
0.0
 11
904.4785799413521
 21
452.1054363707782
 31
0.0
  0
LINE
  5
179FB
330
17
100
AcDbEntity
  8
1ﾀﾞｸﾄｶﾊﾞｰ
100
AcDbLine
 10
899.978578272422
 20
451.1054362068654
 30
0.0
 11
899.978578272422
 21
445.5054345438958
 31
0.0
  0
LINE
  5
179FE
330
17
100
AcDbEntity
  8
1ﾀﾞｸﾄｶﾊﾞｰ
100
AcDbLine
 10
898.4785789578754
 20
521.0054348121167
 30
0.0
 11
895.8241270809967
 21
521.0054348121167
 31
0.0
  0
LINE
  5
179FF
330
17
100
AcDbEntity
  8
1ﾀﾞｸﾄｶﾊﾞｰ
100
AcDbLine
 10
828.6330329209167
 20
521.0054348121167
 30
0.0
 11
825.978581044038
 21
521.0054348121167
 31
0.0
  0
LINE
  5
17A03
330
17
100
AcDbEntity
  8
1ﾀﾞｸﾄｶﾊﾞｰ
100
AcDbLine
 10
904.4785799413521
 20
490.9338624114872
 30
0.0
 11
904.4785799413521
 21
483.3338626325832
 31
0.0
  0
LINE
  5
17A04
330
17
100
AcDbEntity
  8
1ﾀﾞｸﾄｶﾊﾞｰ
100
AcDbLine
 10
904.4785799413521
 20
451.1054362068654
 30
0.0
 11
899.978578272422
 21
451.1054362068654
 31
0.0
  0
LINE
  5
17A05
330
17
100
AcDbEntity
  8
1ﾀﾞｸﾄｶﾊﾞｰ
100
AcDbLine
 10
904.4785799413521
 20
452.1054363707782
 30
0.0
 11
904.4785799413521
 21
451.1054362068654
 31
0.0
  0
LINE
  5
17A07
330
17
100
AcDbEntity
  8
1ﾀﾞｸﾄｶﾊﾞｰ
100
AcDbLine
 10
819.9785800605614
 20
490.9338624114872
 30
0.0
 11
819.9785800605614
 21
483.3338626325832
 31
0.0
  0
LINE
  5
17A08
330
17
100
AcDbEntity
  8
1ﾀﾞｸﾄｶﾊﾞｰ
100
AcDbLine
 10
899.978578272422
 20
443.5054342160703
 30
0.0
 11
824.4785817294914
 21
443.5054342160703
 31
0.0
  0
LINE
  5
17A09
330
17
100
AcDbEntity
  8
1ﾀﾞｸﾄｶﾊﾞｰ
100
AcDbLine
 10
824.4785817294914
 20
443.5054342160703
 30
0.0
 11
824.4785817294914
 21
445.5054345438958
 31
0.0
  0
LINE
  5
17A0A
330
17
100
AcDbEntity
  8
1ﾀﾞｸﾄｶﾊﾞｰ
100
AcDbLine
 10
899.978578272422
 20
445.5054345438958
 30
0.0
 11
899.978578272422
 21
443.5054342160703
 31
0.0
  0
LINE
  5
17A0B
330
17
100
AcDbEntity
  8
1ﾀﾞｸﾄｶﾊﾞｰ
100
AcDbLine
 10
824.4785817294914
 20
451.1054362068654
 30
0.0
 11
819.9785800605614
 21
451.1054362068654
 31
0.0
  0
LINE
  5
17A0C
330
17
100
AcDbEntity
  8
1ﾀﾞｸﾄｶﾊﾞｰ
100
AcDbLine
 10
819.9785800605614
 20
451.1054362068654
 30
0.0
 11
819.9785800605614
 21
452.1054363707782
 31
0.0
  0
LINE
  5
17A15
330
17
100
AcDbEntity
  8
1ﾀﾞｸﾄｶﾊﾞｰ
100
AcDbLine
 10
863.878579992016
 20
515.5054348419191
 30
0.0
 11
863.878579992016
 21
531.0054364512445
 31
0.0
  0
ARC
  5
17A16
330
17
100
AcDbEntity
  8
1ﾀﾞｸﾄｶﾊﾞｰ
100
AcDbCircle
 10
862.8785800009564
 20
531.0054355273725
 30
0.0
 40
1.0
100
AcDbArc
 50
0.0
 51
49.45839812648942
  0
LINE
  5
17A17
330
17
100
AcDbEntity
  8
1ﾀﾞｸﾄｶﾊﾞｰ
100
AcDbLine
 10
860.5785800098974
 20
515.5054348419191
 30
0.0
 11
860.5785800098974
 21
531.0054364512445
 31
0.0
  0
ARC
  5
17A18
330
17
100
AcDbEntity
  8
1ﾀﾞｸﾄｶﾊﾞｰ
100
AcDbCircle
 10
861.5785800009561
 20
531.0054355273725
 30
0.0
 40
1.0
100
AcDbArc
 50
130.5416018735103
 51
180.0
  0
LINE
  5
17A19
330
17
100
AcDbEntity
  8
1ﾀﾞｸﾄｶﾊﾞｰ
100
AcDbLine
 10
883.478580984433
 20
521.0054348121169
 30
0.0
 11
895.8241270809967
 21
521.0054348121167
 31
0.0
  0
LINE
  5
17A1A
330
17
100
AcDbEntity
  8
1ﾀﾞｸﾄｶﾊﾞｰ
100
AcDbLine
 10
895.8241270809967
 20
521.005088360119
 30
0.0
 11
895.8241270809967
 21
521.0054348121167
 31
0.0
  0
LINE
  5
17A1B
330
17
100
AcDbEntity
  8
1ﾀﾞｸﾄｶﾊﾞｰ
100
AcDbLine
 10
863.878579992016
 20
521.0054348121167
 30
0.0
 11
881.4785809844334
 21
521.0054348121169
 31
0.0
  0
LINE
  5
17A1C
330
17
100
AcDbEntity
  8
1ﾀﾞｸﾄｶﾊﾞｰ
100
AcDbLine
 10
842.9785790174797
 20
521.0054348121169
 30
0.0
 11
860.5785800098974
 21
521.0054348121167
 31
0.0
  0
LINE
  5
17A1D
330
17
100
AcDbEntity
  8
1ﾀﾞｸﾄｶﾊﾞｰ
100
AcDbLine
 10
828.6330329209167
 20
521.005088360119
 30
0.0
 11
828.6330329209167
 21
521.0054348121167
 31
0.0
  0
LINE
  5
17A1E
330
17
100
AcDbEntity
  8
1ﾀﾞｸﾄｶﾊﾞｰ
100
AcDbLine
 10
828.6330329209167
 20
521.0054348121167
 30
0.0
 11
840.9785790174801
 21
521.0054348121169
 31
0.0
  0
ARC
  5
17A1F
330
17
100
AcDbEntity
  8
1ﾀﾞｸﾄｶﾊﾞｰ
100
AcDbCircle
 10
862.8785800009564
 20
531.0054355273725
 30
0.0
 40
1.000000000000192
100
AcDbArc
 50
49.45839812648942
 51
69.51268488528288
  0
ARC
  5
17A20
330
17
100
AcDbEntity
  8
1ﾀﾞｸﾄｶﾊﾞｰ
100
AcDbCircle
 10
861.5785800009561
 20
531.0054355273725
 30
0.0
 40
1.000000000000192
100
AcDbArc
 50
110.4873151147173
 51
130.5416018735103
  0
LINE
  5
17A21
330
17
100
AcDbEntity
  8
1ﾀﾞｸﾄｶﾊﾞｰ
100
AcDbLine
 10
904.4785799413521
 20
518.5054371963025
 30
0.0
 11
904.4785799413521
 21
490.9338624114872
 31
0.0
  0
LINE
  5
17A22
330
17
100
AcDbEntity
  8
1ﾀﾞｸﾄｶﾊﾞｰ
100
AcDbLine
 10
819.9785800605614
 20
518.5054371963025
 30
0.0
 11
819.9785800605614
 21
490.9338624114872
 31
0.0
  0
LINE
  5
17A23
330
17
100
AcDbEntity
  8
1ﾀﾞｸﾄｶﾊﾞｰ
100
AcDbLine
 10
899.978578272422
 20
443.5054342160703
 30
0.0
 11
904.4785799413521
 21
443.5054342160703
 31
0.0
  0
LINE
  5
17A25
330
17
100
AcDbEntity
  8
1ﾀﾞｸﾄｶﾊﾞｰ
100
AcDbLine
 10
824.4785817294914
 20
443.5054342160703
 30
0.0
 11
819.9785800605614
 21
443.5054342160703
 31
0.0
  0
ARC
  5
17A36
330
17
100
AcDbEntity
  8
1ﾀﾞｸﾄｶﾊﾞｰ
100
AcDbCircle
 10
891.2285799636329
 20
500.6054355273723
 30
0.0
 40
2.100000000000022
100
AcDbArc
 50
180.0
 51
0.0
  0
LINE
  5
17A37
330
17
100
AcDbEntity
  8
1ﾀﾞｸﾄｶﾊﾞｰ
100
AcDbLine
 10
893.3285798887546
 20
500.6054359386445
 30
0.0
 11
893.3285798887546
 21
505.4054352353097
 31
0.0
  0
ARC
  5
17A38
330
17
100
AcDbEntity
  8
1ﾀﾞｸﾄｶﾊﾞｰ
100
AcDbCircle
 10
891.2285799636329
 20
505.4054355273725
 30
0.0
 40
2.100000000000022
100
AcDbArc
 50
0.0
 51
180.0
  0
LINE
  5
17A39
330
17
100
AcDbEntity
  8
1ﾀﾞｸﾄｶﾊﾞｰ
100
AcDbLine
 10
889.1285800385112
 20
505.4054352353097
 30
0.0
 11
889.1285800385112
 21
500.6054359386445
 31
0.0
  0
ARC
  5
17A3A
330
17
100
AcDbEntity
  8
1ﾀﾞｸﾄｶﾊﾞｰ
100
AcDbCircle
 10
891.2285799636329
 20
500.6054355273723
 30
0.0
 40
2.100000000000022
100
AcDbArc
 50
180.0
 51
0.0
  0
LINE
  5
17A3B
330
17
100
AcDbEntity
  8
1ﾀﾞｸﾄｶﾊﾞｰ
100
AcDbLine
 10
893.3285798887546
 20
500.6054359386445
 30
0.0
 11
893.3285798887546
 21
505.4054352353097
 31
0.0
  0
ARC
  5
17A3C
330
17
100
AcDbEntity
  8
1ﾀﾞｸﾄｶﾊﾞｰ
100
AcDbCircle
 10
891.2285799636329
 20
505.4054355273725
 30
0.0
 40
2.100000000000022
100
AcDbArc
 50
0.0
 51
180.0
  0
LINE
  5
17A3D
330
17
100
AcDbEntity
  8
1ﾀﾞｸﾄｶﾊﾞｰ
100
AcDbLine
 10
889.1285800385112
 20
505.4054352353097
 30
0.0
 11
889.1285800385112
 21
500.6054359386445
 31
0.0
  0
SPLINE
  5
17A43
330
17
100
AcDbEntity
  8
1ﾀﾞｸﾄｶﾊﾞｰ
100
AcDbSpline
210
0.0
220
0.0
230
1.0
 70
     8
 71
     3
 72
    24
 73
    20
 74
     0
 42
0.000000001
 43
0.0000000001
 40
0.0
 40
0.0
 40
0.0
 40
0.0
 40
0.125
 40
0.125
 40
0.2499999999999999
 40
0.2499999999999999
 40
0.3749999999999998
 40
0.3749999999999998
 40
0.4999999999999999
 40
0.4999999999999999
 40
0.5624999999999999
 40
0.5624999999999999
 40
0.625
 40
0.625
 40
0.7500000000000001
 40
0.7500000000000001
 40
0.875
 40
0.875
 40
1.0
 40
1.0
 40
1.0
 40
1.0
 10
902.4516830175716
 20
464.4054349462273
 30
0.0
 10
902.478579872446
 20
462.5701095831781
 30
0.0
 10
902.4132882129343
 20
461.6402238012702
 30
0.0
 10
902.1528424513943
 20
459.7912731499524
 30
0.0
 10
901.9577657306818
 20
458.8760805044988
 30
0.0
 10
901.4424878385725
 20
457.0836131143392
 30
0.0
 10
901.1210047936666
 20
456.2027780023489
 30
0.0
 10
900.3609871843554
 20
454.5005301149871
 30
0.0
 10
899.9196471432259
 20
453.6729185539369
 30
0.0
 10
899.1768801897551
 20
452.4879918449547
 30
0.0
 10
898.9156892641785
 20
452.1019655490389
 30
0.0
 10
898.3660294792008
 20
451.347860226312
 30
0.0
 10
898.0770780205331
 20
450.9792806767765
 30
0.0
 10
897.1754089455144
 20
449.9085962475517
 30
0.0
 10
896.52570307505
 20
449.2382712432194
 30
0.0
 10
895.1338353620686
 20
447.9903411140497
 30
0.0
 10
894.3980025333285
 20
447.4181773969461
 30
0.0
 10
892.8466943923085
 20
446.3772508207476
 30
0.0
 10
892.0359028157763
 20
445.9120363585299
 30
0.0
 10
891.1963770826524
 20
445.5054355273724
 30
0.0
  0
SPLINE
  5
17A45
330
17
100
AcDbEntity
  8
1ﾀﾞｸﾄｶﾊﾞｰ
100
AcDbSpline
210
0.0
220
0.0
230
1.0
 70
     8
 71
     3
 72
    32
 73
    28
 74
     0
 42
0.000000001
 43
0.0000000001
 40
0.0
 40
0.0
 40
0.0
 40
0.0
 40
0.0625000000000001
 40
0.0625000000000001
 40
0.1250000000000002
 40
0.1250000000000002
 40
0.1875000000000004
 40
0.1875000000000004
 40
0.2500000000000005
 40
0.2500000000000005
 40
0.3750000000000004
 40
0.3750000000000004
 40
0.4375000000000002
 40
0.4375000000000002
 40
0.5
 40
0.5
 40
0.5624999999999999
 40
0.5624999999999999
 40
0.6249999999999996
 40
0.6249999999999996
 40
0.7499999999999995
 40
0.7499999999999995
 40
0.8124999999999996
 40
0.8124999999999996
 40
0.8749999999999998
 40
0.8749999999999998
 40
1.0
 40
1.0
 40
1.0
 40
1.0
 10
882.4785798724461
 20
488.5054343092027
 30
0.0
 10
883.1348454318831
 20
488.5054343092027
 30
0.0
 10
883.7884259720585
 20
488.4732112263999
 30
0.0
 10
885.0902706518208
 20
488.344962607339
 30
0.0
 10
885.7402775077217
 20
488.2485405556807
 30
0.0
 10
887.0249137964746
 20
487.9928600903291
 30
0.0
 10
887.6592999231343
 20
487.833877846422
 30
0.0
 10
888.9122262188511
 20
487.4537003117812
 30
0.0
 10
889.5311901707255
 20
487.2321164777487
 30
0.0
 10
891.3441772103661
 20
486.4807766449258
 30
0.0
 10
892.5062245658045
 20
485.8593183976003
 30
0.0
 10
894.1373688496833
 20
484.7689018775501
 30
0.0
 10
894.6647262481347
 20
484.3776468242286
 30
0.0
 10
895.6774375220666
 20
483.5460277269141
 30
0.0
 10
896.1619011883376
 20
483.1066340344545
 30
0.0
 10
897.0871941087544
 20
482.1808394492832
 30
0.0
 10
897.5286369646665
 20
481.6934552030974
 30
0.0
 10
898.358430514717
 20
480.681577259911
 30
0.0
 10
898.7479391007237
 20
480.1560835335036
 30
0.0
 10
899.8398826808989
 20
478.52061643331
 30
0.0
 10
900.4587318919366
 20
477.3616766482965
 30
0.0
 10
901.2104382636289
 20
475.5444118603723
 30
0.0
 10
901.4304546741204
 20
474.9284036018551
 30
0.0
 10
901.8097302271444
 20
473.6759970442173
 30
0.0
 10
901.9692291757792
 20
473.0377071215504
 30
0.0
 10
902.3506122510097
 20
471.1150238534661
 30
0.0
 10
902.478579872446
 20
469.8179654280765
 30
0.0
 10
902.4785796135265
 20
467.6054334114074
 30
0.0
  0
LINE
  5
17A46
330
17
100
AcDbEntity
  8
1ﾀﾞｸﾄｶﾊﾞｰ
100
AcDbLine
 10
862.2285800009567
 20
488.5054341415645
 30
0.0
 11
882.4785800605614
 21
488.5054341415645
 31
0.0
  0
LINE
  5
17A47
330
17
100
AcDbEntity
  8
1ﾀﾞｸﾄｶﾊﾞｰ
100
AcDbLine
 10
841.9785799413521
 20
488.5054341415645
 30
0.0
 11
862.2285800009567
 21
488.5054341415645
 31
0.0
  0
SPLINE
  5
17A48
330
17
100
AcDbEntity
  8
1ﾀﾞｸﾄｶﾊﾞｰ
100
AcDbSpline
210
0.0
220
0.0
230
1.0
 70
     8
 71
     3
 72
    32
 73
    28
 74
     0
 42
0.000000001
 43
0.0000000001
 40
0.0
 40
0.0
 40
0.0
 40
0.0
 40
0.0625000000000001
 40
0.0625000000000001
 40
0.1250000000000001
 40
0.1250000000000001
 40
0.1875000000000002
 40
0.1875000000000002
 40
0.2500000000000002
 40
0.2500000000000002
 40
0.3750000000000001
 40
0.3750000000000001
 40
0.4375000000000002
 40
0.4375000000000002
 40
0.5000000000000004
 40
0.5000000000000004
 40
0.5625000000000004
 40
0.5625000000000004
 40
0.6250000000000005
 40
0.6250000000000005
 40
0.7500000000000007
 40
0.7500000000000007
 40
0.8125000000000005
 40
0.8125000000000005
 40
0.8750000000000005
 40
0.8750000000000005
 40
1.0
 40
1.0
 40
1.0
 40
1.0
 10
821.9785801294674
 20
467.6054334114074
 30
0.0
 10
821.9785801294674
 20
469.1616998686396
 30
0.0
 10
822.0108032122698
 20
469.8152804088155
 30
0.0
 10
822.139051831331
 20
471.1171250885773
 30
0.0
 10
822.235473882989
 20
471.7671319444779
 30
0.0
 10
822.4911543483404
 20
473.0517682332312
 30
0.0
 10
822.6501365922477
 20
473.686154359891
 30
0.0
 10
823.0303141268887
 20
474.9390806556077
 30
0.0
 10
823.2518979609212
 20
475.5580446074819
 30
0.0
 10
824.003237793744
 20
477.3710316471222
 30
0.0
 10
824.624696041069
 20
478.5330790025613
 30
0.0
 10
825.7151125611198
 20
480.1642232864402
 30
0.0
 10
826.1063676144413
 20
480.6915806848906
 30
0.0
 10
826.9379867117558
 20
481.7042919588226
 30
0.0
 10
827.3773804042157
 20
482.1887556250941
 30
0.0
 10
828.3031749893861
 20
483.1140485455111
 30
0.0
 10
828.7905592355718
 20
483.5554914014231
 30
0.0
 10
829.8024371787587
 20
484.3852849514727
 30
0.0
 10
830.3279309051658
 20
484.7747935374806
 30
0.0
 10
831.9633980053595
 20
485.8667371176551
 30
0.0
 10
833.1223377903734
 20
486.4855863286928
 30
0.0
 10
834.939602578297
 20
487.2372927003851
 30
0.0
 10
835.5556108368146
 20
487.4573091108764
 30
0.0
 10
836.8080173944521
 20
487.8365846639011
 30
0.0
 10
837.4463073171192
 20
487.9960836125349
 30
0.0
 10
839.3689905852033
 20
488.3774666877658
 30
0.0
 10
840.6660490105933
 20
488.5054343092027
 30
0.0
 10
841.9785801294674
 20
488.5054343092027
 30
0.0
  0
SPLINE
  5
17A4A
330
17
100
AcDbEntity
  8
1ﾀﾞｸﾄｶﾊﾞｰ
100
AcDbSpline
210
0.0
220
0.0
230
1.0
 70
     8
 71
     3
 72
    22
 73
    18
 74
     0
 42
0.000000001
 43
0.0000000001
 40
0.0
 40
0.0
 40
0.0
 40
0.0
 40
0.1250000000000003
 40
0.1250000000000003
 40
0.2500000000000005
 40
0.2500000000000005
 40
0.3750000000000008
 40
0.3750000000000008
 40
0.5000000000000011
 40
0.5000000000000011
 40
0.6250000000000009
 40
0.6250000000000009
 40
0.6875000000000007
 40
0.6875000000000007
 40
0.7500000000000004
 40
0.7500000000000004
 40
1.0
 40
1.0
 40
1.0
 40
1.0
 10
833.260782919261
 20
445.5054355273724
 30
0.0
 10
832.4184203243904
 20
445.9134103132504
 30
0.0
 10
831.6089715997842
 20
446.378087939997
 30
0.0
 10
830.0557677477991
 20
447.420617777932
 30
0.0
 10
829.3170668094781
 20
447.9954865929508
 30
0.0
 10
827.9266282154367
 20
449.2430695341583
 30
0.0
 10
827.2737588453018
 20
449.9172243811541
 30
0.0
 10
826.0720933766997
 20
451.3458742164463
 30
0.0
 10
825.5193140847714
 20
452.1052682072983
 30
0.0
 10
824.5290653281863
 20
453.6878142323102
 30
0.0
 10
824.0881597828265
 20
454.5162585456686
 30
0.0
 10
823.5182093120693
 20
455.7961673098317
 30
0.0
 10
823.3434115685023
 20
456.2288653407136
 30
0.0
 10
823.0241611621595
 20
457.1063744115475
 30
0.0
 10
822.8793936820833
 20
457.5523466788405
 30
0.0
 10
822.2366458521346
 20
459.7977236108489
 30
0.0
 10
821.9785801294674
 20
461.6322985835567
 30
0.0
 10
822.0054769843418
 20
464.4054349462273
 30
0.0
  0
SPLINE
  5
17A4B
330
17
100
AcDbEntity
  8
1ﾀﾞｸﾄｶﾊﾞｰ
100
AcDbSpline
210
0.0
220
0.0
230
1.0
 70
     8
 71
     3
 72
     8
 73
     4
 74
     0
 42
0.000000001
 43
0.0000000001
 40
0.0
 40
0.0
 40
0.0
 40
0.0
 40
1.0
 40
1.0
 40
1.0
 40
1.0
 10
873.7607826622397
 20
445.5054355273724
 30
0.0
 10
873.1406334868825
 20
445.8057874525046
 30
0.0
 10
872.5345379203782
 20
446.1387877911294
 30
0.0
 10
871.9429261195937
 20
446.505435855198
 30
0.0
  0
SPLINE
  5
17A53
330
17
100
AcDbEntity
  8
1ﾀﾞｸﾄｶﾊﾞｰ
100
AcDbSpline
210
0.0
220
0.0
230
1.0
 70
     8
 71
     3
 72
    26
 73
    22
 74
     0
 42
0.000000001
 43
0.0000000001
 40
0.0
 40
0.0
 40
0.0
 40
0.0
 40
0.0625000000000001
 40
0.0625000000000001
 40
0.1250000000000002
 40
0.1250000000000002
 40
0.2500000000000002
 40
0.2500000000000002
 40
0.3750000000000002
 40
0.3750000000000002
 40
0.5000000000000001
 40
0.5000000000000001
 40
0.6250000000000001
 40
0.6250000000000001
 40
0.75
 40
0.75
 40
0.875
 40
0.875
 40
0.9375
 40
0.9375
 40
1.0
 40
1.0
 40
1.0
 40
1.0
 10
873.7607826622397
 20
445.5054355273724
 30
0.0
 10
874.0988765499933
 20
445.3416891997188
 30
0.0
 10
874.4439621454949
 20
445.2052293961499
 30
0.0
 10
875.1433832817593
 20
444.9656042520724
 30
0.0
 10
875.4978307891152
 20
444.8629470297597
 30
0.0
 10
876.5722352753964
 20
444.5924163007779
 30
0.0
 10
877.3041815237947
 20
444.461574856079
 30
0.0
 10
878.7703911715579
 20
444.2646610015259
 30
0.0
 10
879.5075874808453
 20
444.1983582169033
 30
0.0
 10
880.9894935201263
 20
444.1115527211041
 30
0.0
 10
881.7348750481551
 20
444.0912357613611
 30
0.0
 10
883.2208175367886
 20
444.0912085099165
 30
0.0
 10
883.9628597816963
 20
444.11137108393
 30
0.0
 10
885.4450530886834
 20
444.1979942147403
 30
0.0
 10
886.1857178618283
 20
444.2645268631646
 30
0.0
 10
887.653570232268
 20
444.4616473925702
 30
0.0
 10
888.3848702249443
 20
444.592381244095
 30
0.0
 10
889.4599875152371
 20
444.8631235608733
 30
0.0
 10
889.8145502002199
 20
444.9658430459038
 30
0.0
 10
890.5138712052849
 20
445.2054865236568
 30
0.0
 10
890.858745005733
 20
445.3419128648921
 30
0.0
 10
891.1963770826524
 20
445.5054355273722
 30
0.0
  0
SPLINE
  5
17A54
330
17
100
AcDbEntity
  8
1ﾀﾞｸﾄｶﾊﾞｰ
100
AcDbSpline
210
0.0
220
0.0
230
1.0
 70
     8
 71
     3
 72
    26
 73
    22
 74
     0
 42
0.000000001
 43
0.0000000001
 40
0.0
 40
0.0
 40
0.0
 40
0.0
 40
0.0625000000000001
 40
0.0625000000000001
 40
0.1250000000000003
 40
0.1250000000000003
 40
0.2500000000000003
 40
0.2500000000000003
 40
0.3750000000000003
 40
0.3750000000000003
 40
0.5000000000000002
 40
0.5000000000000002
 40
0.6250000000000002
 40
0.6250000000000002
 40
0.7500000000000002
 40
0.7500000000000002
 40
0.8750000000000001
 40
0.8750000000000001
 40
0.9375000000000001
 40
0.9375000000000001
 40
1.0
 40
1.0
 40
1.0
 40
1.0
 10
833.260782919261
 20
445.5054355273724
 30
0.0
 10
833.5988090157034
 20
445.341722032546
 30
0.0
 10
833.9438240859463
 20
445.2052844357928
 30
0.0
 10
834.6431011330569
 20
444.9656933585723
 30
0.0
 10
834.9974749964157
 20
444.8630476325559
 30
0.0
 10
836.0716550621983
 20
444.5925405787808
 30
0.0
 10
836.8033179710463
 20
444.4616927446044
 30
0.0
 10
838.2711317113443
 20
444.2645597029951
 30
0.0
 10
839.0107376005698
 20
444.1980795673774
 30
0.0
 10
840.4951714889794
 20
444.1113148400266
 30
0.0
 10
841.2384302832297
 20
444.091145384816
 30
0.0
 10
842.7270018412118
 20
444.0912993006572
 30
0.0
 10
843.4715372961928
 20
444.1117388233671
 30
0.0
 10
844.9495210816513
 20
444.1983959470225
 30
0.0
 10
845.684547192839
 20
444.2645053606823
 30
0.0
 10
847.1457939855218
 20
444.4604681574118
 30
0.0
 10
847.8720440374681
 20
444.5895989027211
 30
0.0
 10
848.9533317340073
 20
444.8612275897645
 30
0.0
 10
849.3106143326576
 20
444.9645817166214
 30
0.0
 10
850.0130314428233
 20
445.2051117558945
 30
0.0
 10
850.3588186803018
 20
445.3419484226304
 30
0.0
 10
850.6963773396737
 20
445.5054355273724
 30
0.0
  0
SPLINE
  5
17A5A
330
17
100
AcDbEntity
  8
1ﾀﾞｸﾄｶﾊﾞｰ
100
AcDbSpline
210
0.0
220
0.0
230
1.0
 70
     8
 71
     3
 72
     8
 73
     4
 74
     0
 42
0.000000001
 43
0.0000000001
 40
0.0
 40
0.0
 40
0.0
 40
0.0
 40
1.0
 40
1.0
 40
1.0
 40
1.0
 10
852.5142338823197
 20
446.505435855198
 30
0.0
 10
851.9246376012043
 20
446.1400368980331
 30
0.0
 10
851.3186324089915
 20
445.8068073834025
 30
0.0
 10
850.6963773396737
 20
445.5054355273724
 30
0.0
  0
LINE
  5
17A5B
330
17
100
AcDbEntity
  8
1ﾀﾞｸﾄｶﾊﾞｰ
100
AcDbLine
 10
871.9429263799984
 20
446.5054365704538
 30
0.0
 11
862.2285800009567
 21
446.5054365704538
 31
0.0
  0
LINE
  5
17A5D
330
17
100
AcDbEntity
  8
1ﾀﾞｸﾄｶﾊﾞｰ
100
AcDbLine
 10
862.2285800009567
 20
446.5054365704538
 30
0.0
 11
852.514233621915
 21
446.5054365704538
 31
0.0
  0
SPLINE
  5
17A5F
330
17
100
AcDbEntity
  8
1ﾀﾞｸﾄｶﾊﾞｰ
100
AcDbSpline
210
0.0
220
0.0
230
1.0
 70
     8
 71
     3
 72
    38
 73
    34
 74
     0
 42
0.000000001
 43
0.0000000001
 40
0.0
 40
0.0
 40
0.0
 40
0.0
 40
0.0625
 40
0.0625
 40
0.125
 40
0.125
 40
0.1875
 40
0.1875
 40
0.25
 40
0.25
 40
0.3125
 40
0.3125
 40
0.375
 40
0.375
 40
0.4375
 40
0.4375
 40
0.5
 40
0.5
 40
0.5625
 40
0.5625
 40
0.625
 40
0.625
 40
0.6875
 40
0.6875
 40
0.75
 40
0.75
 40
0.8125
 40
0.8125
 40
0.875
 40
0.875
 40
0.9375
 40
0.9375
 40
1.0
 40
1.0
 40
1.0
 40
1.0
 10
899.978579872446
 20
463.505435855198
 30
0.0
 10
899.978579872446
 20
462.7142680951238
 30
0.0
 10
899.9251727098316
 20
461.9275505380659
 30
0.0
 10
899.7122146860547
 20
460.3629599493725
 30
0.0
 10
899.5525335486036
 20
459.587270997859
 30
0.0
 10
899.130911595963
 20
458.0674437482882
 30
0.0
 10
898.8676163802656
 20
457.3190660577673
 30
0.0
 10
898.244880025808
 20
455.8702889411368
 30
0.0
 10
897.883347527877
 20
455.1648248783493
 30
0.0
 10
897.0701922699063
 20
453.8122678680426
 30
0.0
 10
896.6183587489767
 20
453.1641844001032
 30
0.0
 10
895.6284689283675
 20
451.9315321856642
 30
0.0
 10
895.0943506141129
 20
451.3515687727378
 30
0.0
 10
893.9478935118003
 20
450.2642500659063
 30
0.0
 10
893.3384904343256
 20
449.7600861538181
 30
0.0
 10
892.0577448740841
 20
448.8387425095033
 30
0.0
 10
891.3840988759229
 20
448.4202323904127
 30
0.0
 10
889.9914893684572
 20
447.6805243799316
 30
0.0
 10
889.2674469792664
 20
447.3566451376422
 30
0.0
 10
887.78713542917
 20
446.8113831376984
 30
0.0
 10
887.0278618170468
 20
446.5886420253099
 30
0.0
 10
885.4853936385252
 20
446.2475984857438
 30
0.0
 10
884.7057941313941
 20
446.1297438046643
 30
0.0
 10
883.1298128502648
 20
445.9996924205751
 30
0.0
 10
882.3402948140946
 20
445.9881950821051
 30
0.0
 10
880.7640947175514
 20
446.0717504240127
 30
0.0
 10
879.9773560181812
 20
446.1671654905962
 30
0.0
 10
878.4282212599674
 20
446.4623629187967
 30
0.0
 10
877.6607014143456
 20
446.6632300703159
 30
0.0
 10
876.1654379655574
 20
447.1648089455347
 30
0.0
 10
875.4330125705628
 20
447.4669523915245
 30
0.0
 10
874.0178204637823
 20
448.1663185191647
 30
0.0
 10
873.3361599025174
 20
448.5624741836272
 30
0.0
 10
872.680620901313
 20
449.0054358551982
 30
0.0
  0
LINE
  5
17A60
330
17
100
AcDbEntity
  8
1ﾀﾞｸﾄｶﾊﾞｰ
100
AcDbLine
 10
872.6806204720933
 20
449.005434186268
 30
0.0
 11
862.2285800009567
 21
449.005434186268
 31
0.0
  0
LINE
  5
17A61
330
17
100
AcDbEntity
  8
1ﾀﾞｸﾄｶﾊﾞｰ
100
AcDbLine
 10
862.2285800009567
 20
449.005434186268
 30
0.0
 11
851.7765395298201
 21
449.005434186268
 31
0.0
  0
SPLINE
  5
17A62
330
17
100
AcDbEntity
  8
1ﾀﾞｸﾄｶﾊﾞｰ
100
AcDbSpline
210
0.0
220
0.0
230
1.0
 70
     8
 71
     3
 72
    38
 73
    34
 74
     0
 42
0.000000001
 43
0.0000000001
 40
0.0
 40
0.0
 40
0.0
 40
0.0
 40
0.0624999999999999
 40
0.0624999999999999
 40
0.1249999999999998
 40
0.1249999999999998
 40
0.1874999999999998
 40
0.1874999999999998
 40
0.2499999999999998
 40
0.2499999999999998
 40
0.3124999999999998
 40
0.3124999999999998
 40
0.3749999999999998
 40
0.3749999999999998
 40
0.4375
 40
0.4375
 40
0.5
 40
0.5
 40
0.5625
 40
0.5625
 40
0.625
 40
0.625
 40
0.6875
 40
0.6875
 40
0.75
 40
0.75
 40
0.8125
 40
0.8125
 40
0.875
 40
0.875
 40
0.9375
 40
0.9375
 40
1.0
 40
1.0
 40
1.0
 40
1.0
 10
851.7765391005996
 20
449.0054358551982
 30
0.0
 10
851.1210000993951
 20
448.5624741836272
 30
0.0
 10
850.4392466270864
 20
448.1662557557407
 30
0.0
 10
849.0236399119103
 20
447.4667184386047
 30
0.0
 10
848.291523395901
 20
447.1647303227049
 30
0.0
 10
846.7961788409256
 20
446.6631482243498
 30
0.0
 10
846.0286798561682
 20
446.4623028941199
 30
0.0
 10
844.4796048023427
 20
446.1671382308385
 30
0.0
 10
843.6926614028061
 20
446.0717161323933
 30
0.0
 10
842.1166992025664
 20
445.9881991693913
 30
0.0
 10
841.3267416834251
 20
445.9997243593767
 30
0.0
 10
839.7511784287026
 20
446.1297773065815
 30
0.0
 10
838.9715933534898
 20
446.2476206112711
 30
0.0
 10
837.4287898735083
 20
446.588770548726
 30
0.0
 10
836.6698594120643
 20
446.8114315371839
 30
0.0
 10
835.1893922523913
 20
447.3567757313666
 30
0.0
 10
834.4654635336569
 20
447.680622702651
 30
0.0
 10
833.0728637068604
 20
448.4203489381338
 30
0.0
 10
832.3991273276687
 20
448.8389351733174
 30
0.0
 10
831.1185369944396
 20
449.7601959031702
 30
0.0
 10
830.5088754042062
 20
450.2645992800515
 30
0.0
 10
829.3626941898551
 20
451.3516997360819
 30
0.0
 10
828.8285583692585
 20
451.9316687374312
 30
0.0
 10
827.8384357977692
 20
453.1646681917701
 30
0.0
 10
827.3868714130157
 20
453.8124031102771
 30
0.0
 10
826.5736147605267
 20
455.1651787223746
 30
0.0
 10
826.2121910444129
 20
455.8704692394306
 30
0.0
 10
825.5894484105379
 20
457.319314169944
 30
0.0
 10
825.3261595956864
 20
458.0677213625582
 30
0.0
 10
824.904580382452
 20
459.5874796052793
 30
0.0
 10
824.7448550108684
 20
460.3635114518291
 30
0.0
 10
824.5319872767131
 20
461.9276626616998
 30
0.0
 10
824.4785801294675
 20
462.7142680951238
 30
0.0
 10
824.4785801294675
 20
463.505435855198
 30
0.0
  0
LINE
  5
17A63
330
17
100
AcDbEntity
  8
1ﾀﾞｸﾄｶﾊﾞｰ
100
AcDbLine
 10
824.4785817294914
 20
463.5054356316806
 30
0.0
 11
824.4785817294914
 21
464.4054349462273
 31
0.0
  0
LINE
  5
17A64
330
17
100
AcDbEntity
  8
1ﾀﾞｸﾄｶﾊﾞｰ
100
AcDbLine
 10
824.4785817294914
 20
464.4054349462273
 30
0.0
 11
822.0054769843418
 21
464.4054349462273
 31
0.0
  0
LINE
  5
17A65
330
17
100
AcDbEntity
  8
1ﾀﾞｸﾄｶﾊﾞｰ
100
AcDbLine
 10
821.9785803883869
 20
467.6054334114074
 30
0.0
 11
824.4785817294914
 21
467.6054334114074
 31
0.0
  0
LINE
  5
17A66
330
17
100
AcDbEntity
  8
1ﾀﾞｸﾄｶﾊﾞｰ
100
AcDbLine
 10
824.4785817294914
 20
467.6054334114074
 30
0.0
 11
824.4785817294914
 21
468.5054345885993
 31
0.0
  0
SPLINE
  5
17A67
330
17
100
AcDbEntity
  8
1ﾀﾞｸﾄｶﾊﾞｰ
100
AcDbSpline
210
0.0
220
0.0
230
1.0
 70
     8
 71
     3
 72
    32
 73
    28
 74
     0
 42
0.000000001
 43
0.0000000001
 40
0.0
 40
0.0
 40
0.0
 40
0.0
 40
0.0624999999999999
 40
0.0624999999999999
 40
0.1249999999999997
 40
0.1249999999999997
 40
0.1874999999999996
 40
0.1874999999999996
 40
0.2499999999999995
 40
0.2499999999999995
 40
0.3749999999999995
 40
0.3749999999999995
 40
0.4374999999999995
 40
0.4374999999999995
 40
0.4999999999999996
 40
0.4999999999999996
 40
0.5624999999999997
 40
0.5624999999999997
 40
0.6249999999999997
 40
0.6249999999999997
 40
0.7499999999999999
 40
0.7499999999999999
 40
0.8124999999999998
 40
0.8124999999999998
 40
0.8749999999999998
 40
0.8749999999999998
 40
1.0
 40
1.0
 40
1.0
 40
1.0
 10
824.4785801294675
 20
468.5054343092027
 30
0.0
 10
824.4785801294675
 20
469.0796666737099
 30
0.0
 10
824.5067753269195
 20
469.6515496463638
 30
0.0
 10
824.618992868598
 20
470.7906637411555
 30
0.0
 10
824.7033621637983
 20
471.3594197400685
 30
0.0
 10
824.9270825709814
 20
472.4834764927276
 30
0.0
 10
825.0661920344001
 20
473.038564353555
 30
0.0
 10
825.3988473772105
 20
474.1348748623068
 30
0.0
 10
825.5927332319888
 20
474.6764683201972
 30
0.0
 10
826.2501555857094
 20
476.2628319798824
 30
0.0
 10
826.7939315521189
 20
477.2796234158916
 30
0.0
 10
827.7480460071629
 20
478.7068746642854
 30
0.0
 10
828.0903941788192
 20
479.1683123879296
 30
0.0
 10
828.8180608889698
 20
480.0544347526202
 30
0.0
 10
829.202530369872
 20
480.4783404606077
 30
0.0
 10
830.012600631896
 20
481.2879717659724
 30
0.0
 10
830.4390618473089
 20
481.6742342648955
 30
0.0
 10
831.3244550475975
 20
482.4003036211892
 30
0.0
 10
831.7842620582041
 20
482.7411236339457
 30
0.0
 10
833.215295770873
 20
483.6965742665985
 30
0.0
 10
834.2293680827596
 20
484.2380673262566
 30
0.0
 10
835.8194747721936
 20
484.8958104014871
 30
0.0
 10
836.3584819983962
 20
485.0883247606674
 30
0.0
 10
837.4543377363288
 20
485.4201908695637
 30
0.0
 10
838.0128414186629
 20
485.5597524496184
 30
0.0
 10
839.6951892782363
 20
485.8934626404455
 30
0.0
 10
840.8301154004529
 20
486.0054343092025
 30
0.0
 10
841.9785801294674
 20
486.0054343092025
 30
0.0
  0
LINE
  5
17A68
330
17
100
AcDbEntity
  8
1ﾀﾞｸﾄｶﾊﾞｰ
100
AcDbLine
 10
841.9785799413521
 20
486.0054341974438
 30
0.0
 11
862.2285800009567
 21
486.0054341974438
 31
0.0
  0
LINE
  5
17A69
330
17
100
AcDbEntity
  8
1ﾀﾞｸﾄｶﾊﾞｰ
100
AcDbLine
 10
862.2285800009567
 20
486.0054341974438
 30
0.0
 11
882.4785800605614
 21
486.0054341974438
 31
0.0
  0
SPLINE
  5
17A6A
330
17
100
AcDbEntity
  8
1ﾀﾞｸﾄｶﾊﾞｰ
100
AcDbSpline
210
0.0
220
0.0
230
1.0
 70
     8
 71
     3
 72
    32
 73
    28
 74
     0
 42
0.000000001
 43
0.0000000001
 40
0.0
 40
0.0
 40
0.0
 40
0.0
 40
0.0625000000000001
 40
0.0625000000000001
 40
0.1250000000000002
 40
0.1250000000000002
 40
0.1875000000000002
 40
0.1875000000000002
 40
0.2500000000000003
 40
0.2500000000000003
 40
0.3750000000000005
 40
0.3750000000000005
 40
0.4375000000000004
 40
0.4375000000000004
 40
0.5000000000000004
 40
0.5000000000000004
 40
0.5625000000000004
 40
0.5625000000000004
 40
0.6250000000000002
 40
0.6250000000000002
 40
0.7500000000000001
 40
0.7500000000000001
 40
0.8125000000000001
 40
0.8125000000000001
 40
0.875
 40
0.875
 40
1.0
 40
1.0
 40
1.0
 40
1.0
 10
882.4785798724461
 20
486.0054343092025
 30
0.0
 10
883.0528122369532
 20
486.0054343092025
 30
0.0
 10
883.6246952096072
 20
485.9772391117502
 30
0.0
 10
884.7638093043988
 20
485.8650215700721
 30
0.0
 10
885.3325653033117
 20
485.7806522748709
 30
0.0
 10
886.4566220559709
 20
485.5569318676884
 30
0.0
 10
887.0117099167982
 20
485.4178224042697
 30
0.0
 10
888.1080204255503
 20
485.0851670614587
 30
0.0
 10
888.6496138834409
 20
484.8912812066804
 30
0.0
 10
890.2359775431259
 20
484.2338588529602
 30
0.0
 10
891.252768979135
 20
483.6900828865505
 30
0.0
 10
892.6800202275289
 20
482.7359684315066
 30
0.0
 10
893.1414579511729
 20
482.3936202598503
 30
0.0
 10
894.0275803158638
 20
481.6659535497002
 30
0.0
 10
894.4514860238514
 20
481.2814840687978
 30
0.0
 10
895.2611173292162
 20
480.4714138067732
 30
0.0
 10
895.6473798281395
 20
480.0449525913605
 30
0.0
 10
896.3734491844325
 20
479.1595593910725
 30
0.0
 10
896.7142691971893
 20
478.699752380466
 30
0.0
 10
897.6697198298424
 20
477.2687186677966
 30
0.0
 10
898.2112128895005
 20
476.25464635591
 30
0.0
 10
898.868955964731
 20
474.6645396664761
 30
0.0
 10
899.0614703239106
 20
474.1255324402738
 30
0.0
 10
899.3933364328077
 20
473.0296767023406
 30
0.0
 10
899.5328980128624
 20
472.4711730200068
 30
0.0
 10
899.8666082036889
 20
470.7888251604332
 30
0.0
 10
899.978579872446
 20
469.6538990382172
 30
0.0
 10
899.978579872446
 20
468.5054343092027
 30
0.0
  0
LINE
  5
17A6B
330
17
100
AcDbEntity
  8
1ﾀﾞｸﾄｶﾊﾞｰ
100
AcDbLine
 10
899.978578272422
 20
468.5054345885993
 30
0.0
 11
899.978578272422
 21
467.6054334114074
 31
0.0
  0
LINE
  5
17A6C
330
17
100
AcDbEntity
  8
1ﾀﾞｸﾄｶﾊﾞｰ
100
AcDbLine
 10
902.4785796135265
 20
467.6054334114074
 30
0.0
 11
899.978578272422
 21
467.6054334114074
 31
0.0
  0
LINE
  5
17A6D
330
17
100
AcDbEntity
  8
1ﾀﾞｸﾄｶﾊﾞｰ
100
AcDbLine
 10
899.978578272422
 20
464.4054349462273
 30
0.0
 11
902.4516830175716
 21
464.4054349462273
 31
0.0
  0
LINE
  5
17A6E
330
17
100
AcDbEntity
  8
1ﾀﾞｸﾄｶﾊﾞｰ
100
AcDbLine
 10
899.978578272422
 20
464.4054349462273
 30
0.0
 11
899.978578272422
 21
463.5054356316806
 31
0.0
  0
ARC
  5
17AD2
330
17
100
AcDbEntity
  8
1ﾀﾞｸﾄｶﾊﾞｰ
100
AcDbCircle
 10
882.4785809844334
 20
521.0054355273724
 30
0.0
 40
1.0
100
AcDbArc
 50
0.0
 51
180.0
  0
LINE
  5
17AD3
330
17
100
AcDbEntity
  8
1ﾀﾞｸﾄｶﾊﾞｰ
 48
2.0
100
AcDbLine
 10
883.4785809844333
 20
515.5054348419191
 30
0.0
 11
883.4785809844333
 21
521.0054355273724
 31
0.0
  0
LINE
  5
17AD4
330
17
100
AcDbEntity
  8
1ﾀﾞｸﾄｶﾊﾞｰ
 48
2.0
100
AcDbLine
 10
881.4785809844334
 20
515.5054348419191
 30
0.0
 11
881.4785809844334
 21
521.0054355273724
 31
0.0
  0
ARC
  5
17AD5
330
17
100
AcDbEntity
  8
1ﾀﾞｸﾄｶﾊﾞｰ
100
AcDbCircle
 10
841.9785790174801
 20
521.0054355273724
 30
0.0
 40
1.0
100
AcDbArc
 50
0.0
 51
180.0
  0
LINE
  5
17AD6
330
17
100
AcDbEntity
  8
1ﾀﾞｸﾄｶﾊﾞｰ
 48
2.0
100
AcDbLine
 10
840.9785790174801
 20
515.5054348419191
 30
0.0
 11
840.9785790174801
 21
521.0054355273724
 31
0.0
  0
LINE
  5
17AD7
330
17
100
AcDbEntity
  8
1ﾀﾞｸﾄｶﾊﾞｰ
 48
2.0
100
AcDbLine
 10
842.9785790174801
 20
515.5054348419191
 30
0.0
 11
842.9785790174801
 21
521.0054355273724
 31
0.0
  0
ARC
  5
17AD8
330
17
100
AcDbEntity
  8
1ﾀﾞｸﾄｶﾊﾞｰ
100
AcDbCircle
 10
833.2285800382797
 20
500.6054355273723
 30
0.0
 40
2.100000000000022
100
AcDbArc
 50
180.0
 51
0.0
  0
LINE
  5
17AD9
330
17
100
AcDbEntity
  8
1ﾀﾞｸﾄｶﾊﾞｰ
100
AcDbLine
 10
831.128580113158
 20
500.6054359386445
 30
0.0
 11
831.128580113158
 21
505.4054352353097
 31
0.0
  0
ARC
  5
17ADA
330
17
100
AcDbEntity
  8
1ﾀﾞｸﾄｶﾊﾞｰ
100
AcDbCircle
 10
833.2285800382797
 20
505.4054355273725
 30
0.0
 40
2.100000000000022
100
AcDbArc
 50
0.0
 51
180.0
  0
LINE
  5
17ADB
330
17
100
AcDbEntity
  8
1ﾀﾞｸﾄｶﾊﾞｰ
100
AcDbLine
 10
835.3285799634013
 20
505.4054352353097
 30
0.0
 11
835.3285799634013
 21
500.6054359386445
 31
0.0
  0
ARC
  5
17ADC
330
17
100
AcDbEntity
  8
1ﾀﾞｸﾄｶﾊﾞｰ
100
AcDbCircle
 10
833.2285800382797
 20
500.6054355273723
 30
0.0
 40
2.100000000000022
100
AcDbArc
 50
180.0
 51
0.0
  0
LINE
  5
17ADD
330
17
100
AcDbEntity
  8
1ﾀﾞｸﾄｶﾊﾞｰ
100
AcDbLine
 10
831.128580113158
 20
500.6054359386445
 30
0.0
 11
831.128580113158
 21
505.4054352353097
 31
0.0
  0
ARC
  5
17ADE
330
17
100
AcDbEntity
  8
1ﾀﾞｸﾄｶﾊﾞｰ
100
AcDbCircle
 10
833.2285800382797
 20
505.4054355273725
 30
0.0
 40
2.100000000000022
100
AcDbArc
 50
0.0
 51
180.0
  0
LINE
  5
17ADF
330
17
100
AcDbEntity
  8
1ﾀﾞｸﾄｶﾊﾞｰ
100
AcDbLine
 10
835.3285799634013
 20
505.4054352353097
 30
0.0
 11
835.3285799634013
 21
500.6054359386445
 31
0.0
  0
ARC
  5
17CED
330
17
100
AcDbEntity
  8
1ﾀﾞｸﾄｶﾊﾞｰ
100
AcDbCircle
 10
708.5847536392038
 20
495.1229224593199
 30
0.0
 40
6.5
100
AcDbArc
 50
276.8829357738147
 51
359.9012037727229
  0
ARC
  5
17CF0
330
17
100
AcDbEntity
  8
1ﾀﾞｸﾄｶﾊﾞｰ
100
AcDbCircle
 10
712.9589561119934
 20
458.8859751164898
 30
0.0
 40
30.0
100
AcDbArc
 50
96.88293577381466
 51
101.3385456108893
  0
LINE
  5
17CF2
330
17
100
AcDbEntity
  8
1ﾀﾞｸﾄｶﾊﾞｰ
100
AcDbLine
 10
715.0847536392038
 20
495.12292245932
 30
0.0
 11
715.0847536392041
 21
520.9007209840996
 31
0.0
  0
ARC
  5
17CF3
330
17
100
AcDbEntity
  8
1ﾀﾞｸﾄｶﾊﾞｰ
100
AcDbCircle
 10
737.5847536392042
 20
520.9007209840994
 30
0.0
 40
22.50000000000007
100
AcDbArc
 50
174.2894068625026
 51
180.0
  0
LINE
  5
17CF4
330
17
100
AcDbEntity
  8
1ﾀﾞｸﾄｶﾊﾞｰ
100
AcDbLine
 10
715.196416859479
 20
523.1395546620718
 30
0.0
 11
715.9947040111064
 21
531.1224261783441
 31
0.0
  0
ARC
  5
17CF5
330
17
100
AcDbEntity
  8
1ﾀﾞｸﾄｶﾊﾞｰ
100
AcDbCircle
 10
716.9897412013161
 20
531.0229224593196
 30
0.0
 40
1.000000000000005
100
AcDbArc
 50
90.0
 51
174.2894068622981
  0
LINE
  5
17CF6
330
17
100
AcDbEntity
  8
1ﾀﾞｸﾄｶﾊﾞｰ
100
AcDbLine
 10
704.4881478329771
 20
487.7845904468015
 30
0.0
 11
707.0607819251827
 21
488.3004535456928
 31
0.0
  0
LINE
  5
17CF8
330
17
100
AcDbEntity
  8
1ﾀﾞｸﾄｶﾊﾞｰ
100
AcDbLine
 10
706.7428212082955
 20
443.5229224593198
 30
0.0
 11
710.6651439110592
 21
443.5229224593197
 31
0.0
  0
ARC
  5
17CF9
330
17
100
AcDbEntity
  8
1ﾀﾞｸﾄｶﾊﾞｰ
100
AcDbCircle
 10
759.1847536392037
 20
444.5229224593192
 30
0.0
 40
1.0
100
AcDbArc
 50
270.0
 51
0.0
  0
LINE
  5
17CFA
330
17
100
AcDbEntity
  8
1ﾀﾞｸﾄｶﾊﾞｰ
100
AcDbLine
 10
760.1847536392045
 20
520.9007209840989
 30
0.0
 11
760.1847536392037
 21
444.5229224593192
 31
0.0
  0
LINE
  5
17CFC
330
17
100
AcDbEntity
  8
1ﾀﾞｸﾄｶﾊﾞｰ
100
AcDbLine
 10
759.1847536392037
 20
443.5229224593192
 30
0.0
 11
710.6651439110592
 21
443.5229224593197
 31
0.0
  0
LINE
  5
17CFD
330
17
100
AcDbEntity
  8
1ﾀﾞｸﾄｶﾊﾞｰ
100
AcDbLine
 10
760.1847536392045
 20
520.9007209840989
 30
0.0
 11
760.1847536392045
 21
523.1395546620713
 31
0.0
  0
LINE
  5
17CFE
330
17
100
AcDbEntity
  8
1ﾀﾞｸﾄｶﾊﾞｰ
100
AcDbLine
 10
760.1847536392045
 20
523.1395546620713
 30
0.0
 11
760.1847536392047
 21
531.1224261783402
 31
0.0
  0
LINE
  5
17CFF
330
17
100
AcDbEntity
  8
1ﾀﾞｸﾄｶﾊﾞｰ
100
AcDbLine
 10
704.4886375040655
 20
443.5229224593198
 30
0.0
 11
706.7428212082955
 21
443.5229224593198
 31
0.0
  0
LINE
  5
17D00
330
17
100
AcDbEntity
  8
1ﾀﾞｸﾄｶﾊﾞｰ
100
AcDbLine
 10
703.6847536392039
 20
464.5169225921908
 30
0.0
 11
703.6847536392038
 21
443.5229224593198
 31
0.0
  0
LINE
  5
17D01
330
17
100
AcDbEntity
  8
1ﾀﾞｸﾄｶﾊﾞｰ
100
AcDbLine
 10
703.6847536392038
 20
443.5229224593198
 30
0.0
 11
704.4886375040655
 21
443.5229224593198
 31
0.0
  0
LINE
  5
17D02
330
17
100
AcDbEntity
  8
1ﾀﾞｸﾄｶﾊﾞｰ
100
AcDbLine
 10
703.6847536392042
 20
486.8041078324948
 30
0.0
 11
703.6847536392039
 21
464.5169225921908
 31
0.0
  0
ARC
  5
17D03
330
17
100
AcDbEntity
  8
1ﾀﾞｸﾄｶﾊﾞｰ
100
AcDbCircle
 10
704.6847536392042
 20
486.8041078324948
 30
0.0
 40
1.0
100
AcDbArc
 50
101.3385456108893
 51
180.0
  0
LINE
  5
17D04
330
17
100
AcDbEntity
  8
1ﾀﾞｸﾄｶﾊﾞｰ
100
AcDbLine
 10
760.1847536392047
 20
532.0229224593192
 30
0.0
 11
739.1907535063332
 21
532.0229224593195
 31
0.0
  0
LINE
  5
17D05
330
17
100
AcDbEntity
  8
1ﾀﾞｸﾄｶﾊﾞｰ
100
AcDbLine
 10
760.1847536392047
 20
531.1224261783402
 30
0.0
 11
760.1847536392047
 21
532.0229224593192
 31
0.0
  0
LINE
  5
17D06
330
17
100
AcDbEntity
  8
1ﾀﾞｸﾄｶﾊﾞｰ
100
AcDbLine
 10
739.1907535063332
 20
532.0229224593195
 30
0.0
 11
717.0969518698966
 21
532.0229224593195
 31
0.0
  0
LINE
  5
17D07
330
17
100
AcDbEntity
  8
1ﾀﾞｸﾄｶﾊﾞｰ
100
AcDbLine
 10
717.0969518698966
 20
532.0229224593195
 30
0.0
 11
716.9897412013161
 21
532.0229224593195
 31
0.0
  0
LINE
  5
17E1B
330
17
100
AcDbEntity
  8
1ﾀﾞｸﾄｶﾊﾞｰ
100
AcDbLine
 10
904.4785800009567
 20
443.5054347525122
 30
0.0
 11
904.4785800009567
 21
464.4994348853831
 31
0.0
  0
LINE
  5
17E22
330
17
100
AcDbEntity
  8
1ﾀﾞｸﾄｶﾊﾞｰ
100
AcDbLine
 10
819.9785800009568
 20
443.5054347525122
 30
0.0
 11
819.9785800009568
 21
464.4994348853831
 31
0.0
  0
LINE
  5
17E23
330
17
100
AcDbEntity
  8
1ﾀﾞｸﾄｶﾊﾞｰ
100
AcDbLine
 10
819.9785800009568
 20
443.5054347525122
 30
0.0
 11
819.7983839036751
 21
443.5054347525122
 31
0.0
  0
LINE
  5
17E24
330
17
100
AcDbEntity
  8
1ﾀﾞｸﾄｶﾊﾞｰ
100
AcDbLine
 10
904.6587760982379
 20
443.5054347525122
 30
0.0
 11
904.4785800009567
 21
443.5054347525122
 31
0.0
  0
LINE
  5
17E25
330
17
100
AcDbEntity
  8
1ﾀﾞｸﾄｶﾊﾞｰ
100
AcDbLine
 10
905.6393567739291
 20
443.5054347525122
 30
0.0
 11
904.6587760982379
 21
443.5054347525122
 31
0.0
  0
LINE
  5
17E26
330
17
100
AcDbEntity
  8
1ﾀﾞｸﾄｶﾊﾞｰ
100
AcDbLine
 10
819.7983839036751
 20
443.5054347525122
 30
0.0
 11
818.8178032279843
 21
443.5054347525122
 31
0.0
  0
LINE
  5
17E27
330
17
100
AcDbEntity
  8
1ﾀﾞｸﾄｶﾊﾞｰ
100
AcDbLine
 10
906.0901935147748
 20
443.5054347525122
 30
0.0
 11
905.6393567739291
 21
443.5054347525122
 31
0.0
  0
LINE
  5
17E28
330
17
100
AcDbEntity
  8
1ﾀﾞｸﾄｶﾊﾞｰ
100
AcDbLine
 10
818.8178032279843
 20
443.5054347525122
 30
0.0
 11
818.3669664871381
 21
443.5054347525122
 31
0.0
  0
SPLINE
  5
17E29
330
17
100
AcDbEntity
  8
1ﾀﾞｸﾄｶﾊﾞｰ
100
AcDbSpline
210
0.0
220
0.0
230
1.0
 70
    24
 71
     3
 72
     8
 73
     4
 74
     0
 42
0.000000001
 43
0.0000000001
 40
0.0000000000000002
 40
0.0000000000000002
 40
0.0000000000000002
 40
0.0000000000000002
 40
0.0000640781472638
 40
0.0000640781472638
 40
0.0000640781472638
 40
0.0000640781472638
 10
906.4785800009568
 20
464.5634617951043
 30
0.0
 10
906.4785800009568
 20
464.5421704759529
 30
0.0
 10
906.4785800009568
 20
464.5207942678045
 30
0.0
 10
906.4785800009568
 20
464.4994348853831
 30
0.0
  0
SPLINE
  5
17E2A
330
17
100
AcDbEntity
  8
1ﾀﾞｸﾄｶﾊﾞｰ
100
AcDbSpline
210
0.0
220
0.0
230
1.0
 70
    24
 71
     3
 72
     8
 73
     4
 74
     0
 42
0.000000001
 43
0.0000000001
 40
0.0
 40
0.0
 40
0.0
 40
0.0
 40
0.0000640781472631
 40
0.0000640781472631
 40
0.0000640781472631
 40
0.0000640781472631
 10
817.9785800009566
 20
464.4994348853831
 30
0.0
 10
817.9785800009566
 20
464.5207942678042
 30
0.0
 10
817.9785800009566
 20
464.5421704759524
 30
0.0
 10
817.9785800009566
 20
464.5634617951035
 30
0.0
  0
LINE
  5
17E2B
330
17
100
AcDbEntity
  8
1ﾀﾞｸﾄｶﾊﾞｰ
100
AcDbLine
 10
906.4785800009568
 20
464.4994348853831
 30
0.0
 11
906.4785800009568
 21
443.5054347525122
 31
0.0
  0
LINE
  5
17E2C
330
17
100
AcDbEntity
  8
1ﾀﾞｸﾄｶﾊﾞｰ
100
AcDbLine
 10
906.4785800009568
 20
443.5054347525122
 30
0.0
 11
906.0901935147748
 21
443.5054347525122
 31
0.0
  0
LINE
  5
17E2D
330
17
100
AcDbEntity
  8
1ﾀﾞｸﾄｶﾊﾞｰ
100
AcDbLine
 10
817.9785800009566
 20
443.5054347525122
 30
0.0
 11
817.9785800009566
 21
464.4994348853831
 31
0.0
  0
LINE
  5
17E2E
330
17
100
AcDbEntity
  8
1ﾀﾞｸﾄｶﾊﾞｰ
100
AcDbLine
 10
818.3669664871381
 20
443.5054347525122
 30
0.0
 11
817.9785800009566
 21
443.5054347525122
 31
0.0
  0
SPLINE
  5
17E2F
330
17
100
AcDbEntity
  8
1ﾀﾞｸﾄｶﾊﾞｰ
100
AcDbSpline
210
0.0
220
0.0
230
1.0
 70
    24
 71
     3
 72
    36
 73
    32
 74
     0
 42
0.000000001
 43
0.0000000001
 40
0.0
 40
0.0
 40
0.0
 40
0.0
 40
0.1250000000000002
 40
0.1250000000000002
 40
0.1875000000000003
 40
0.1875000000000003
 40
0.2500000000000004
 40
0.2500000000000004
 40
0.3750000000000005
 40
0.3750000000000005
 40
0.4375000000000006
 40
0.4375000000000006
 40
0.4687500000000006
 40
0.4687500000000006
 40
0.5000000000000005
 40
0.5000000000000005
 40
0.6250000000000005
 40
0.6250000000000005
 40
0.6562500000000004
 40
0.6562500000000004
 40
0.6875000000000004
 40
0.6875000000000004
 40
0.7500000000000002
 40
0.7500000000000002
 40
0.8750000000000001
 40
0.8750000000000001
 40
0.9062500000000001
 40
0.9062500000000001
 40
0.9375000000000001
 40
0.9375000000000001
 40
1.0
 40
1.0
 40
1.0
 40
1.0
 10
906.4785800009568
 20
494.9977634926026
 30
0.0
 10
906.4785800009568
 20
493.0666380889631
 30
0.0
 10
906.4785800009568
 20
491.1664611763462
 30
0.0
 10
906.4785800009568
 20
488.3606974191584
 30
0.0
 10
906.4785800009568
 20
487.4329107606623
 30
0.0
 10
906.4785800009568
 20
485.5925558467549
 30
0.0
 10
906.4785800009568
 20
484.6754993611575
 30
0.0
 10
906.4785800009568
 20
481.9975498042494
 30
0.0
 10
906.4785800009568
 20
480.3000765331854
 30
0.0
 10
906.4785800009568
 20
477.8829819185554
 30
0.0
 10
906.4785800009568
 20
477.0989438794875
 30
0.0
 10
906.4785800009568
 20
475.9563626261106
 30
0.0
 10
906.4785800009568
 20
475.5810714062213
 30
0.0
 10
906.4785800009568
 20
474.8496876706967
 30
0.0
 10
906.4785800009568
 20
474.4925530407552
 30
0.0
 10
906.4785800009568
 20
472.7489783869663
 30
0.0
 10
906.4785800009568
 20
471.4877319597264
 30
0.0
 10
906.4785800009568
 20
470.0784951467264
 30
0.0
 10
906.4785800009568
 20
469.8050827947875
 30
0.0
 10
906.4785800009568
 20
469.2754198429395
 30
0.0
 10
906.4785800009568
 20
469.0186744304622
 30
0.0
 10
906.4785800009568
 20
468.2819605424652
 30
0.0
 10
906.4785800009568
 20
467.8332763676035
 30
0.0
 10
906.4785800009568
 20
466.6110809957161
 30
0.0
 10
906.4785800009568
 20
465.9603448892235
 30
0.0
 10
906.4785800009568
 20
465.3569391140634
 30
0.0
 10
906.4785800009568
 20
465.2466403259612
 30
0.0
 10
906.4785800009568
 20
465.0489155716627
 30
0.0
 10
906.4785800009568
 20
464.961457129368
 30
0.0
 10
906.4785800009568
 20
464.7329433613629
 30
0.0
 10
906.4785800009568
 20
464.6256749276558
 30
0.0
 10
906.4785800009568
 20
464.563461795104
 30
0.0
  0
SPLINE
  5
17E30
330
17
100
AcDbEntity
  8
1ﾀﾞｸﾄｶﾊﾞｰ
100
AcDbSpline
210
0.0
220
0.0
230
1.0
 70
    24
 71
     3
 72
    36
 73
    32
 74
     0
 42
0.000000001
 43
0.0000000001
 40
0.0
 40
0.0
 40
0.0
 40
0.0
 40
0.0625000000000001
 40
0.0625000000000001
 40
0.0937500000000001
 40
0.0937500000000001
 40
0.1250000000000002
 40
0.1250000000000002
 40
0.2500000000000004
 40
0.2500000000000004
 40
0.3125000000000006
 40
0.3125000000000006
 40
0.3437500000000006
 40
0.3437500000000006
 40
0.3750000000000007
 40
0.3750000000000007
 40
0.5000000000000008
 40
0.5000000000000008
 40
0.5312500000000008
 40
0.5312500000000008
 40
0.5625000000000009
 40
0.5625000000000009
 40
0.6250000000000009
 40
0.6250000000000009
 40
0.7500000000000006
 40
0.7500000000000006
 40
0.8125000000000003
 40
0.8125000000000003
 40
0.8750000000000001
 40
0.8750000000000001
 40
1.0
 40
1.0
 40
1.0
 40
1.0
 10
817.9785800009566
 20
464.563461795104
 30
0.0
 10
817.9785800009566
 20
464.6256749276558
 30
0.0
 10
817.9785800009566
 20
464.7329433613629
 30
0.0
 10
817.9785800009566
 20
464.961457129368
 30
0.0
 10
817.9785800009566
 20
465.0489155716627
 30
0.0
 10
817.9785800009566
 20
465.2466403259612
 30
0.0
 10
817.9785800009566
 20
465.3569391140634
 30
0.0
 10
817.9785800009566
 20
465.9603448892235
 30
0.0
 10
817.9785800009566
 20
466.6110809957161
 30
0.0
 10
817.9785800009566
 20
467.8332763676035
 30
0.0
 10
817.9785800009566
 20
468.2819605424653
 30
0.0
 10
817.9785800009566
 20
469.0186744304623
 30
0.0
 10
817.9785800009566
 20
469.2754198429396
 30
0.0
 10
817.9785800009566
 20
469.8050827947877
 30
0.0
 10
817.9785800009566
 20
470.0784951467266
 30
0.0
 10
817.9785800009566
 20
471.4877319597266
 30
0.0
 10
817.9785800009566
 20
472.7489783869665
 30
0.0
 10
817.9785800009566
 20
474.4925530407554
 30
0.0
 10
817.9785800009566
 20
474.849687670697
 30
0.0
 10
817.9785800009566
 20
475.5810714062215
 30
0.0
 10
817.9785800009566
 20
475.9563626261109
 30
0.0
 10
817.9785800009566
 20
477.0989438794877
 30
0.0
 10
817.9785800009566
 20
477.8829819185557
 30
0.0
 10
817.9785800009566
 20
480.3000765331858
 30
0.0
 10
817.9785800009566
 20
481.9975498042498
 30
0.0
 10
817.9785800009566
 20
484.6754993611577
 30
0.0
 10
817.9785800009566
 20
485.5925558467553
 30
0.0
 10
817.9785800009566
 20
487.4329107606627
 30
0.0
 10
817.9785800009566
 20
488.3606974191589
 30
0.0
 10
817.9785800009566
 20
491.1664611763464
 30
0.0
 10
817.9785800009566
 20
493.0666380889637
 30
0.0
 10
817.9785800009566
 20
494.9977634926032
 30
0.0
  0
LINE
  5
17E31
330
17
100
AcDbEntity
  8
1ﾀﾞｸﾄｶﾊﾞｰ
100
AcDbLine
 10
906.4785800009568
 20
520.8832332772917
 30
0.0
 11
906.4785800009568
 21
494.9977634926026
 31
0.0
  0
ARC
  5
17E32
330
17
100
AcDbEntity
  8
1ﾀﾞｸﾄｶﾊﾞｰ
100
AcDbCircle
 10
883.9785800009567
 20
520.8832332772917
 30
0.0
 40
22.49999999999998
100
AcDbArc
 50
0.0
 51
5.710593137497339
  0
LINE
  5
17E33
330
17
100
AcDbEntity
  8
1ﾀﾞｸﾄｶﾊﾞｰ
100
AcDbLine
 10
817.9785800009566
 20
494.9977634926031
 30
0.0
 11
817.9785800009566
 21
520.8832332772916
 31
0.0
  0
ARC
  5
17E34
330
17
100
AcDbEntity
  8
1ﾀﾞｸﾄｶﾊﾞｰ
100
AcDbCircle
 10
840.4785800009568
 20
520.8832332772918
 30
0.0
 40
22.50000000000002
100
AcDbArc
 50
174.2894068625027
 51
180.0
  0
LINE
  5
17E35
330
17
100
AcDbEntity
  8
1ﾀﾞｸﾄｶﾊﾞｰ
100
AcDbLine
 10
906.3669167806816
 20
523.1220669552641
 30
0.0
 11
905.5686296290545
 21
531.1049384715331
 31
0.0
  0
LINE
  5
17E36
330
17
100
AcDbEntity
  8
1ﾀﾞｸﾄｶﾊﾞｰ
100
AcDbLine
 10
818.0902432212318
 20
523.1220669552641
 30
0.0
 11
818.8885303728589
 21
531.1049384715331
 31
0.0
  0
LINE
  5
17E37
330
17
100
AcDbEntity
  8
1ﾀﾞｸﾄｶﾊﾞｰ
100
AcDbLine
 10
841.7472709431558
 20
532.0054347525121
 30
0.0
 11
882.7098890587576
 21
532.0054347525121
 31
0.0
  0
LINE
  5
17E38
330
17
100
AcDbEntity
  8
1ﾀﾞｸﾄｶﾊﾞｰ
100
AcDbLine
 10
882.7098890587576
 20
532.0054347525121
 30
0.0
 11
904.5735924388445
 21
532.0054347525122
 31
0.0
  0
ARC
  5
17E39
330
17
100
AcDbEntity
  8
1ﾀﾞｸﾄｶﾊﾞｰ
100
AcDbCircle
 10
904.5735924388445
 20
531.0054347525122
 30
0.0
 40
1.0
100
AcDbArc
 50
5.710593137497339
 51
90.0
  0
ARC
  5
17E3A
330
17
100
AcDbEntity
  8
1ﾀﾞｸﾄｶﾊﾞｰ
100
AcDbCircle
 10
819.8835675630689
 20
531.0054347525122
 30
0.0
 40
1.0
100
AcDbArc
 50
90.0
 51
174.2894068625027
  0
LINE
  5
17E3B
330
17
100
AcDbEntity
  8
1ﾀﾞｸﾄｶﾊﾞｰ
100
AcDbLine
 10
819.8835675630689
 20
532.0054347525122
 30
0.0
 11
841.7472709431558
 21
532.0054347525121
 31
0.0
  0
LINE
  5
17EE2
330
17
100
AcDbEntity
  8
1ﾀﾞｸﾄｶﾊﾞｰ
100
AcDbLine
 10
636.5124094027089
 20
443.522922459324
 30
0.0
 11
638.5124094027089
 21
443.522922459324
 31
0.0
  0
LINE
  5
17EE3
330
17
100
AcDbEntity
  8
1ﾀﾞｸﾄｶﾊﾞｰ
100
AcDbLine
 10
564.0124094027089
 20
443.5229224593241
 30
0.0
 11
562.0124094027089
 21
443.5229224593241
 31
0.0
  0
LINE
  5
17EE4
330
17
100
AcDbEntity
  8
1ﾀﾞｸﾄｶﾊﾞｰ
100
AcDbLine
 10
638.5124094027089
 20
443.522922459324
 30
0.0
 11
642.0124094027089
 21
443.522922459324
 31
0.0
  0
LINE
  5
17EE5
330
17
100
AcDbEntity
  8
1ﾀﾞｸﾄｶﾊﾞｰ
100
AcDbLine
 10
642.5124094027089
 20
452.522922459324
 30
0.0
 11
642.5124094027089
 21
443.522922459324
 31
0.0
  0
LINE
  5
17EE6
330
17
100
AcDbEntity
  8
1ﾀﾞｸﾄｶﾊﾞｰ
100
AcDbLine
 10
642.5124094027089
 20
443.522922459324
 30
0.0
 11
642.0124094027089
 21
443.522922459324
 31
0.0
  0
LINE
  5
17EE7
330
17
100
AcDbEntity
  8
1ﾀﾞｸﾄｶﾊﾞｰ
100
AcDbLine
 10
602.2624094027089
 20
443.5229224593241
 30
0.0
 11
636.5124094027089
 21
443.522922459324
 31
0.0
  0
LINE
  5
17EE8
330
17
100
AcDbEntity
  8
1ﾀﾞｸﾄｶﾊﾞｰ
100
AcDbLine
 10
564.0124094027089
 20
443.5229224593241
 30
0.0
 11
598.2624094027089
 21
443.5229224593241
 31
0.0
  0
LINE
  5
17EE9
330
17
100
AcDbEntity
  8
1ﾀﾞｸﾄｶﾊﾞｰ
100
AcDbLine
 10
558.5124094027089
 20
443.5229224593241
 30
0.0
 11
562.0124094027089
 21
443.5229224593241
 31
0.0
  0
LINE
  5
17EEA
330
17
100
AcDbEntity
  8
1ﾀﾞｸﾄｶﾊﾞｰ
100
AcDbLine
 10
558.0124094027089
 20
443.5229224593241
 30
0.0
 11
558.0124094027089
 21
452.5229224593241
 31
0.0
  0
LINE
  5
17EEB
330
17
100
AcDbEntity
  8
1ﾀﾞｸﾄｶﾊﾞｰ
100
AcDbLine
 10
558.5124094027089
 20
443.5229224593241
 30
0.0
 11
558.0124094027089
 21
443.5229224593241
 31
0.0
  0
ARC
  5
17EEC
330
17
100
AcDbEntity
  8
1ﾀﾞｸﾄｶﾊﾞｰ
100
AcDbCircle
 10
601.4124094027095
 20
447.0229224593241
 30
0.0
 40
0.5
100
AcDbArc
 50
0.0
 51
90.0
  0
SPLINE
  5
17EED
330
17
100
AcDbEntity
  8
1ﾀﾞｸﾄｶﾊﾞｰ
100
AcDbSpline
210
0.0
220
0.0
230
1.0
 70
     8
 71
     3
 72
    10
 73
     6
 74
     0
 42
0.000000001
 43
0.0000000001
 40
0.0
 40
0.0
 40
0.0
 40
0.0
 40
0.5
 40
0.5
 40
1.0
 40
1.0
 40
1.0
 40
1.0
 10
601.2624094027089
 20
443.7229224593242
 30
0.0
 10
601.2624094027089
 20
443.8095442626724
 30
0.0
 10
601.3025940068294
 20
443.8929894539099
 30
0.0
 10
601.422061584298
 20
443.9999230233142
 30
0.0
 10
601.4968074532291
 20
444.0229224593241
 30
0.0
 10
601.5624094027091
 20
444.0229224593241
 30
0.0
  0
LINE
  5
17EEE
330
17
100
AcDbEntity
  8
1ﾀﾞｸﾄｶﾊﾞｰ
100
AcDbLine
 10
601.2624094027089
 20
443.5229224593241
 30
0.0
 11
601.2624094027089
 21
443.7229224593242
 31
0.0
  0
LINE
  5
17EEF
330
17
100
AcDbEntity
  8
1ﾀﾞｸﾄｶﾊﾞｰ
100
AcDbLine
 10
601.9124094027095
 20
447.0229224593241
 30
0.0
 11
601.9124094027095
 21
444.0229224593241
 31
0.0
  0
LINE
  5
17EF0
330
17
100
AcDbEntity
  8
1ﾀﾞｸﾄｶﾊﾞｰ
100
AcDbLine
 10
601.9124094027095
 20
444.0229224593241
 30
0.0
 11
601.5624094027091
 21
444.0229224593241
 31
0.0
  0
LINE
  5
17EF1
330
17
100
AcDbEntity
  8
1ﾀﾞｸﾄｶﾊﾞｰ
100
AcDbLine
 10
601.2624094027089
 20
443.5229224593241
 30
0.0
 11
600.9124094027095
 21
443.5229224593241
 31
0.0
  0
LINE
  5
17EF2
330
17
100
AcDbEntity
  8
1ﾀﾞｸﾄｶﾊﾞｰ
100
AcDbLine
 10
600.4038307589464
 20
447.1643438155614
 30
0.0
 11
600.7624094027089
 21
447.5229224593241
 31
0.0
  0
LINE
  5
17EF3
330
17
100
AcDbEntity
  8
1ﾀﾞｸﾄｶﾊﾞｰ
100
AcDbLine
 10
600.7624094027089
 20
447.5229224593241
 30
0.0
 11
601.4124094027095
 21
447.5229224593241
 31
0.0
  0
SPLINE
  5
17EF4
330
17
100
AcDbEntity
  8
1ﾀﾞｸﾄｶﾊﾞｰ
100
AcDbSpline
210
0.0
220
0.0
230
1.0
 70
     8
 71
     3
 72
    11
 73
     7
 74
     0
 42
0.000000001
 43
0.0000000001
 40
0.0001016629894913
 40
0.0001016629894913
 40
0.0001016629894913
 40
0.0001016629894913
 40
0.0001139752756908
 40
0.0001139752756908
 40
0.0001139752756908
 40
0.0001644494245772
 40
0.0001644494245772
 40
0.0001644494245772
 40
0.0001644494245772
 10
600.3583050991466
 20
447.1302544444774
 30
0.0
 10
600.3617183920989
 20
447.1321194023054
 30
0.0
 10
600.3650544650729
 20
447.1340716293806
 30
0.0
 10
600.3683049226268
 20
447.1361003880002
 30
0.0
 10
600.3815836790511
 20
447.1443882647414
 30
0.0
 10
600.3935296135743
 20
447.1540426701898
 30
0.0
 10
600.4038307589464
 20
447.1643438155614
 30
0.0
  0
LINE
  5
17EF5
330
17
100
AcDbEntity
  8
1ﾀﾞｸﾄｶﾊﾞｰ
100
AcDbLine
 10
600.9124094027095
 20
443.5229224593241
 30
0.0
 11
600.7624094027089
 21
443.5229224593241
 31
0.0
  0
LINE
  5
17EF6
330
17
100
AcDbEntity
  8
1ﾀﾞｸﾄｶﾊﾞｰ
100
AcDbLine
 10
600.262409402709
 20
443.5229224593241
 30
0.0
 11
600.262409402709
 21
447.1057651717988
 31
0.0
  0
SPLINE
  5
17EF7
330
17
100
AcDbEntity
  8
1ﾀﾞｸﾄｶﾊﾞｰ
100
AcDbSpline
210
0.0
220
0.0
230
1.0
 70
     8
 71
     3
 72
    10
 73
     6
 74
     0
 42
0.000000001
 43
0.0000000001
 40
0.0
 40
0.0
 40
0.0
 40
0.0
 40
0.5
 40
0.5
 40
1.0
 40
1.0
 40
1.0
 40
1.0
 10
600.262409402709
 20
447.1057651717988
 30
0.0
 10
600.262409402709
 20
447.1057651717988
 30
0.0
 10
600.2707359165881
 20
447.1052431413217
 30
0.0
 10
600.3038482126342
 20
447.1093950096761
 30
0.0
 10
600.3281927883783
 20
447.1138016551994
 30
0.0
 10
600.3583050991466
 20
447.1302544444762
 30
0.0
  0
LINE
  5
17EF8
330
17
100
AcDbEntity
  8
1ﾀﾞｸﾄｶﾊﾞｰ
100
AcDbLine
 10
600.7624094027089
 20
443.5229224593241
 30
0.0
 11
600.262409402709
 21
443.5229224593241
 31
0.0
  0
LINE
  5
17EF9
330
17
100
AcDbEntity
  8
1ﾀﾞｸﾄｶﾊﾞｰ
100
AcDbLine
 10
600.262409402709
 20
443.5229224593241
 30
0.0
 11
599.7624094027089
 21
443.5229224593241
 31
0.0
  0
SPLINE
  5
17EFA
330
17
100
AcDbEntity
  8
1ﾀﾞｸﾄｶﾊﾞｰ
100
AcDbSpline
210
0.0
220
0.0
230
1.0
 70
    24
 71
     3
 72
    12
 73
     8
 74
     0
 42
0.000000001
 43
0.0000000001
 40
0.0
 40
0.0
 40
0.0
 40
0.0
 40
0.2500000000000018
 40
0.2500000000000018
 40
0.5000000000000037
 40
0.5000000000000037
 40
1.0
 40
1.0
 40
1.0
 40
1.0
 10
599.7624094027089
 20
447.5229224593241
 30
0.0
 10
599.7624094027089
 20
447.5229224593241
 30
0.0
 10
599.7756334085918
 20
447.5096984534415
 30
0.0
 10
599.8208664916212
 20
447.464465370412
 30
0.0
 10
599.8517189190531
 20
447.4336129429803
 30
0.0
 10
599.9566600319078
 20
447.3286718301259
 30
0.0
 10
600.0434659715312
 20
447.2418658905022
 30
0.0
 10
600.1209880464723
 20
447.1643438155614
 30
0.0
  0
SPLINE
  5
17EFB
330
17
100
AcDbEntity
  8
1ﾀﾞｸﾄｶﾊﾞｰ
100
AcDbSpline
210
0.0
220
0.0
230
1.0
 70
     8
 71
     3
 72
    10
 73
     6
 74
     0
 42
0.000000001
 43
0.0000000001
 40
0.0
 40
0.0
 40
0.0
 40
0.0
 40
0.5
 40
0.5
 40
1.0
 40
1.0
 40
1.0
 40
1.0
 10
600.1209880464723
 20
447.1643438155614
 30
0.0
 10
600.1536540781069
 20
447.1316777839266
 30
0.0
 10
600.1922688781998
 20
447.1164159362594
 30
0.0
 10
600.2465687082824
 20
447.1044646537219
 30
0.0
 10
600.262409402709
 20
447.1057651717988
 30
0.0
 10
600.262409402709
 20
447.1057651717988
 30
0.0
  0
LINE
  5
17EFC
330
17
100
AcDbEntity
  8
1ﾀﾞｸﾄｶﾊﾞｰ
100
AcDbLine
 10
599.7624094027089
 20
443.5229224593241
 30
0.0
 11
599.6124094027093
 21
443.5229224593241
 31
0.0
  0
LINE
  5
17EFD
330
17
100
AcDbEntity
  8
1ﾀﾞｸﾄｶﾊﾞｰ
100
AcDbLine
 10
599.1124094027092
 20
447.5229224593241
 30
0.0
 11
599.7624094027089
 21
447.5229224593241
 31
0.0
  0
LINE
  5
17EFE
330
17
100
AcDbEntity
  8
1ﾀﾞｸﾄｶﾊﾞｰ
100
AcDbLine
 10
599.2624094027089
 20
443.5229224593241
 30
0.0
 11
599.2624094027089
 21
443.7229224593242
 31
0.0
  0
SPLINE
  5
17EFF
330
17
100
AcDbEntity
  8
1ﾀﾞｸﾄｶﾊﾞｰ
100
AcDbSpline
210
0.0
220
0.0
230
1.0
 70
     8
 71
     3
 72
    10
 73
     6
 74
     0
 42
0.000000001
 43
0.0000000001
 40
0.0
 40
0.0
 40
0.0
 40
0.0
 40
0.5
 40
0.5
 40
1.0
 40
1.0
 40
1.0
 40
1.0
 10
598.9624094027097
 20
444.0229224593241
 30
0.0
 10
599.0280327070811
 20
444.0229224593241
 30
0.0
 10
599.1013888777035
 20
444.0008750625767
 30
0.0
 10
599.2224763967162
 20
443.8930344893306
 30
0.0
 10
599.2624094027089
 20
443.8097736653147
 30
0.0
 10
599.2624094027089
 20
443.7229224593242
 30
0.0
  0
LINE
  5
17F00
330
17
100
AcDbEntity
  8
1ﾀﾞｸﾄｶﾊﾞｰ
100
AcDbLine
 10
598.6124094027093
 20
444.0229224593241
 30
0.0
 11
598.9624094027097
 21
444.0229224593241
 31
0.0
  0
LINE
  5
17F01
330
17
100
AcDbEntity
  8
1ﾀﾞｸﾄｶﾊﾞｰ
100
AcDbLine
 10
598.6124094027093
 20
444.0229224593241
 30
0.0
 11
598.6124094027093
 21
447.0229224593241
 31
0.0
  0
LINE
  5
17F02
330
17
100
AcDbEntity
  8
1ﾀﾞｸﾄｶﾊﾞｰ
100
AcDbLine
 10
599.6124094027093
 20
443.5229224593241
 30
0.0
 11
599.2624094027089
 21
443.5229224593241
 31
0.0
  0
ARC
  5
17F03
330
17
100
AcDbEntity
  8
1ﾀﾞｸﾄｶﾊﾞｰ
100
AcDbCircle
 10
599.1124094027092
 20
447.0229224593241
 30
0.0
 40
0.5
100
AcDbArc
 50
90.0
 51
180.0
  0
LINE
  5
17F04
330
17
100
AcDbEntity
  8
1ﾀﾞｸﾄｶﾊﾞｰ
100
AcDbLine
 10
636.5124094027089
 20
447.522922459324
 30
0.0
 11
636.5124094027089
 21
443.522922459324
 31
0.0
  0
LINE
  5
17F05
330
17
100
AcDbEntity
  8
1ﾀﾞｸﾄｶﾊﾞｰ
100
AcDbLine
 10
602.9124094027094
 20
444.6229224593243
 30
0.0
 11
601.9124094027095
 21
444.6229224593243
 31
0.0
  0
LINE
  5
17F06
330
17
100
AcDbEntity
  8
1ﾀﾞｸﾄｶﾊﾞｰ
100
AcDbLine
 10
601.9124094027095
 20
446.0229224593241
 30
0.0
 11
602.9124094027094
 21
446.0229224593241
 31
0.0
  0
LINE
  5
17F07
330
17
100
AcDbEntity
  8
1ﾀﾞｸﾄｶﾊﾞｰ
100
AcDbLine
 10
598.6124094027093
 20
444.6229224593243
 30
0.0
 11
597.6124094027093
 21
444.6229224593243
 31
0.0
  0
LINE
  5
17F08
330
17
100
AcDbEntity
  8
1ﾀﾞｸﾄｶﾊﾞｰ
100
AcDbLine
 10
597.6124094027093
 20
446.0229224593241
 30
0.0
 11
598.6124094027093
 21
446.0229224593241
 31
0.0
  0
LINE
  5
17F09
330
17
100
AcDbEntity
  8
1ﾀﾞｸﾄｶﾊﾞｰ
100
AcDbLine
 10
564.0124094027089
 20
443.5229224593241
 30
0.0
 11
564.0124094027089
 21
447.5229224593241
 31
0.0
  0
LINE
  5
17F0A
330
17
100
AcDbEntity
  8
1ﾀﾞｸﾄｶﾊﾞｰ
100
AcDbLine
 10
636.5124094027089
 20
447.522922459324
 30
0.0
 11
636.5124094027089
 21
449.022922459324
 31
0.0
  0
LINE
  5
17F0B
330
17
100
AcDbEntity
  8
1ﾀﾞｸﾄｶﾊﾞｰ
100
AcDbLine
 10
634.9895335704343
 20
449.022922459324
 30
0.0
 11
636.5124094027089
 21
449.022922459324
 31
0.0
  0
ARC
  5
17F0C
330
17
100
AcDbEntity
  8
1ﾀﾞｸﾄｶﾊﾞｰ
100
AcDbCircle
 10
621.0124094027089
 20
469.0229224593243
 30
0.0
 40
24.40000000000007
100
AcDbArc
 50
271.1741783376309
 51
304.9480137199071
  0
ARC
  5
17F0D
330
17
100
AcDbEntity
  8
1ﾀﾞｸﾄｶﾊﾞｰ
100
AcDbCircle
 10
621.262409402709
 20
469.0229224593243
 30
0.0
 40
23.00000000000007
100
AcDbArc
 50
270.0
 51
311.5324008825129
  0
LINE
  5
17F0E
330
17
100
AcDbEntity
  8
1ﾀﾞｸﾄｶﾊﾞｰ
100
AcDbLine
 10
602.9124094027094
 20
444.6229224593243
 30
0.0
 11
621.5124103861856
 21
444.6229224593243
 31
0.0
  0
LINE
  5
17F0F
330
17
100
AcDbEntity
  8
1ﾀﾞｸﾄｶﾊﾞｰ
100
AcDbLine
 10
602.9124094027094
 20
446.0229224593241
 30
0.0
 11
621.262409402709
 21
446.0229224593241
 31
0.0
  0
LINE
  5
17F10
330
17
100
AcDbEntity
  8
1ﾀﾞｸﾄｶﾊﾞｰ
100
AcDbLine
 10
641.5124094027089
 20
453.522922459324
 30
0.0
 11
642.5124094027089
 21
452.522922459324
 31
0.0
  0
LINE
  5
17F11
330
17
100
AcDbEntity
  8
1ﾀﾞｸﾄｶﾊﾞｰ
100
AcDbLine
 10
637.5124094027089
 20
453.522922459324
 30
0.0
 11
641.5124094027089
 21
453.522922459324
 31
0.0
  0
ARC
  5
17F12
330
17
100
AcDbEntity
  8
1ﾀﾞｸﾄｶﾊﾞｰ
100
AcDbCircle
 10
637.5124094027089
 20
452.522922459324
 30
0.0
 40
1.0
100
AcDbArc
 50
90.0
 51
180.0
  0
LINE
  5
17F13
330
17
100
AcDbEntity
  8
1ﾀﾞｸﾄｶﾊﾞｰ
100
AcDbLine
 10
636.5124094027089
 20
451.805562034451
 30
0.0
 11
636.5124094027089
 21
452.522922459324
 31
0.0
  0
LINE
  5
17F14
330
17
100
AcDbEntity
  8
1ﾀﾞｸﾄｶﾊﾞｰ
100
AcDbLine
 10
564.0124094027089
 20
449.0229224593242
 30
0.0
 11
565.285285234989
 21
449.0229224593242
 31
0.0
  0
ARC
  5
17F15
330
17
100
AcDbEntity
  8
1ﾀﾞｸﾄｶﾊﾞｰ
100
AcDbCircle
 10
579.2624094027089
 20
469.0229224593243
 30
0.0
 40
23.00000000000003
100
AcDbArc
 50
228.4675991174871
 51
270.0
  0
ARC
  5
17F16
330
17
100
AcDbEntity
  8
1ﾀﾞｸﾄｶﾊﾞｰ
100
AcDbCircle
 10
579.2624094027089
 20
469.0229224593243
 30
0.0
 40
24.40000000000007
100
AcDbArc
 50
235.0519862800928
 51
269.4129404975417
  0
LINE
  5
17F17
330
17
100
AcDbEntity
  8
1ﾀﾞｸﾄｶﾊﾞｰ
100
AcDbLine
 10
564.0124094027089
 20
447.5229224593241
 30
0.0
 11
564.0124094027089
 21
449.0229224593242
 31
0.0
  0
LINE
  5
17F18
330
17
100
AcDbEntity
  8
1ﾀﾞｸﾄｶﾊﾞｰ
100
AcDbLine
 10
579.0124084192322
 20
444.6229224593243
 30
0.0
 11
597.6124094027093
 21
444.6229224593243
 31
0.0
  0
LINE
  5
17F19
330
17
100
AcDbEntity
  8
1ﾀﾞｸﾄｶﾊﾞｰ
100
AcDbLine
 10
579.2624094027089
 20
446.0229224593241
 30
0.0
 11
597.6124094027093
 21
446.0229224593241
 31
0.0
  0
ARC
  5
17F1A
330
17
100
AcDbEntity
  8
1ﾀﾞｸﾄｶﾊﾞｰ
100
AcDbCircle
 10
563.0124094027089
 20
452.5229224593241
 30
0.0
 40
1.0
100
AcDbArc
 50
0.0
 51
90.0
  0
LINE
  5
17F1B
330
17
100
AcDbEntity
  8
1ﾀﾞｸﾄｶﾊﾞｰ
100
AcDbLine
 10
564.0124094027089
 20
452.5229224593241
 30
0.0
 11
564.0124094027089
 21
451.8055620344511
 31
0.0
  0
LINE
  5
17F1C
330
17
100
AcDbEntity
  8
1ﾀﾞｸﾄｶﾊﾞｰ
100
AcDbLine
 10
559.0124094027089
 20
453.5229224593241
 30
0.0
 11
563.0124094027089
 21
453.5229224593241
 31
0.0
  0
LINE
  5
17F1D
330
17
100
AcDbEntity
  8
1ﾀﾞｸﾄｶﾊﾞｰ
100
AcDbLine
 10
558.0124094027089
 20
452.5229224593241
 30
0.0
 11
559.0124094027089
 21
453.5229224593241
 31
0.0
  0
LINE
  5
17F1E
330
17
100
AcDbEntity
  8
1ﾀﾞｸﾄｶﾊﾞｰ
100
AcDbLine
 10
602.2624094027089
 20
443.5229224593241
 30
0.0
 11
601.2624094027089
 21
443.5229224593241
 31
0.0
  0
LINE
  5
17F1F
330
17
100
AcDbEntity
  8
1ﾀﾞｸﾄｶﾊﾞｰ
100
AcDbLine
 10
599.2624094027089
 20
443.5229224593241
 30
0.0
 11
598.2624094027089
 21
443.5229224593241
 31
0.0
  0
LINE
  5
17F20
330
17
100
AcDbEntity
  8
1ﾀﾞｸﾄｶﾊﾞｰ
100
AcDbLine
 10
600.7624094027089
 20
447.5229224593241
 30
0.0
 11
600.7624094027089
 21
447.5229224593241
 31
0.0
  0
LINE
  5
17F21
330
17
100
AcDbEntity
  8
1ﾀﾞｸﾄｶﾊﾞｰ
100
AcDbLine
 10
599.7624094027089
 20
447.5229224593239
 30
0.0
 11
599.7624094027089
 21
447.5229224593241
 31
0.0
  0
LINE
  5
17F26
330
17
100
AcDbEntity
  8
1ﾀﾞｸﾄｶﾊﾞｰ
 48
2.0
100
AcDbLine
 10
601.9124094027095
 20
444.6229224593243
 30
0.0
 11
598.6124094027093
 21
444.6229224593243
 31
0.0
  0
LINE
  5
17F27
330
17
100
AcDbEntity
  8
1ﾀﾞｸﾄｶﾊﾞｰ
100
AcDbLine
 10
642.5124094027089
 20
443.5229224593241
 30
0.0
 11
642.5124094027089
 21
464.5169225921951
 31
0.0
  0
ARC
  5
17F28
330
17
100
AcDbEntity
  8
1ﾀﾞｸﾄｶﾊﾞｰ
100
AcDbCircle
 10
620.5124094027089
 20
464.5169225921951
 30
0.0
 40
22.00000000000023
100
AcDbArc
 50
0.0
 51
89.40016893382013
  0
ARC
  5
17F29
330
17
100
AcDbEntity
  8
1ﾀﾞｸﾄｶﾊﾞｰ
100
AcDbCircle
 10
620.5124094027089
 20
464.5169225921951
 30
0.0
 40
24.00000000000023
100
AcDbArc
 50
0.0
 51
89.40016893382013
  0
ARC
  5
17F2A
330
17
100
AcDbEntity
  8
1ﾀﾞｸﾄｶﾊﾞｰ
100
AcDbCircle
 10
600.2624094027086
 20
-1469.689577538984
 30
0.0
 40
1956.312499998309
100
AcDbArc
 50
89.40016893382013
 51
90.59983106617989
  0
ARC
  5
17F2B
330
17
100
AcDbEntity
  8
1ﾀﾞｸﾄｶﾊﾞｰ
100
AcDbCircle
 10
600.2624094027086
 20
-1469.689577538984
 30
0.0
 40
1958.312499998309
100
AcDbArc
 50
89.40016893382013
 51
90.59983106617989
  0
ARC
  5
17F2C
330
17
100
AcDbEntity
  8
1ﾀﾞｸﾄｶﾊﾞｰ
100
AcDbCircle
 10
580.0124094027089
 20
464.5169225921951
 30
0.0
 40
22.00000000000022
100
AcDbArc
 50
90.59983106617989
 51
180.0
  0
ARC
  5
17F2D
330
17
100
AcDbEntity
  8
1ﾀﾞｸﾄｶﾊﾞｰ
100
AcDbCircle
 10
580.0124094027089
 20
464.5169225921951
 30
0.0
 40
24.00000000000022
100
AcDbArc
 50
90.59983106617989
 51
180.0
  0
LINE
  5
17F2E
330
17
100
AcDbEntity
  8
1ﾀﾞｸﾄｶﾊﾞｰ
100
AcDbLine
 10
558.0124094027089
 20
443.5229224593241
 30
0.0
 11
558.0124094027089
 21
464.5169225921951
 31
0.0
  0
LINE
  5
17F2F
330
17
100
AcDbEntity
  8
1ﾀﾞｸﾄｶﾊﾞｰ
100
AcDbLine
 10
558.0124094027089
 20
443.5229224593241
 30
0.0
 11
557.8322133054273
 21
443.5229224593241
 31
0.0
  0
LINE
  5
17F30
330
17
100
AcDbEntity
  8
1ﾀﾞｸﾄｶﾊﾞｰ
100
AcDbLine
 10
642.6926054999901
 20
443.5229224593241
 30
0.0
 11
642.5124094027089
 21
443.5229224593241
 31
0.0
  0
LINE
  5
17F31
330
17
100
AcDbEntity
  8
1ﾀﾞｸﾄｶﾊﾞｰ
100
AcDbLine
 10
643.6731861756814
 20
443.5229224593241
 30
0.0
 11
642.6926054999901
 21
443.5229224593241
 31
0.0
  0
LINE
  5
17F32
330
17
100
AcDbEntity
  8
1ﾀﾞｸﾄｶﾊﾞｰ
100
AcDbLine
 10
557.8322133054273
 20
443.5229224593241
 30
0.0
 11
556.8516326297364
 21
443.5229224593241
 31
0.0
  0
LINE
  5
17F33
330
17
100
AcDbEntity
  8
1ﾀﾞｸﾄｶﾊﾞｰ
100
AcDbLine
 10
644.1240229165271
 20
443.5229224593241
 30
0.0
 11
643.6731861756814
 21
443.5229224593241
 31
0.0
  0
LINE
  5
17F34
330
17
100
AcDbEntity
  8
1ﾀﾞｸﾄｶﾊﾞｰ
100
AcDbLine
 10
556.8516326297364
 20
443.5229224593241
 30
0.0
 11
556.4007958888903
 21
443.5229224593241
 31
0.0
  0
SPLINE
  5
17F35
330
17
100
AcDbEntity
  8
1ﾀﾞｸﾄｶﾊﾞｰ
100
AcDbSpline
210
0.0
220
0.0
230
1.0
 70
    24
 71
     3
 72
     8
 73
     4
 74
     0
 42
0.000000001
 43
0.0000000001
 40
0.0000000000000002
 40
0.0000000000000002
 40
0.0000000000000002
 40
0.0000000000000002
 40
0.0000640781472638
 40
0.0000640781472638
 40
0.0000640781472638
 40
0.0000640781472638
 10
644.5124094027089
 20
464.5809495019163
 30
0.0
 10
644.5124094027089
 20
464.5596581827649
 30
0.0
 10
644.5124094027089
 20
464.5382819746164
 30
0.0
 10
644.5124094027089
 20
464.5169225921951
 30
0.0
  0
SPLINE
  5
17F36
330
17
100
AcDbEntity
  8
1ﾀﾞｸﾄｶﾊﾞｰ
100
AcDbSpline
210
0.0
220
0.0
230
1.0
 70
    24
 71
     3
 72
     8
 73
     4
 74
     0
 42
0.000000001
 43
0.0000000001
 40
0.0
 40
0.0
 40
0.0
 40
0.0
 40
0.0000640781472631
 40
0.0000640781472631
 40
0.0000640781472631
 40
0.0000640781472631
 10
556.0124094027089
 20
464.5169225921951
 30
0.0
 10
556.0124094027089
 20
464.5382819746162
 30
0.0
 10
556.0124094027089
 20
464.5596581827643
 30
0.0
 10
556.0124094027089
 20
464.5809495019155
 30
0.0
  0
LINE
  5
17F37
330
17
100
AcDbEntity
  8
1ﾀﾞｸﾄｶﾊﾞｰ
100
AcDbLine
 10
644.5124094027089
 20
464.5169225921951
 30
0.0
 11
644.5124094027089
 21
443.5229224593241
 31
0.0
  0
LINE
  5
17F38
330
17
100
AcDbEntity
  8
1ﾀﾞｸﾄｶﾊﾞｰ
100
AcDbLine
 10
644.5124094027089
 20
443.5229224593241
 30
0.0
 11
644.1240229165271
 21
443.5229224593241
 31
0.0
  0
LINE
  5
17F39
330
17
100
AcDbEntity
  8
1ﾀﾞｸﾄｶﾊﾞｰ
100
AcDbLine
 10
556.0124094027089
 20
443.5229224593241
 30
0.0
 11
556.0124094027089
 21
464.5169225921951
 31
0.0
  0
LINE
  5
17F3A
330
17
100
AcDbEntity
  8
1ﾀﾞｸﾄｶﾊﾞｰ
100
AcDbLine
 10
556.4007958888903
 20
443.5229224593241
 30
0.0
 11
556.0124094027089
 21
443.5229224593241
 31
0.0
  0
SPLINE
  5
17F3B
330
17
100
AcDbEntity
  8
1ﾀﾞｸﾄｶﾊﾞｰ
100
AcDbSpline
210
0.0
220
0.0
230
1.0
 70
    24
 71
     3
 72
    36
 73
    32
 74
     0
 42
0.000000001
 43
0.0000000001
 40
0.0
 40
0.0
 40
0.0
 40
0.0
 40
0.1250000000000002
 40
0.1250000000000002
 40
0.1875000000000003
 40
0.1875000000000003
 40
0.2500000000000004
 40
0.2500000000000004
 40
0.3750000000000005
 40
0.3750000000000005
 40
0.4375000000000006
 40
0.4375000000000006
 40
0.4687500000000006
 40
0.4687500000000006
 40
0.5000000000000005
 40
0.5000000000000005
 40
0.6250000000000005
 40
0.6250000000000005
 40
0.6562500000000004
 40
0.6562500000000004
 40
0.6875000000000004
 40
0.6875000000000004
 40
0.7500000000000002
 40
0.7500000000000002
 40
0.8750000000000001
 40
0.8750000000000001
 40
0.9062500000000001
 40
0.9062500000000001
 40
0.9375000000000001
 40
0.9375000000000001
 40
1.0
 40
1.0
 40
1.0
 40
1.0
 10
644.5124094027089
 20
495.0152511994145
 30
0.0
 10
644.5124094027089
 20
493.084125795775
 30
0.0
 10
644.5124094027089
 20
491.1839488831581
 30
0.0
 10
644.5124094027089
 20
488.3781851259703
 30
0.0
 10
644.5124094027089
 20
487.4503984674744
 30
0.0
 10
644.5124094027089
 20
485.6100435535668
 30
0.0
 10
644.5124094027089
 20
484.6929870679694
 30
0.0
 10
644.5124094027089
 20
482.0150375110614
 30
0.0
 10
644.5124094027089
 20
480.3175642399974
 30
0.0
 10
644.5124094027089
 20
477.9004696253673
 30
0.0
 10
644.5124094027089
 20
477.1164315862994
 30
0.0
 10
644.5124094027089
 20
475.9738503329226
 30
0.0
 10
644.5124094027089
 20
475.5985591130333
 30
0.0
 10
644.5124094027089
 20
474.8671753775087
 30
0.0
 10
644.5124094027089
 20
474.5100407475672
 30
0.0
 10
644.5124094027089
 20
472.7664660937782
 30
0.0
 10
644.5124094027089
 20
471.5052196665384
 30
0.0
 10
644.5124094027089
 20
470.0959828535384
 30
0.0
 10
644.5124094027089
 20
469.8225705015995
 30
0.0
 10
644.5124094027089
 20
469.2929075497515
 30
0.0
 10
644.5124094027089
 20
469.0361621372741
 30
0.0
 10
644.5124094027089
 20
468.2994482492772
 30
0.0
 10
644.5124094027089
 20
467.8507640744154
 30
0.0
 10
644.5124094027089
 20
466.6285687025281
 30
0.0
 10
644.5124094027089
 20
465.9778325960355
 30
0.0
 10
644.5124094027089
 20
465.3744268208754
 30
0.0
 10
644.5124094027089
 20
465.2641280327732
 30
0.0
 10
644.5124094027089
 20
465.0664032784747
 30
0.0
 10
644.5124094027089
 20
464.9789448361799
 30
0.0
 10
644.5124094027089
 20
464.7504310681748
 30
0.0
 10
644.5124094027089
 20
464.6431626344678
 30
0.0
 10
644.5124094027089
 20
464.580949501916
 30
0.0
  0
SPLINE
  5
17F3C
330
17
100
AcDbEntity
  8
1ﾀﾞｸﾄｶﾊﾞｰ
100
AcDbSpline
210
0.0
220
0.0
230
1.0
 70
    24
 71
     3
 72
    36
 73
    32
 74
     0
 42
0.000000001
 43
0.0000000001
 40
0.0
 40
0.0
 40
0.0
 40
0.0
 40
0.0625000000000001
 40
0.0625000000000001
 40
0.0937500000000001
 40
0.0937500000000001
 40
0.1250000000000002
 40
0.1250000000000002
 40
0.2500000000000004
 40
0.2500000000000004
 40
0.3125000000000006
 40
0.3125000000000006
 40
0.3437500000000006
 40
0.3437500000000006
 40
0.3750000000000007
 40
0.3750000000000007
 40
0.5000000000000008
 40
0.5000000000000008
 40
0.5312500000000008
 40
0.5312500000000008
 40
0.5625000000000009
 40
0.5625000000000009
 40
0.6250000000000009
 40
0.6250000000000009
 40
0.7500000000000006
 40
0.7500000000000006
 40
0.8125000000000003
 40
0.8125000000000003
 40
0.8750000000000001
 40
0.8750000000000001
 40
1.0
 40
1.0
 40
1.0
 40
1.0
 10
556.0124094027089
 20
464.580949501916
 30
0.0
 10
556.0124094027089
 20
464.6431626344678
 30
0.0
 10
556.0124094027089
 20
464.7504310681748
 30
0.0
 10
556.0124094027089
 20
464.9789448361799
 30
0.0
 10
556.0124094027089
 20
465.0664032784747
 30
0.0
 10
556.0124094027089
 20
465.2641280327732
 30
0.0
 10
556.0124094027089
 20
465.3744268208754
 30
0.0
 10
556.0124094027089
 20
465.9778325960355
 30
0.0
 10
556.0124094027089
 20
466.6285687025281
 30
0.0
 10
556.0124094027089
 20
467.8507640744154
 30
0.0
 10
556.0124094027089
 20
468.2994482492773
 30
0.0
 10
556.0124094027089
 20
469.0361621372743
 30
0.0
 10
556.0124094027089
 20
469.2929075497516
 30
0.0
 10
556.0124094027089
 20
469.8225705015996
 30
0.0
 10
556.0124094027089
 20
470.0959828535385
 30
0.0
 10
556.0124094027089
 20
471.5052196665385
 30
0.0
 10
556.0124094027089
 20
472.7664660937785
 30
0.0
 10
556.0124094027089
 20
474.5100407475673
 30
0.0
 10
556.0124094027089
 20
474.8671753775089
 30
0.0
 10
556.0124094027089
 20
475.5985591130334
 30
0.0
 10
556.0124094027089
 20
475.9738503329229
 30
0.0
 10
556.0124094027089
 20
477.1164315862997
 30
0.0
 10
556.0124094027089
 20
477.9004696253677
 30
0.0
 10
556.0124094027089
 20
480.3175642399977
 30
0.0
 10
556.0124094027089
 20
482.0150375110618
 30
0.0
 10
556.0124094027089
 20
484.6929870679696
 30
0.0
 10
556.0124094027089
 20
485.6100435535672
 30
0.0
 10
556.0124094027089
 20
487.4503984674745
 30
0.0
 10
556.0124094027089
 20
488.3781851259707
 30
0.0
 10
556.0124094027089
 20
491.1839488831583
 30
0.0
 10
556.0124094027089
 20
493.0841257957757
 30
0.0
 10
556.0124094027089
 20
495.0152511994152
 30
0.0
  0
LINE
  5
17F3D
330
17
100
AcDbEntity
  8
1ﾀﾞｸﾄｶﾊﾞｰ
100
AcDbLine
 10
644.5124094027089
 20
520.9007209841035
 30
0.0
 11
644.5124094027089
 21
495.0152511994145
 31
0.0
  0
ARC
  5
17F3E
330
17
100
AcDbEntity
  8
1ﾀﾞｸﾄｶﾊﾞｰ
100
AcDbCircle
 10
622.0124094027089
 20
520.9007209841035
 30
0.0
 40
22.49999999999998
100
AcDbArc
 50
0.0
 51
5.710593137497326
  0
LINE
  5
17F3F
330
17
100
AcDbEntity
  8
1ﾀﾞｸﾄｶﾊﾞｰ
100
AcDbLine
 10
556.0124094027089
 20
495.015251199415
 30
0.0
 11
556.0124094027089
 21
520.9007209841035
 31
0.0
  0
ARC
  5
17F40
330
17
100
AcDbEntity
  8
1ﾀﾞｸﾄｶﾊﾞｰ
100
AcDbCircle
 10
578.5124094027089
 20
520.9007209841038
 30
0.0
 40
22.50000000000002
100
AcDbArc
 50
174.2894068625027
 51
180.0
  0
LINE
  5
17F41
330
17
100
AcDbEntity
  8
1ﾀﾞｸﾄｶﾊﾞｰ
100
AcDbLine
 10
644.4007461824337
 20
523.1395546620761
 30
0.0
 11
643.6024590308067
 21
531.122426178345
 31
0.0
  0
LINE
  5
17F42
330
17
100
AcDbEntity
  8
1ﾀﾞｸﾄｶﾊﾞｰ
100
AcDbLine
 10
556.1240726229841
 20
523.1395546620761
 30
0.0
 11
556.9223597746111
 21
531.122426178345
 31
0.0
  0
LINE
  5
17F43
330
17
100
AcDbEntity
  8
1ﾀﾞｸﾄｶﾊﾞｰ
100
AcDbLine
 10
579.781100344908
 20
532.022922459324
 30
0.0
 11
620.7437184605098
 21
532.022922459324
 31
0.0
  0
LINE
  5
17F44
330
17
100
AcDbEntity
  8
1ﾀﾞｸﾄｶﾊﾞｰ
100
AcDbLine
 10
620.7437184605098
 20
532.022922459324
 30
0.0
 11
642.6074218405967
 21
532.022922459324
 31
0.0
  0
ARC
  5
17F45
330
17
100
AcDbEntity
  8
1ﾀﾞｸﾄｶﾊﾞｰ
100
AcDbCircle
 10
642.6074218405967
 20
531.022922459324
 30
0.0
 40
1.0
100
AcDbArc
 50
5.710593137497326
 51
90.0
  0
ARC
  5
17F46
330
17
100
AcDbEntity
  8
1ﾀﾞｸﾄｶﾊﾞｰ
100
AcDbCircle
 10
557.9173969648211
 20
531.022922459324
 30
0.0
 40
1.0
100
AcDbArc
 50
90.0
 51
174.2894068625027
  0
LINE
  5
17F47
330
17
100
AcDbEntity
  8
1ﾀﾞｸﾄｶﾊﾞｰ
100
AcDbLine
 10
557.9173969648211
 20
532.022922459324
 30
0.0
 11
579.781100344908
 21
532.022922459324
 31
0.0
  0
ENDSEC
  0
SECTION
  2
OBJECTS
  0
DICTIONARY
  5
C
330
0
100
AcDbDictionary
281
     1
  3
ACAD_CIP_PREVIOUS_PRODUCT_INFO
350
DDC1
  3
ACAD_COLOR
350
DDA3
  3
ACAD_DETAILVIEWSTYLE
350
F89F
  3
ACAD_GROUP
350
D
  3
ACAD_LAYOUT
350
DDBA
  3
ACAD_MATERIAL
350
DD71
  3
ACAD_MLEADERSTYLE
350
DDB8
  3
ACAD_MLINESTYLE
350
1A
  3
ACAD_PLOTSETTINGS
350
DDBB
  3
ACAD_PLOTSTYLENAME
350
DD6F
  3
ACAD_SCALELIST
350
DDA6
  3
ACAD_SECTIONVIEWSTYLE
350
F89D
  3
ACAD_TABLESTYLE
350
DDA4
  3
ACAD_VISUALSTYLE
350
DD8A
  3
ACDB_RECOMPOSE_DATA
350
17F80
  3
ACDBVARIABLEDICTIONARY
350
51
  0
DICTIONARY
  5
DEE4
330
2
100
AcDbDictionary
280
     1
281
     1
  3
ACAD_LAYERSTATES
360
DEE5
  0
DICTIONARY
  5
F85A
330
E
100
AcDbDictionary
280
     1
281
     1
  3
ADSK_XREC_LAYER_RECONCILED
360
F85B
  0
DICTIONARY
  5
F85C
330
40
100
AcDbDictionary
280
     1
281
     1
  3
ADSK_XREC_LAYER_RECONCILED
360
F85D
  0
DICTIONARY
  5
DEE0
330
DEDF
100
AcDbDictionary
280
     1
281
     1
  3
ADSK_XREC_LAYER_RECONCILED
360
F85E
  0
DICTIONARY
  5
E397
330
E396
100
AcDbDictionary
280
     1
281
     1
  3
ADSK_XREC_LAYER_RECONCILED
360
F85F
  0
DICTIONARY
  5
E399
330
E398
100
AcDbDictionary
280
     1
281
     1
  3
ADSK_XREC_LAYER_RECONCILED
360
F860
  0
DICTIONARY
  5
E39B
330
E39A
100
AcDbDictionary
280
     1
281
     1
  3
ADSK_XREC_LAYER_RECONCILED
360
F861
  0
DICTIONARY
  5
E39D
330
E39C
100
AcDbDictionary
280
     1
281
     1
  3
ADSK_XREC_LAYER_RECONCILED
360
F862
  0
DICTIONARY
  5
FAC2
330
FAC1
100
AcDbDictionary
280
     1
281
     1
  0
DICTIONARY
  5
FAC4
330
FAC3
100
AcDbDictionary
280
     1
281
     1
  0
DICTIONARY
  5
FAC6
330
FAC5
100
AcDbDictionary
280
     1
281
     1
  0
DICTIONARY
  5
FAC8
330
FAC7
100
AcDbDictionary
280
     1
281
     1
  0
DICTIONARY
  5
10E24
330
10E23
100
AcDbDictionary
280
     1
281
     1
  0
DICTIONARY
  5
10E26
330
10E25
100
AcDbDictionary
280
     1
281
     1
  0
DICTIONARY
  5
10E28
330
10E27
100
AcDbDictionary
280
     1
281
     1
  0
DICTIONARY
  5
EDD5
330
EDD4
100
AcDbDictionary
280
     1
281
     1
  3
ACAD_SORTENTS
360
EDD6
  0
DICTIONARY
  5
F8A9
330
F8A8
100
AcDbDictionary
280
     1
281
     1
  0
XRECORD
  5
DDC1
102
{ACAD_REACTORS
330
C
102
}
330
C
100
AcDbXrecord
280
     1
300
ACDLT
300
2021
300

  0
DICTIONARY
  5
DDA3
102
{ACAD_REACTORS
330
C
102
}
330
C
100
AcDbDictionary
281
     1
  0
DICTIONARY
  5
F89F
102
{ACAD_REACTORS
330
C
102
}
330
C
100
AcDbDictionary
281
     1
  3
Imperial24
350
17E73
  3
Metric50
350
F8A0
  0
DICTIONARY
  5
D
102
{ACAD_REACTORS
330
C
102
}
330
C
100
AcDbDictionary
281
     1
  0
DICTIONARY
  5
DDBA
102
{ACAD_REACTORS
330
C
102
}
330
C
100
AcDbDictionary
281
     1
  3
Model
350
DDBC
  3
レイアウト1
350
DDBD
  0
DICTIONARY
  5
DD71
102
{ACAD_REACTORS
330
C
102
}
330
C
100
AcDbDictionary
281
     1
  3
ByBlock
350
DD7A
  3
ByLayer
350
DD72
  3
Global
350
DD82
  0
DICTIONARY
  5
DDB8
102
{ACAD_REACTORS
330
C
102
}
330
C
100
AcDbDictionary
281
     1
  3
Standard
350
DDB9
  0
DICTIONARY
  5
1A
102
{ACAD_REACTORS
330
C
102
}
330
C
100
AcDbDictionary
281
     1
  3
STANDARD
350
1B
  0
DICTIONARY
  5
DDBB
102
{ACAD_REACTORS
330
C
102
}
330
C
100
AcDbDictionary
281
     1
  0
ACDBDICTIONARYWDFLT
  5
DD6F
102
{ACAD_REACTORS
330
C
102
}
330
C
100
AcDbDictionary
281
     1
  3
Normal
350
DD70
100
AcDbDictionaryWithDefault
340
DD70
  0
DICTIONARY
  5
DDA6
102
{ACAD_REACTORS
330
C
102
}
330
C
100
AcDbDictionary
281
     1
  3
A0
350
DDA7
  3
A1
350
DDA8
  3
A2
350
DDA9
  3
A3
350
DDAA
  3
A4
350
DDAB
  3
A5
350
DDAC
  3
A6
350
DDAD
  3
A7
350
DDAE
  3
A8
350
DDAF
  3
A9
350
DDB0
  3
B0
350
DDB1
  3
B1
350
DDB2
  3
B2
350
DDB3
  3
B3
350
DDB4
  3
B4
350
DDB5
  3
B5
350
DDB6
  3
B6
350
DDB7
  0
DICTIONARY
  5
F89D
102
{ACAD_REACTORS
330
C
102
}
330
C
100
AcDbDictionary
281
     1
  3
Imperial24
350
17E72
  3
Metric50
350
F89E
  0
DICTIONARY
  5
DDA4
102
{ACAD_REACTORS
330
C
102
}
330
C
100
AcDbDictionary
281
     1
  3
Standard
350
DDA5
  0
DICTIONARY
  5
DD8A
102
{ACAD_REACTORS
330
C
102
}
330
C
100
AcDbDictionary
281
     1
  3
2dWireframe
350
DD90
  3
3dWireframe
350
1323C
  3
Basic
350
DD8F
  3
Brighten
350
DD96
  3
ColorChange
350
DD9A
  3
Conceptual
350
DD93
  3
Dim
350
DD95
  3
EdgeColorOff
350
DDA2
  3
Facepattern
350
DD99
  3
Flat
350
DD8B
  3
FlatWithEdges
350
DD8C
  3
Gouraud
350
DD8D
  3
GouraudWithEdges
350
DD8E
  3
Hidden
350
DD92
  3
JitterOff
350
DDA0
  3
Linepattern
350
DD98
  3
OverhangOff
350
DDA1
  3
Realistic
350
DD94
  3
Shaded
350
DD9F
  3
Shaded with edges
350
DD9E
  3
Shades of Gray
350
DD9B
  3
Sketchy
350
DD9C
  3
Thicken
350
DD97
  3
Wireframe
350
DD91
  3
X-Ray
350
DD9D
  0
XRECORD
  5
17F80
102
{ACAD_REACTORS
330
C
102
}
330
C
100
AcDbXrecord
280
     1
 90
        1
330
DDA5
  0
DICTIONARY
  5
51
102
{ACAD_REACTORS
330
C
102
}
330
C
100
AcDbDictionary
281
     1
  3
CANNOSCALE
350
F889
  3
CMLEADERSTYLE
350
F887
  3
CTABLESTYLE
350
F886
  3
CVIEWDETAILSTYLE
350
12FD8
  3
CVIEWSECTIONSTYLE
350
12FD9
  3
DIMADEC
350
52
  3
LAYEREVAL
350
F88B
  3
LAYERNOTIFY
350
F88C
  3
LIGHTINGUNITS
350
F88A
  3
MSLTSCALE
350
F888
  3
SORTENTS
350
D1FE
  0
DICTIONARY
  5
DEE5
102
{ACAD_REACTORS
330
DEE4
102
}
330
DEE4
100
AcDbDictionary
281
     1
  0
XRECORD
  5
F85B
102
{ACAD_REACTORS
330
F85A
102
}
330
F85A
100
AcDbXrecord
280
     1
290
     1
  0
XRECORD
  5
F85D
102
{ACAD_REACTORS
330
F85C
102
}
330
F85C
100
AcDbXrecord
280
     1
290
     1
  0
XRECORD
  5
F85E
102
{ACAD_REACTORS
330
DEE0
102
}
330
DEE0
100
AcDbXrecord
280
     1
290
     1
  0
XRECORD
  5
F85F
102
{ACAD_REACTORS
330
E397
102
}
330
E397
100
AcDbXrecord
280
     1
290
     1
  0
XRECORD
  5
F860
102
{ACAD_REACTORS
330
E399
102
}
330
E399
100
AcDbXrecord
280
     1
290
     1
  0
XRECORD
  5
F861
102
{ACAD_REACTORS
330
E39B
102
}
330
E39B
100
AcDbXrecord
280
     1
290
     1
  0
XRECORD
  5
F862
102
{ACAD_REACTORS
330
E39D
102
}
330
E39D
100
AcDbXrecord
280
     1
290
     1
  0
SORTENTSTABLE
  5
EDD6
102
{ACAD_REACTORS
330
EDD5
102
}
330
EDD5
100
AcDbSortentsTable
330
EDD4
331
EDDB
  5
2EF
331
EDF9
  5
311
331
EDE4
  5
2F9
331
EDFA
  5
312
331
EDE5
  5
2FA
331
EDFB
  5
313
331
EDE6
  5
2FB
331
EE04
  5
2F3
331
EE05
  5
2EC
331
EDE7
  5
2FC
331
EDF4
  5
30C
331
EDE0
  5
2F5
331
EDF5
  5
30D
331
EE06
  5
305
331
EDE1
  5
2F6
331
EE07
  5
2FD
331
EDF6
  5
30E
331
EDE2
  5
2F7
331
EE00
  5
318
331
EDF7
  5
30F
331
EDE3
  5
2F8
331
EE01
  5
319
331
EDF0
  5
308
331
EDF1
  5
309
331
EE02
  5
31A
331
EDEC
  5
303
331
EE03
  5
2FE
331
EDF2
  5
30A
331
EDED
  5
304
331
EDDC
  5
2F0
331
EDF3
  5
30B
331
EDDD
  5
2F1
331
EDEE
  5
306
331
EDFC
  5
314
331
EDDE
  5
2F2
331
EDEF
  5
307
331
EDE8
  5
2FF
331
EDDF
  5
2F4
331
EDFD
  5
315
331
EDFE
  5
316
331
EDE9
  5
300
331
EDD9
  5
2ED
331
EDFF
  5
317
331
EDEA
  5
301
331
EDEB
  5
302
331
EDDA
  5
2EE
331
EDF8
  5
310
  0
ACDBDETAILVIEWSTYLE
  5
17E73
102
{ACAD_REACTORS
330
F89F
102
}
330
F89F
100
AcDbModelDocViewStyle
 70
     0
  3
Imperial24
290
     0
300
Imperial24
 90
        0
100
AcDbDetailViewStyle
 70
     0
 71
     0
 90
        3
 71
     1
340
F
 62
   256
 40
0.24
340
0
 62
   256
 40
0.24
300

 40
0.36
280
     3
 71
     2
340
13
 90
       25
 62
   256
 71
     3
340
F
 62
   256
 40
0.24
 90
        1
 40
0.75
 90
        1
300
%<\AcVar ViewType \f "%tc1">% %<\AcVar ViewDetailId>%\PSCALE %<\AcVar ViewScale \f "%sn">%
 71
     4
340
13
 90
       25
 62
   256
340
13
 90
       25
 62
   256
280
     0
  0
ACDBDETAILVIEWSTYLE
  5
F8A0
102
{ACAD_REACTORS
330
F89F
102
}
330
F89F
100
AcDbModelDocViewStyle
 70
     0
  3
Metric50
290
     1
300
Metric50
 90
        0
100
AcDbDetailViewStyle
 70
     0
 71
     0
 90
        3
 71
     1
340
F
 62
   256
 40
5.0
340
0
 62
   256
 40
5.0
300

 40
0.0
280
     1
 71
     2
340
13
 90
       25
 62
   256
 71
     3
340
F
 62
   256
 40
5.0
 90
        0
 40
15.0
 90
        1
300
%<\AcVar ViewDetailId>% (%<\AcVar ViewScale \f "%sn">%)
 71
     4
340
13
 90
       25
 62
   256
340
13
 90
       25
 62
   256
280
     0
  0
LAYOUT
  5
DDBC
102
{ACAD_XDICTIONARY
360
F86A
102
}
102
{ACAD_REACTORS
330
DDBA
102
}
330
DDBA
100
AcDbPlotSettings
  1

  2
Canon LBP3920/3970 LIPSLX
  4

  6

 40
0.0
 41
0.0
 42
0.0
 43
0.0
 44
0.0
 45
0.0
 46
0.0
 47
0.0
 48
0.0
 49
0.0
140
0.0
141
0.0
142
1.0
143
1.0
 70
  1712
 72
     0
 73
     0
 74
     0
  7

 75
     0
147
1.0
 76
     0
 77
     2
 78
   300
148
0.0
149
0.0
100
AcDbLayout
  1
Model
 70
     1
 71
     0
 10
0.0
 20
0.0
 11
12.0
 21
9.0
 12
0.0
 22
0.0
 32
0.0
 14
0.0
 24
0.0
 34
0.0
 15
0.0
 25
0.0
 35
0.0
146
0.0
 13
0.0
 23
0.0
 33
0.0
 16
1.0
 26
0.0
 36
0.0
 17
0.0
 27
1.0
 37
0.0
 76
     0
330
17
331
DD6D
  0
LAYOUT
  5
DDBD
102
{ACAD_REACTORS
330
DDBA
102
}
330
DDBA
100
AcDbPlotSettings
  1

  2
Canon LBP3920/3970 LIPSLX
  4

  6

 40
0.0
 41
0.0
 42
0.0
 43
0.0
 44
0.0
 45
0.0
 46
0.0
 47
0.0
 48
0.0
 49
0.0
140
0.0
141
0.0
142
1.0
143
1.0
 70
   688
 72
     0
 73
     0
 74
     5
  7

 75
    16
147
1.0
 76
     0
 77
     2
 78
   300
148
0.0
149
0.0
100
AcDbLayout
  1
レイアウト1
 70
     0
 71
     1
 10
0.0
 20
0.0
 11
12.0
 21
9.0
 12
0.0
 22
0.0
 32
0.0
 14
1.000000000000000E+20
 24
1.000000000000000E+20
 34
1.000000000000000E+20
 15
-1.000000000000000E+20
 25
-1.000000000000000E+20
 35
-1.000000000000000E+20
146
0.0
 13
0.0
 23
0.0
 33
0.0
 16
1.0
 26
0.0
 36
0.0
 17
0.0
 27
1.0
 37
0.0
 76
     0
330
14
  0
MATERIAL
  5
DD7A
102
{ACAD_XDICTIONARY
360
DD7B
102
}
102
{ACAD_REACTORS
330
DD71
102
}
330
DD71
100
AcDbMaterial
  1
ByBlock
 72
     0
 43
0.0208333333333333
 43
0.0
 43
0.0
 43
0.0
 43
0.0
 43
0.0208333333333333
 43
0.0
 43
0.0
 43
0.0
 43
0.0
 43
1.0
 43
0.0
 43
0.0
 43
0.0
 43
0.0
 43
1.0
 77
     0
 47
0.0208333333333333
 47
0.0
 47
0.0
 47
0.0
 47
0.0
 47
0.0208333333333333
 47
0.0
 47
0.0
 47
0.0
 47
0.0
 47
1.0
 47
0.0
 47
0.0
 47
0.0
 47
0.0
 47
1.0
171
     0
 49
0.0208333333333333
 49
0.0
 49
0.0
 49
0.0
 49
0.0
 49
0.0208333333333333
 49
0.0
 49
0.0
 49
0.0
 49
0.0
 49
1.0
 49
0.0
 49
0.0
 49
0.0
 49
0.0
 49
1.0
175
     0
142
0.0208333333333333
142
0.0
142
0.0
142
0.0
142
0.0
142
0.0208333333333333
142
0.0
142
0.0
142
0.0
142
0.0
142
1.0
142
0.0
142
0.0
142
0.0
142
0.0
142
1.0
179
     0
144
0.0208333333333333
144
0.0
144
0.0
144
0.0
144
0.0
144
0.0208333333333333
144
0.0
144
0.0
144
0.0
144
0.0
144
1.0
144
0.0
144
0.0
144
0.0
144
0.0
144
1.0
147
0.0208333333333333
147
0.0
147
0.0
147
0.0
147
0.0
147
0.0208333333333333
147
0.0
147
0.0
147
0.0
147
0.0
147
1.0
147
0.0
147
0.0
147
0.0
147
0.0
147
1.0
  0
MATERIAL
  5
DD72
102
{ACAD_XDICTIONARY
360
DD73
102
}
102
{ACAD_REACTORS
330
DD71
102
}
330
DD71
100
AcDbMaterial
  1
ByLayer
 72
     0
 43
0.0208333333333333
 43
0.0
 43
0.0
 43
0.0
 43
0.0
 43
0.0208333333333333
 43
0.0
 43
0.0
 43
0.0
 43
0.0
 43
1.0
 43
0.0
 43
0.0
 43
0.0
 43
0.0
 43
1.0
 77
     0
 47
0.0208333333333333
 47
0.0
 47
0.0
 47
0.0
 47
0.0
 47
0.0208333333333333
 47
0.0
 47
0.0
 47
0.0
 47
0.0
 47
1.0
 47
0.0
 47
0.0
 47
0.0
 47
0.0
 47
1.0
171
     0
 49
0.0208333333333333
 49
0.0
 49
0.0
 49
0.0
 49
0.0
 49
0.0208333333333333
 49
0.0
 49
0.0
 49
0.0
 49
0.0
 49
1.0
 49
0.0
 49
0.0
 49
0.0
 49
0.0
 49
1.0
175
     0
142
0.0208333333333333
142
0.0
142
0.0
142
0.0
142
0.0
142
0.0208333333333333
142
0.0
142
0.0
142
0.0
142
0.0
142
1.0
142
0.0
142
0.0
142
0.0
142
0.0
142
1.0
179
     0
144
0.0208333333333333
144
0.0
144
0.0
144
0.0
144
0.0
144
0.0208333333333333
144
0.0
144
0.0
144
0.0
144
0.0
144
1.0
144
0.0
144
0.0
144
0.0
144
0.0
144
1.0
147
0.0208333333333333
147
0.0
147
0.0
147
0.0
147
0.0
147
0.0208333333333333
147
0.0
147
0.0
147
0.0
147
0.0
147
1.0
147
0.0
147
0.0
147
0.0
147
0.0
147
1.0
  0
MATERIAL
  5
DD82
102
{ACAD_XDICTIONARY
360
DD83
102
}
102
{ACAD_REACTORS
330
DD71
102
}
330
DD71
100
AcDbMaterial
  1
Global
 72
     0
 43
0.0208333333333333
 43
0.0
 43
0.0
 43
0.0
 43
0.0
 43
0.0208333333333333
 43
0.0
 43
0.0
 43
0.0
 43
0.0
 43
1.0
 43
0.0
 43
0.0
 43
0.0
 43
0.0
 43
1.0
 77
     0
 47
0.0208333333333333
 47
0.0
 47
0.0
 47
0.0
 47
0.0
 47
0.0208333333333333
 47
0.0
 47
0.0
 47
0.0
 47
0.0
 47
1.0
 47
0.0
 47
0.0
 47
0.0
 47
0.0
 47
1.0
171
     0
 49
0.0208333333333333
 49
0.0
 49
0.0
 49
0.0
 49
0.0
 49
0.0208333333333333
 49
0.0
 49
0.0
 49
0.0
 49
0.0
 49
1.0
 49
0.0
 49
0.0
 49
0.0
 49
0.0
 49
1.0
175
     0
142
0.0208333333333333
142
0.0
142
0.0
142
0.0
142
0.0
142
0.0208333333333333
142
0.0
142
0.0
142
0.0
142
0.0
142
1.0
142
0.0
142
0.0
142
0.0
142
0.0
142
1.0
179
     0
144
0.0208333333333333
144
0.0
144
0.0
144
0.0
144
0.0
144
0.0208333333333333
144
0.0
144
0.0
144
0.0
144
0.0
144
1.0
144
0.0
144
0.0
144
0.0
144
0.0
144
1.0
147
0.0208333333333333
147
0.0
147
0.0
147
0.0
147
0.0
147
0.0208333333333333
147
0.0
147
0.0
147
0.0
147
0.0
147
1.0
147
0.0
147
0.0
147
0.0
147
0.0
147
1.0
  0
MLEADERSTYLE
  5
DDB9
102
{ACAD_REACTORS
330
DDB8
102
}
330
DDB8
100
AcDbMLeaderStyle
179
     2
170
     2
171
     1
172
     0
 90
        2
 40
0.0
 41
0.0
173
     1
 91
-1056964608
340
11
 92
       -2
290
     1
 42
2.0
291
     1
 43
0.36
  3
Standard
 44
4.0
300

342
F
174
     1
178
     6
175
     1
176
     0
 93
-1056964608
 45
4.0
292
     0
297
     0
 46
4.0
 94
-1056964608
 47
1.0
 49
1.0
140
1.0
293
     1
141
0.0
294
     1
177
     0
142
1.0
295
     0
296
     0
143
0.125
271
     0
272
     9
273
     9
298
     1
  0
MLINESTYLE
  5
1B
102
{ACAD_REACTORS
330
1A
102
}
330
1A
100
AcDbMlineStyle
  2
STANDARD
 70
     0
  3

 62
   256
 51
90.0
 52
90.0
 71
     2
 49
0.5
 62
   256
  6
BYLAYER
 49
-0.5
 62
   256
  6
BYLAYER
  0
ACDBPLACEHOLDER
  5
DD70
102
{ACAD_REACTORS
330
DD6F
102
}
330
DD6F
  0
SCALE
  5
DDA7
102
{ACAD_REACTORS
330
DDA6
102
}
330
DDA6
100
AcDbScale
 70
     0
300
1:1
140
1.0
141
1.0
290
     1
  0
SCALE
  5
DDA8
102
{ACAD_REACTORS
330
DDA6
102
}
330
DDA6
100
AcDbScale
 70
     0
300
1:2
140
1.0
141
2.0
290
     0
  0
SCALE
  5
DDA9
102
{ACAD_REACTORS
330
DDA6
102
}
330
DDA6
100
AcDbScale
 70
     0
300
1:4
140
1.0
141
4.0
290
     0
  0
SCALE
  5
DDAA
102
{ACAD_REACTORS
330
DDA6
102
}
330
DDA6
100
AcDbScale
 70
     0
300
1:5
140
1.0
141
5.0
290
     0
  0
SCALE
  5
DDAB
102
{ACAD_REACTORS
330
DDA6
102
}
330
DDA6
100
AcDbScale
 70
     0
300
1:8
140
1.0
141
8.0
290
     0
  0
SCALE
  5
DDAC
102
{ACAD_REACTORS
330
DDA6
102
}
330
DDA6
100
AcDbScale
 70
     0
300
1:10
140
1.0
141
10.0
290
     0
  0
SCALE
  5
DDAD
102
{ACAD_REACTORS
330
DDA6
102
}
330
DDA6
100
AcDbScale
 70
     0
300
1:16
140
1.0
141
16.0
290
     0
  0
SCALE
  5
DDAE
102
{ACAD_REACTORS
330
DDA6
102
}
330
DDA6
100
AcDbScale
 70
     0
300
1:20
140
1.0
141
20.0
290
     0
  0
SCALE
  5
DDAF
102
{ACAD_REACTORS
330
DDA6
102
}
330
DDA6
100
AcDbScale
 70
     0
300
1:30
140
1.0
141
30.0
290
     0
  0
SCALE
  5
DDB0
102
{ACAD_REACTORS
330
DDA6
102
}
330
DDA6
100
AcDbScale
 70
     0
300
1:40
140
1.0
141
40.0
290
     0
  0
SCALE
  5
DDB1
102
{ACAD_REACTORS
330
DDA6
102
}
330
DDA6
100
AcDbScale
 70
     0
300
1:50
140
1.0
141
50.0
290
     0
  0
SCALE
  5
DDB2
102
{ACAD_REACTORS
330
DDA6
102
}
330
DDA6
100
AcDbScale
 70
     0
300
1:100
140
1.0
141
100.0
290
     0
  0
SCALE
  5
DDB3
102
{ACAD_REACTORS
330
DDA6
102
}
330
DDA6
100
AcDbScale
 70
     0
300
2:1
140
2.0
141
1.0
290
     0
  0
SCALE
  5
DDB4
102
{ACAD_REACTORS
330
DDA6
102
}
330
DDA6
100
AcDbScale
 70
     0
300
4:1
140
4.0
141
1.0
290
     0
  0
SCALE
  5
DDB5
102
{ACAD_REACTORS
330
DDA6
102
}
330
DDA6
100
AcDbScale
 70
     0
300
8:1
140
8.0
141
1.0
290
     0
  0
SCALE
  5
DDB6
102
{ACAD_REACTORS
330
DDA6
102
}
330
DDA6
100
AcDbScale
 70
     0
300
10:1
140
10.0
141
1.0
290
     0
  0
SCALE
  5
DDB7
102
{ACAD_REACTORS
330
DDA6
102
}
330
DDA6
100
AcDbScale
 70
     0
300
100:1
140
100.0
141
1.0
290
     0
  0
ACDBSECTIONVIEWSTYLE
  5
17E72
102
{ACAD_REACTORS
330
F89D
102
}
330
F89D
100
AcDbModelDocViewStyle
 70
     0
  3
Imperial24
290
     0
300
Imperial24
 90
        0
100
AcDbSectionViewStyle
 70
     0
 71
     0
 90
       78
 71
     1
340
F
 62
   256
 40
0.24
340
0
340
0
 62
   256
 40
0.24
300
I, O, Q, S, X, Z
 40
0.48
 90
        3
 40
0.18
 90
        1
 71
     2
340
13
 90
       25
 62
   256
340
13
 90
       50
 62
   256
 40
0.24
 40
0.0
 40
0.24
 71
     3
340
F
 62
   256
 40
0.24
 90
        1
 40
0.75
 90
        1
300
%<\AcVar ViewType \f "%tc1">% %<\AcVar ViewSectionStartId>%-%<\AcVar ViewSectionEndId>%\PSCALE %<\AcVar ViewScale \f "%sn">%
 71
     4
 62
   256
 62
   257
300
ANSI31
 40
1.0
 90
        0
290
     0
290
     0
 90
        6
 40
0.0
 40
1.570796326794896
 40
0.2617993877991494
 40
1.308996938995747
 40
-0.2617993877991494
 40
1.832595714594046
  0
ACDBSECTIONVIEWSTYLE
  5
F89E
102
{ACAD_REACTORS
330
F89D
102
}
330
F89D
100
AcDbModelDocViewStyle
 70
     0
  3
Metric50
290
     1
300
Metric50
 90
        0
100
AcDbSectionViewStyle
 70
     0
 71
     0
 90
      102
 71
     1
340
F
 62
   256
 40
5.0
340
0
340
0
 62
   256
 40
5.0
300
I, O, Q, S, X, Z
 40
10.0
 90
        0
 40
2.5
 90
        0
 71
     2
340
13
 90
       25
 62
   256
340
13
 90
       50
 62
   256
 40
5.0
 40
2.5
 40
5.0
 71
     3
340
F
 62
   256
 40
5.0
 90
        0
 40
15.0
 90
        1
300
%<\AcVar ViewSectionStartId>%-%<\AcVar ViewSectionEndId>% (%<\AcVar ViewScale \f "%sn">%)
 71
     4
 62
   256
 62
   257
300
ANSI31
 40
1.0
 90
        0
290
     0
290
     0
 90
        6
 40
0.0
 40
1.570796326794896
 40
0.2617993877991494
 40
1.308996938995747
 40
-0.2617993877991494
 40
1.832595714594046
  0
TABLESTYLE
  5
DDA5
102
{ACAD_XDICTIONARY
360
17F7E
102
}
102
{ACAD_REACTORS
330
DDA4
102
}
330
DDA4
100
AcDbTableStyle
280
     0
  3
Standard
 70
     0
 71
     0
 40
1.5
 41
1.5
280
     0
281
     0
  7
STANDARD
140
4.5
170
     2
 62
     0
 63
     7
283
     0
 90
      512
 91
        0
  1

274
    -2
284
     1
 64
     0
275
    -2
285
     1
 65
     0
276
    -2
286
     1
 66
     0
277
    -2
287
     1
 67
     0
278
    -2
288
     1
 68
     0
279
    -2
289
     1
 69
     0
  7
STANDARD
140
6.0
170
     5
 62
     0
 63
     7
283
     0
 90
      512
 91
        0
  1

274
    -2
284
     1
 64
     0
275
    -2
285
     1
 65
     0
276
    -2
286
     1
 66
     0
277
    -2
287
     1
 67
     0
278
    -2
288
     1
 68
     0
279
    -2
289
     1
 69
     0
  7
STANDARD
140
4.5
170
     5
 62
     0
 63
     7
283
     0
 90
      512
 91
        0
  1

274
    -2
284
     1
 64
     0
275
    -2
285
     1
 65
     0
276
    -2
286
     1
 66
     0
277
    -2
287
     1
 67
     0
278
    -2
288
     1
 68
     0
279
    -2
289
     1
 69
     0
  0
VISUALSTYLE
  5
DD90
102
{ACAD_REACTORS
330
DD8A
102
}
330
DD8A
100
AcDbVisualStyle
  2
2dWireframe
 70
     4
177
     3
291
     0
 70
    58
 90
        0
176
     1
 90
        2
176
     1
 90
        0
176
     1
 90
        0
176
     1
 40
0.6
176
     1
 40
30.0
176
     1
 62
     7
420
 16777215
176
     1
 90
        1
176
     1
 90
        4
176
     1
 62
     7
176
     1
 62
   257
176
     1
 90
        1
176
     1
 90
        1
176
     1
 40
1.0
176
     1
 90
        0
176
     1
 62
   257
176
     1
 40
1.0
176
     1
 90
        1
176
     1
 90
        6
176
     1
 90
        2
176
     1
 62
     7
176
     1
 90
        5
176
     1
 90
        0
176
     1
 90
        0
176
     1
290
     0
176
     1
 90
        1
176
     1
 40
0.0
176
     1
 90
        0
176
     1
290
     1
176
     1
290
     1
176
     1
290
     0
176
     1
290
     0
176
     1
290
     0
176
     1
290
     0
176
     1
290
     0
176
     1
290
     0
176
     1
290
     0
176
     1
 90
       50
176
     1
 40
0.0
176
     1
 40
1.0
176
     1
 90
        0
176
     1
 62
    18
420
        0
176
     1
 90
       50
176
     1
 90
        3
176
     1
 62
     5
420
      255
176
     1
290
     0
176
     1
 90
       50
176
     1
 90
       50
176
     1
 90
       50
176
     1
290
     0
176
     1
 90
       50
176
     1
 62
   256
176
     0
 40
1.0
176
     0
 90
        2
176
     1
  1
strokes_ogs.tif
176
     1
290
     0
176
     1
 40
1.0
176
     1
 40
1.0
176
     1
  0
VISUALSTYLE
  5
1323C
102
{ACAD_REACTORS
330
DD8A
102
}
330
DD8A
100
AcDbVisualStyle
  2
3dWireframe
 70
     5
177
     3
291
     0
 70
    58
 90
        0
176
     1
 90
        2
176
     1
 90
        0
176
     1
 90
        0
176
     1
 40
0.6
176
     1
 40
30.0
176
     1
 62
     7
176
     1
 90
        1
176
     1
 90
        4
176
     1
 62
     7
176
     1
 62
   257
176
     1
 90
        1
176
     1
 90
        1
176
     1
 40
1.0
176
     1
 90
        0
176
     1
 62
   257
176
     1
 40
1.0
176
     1
 90
        1
176
     1
 90
        6
176
     1
 90
        2
176
     1
 62
     7
176
     1
 90
        5
176
     1
 90
        0
176
     1
 90
        0
176
     1
290
     0
176
     1
 90
        1
176
     1
 40
0.0
176
     1
 90
        0
176
     1
290
     0
176
     1
290
     1
176
     1
290
     1
176
     1
290
     0
176
     1
290
     0
176
     1
290
     0
176
     1
290
     0
176
     1
290
     0
176
     1
290
     0
176
     1
 90
       50
176
     1
 40
0.0
176
     1
 40
1.0
176
     1
 90
        0
176
     1
 62
    18
420
        0
176
     1
 90
       50
176
     1
 90
        3
176
     1
 62
     5
420
      255
176
     1
290
     0
176
     1
 90
       50
176
     1
 90
       50
176
     1
 90
       50
176
     1
290
     0
176
     1
 90
       50
176
     1
 62
   256
176
     0
 40
1.0
176
     0
 90
        2
176
     1
  1
strokes_ogs.tif
176
     1
290
     0
176
     1
 40
1.0
176
     1
 40
1.0
176
     1
  0
VISUALSTYLE
  5
DD8F
102
{ACAD_REACTORS
330
DD8A
102
}
330
DD8A
100
AcDbVisualStyle
  2
Basic
 70
     7
177
     3
291
     1
 70
    58
 90
        1
176
     1
 90
        0
176
     1
 90
        1
176
     1
 90
        0
176
     1
 40
0.6
176
     1
 40
30.0
176
     1
 62
     7
420
 16777215
176
     1
 90
        0
176
     1
 90
        4
176
     1
 62
     7
176
     1
 62
   257
176
     1
 90
        1
176
     1
 90
        1
176
     1
 40
1.0
176
     1
 90
        8
176
     1
 62
     7
176
     1
 40
1.0
176
     1
 90
        1
176
     1
 90
        6
176
     1
 90
        2
176
     1
 62
     7
176
     1
 90
        5
176
     1
 90
        0
176
     1
 90
        0
176
     1
290
     0
176
     1
 90
        1
176
     1
 40
0.0
176
     1
 90
        0
176
     1
290
     0
176
     1
290
     1
176
     1
290
     1
176
     1
290
     0
176
     1
290
     0
176
     1
290
     0
176
     1
290
     0
176
     1
290
     0
176
     1
290
     0
176
     1
 90
       50
176
     1
 40
0.0
176
     1
 40
1.0
176
     1
 90
        0
176
     1
 62
    18
420
        0
176
     1
 90
       50
176
     1
 90
        3
176
     1
 62
     5
420
      255
176
     1
290
     0
176
     1
 90
       50
176
     1
 90
       50
176
     1
 90
       50
176
     1
290
     0
176
     1
 90
       50
176
     1
 62
   256
176
     0
 40
1.0
176
     0
 90
        2
176
     1
  1
strokes_ogs.tif
176
     1
290
     0
176
     1
 40
1.0
176
     1
 40
1.0
176
     1
  0
VISUALSTYLE
  5
DD96
102
{ACAD_REACTORS
330
DD8A
102
}
330
DD8A
100
AcDbVisualStyle
  2
Brighten
 70
    12
177
     3
291
     1
 70
    58
 90
        2
176
     1
 90
        2
176
     1
 90
        0
176
     1
 90
        0
176
     1
 40
0.6
176
     1
 40
30.0
176
     1
 62
     7
420
 16777215
176
     1
 90
        1
176
     1
 90
        4
176
     1
 62
     7
176
     1
 62
   257
176
     1
 90
        1
176
     1
 90
        1
176
     1
 40
1.0
176
     1
 90
        8
176
     1
 62
     7
176
     1
 40
1.0
176
     1
 90
        1
176
     1
 90
        6
176
     1
 90
        2
176
     1
 62
     7
176
     1
 90
        5
176
     1
 90
        0
176
     1
 90
        0
176
     1
290
     0
176
     1
 90
        1
176
     1
 40
50.0
176
     1
 90
        0
176
     1
290
     0
176
     1
290
     1
176
     1
290
     1
176
     1
290
     0
176
     1
290
     0
176
     1
290
     0
176
     1
290
     0
176
     1
290
     0
176
     1
290
     0
176
     1
 90
       50
176
     1
 40
0.0
176
     1
 40
1.0
176
     1
 90
        0
176
     1
 62
    18
420
        0
176
     1
 90
       50
176
     1
 90
        3
176
     1
 62
     5
420
      255
176
     1
290
     0
176
     1
 90
       50
176
     1
 90
       50
176
     1
 90
       50
176
     1
290
     0
176
     1
 90
       50
176
     1
 62
   256
176
     0
 40
1.0
176
     0
 90
        2
176
     1
  1
strokes_ogs.tif
176
     1
290
     0
176
     1
 40
1.0
176
     1
 40
1.0
176
     1
  0
VISUALSTYLE
  5
DD9A
102
{ACAD_REACTORS
330
DD8A
102
}
330
DD8A
100
AcDbVisualStyle
  2
ColorChange
 70
    16
177
     3
291
     1
 70
    58
 90
        2
176
     1
 90
        2
176
     1
 90
        3
176
     1
 90
        0
176
     1
 40
0.6
176
     1
 40
30.0
176
     1
 62
     8
420
  8421504
176
     1
 90
        1
176
     1
 90
        4
176
     1
 62
     7
176
     1
 62
   257
176
     1
 90
        1
176
     1
 90
        1
176
     1
 40
1.0
176
     1
 90
        8
176
     1
 62
     8
420
  8421504
176
     1
 40
1.0
176
     1
 90
        1
176
     1
 90
        6
176
     1
 90
        2
176
     1
 62
     7
176
     1
 90
        5
176
     1
 90
        0
176
     1
 90
        0
176
     1
290
     0
176
     1
 90
        1
176
     1
 40
0.0
176
     1
 90
        0
176
     1
290
     0
176
     1
290
     1
176
     1
290
     1
176
     1
290
     0
176
     1
290
     0
176
     1
290
     0
176
     1
290
     0
176
     1
290
     0
176
     1
290
     0
176
     1
 90
       50
176
     1
 40
0.0
176
     1
 40
1.0
176
     1
 90
        0
176
     1
 62
    18
420
        0
176
     1
 90
       50
176
     1
 90
        3
176
     1
 62
     5
420
      255
176
     1
290
     0
176
     1
 90
       50
176
     1
 90
       50
176
     1
 90
       50
176
     1
290
     0
176
     1
 90
       50
176
     1
 62
   256
176
     0
 40
1.0
176
     0
 90
        2
176
     1
  1
strokes_ogs.tif
176
     1
290
     0
176
     1
 40
1.0
176
     1
 40
1.0
176
     1
  0
VISUALSTYLE
  5
DD93
102
{ACAD_REACTORS
330
DD8A
102
}
330
DD8A
100
AcDbVisualStyle
  2
Conceptual
 70
     9
177
     3
291
     0
 70
    58
 90
        3
176
     1
 90
        2
176
     1
 90
        0
176
     1
 90
        0
176
     1
 40
0.6
176
     1
 40
30.0
176
     1
 62
     7
420
 16777215
176
     1
 90
        2
176
     1
 90
        2
176
     1
 62
     7
176
     1
 62
   257
176
     1
 90
        1
176
     1
 90
        1
176
     1
 40
179.0
176
     1
 90
        8
176
     1
 62
     7
176
     1
 40
1.0
176
     1
 90
        1
176
     1
 90
        6
176
     1
 90
        2
176
     1
 62
     7
176
     1
 90
        3
176
     1
 90
        0
176
     1
 90
        0
176
     1
290
     0
176
     1
 90
        1
176
     1
 40
0.0
176
     1
 90
        0
176
     1
290
     0
176
     1
290
     1
176
     1
290
     1
176
     1
290
     0
176
     1
290
     0
176
     1
290
     0
176
     1
290
     0
176
     1
290
     0
176
     1
290
     0
176
     1
 90
       50
176
     1
 40
0.0
176
     1
 40
1.0
176
     1
 90
        0
176
     1
 62
    18
420
        0
176
     1
 90
       50
176
     1
 90
        3
176
     1
 62
     5
420
      255
176
     1
290
     0
176
     1
 90
       50
176
     1
 90
       50
176
     1
 90
       50
176
     1
290
     0
176
     1
 90
       50
176
     1
 62
   256
176
     0
 40
1.0
176
     0
 90
        2
176
     1
  1
strokes_ogs.tif
176
     1
290
     0
176
     1
 40
1.0
176
     1
 40
1.0
176
     1
  0
VISUALSTYLE
  5
DD95
102
{ACAD_REACTORS
330
DD8A
102
}
330
DD8A
100
AcDbVisualStyle
  2
Dim
 70
    11
177
     3
291
     1
 70
    58
 90
        2
176
     1
 90
        2
176
     1
 90
        0
176
     1
 90
        0
176
     1
 40
0.6
176
     1
 40
30.0
176
     1
 62
     7
420
 16777215
176
     1
 90
        1
176
     1
 90
        4
176
     1
 62
     7
176
     1
 62
   257
176
     1
 90
        1
176
     1
 90
        1
176
     1
 40
1.0
176
     1
 90
        8
176
     1
 62
     7
176
     1
 40
1.0
176
     1
 90
        1
176
     1
 90
        6
176
     1
 90
        2
176
     1
 62
     7
176
     1
 90
        5
176
     1
 90
        0
176
     1
 90
        0
176
     1
290
     0
176
     1
 90
        1
176
     1
 40
-50.0
176
     1
 90
        0
176
     1
290
     0
176
     1
290
     1
176
     1
290
     1
176
     1
290
     0
176
     1
290
     0
176
     1
290
     0
176
     1
290
     0
176
     1
290
     0
176
     1
290
     0
176
     1
 90
       50
176
     1
 40
0.0
176
     1
 40
1.0
176
     1
 90
        0
176
     1
 62
    18
420
        0
176
     1
 90
       50
176
     1
 90
        3
176
     1
 62
     5
420
      255
176
     1
290
     0
176
     1
 90
       50
176
     1
 90
       50
176
     1
 90
       50
176
     1
290
     0
176
     1
 90
       50
176
     1
 62
   256
176
     0
 40
1.0
176
     0
 90
        2
176
     1
  1
strokes_ogs.tif
176
     1
290
     0
176
     1
 40
1.0
176
     1
 40
1.0
176
     1
  0
VISUALSTYLE
  5
DDA2
102
{ACAD_REACTORS
330
DD8A
102
}
330
DD8A
100
AcDbVisualStyle
  2
EdgeColorOff
 70
    22
177
     3
291
     1
 70
    58
 90
        2
176
     0
 90
        2
176
     0
 90
        0
176
     0
 90
        0
176
     0
 40
0.6
176
     0
 40
30.0
176
     0
 62
     7
420
 16777215
176
     0
 90
        1
176
     0
 90
        4
176
     0
 62
     7
176
     0
 62
   257
176
     0
 90
        1
176
     0
 90
        1
176
     0
 40
1.0
176
     0
 90
        8
176
     2
 62
     7
176
     0
 40
1.0
176
     0
 90
        1
176
     0
 90
        6
176
     0
 90
        2
176
     0
 62
     7
176
     0
 90
        5
176
     0
 90
        0
176
     0
 90
        0
176
     0
290
     0
176
     0
 90
        1
176
     0
 40
0.0
176
     0
 90
        0
176
     0
290
     0
176
     1
290
     1
176
     1
290
     1
176
     1
290
     0
176
     1
290
     0
176
     1
290
     0
176
     1
290
     0
176
     1
290
     0
176
     1
290
     0
176
     1
 90
       50
176
     1
 40
0.0
176
     1
 40
1.0
176
     1
 90
        0
176
     1
 62
    18
420
        0
176
     1
 90
       50
176
     1
 90
        3
176
     1
 62
     5
420
      255
176
     1
290
     0
176
     1
 90
       50
176
     1
 90
       50
176
     1
 90
       50
176
     1
290
     0
176
     1
 90
       50
176
     1
 62
   256
176
     0
 40
1.0
176
     0
 90
        2
176
     1
  1
strokes_ogs.tif
176
     1
290
     0
176
     1
 40
1.0
176
     1
 40
1.0
176
     1
  0
VISUALSTYLE
  5
DD99
102
{ACAD_REACTORS
330
DD8A
102
}
330
DD8A
100
AcDbVisualStyle
  2
Facepattern
 70
    15
177
     3
291
     1
 70
    58
 90
        2
176
     1
 90
        2
176
     1
 90
        0
176
     1
 90
        0
176
     1
 40
0.6
176
     1
 40
30.0
176
     1
 62
     7
420
 16777215
176
     1
 90
        1
176
     1
 90
        4
176
     1
 62
     7
176
     1
 62
   257
176
     1
 90
        1
176
     1
 90
        1
176
     1
 40
1.0
176
     1
 90
        8
176
     1
 62
     7
176
     1
 40
1.0
176
     1
 90
        1
176
     1
 90
        6
176
     1
 90
        2
176
     1
 62
     7
176
     1
 90
        5
176
     1
 90
        0
176
     1
 90
        0
176
     1
290
     0
176
     1
 90
        1
176
     1
 40
0.0
176
     1
 90
        0
176
     1
290
     0
176
     1
290
     1
176
     1
290
     1
176
     1
290
     0
176
     1
290
     0
176
     1
290
     0
176
     1
290
     0
176
     1
290
     0
176
     1
290
     0
176
     1
 90
       50
176
     1
 40
0.0
176
     1
 40
1.0
176
     1
 90
        0
176
     1
 62
    18
420
        0
176
     1
 90
       50
176
     1
 90
        3
176
     1
 62
     5
420
      255
176
     1
290
     0
176
     1
 90
       50
176
     1
 90
       50
176
     1
 90
       50
176
     1
290
     0
176
     1
 90
       50
176
     1
 62
   256
176
     0
 40
1.0
176
     0
 90
        2
176
     1
  1
strokes_ogs.tif
176
     1
290
     0
176
     1
 40
1.0
176
     1
 40
1.0
176
     1
  0
VISUALSTYLE
  5
DD8B
102
{ACAD_REACTORS
330
DD8A
102
}
330
DD8A
100
AcDbVisualStyle
  2
Flat
 70
     0
177
     3
291
     1
 70
    58
 90
        2
176
     1
 90
        1
176
     1
 90
        1
176
     1
 90
        2
176
     1
 40
0.6
176
     1
 40
30.0
176
     1
 62
     7
420
 16777215
176
     1
 90
        0
176
     1
 90
        0
176
     1
 62
     7
176
     1
 62
   257
176
     1
 90
        1
176
     1
 90
        1
176
     1
 40
1.0
176
     1
 90
        8
176
     1
 62
     7
176
     1
 40
1.0
176
     1
 90
        1
176
     1
 90
        6
176
     1
 90
        2
176
     1
 62
     7
176
     1
 90
        5
176
     1
 90
        0
176
     1
 90
        0
176
     1
290
     0
176
     1
 90
       13
176
     1
 40
0.0
176
     1
 90
        0
176
     1
290
     0
176
     1
290
     1
176
     1
290
     1
176
     1
290
     0
176
     1
290
     0
176
     1
290
     0
176
     1
290
     0
176
     1
290
     0
176
     1
290
     0
176
     1
 90
       50
176
     1
 40
0.0
176
     1
 40
1.0
176
     1
 90
        0
176
     1
 62
    18
420
        0
176
     1
 90
       50
176
     1
 90
        3
176
     1
 62
     5
420
      255
176
     1
290
     0
176
     1
 90
       50
176
     1
 90
       50
176
     1
 90
       50
176
     1
290
     0
176
     1
 90
       50
176
     1
 62
   256
176
     0
 40
1.0
176
     0
 90
        2
176
     1
  1
strokes_ogs.tif
176
     1
290
     0
176
     1
 40
1.0
176
     1
 40
1.0
176
     1
  0
VISUALSTYLE
  5
DD8C
102
{ACAD_REACTORS
330
DD8A
102
}
330
DD8A
100
AcDbVisualStyle
  2
FlatWithEdges
 70
     1
177
     3
291
     1
 70
    58
 90
        2
176
     1
 90
        1
176
     1
 90
        1
176
     1
 90
        2
176
     1
 40
0.6
176
     1
 40
30.0
176
     1
 62
     7
420
 16777215
176
     1
 90
        1
176
     1
 90
        0
176
     1
 62
     7
176
     1
 62
   257
176
     1
 90
        1
176
     1
 90
        1
176
     1
 40
1.0
176
     1
 90
        0
176
     1
 62
   257
176
     1
 40
1.0
176
     1
 90
        1
176
     1
 90
        6
176
     1
 90
        2
176
     1
 62
     7
176
     1
 90
        5
176
     1
 90
        0
176
     1
 90
        0
176
     1
290
     0
176
     1
 90
       13
176
     1
 40
0.0
176
     1
 90
        0
176
     1
290
     0
176
     1
290
     1
176
     1
290
     1
176
     1
290
     0
176
     1
290
     0
176
     1
290
     0
176
     1
290
     0
176
     1
290
     0
176
     1
290
     0
176
     1
 90
       50
176
     1
 40
0.0
176
     1
 40
1.0
176
     1
 90
        0
176
     1
 62
    18
420
        0
176
     1
 90
       50
176
     1
 90
        3
176
     1
 62
     5
420
      255
176
     1
290
     0
176
     1
 90
       50
176
     1
 90
       50
176
     1
 90
       50
176
     1
290
     0
176
     1
 90
       50
176
     1
 62
   256
176
     0
 40
1.0
176
     0
 90
        2
176
     1
  1
strokes_ogs.tif
176
     1
290
     0
176
     1
 40
1.0
176
     1
 40
1.0
176
     1
  0
VISUALSTYLE
  5
DD8D
102
{ACAD_REACTORS
330
DD8A
102
}
330
DD8A
100
AcDbVisualStyle
  2
Gouraud
 70
     2
177
     3
291
     1
 70
    58
 90
        2
176
     1
 90
        2
176
     1
 90
        1
176
     1
 90
        2
176
     1
 40
0.6
176
     1
 40
30.0
176
     1
 62
     7
420
 16777215
176
     1
 90
        0
176
     1
 90
        0
176
     1
 62
     7
176
     1
 62
   257
176
     1
 90
        1
176
     1
 90
        1
176
     1
 40
1.0
176
     1
 90
        0
176
     1
 62
     7
176
     1
 40
1.0
176
     1
 90
        1
176
     1
 90
        6
176
     1
 90
        2
176
     1
 62
     7
176
     1
 90
        5
176
     1
 90
        0
176
     1
 90
        0
176
     1
290
     0
176
     1
 90
       13
176
     1
 40
0.0
176
     1
 90
        0
176
     1
290
     0
176
     1
290
     1
176
     1
290
     1
176
     1
290
     0
176
     1
290
     0
176
     1
290
     0
176
     1
290
     0
176
     1
290
     0
176
     1
290
     0
176
     1
 90
       50
176
     1
 40
0.0
176
     1
 40
1.0
176
     1
 90
        0
176
     1
 62
    18
420
        0
176
     1
 90
       50
176
     1
 90
        3
176
     1
 62
     5
420
      255
176
     1
290
     0
176
     1
 90
       50
176
     1
 90
       50
176
     1
 90
       50
176
     1
290
     0
176
     1
 90
       50
176
     1
 62
   256
176
     0
 40
1.0
176
     0
 90
        2
176
     1
  1
strokes_ogs.tif
176
     1
290
     0
176
     1
 40
1.0
176
     1
 40
1.0
176
     1
  0
VISUALSTYLE
  5
DD8E
102
{ACAD_REACTORS
330
DD8A
102
}
330
DD8A
100
AcDbVisualStyle
  2
GouraudWithEdges
 70
     3
177
     3
291
     1
 70
    58
 90
        2
176
     1
 90
        2
176
     1
 90
        1
176
     1
 90
        2
176
     1
 40
0.6
176
     1
 40
30.0
176
     1
 62
     7
420
 16777215
176
     1
 90
        1
176
     1
 90
        0
176
     1
 62
     7
176
     1
 62
   257
176
     1
 90
        1
176
     1
 90
        1
176
     1
 40
1.0
176
     1
 90
        0
176
     1
 62
   257
176
     1
 40
1.0
176
     1
 90
        1
176
     1
 90
        6
176
     1
 90
        2
176
     1
 62
     7
176
     1
 90
        5
176
     1
 90
        0
176
     1
 90
        0
176
     1
290
     0
176
     1
 90
       13
176
     1
 40
0.0
176
     1
 90
        0
176
     1
290
     0
176
     1
290
     1
176
     1
290
     1
176
     1
290
     0
176
     1
290
     0
176
     1
290
     0
176
     1
290
     0
176
     1
290
     0
176
     1
290
     0
176
     1
 90
       50
176
     1
 40
0.0
176
     1
 40
1.0
176
     1
 90
        0
176
     1
 62
    18
420
        0
176
     1
 90
       50
176
     1
 90
        3
176
     1
 62
     5
420
      255
176
     1
290
     0
176
     1
 90
       50
176
     1
 90
       50
176
     1
 90
       50
176
     1
290
     0
176
     1
 90
       50
176
     1
 62
   256
176
     0
 40
1.0
176
     0
 90
        2
176
     1
  1
strokes_ogs.tif
176
     1
290
     0
176
     1
 40
1.0
176
     1
 40
1.0
176
     1
  0
VISUALSTYLE
  5
DD92
102
{ACAD_REACTORS
330
DD8A
102
}
330
DD8A
100
AcDbVisualStyle
  2
Hidden
 70
     6
177
     3
291
     0
 70
    58
 90
        1
176
     1
 90
        2
176
     1
 90
        2
176
     1
 90
        0
176
     1
 40
0.6
176
     1
 40
30.0
176
     1
 62
     7
420
 16777215
176
     1
 90
        2
176
     1
 90
        2
176
     1
 62
     7
176
     1
 62
   257
176
     1
 90
        2
176
     1
 90
        1
176
     1
 40
40.0
176
     1
 90
        0
176
     1
 62
   257
176
     1
 40
1.0
176
     1
 90
        1
176
     1
 90
        6
176
     1
 90
        2
176
     1
 62
     7
176
     1
 90
        3
176
     1
 90
        0
176
     1
 90
        0
176
     1
290
     0
176
     1
 90
        1
176
     1
 40
0.0
176
     1
 90
        0
176
     1
290
     0
176
     1
290
     1
176
     1
290
     1
176
     1
290
     0
176
     1
290
     0
176
     1
290
     0
176
     1
290
     0
176
     1
290
     0
176
     1
290
     0
176
     1
 90
       50
176
     1
 40
0.0
176
     1
 40
1.0
176
     1
 90
        0
176
     1
 62
    18
420
        0
176
     1
 90
       50
176
     1
 90
        3
176
     1
 62
     5
420
      255
176
     1
290
     0
176
     1
 90
       50
176
     1
 90
       50
176
     1
 90
       50
176
     1
290
     0
176
     1
 90
       50
176
     1
 62
   256
176
     0
 40
1.0
176
     0
 90
        2
176
     1
  1
strokes_ogs.tif
176
     1
290
     0
176
     1
 40
1.0
176
     1
 40
1.0
176
     1
  0
VISUALSTYLE
  5
DDA0
102
{ACAD_REACTORS
330
DD8A
102
}
330
DD8A
100
AcDbVisualStyle
  2
JitterOff
 70
    20
177
     3
291
     1
 70
    58
 90
        2
176
     0
 90
        2
176
     0
 90
        0
176
     0
 90
        0
176
     0
 40
0.6
176
     0
 40
30.0
176
     0
 62
     7
420
 16777215
176
     0
 90
        1
176
     0
 90
        4
176
     0
 62
     7
176
     0
 62
   257
176
     0
 90
        1
176
     0
 90
        1
176
     0
 40
1.0
176
     0
 90
       10
176
     2
 62
     7
176
     0
 40
1.0
176
     0
 90
        1
176
     0
 90
        6
176
     0
 90
        2
176
     0
 62
     7
176
     0
 90
        5
176
     0
 90
        0
176
     0
 90
        0
176
     0
290
     0
176
     0
 90
        1
176
     0
 40
0.0
176
     0
 90
        0
176
     0
290
     0
176
     1
290
     1
176
     1
290
     1
176
     1
290
     0
176
     1
290
     0
176
     1
290
     0
176
     1
290
     0
176
     1
290
     0
176
     1
290
     0
176
     1
 90
       50
176
     1
 40
0.0
176
     1
 40
1.0
176
     1
 90
        0
176
     1
 62
    18
420
        0
176
     1
 90
       50
176
     1
 90
        3
176
     1
 62
     5
420
      255
176
     1
290
     0
176
     1
 90
       50
176
     1
 90
       50
176
     1
 90
       50
176
     1
290
     0
176
     1
 90
       50
176
     1
 62
   256
176
     0
 40
1.0
176
     0
 90
        2
176
     1
  1
strokes_ogs.tif
176
     1
290
     0
176
     1
 40
1.0
176
     1
 40
1.0
176
     1
  0
VISUALSTYLE
  5
DD98
102
{ACAD_REACTORS
330
DD8A
102
}
330
DD8A
100
AcDbVisualStyle
  2
Linepattern
 70
    14
177
     3
291
     1
 70
    58
 90
        2
176
     1
 90
        2
176
     1
 90
        0
176
     1
 90
        0
176
     1
 40
0.6
176
     1
 40
30.0
176
     1
 62
     7
420
 16777215
176
     1
 90
        1
176
     1
 90
        4
176
     1
 62
     7
176
     1
 62
   257
176
     1
 90
        7
176
     1
 90
        7
176
     1
 40
1.0
176
     1
 90
        8
176
     1
 62
     7
176
     1
 40
1.0
176
     1
 90
        1
176
     1
 90
        6
176
     1
 90
        2
176
     1
 62
     7
176
     1
 90
        5
176
     1
 90
        0
176
     1
 90
        0
176
     1
290
     0
176
     1
 90
        1
176
     1
 40
0.0
176
     1
 90
        0
176
     1
290
     0
176
     1
290
     1
176
     1
290
     1
176
     1
290
     0
176
     1
290
     0
176
     1
290
     0
176
     1
290
     0
176
     1
290
     0
176
     1
290
     0
176
     1
 90
       50
176
     1
 40
0.0
176
     1
 40
1.0
176
     1
 90
        0
176
     1
 62
    18
420
        0
176
     1
 90
       50
176
     1
 90
        3
176
     1
 62
     5
420
      255
176
     1
290
     0
176
     1
 90
       50
176
     1
 90
       50
176
     1
 90
       50
176
     1
290
     0
176
     1
 90
       50
176
     1
 62
   256
176
     0
 40
1.0
176
     0
 90
        2
176
     1
  1
strokes_ogs.tif
176
     1
290
     0
176
     1
 40
1.0
176
     1
 40
1.0
176
     1
  0
VISUALSTYLE
  5
DDA1
102
{ACAD_REACTORS
330
DD8A
102
}
330
DD8A
100
AcDbVisualStyle
  2
OverhangOff
 70
    21
177
     3
291
     1
 70
    58
 90
        2
176
     0
 90
        2
176
     0
 90
        0
176
     0
 90
        0
176
     0
 40
0.6
176
     0
 40
30.0
176
     0
 62
     7
420
 16777215
176
     0
 90
        1
176
     0
 90
        4
176
     0
 62
     7
176
     0
 62
   257
176
     0
 90
        1
176
     0
 90
        1
176
     0
 40
1.0
176
     0
 90
        9
176
     2
 62
     7
176
     0
 40
1.0
176
     0
 90
        1
176
     0
 90
        6
176
     0
 90
        2
176
     0
 62
     7
176
     0
 90
        5
176
     0
 90
        0
176
     0
 90
        0
176
     0
290
     0
176
     0
 90
        1
176
     0
 40
0.0
176
     0
 90
        0
176
     0
290
     0
176
     1
290
     1
176
     1
290
     1
176
     1
290
     0
176
     1
290
     0
176
     1
290
     0
176
     1
290
     0
176
     1
290
     0
176
     1
290
     0
176
     1
 90
       50
176
     1
 40
0.0
176
     1
 40
1.0
176
     1
 90
        0
176
     1
 62
    18
420
        0
176
     1
 90
       50
176
     1
 90
        3
176
     1
 62
     5
420
      255
176
     1
290
     0
176
     1
 90
       50
176
     1
 90
       50
176
     1
 90
       50
176
     1
290
     0
176
     1
 90
       50
176
     1
 62
   256
176
     0
 40
1.0
176
     0
 90
        2
176
     1
  1
strokes_ogs.tif
176
     1
290
     0
176
     1
 40
1.0
176
     1
 40
1.0
176
     1
  0
VISUALSTYLE
  5
DD94
102
{ACAD_REACTORS
330
DD8A
102
}
330
DD8A
100
AcDbVisualStyle
  2
Realistic
 70
     8
177
     3
291
     0
 70
    58
 90
        2
176
     1
 90
        3
176
     1
 90
        0
176
     1
 90
        2
176
     1
 40
0.6
176
     1
 40
30.0
176
     1
 62
     7
420
 16777215
176
     1
 90
        0
176
     1
 90
        0
176
     1
 62
     7
176
     1
 62
   257
176
     1
 90
        1
176
     1
 90
        1
176
     1
 40
1.0
176
     1
 90
        8
176
     1
 62
   257
176
     1
 40
1.0
176
     1
 90
        1
176
     1
 90
        6
176
     1
 90
        2
176
     1
 62
     7
176
     1
 90
        3
176
     1
 90
        0
176
     1
 90
        0
176
     1
290
     0
176
     1
 90
       13
176
     1
 40
0.0
176
     1
 90
        0
176
     1
290
     0
176
     1
290
     1
176
     1
290
     1
176
     1
290
     0
176
     1
290
     0
176
     1
290
     0
176
     1
290
     0
176
     1
290
     0
176
     1
290
     0
176
     1
 90
       50
176
     1
 40
0.0
176
     1
 40
1.0
176
     1
 90
        0
176
     1
 62
    18
420
        0
176
     1
 90
       50
176
     1
 90
        3
176
     1
 62
     5
420
      255
176
     1
290
     0
176
     1
 90
       50
176
     1
 90
       50
176
     1
 90
       50
176
     1
290
     0
176
     1
 90
       50
176
     1
 62
   256
176
     0
 40
1.0
176
     0
 90
        2
176
     1
  1
strokes_ogs.tif
176
     1
290
     0
176
     1
 40
1.0
176
     1
 40
1.0
176
     1
  0
VISUALSTYLE
  5
DD9F
102
{ACAD_REACTORS
330
DD8A
102
}
330
DD8A
100
AcDbVisualStyle
  2
Shaded
 70
    27
177
     3
291
     0
 70
    58
 90
        2
176
     1
 90
        2
176
     1
 90
        1
176
     1
 90
        2
176
     1
 40
0.6
176
     1
 40
30.0
176
     1
 62
     7
420
 16777215
176
     1
 90
        0
176
     1
 90
        4
176
     1
 62
     7
176
     1
 62
   257
176
     1
 90
        1
176
     1
 90
        1
176
     1
 40
1.0
176
     1
 90
        8
176
     1
 62
   257
176
     1
 40
1.0
176
     1
 90
        1
176
     1
 90
        6
176
     1
 90
        2
176
     1
 62
     8
420
  7895160
176
     1
 90
        3
176
     1
 90
        0
176
     1
 90
        0
176
     1
290
     0
176
     1
 90
        5
176
     1
 40
0.0
176
     1
 90
        0
176
     1
290
     0
176
     1
290
     1
176
     1
290
     1
176
     1
290
     0
176
     1
290
     0
176
     1
290
     0
176
     1
290
     0
176
     1
290
     0
176
     1
290
     0
176
     1
 90
       50
176
     1
 40
0.0
176
     1
 40
1.0
176
     1
 90
        0
176
     1
 62
    18
420
        0
176
     1
 90
       50
176
     1
 90
        3
176
     1
 62
     5
420
      255
176
     1
290
     0
176
     1
 90
       50
176
     1
 90
       50
176
     1
 90
       50
176
     1
290
     0
176
     1
 90
       50
176
     1
 62
   256
176
     0
 40
1.0
176
     0
 90
        2
176
     1
  1
strokes_ogs.tif
176
     1
290
     0
176
     1
 40
1.0
176
     1
 40
1.0
176
     1
  0
VISUALSTYLE
  5
DD9E
102
{ACAD_REACTORS
330
DD8A
102
}
330
DD8A
100
AcDbVisualStyle
  2
Shaded with edges
 70
    26
177
     3
291
     0
 70
    58
 90
        2
176
     1
 90
        2
176
     1
 90
        1
176
     1
 90
        2
176
     1
 40
0.6
176
     1
 40
30.0
176
     1
 62
     7
420
 16777215
176
     1
 90
        1
176
     1
 90
        2
176
     1
 62
     7
176
     1
 62
   257
176
     1
 90
        2
176
     1
 90
        1
176
     1
 40
1.0
176
     1
 90
        8
176
     1
 62
   257
176
     1
 40
1.0
176
     1
 90
        1
176
     1
 90
        6
176
     1
 90
        2
176
     1
 62
     7
176
     1
 90
        3
176
     1
 90
        0
176
     1
 90
        0
176
     1
290
     0
176
     1
 90
        5
176
     1
 40
0.0
176
     1
 90
        0
176
     1
290
     0
176
     1
290
     1
176
     1
290
     1
176
     1
290
     0
176
     1
290
     0
176
     1
290
     0
176
     1
290
     0
176
     1
290
     0
176
     1
290
     0
176
     1
 90
       50
176
     1
 40
0.0
176
     1
 40
1.0
176
     1
 90
        0
176
     1
 62
    18
420
        0
176
     1
 90
       50
176
     1
 90
        3
176
     1
 62
     5
420
      255
176
     1
290
     0
176
     1
 90
       50
176
     1
 90
       50
176
     1
 90
       50
176
     1
290
     0
176
     1
 90
       50
176
     1
 62
   256
176
     0
 40
1.0
176
     0
 90
        2
176
     1
  1
strokes_ogs.tif
176
     1
290
     0
176
     1
 40
1.0
176
     1
 40
1.0
176
     1
  0
VISUALSTYLE
  5
DD9B
102
{ACAD_REACTORS
330
DD8A
102
}
330
DD8A
100
AcDbVisualStyle
  2
Shades of Gray
 70
    23
177
     3
291
     0
 70
    58
 90
        2
176
     1
 90
        2
176
     1
 90
        3
176
     1
 90
        0
176
     1
 40
0.6
176
     1
 40
30.0
176
     1
 62
     7
420
 16777215
176
     1
 90
        2
176
     1
 90
        2
176
     1
 62
     7
176
     1
 62
     7
176
     1
 90
        1
176
     1
 90
        1
176
     1
 40
40.0
176
     1
 90
        8
176
     1
 62
     7
176
     1
 40
1.0
176
     1
 90
        1
176
     1
 90
        6
176
     1
 90
        2
176
     1
 62
     7
176
     1
 90
        3
176
     1
 90
        0
176
     1
 90
        0
176
     1
290
     0
176
     1
 90
        1
176
     1
 40
0.0
176
     1
 90
        0
176
     1
290
     0
176
     1
290
     1
176
     1
290
     1
176
     1
290
     0
176
     1
290
     0
176
     1
290
     0
176
     1
290
     0
176
     1
290
     0
176
     1
290
     0
176
     1
 90
       50
176
     1
 40
0.0
176
     1
 40
1.0
176
     1
 90
        0
176
     1
 62
    18
420
        0
176
     1
 90
       50
176
     1
 90
        3
176
     1
 62
     5
420
      255
176
     1
290
     0
176
     1
 90
       50
176
     1
 90
       50
176
     1
 90
       50
176
     1
290
     0
176
     1
 90
       50
176
     1
 62
   256
176
     0
 40
1.0
176
     0
 90
        2
176
     1
  1
strokes_ogs.tif
176
     1
290
     0
176
     1
 40
1.0
176
     1
 40
1.0
176
     1
  0
VISUALSTYLE
  5
DD9C
102
{ACAD_REACTORS
330
DD8A
102
}
330
DD8A
100
AcDbVisualStyle
  2
Sketchy
 70
    24
177
     3
291
     0
 70
    58
 90
        1
176
     1
 90
        2
176
     1
 90
        2
176
     1
 90
        0
176
     1
 40
0.6
176
     1
 40
30.0
176
     1
 62
     7
420
 16777215
176
     1
 90
        2
176
     1
 90
        2
176
     1
 62
     7
176
     1
 62
     7
176
     1
 90
        1
176
     1
 90
        1
176
     1
 40
40.0
176
     1
 90
       11
176
     1
 62
     7
176
     1
 40
1.0
176
     1
 90
        1
176
     1
 90
        6
176
     1
 90
        2
176
     1
 62
     7
176
     1
 90
        6
176
     1
 90
        0
176
     1
 90
        0
176
     1
290
     0
176
     1
 90
        1
176
     1
 40
0.0
176
     1
 90
        0
176
     1
290
     0
176
     1
290
     1
176
     1
290
     1
176
     1
290
     0
176
     1
290
     0
176
     1
290
     0
176
     1
290
     0
176
     1
290
     0
176
     1
290
     0
176
     1
 90
       50
176
     1
 40
0.0
176
     1
 40
1.0
176
     1
 90
        0
176
     1
 62
    18
420
        0
176
     1
 90
       50
176
     1
 90
        3
176
     1
 62
     5
420
      255
176
     1
290
     0
176
     1
 90
       50
176
     1
 90
       50
176
     1
 90
       50
176
     1
290
     0
176
     1
 90
       50
176
     1
 62
   256
176
     0
 40
1.0
176
     0
 90
        2
176
     1
  1
strokes_ogs.tif
176
     1
290
     0
176
     1
 40
1.0
176
     1
 40
1.0
176
     1
  0
VISUALSTYLE
  5
DD97
102
{ACAD_REACTORS
330
DD8A
102
}
330
DD8A
100
AcDbVisualStyle
  2
Thicken
 70
    13
177
     3
291
     1
 70
    58
 90
        2
176
     1
 90
        2
176
     1
 90
        0
176
     1
 90
        0
176
     1
 40
0.6
176
     1
 40
30.0
176
     1
 62
     7
420
 16777215
176
     1
 90
        1
176
     1
 90
        4
176
     1
 62
     7
176
     1
 62
   257
176
     1
 90
        1
176
     1
 90
        1
176
     1
 40
1.0
176
     1
 90
       12
176
     1
 62
     7
176
     1
 40
1.0
176
     1
 90
        1
176
     1
 90
        6
176
     1
 90
        2
176
     1
 62
     7
176
     1
 90
        5
176
     1
 90
        0
176
     1
 90
        0
176
     1
290
     0
176
     1
 90
        1
176
     1
 40
0.0
176
     1
 90
        0
176
     1
290
     0
176
     1
290
     1
176
     1
290
     1
176
     1
290
     0
176
     1
290
     0
176
     1
290
     0
176
     1
290
     0
176
     1
290
     0
176
     1
290
     0
176
     1
 90
       50
176
     1
 40
0.0
176
     1
 40
1.0
176
     1
 90
        0
176
     1
 62
    18
420
        0
176
     1
 90
       50
176
     1
 90
        3
176
     1
 62
     5
420
      255
176
     1
290
     0
176
     1
 90
       50
176
     1
 90
       50
176
     1
 90
       50
176
     1
290
     0
176
     1
 90
       50
176
     1
 62
   256
176
     0
 40
1.0
176
     0
 90
        2
176
     1
  1
strokes_ogs.tif
176
     1
290
     0
176
     1
 40
1.0
176
     1
 40
1.0
176
     1
  0
VISUALSTYLE
  5
DD91
102
{ACAD_REACTORS
330
DD8A
102
}
330
DD8A
100
AcDbVisualStyle
  2
Wireframe
 70
     5
177
     3
291
     0
 70
    58
 90
        0
176
     1
 90
        2
176
     1
 90
        0
176
     1
 90
        0
176
     1
 40
0.6
176
     1
 40
30.0
176
     1
 62
     7
420
 16777215
176
     1
 90
        1
176
     1
 90
        4
176
     1
 62
     7
176
     1
 62
   257
176
     1
 90
        1
176
     1
 90
        1
176
     1
 40
1.0
176
     1
 90
        0
176
     1
 62
   257
176
     1
 40
1.0
176
     1
 90
        1
176
     1
 90
        6
176
     1
 90
        2
176
     1
 62
     7
176
     1
 90
        3
176
     1
 90
        0
176
     1
 90
        0
176
     1
290
     0
176
     1
 90
        1
176
     1
 40
0.0
176
     1
 90
        0
176
     1
290
     0
176
     1
290
     1
176
     1
290
     1
176
     1
290
     0
176
     1
290
     0
176
     1
290
     0
176
     1
290
     0
176
     1
290
     0
176
     1
290
     0
176
     1
 90
       50
176
     1
 40
0.0
176
     1
 40
1.0
176
     1
 90
        0
176
     1
 62
    18
420
        0
176
     1
 90
       50
176
     1
 90
        3
176
     1
 62
     5
420
      255
176
     1
290
     0
176
     1
 90
       50
176
     1
 90
       50
176
     1
 90
       50
176
     1
290
     0
176
     1
 90
       50
176
     1
 62
   256
176
     0
 40
1.0
176
     0
 90
        2
176
     1
  1
strokes_ogs.tif
176
     1
290
     0
176
     1
 40
1.0
176
     1
 40
1.0
176
     1
  0
VISUALSTYLE
  5
DD9D
102
{ACAD_REACTORS
330
DD8A
102
}
330
DD8A
100
AcDbVisualStyle
  2
X-Ray
 70
    25
177
     3
291
     0
 70
    58
 90
        2
176
     1
 90
        2
176
     1
 90
        1
176
     1
 90
        1
176
     1
 40
0.5
176
     1
 40
30.0
176
     1
 62
     7
420
 16777215
176
     1
 90
        1
176
     1
 90
        0
176
     1
 62
     7
176
     1
 62
   257
176
     1
 90
        1
176
     1
 90
        1
176
     1
 40
1.0
176
     1
 90
        8
176
     1
 62
     7
176
     1
 40
1.0
176
     1
 90
        1
176
     1
 90
        6
176
     1
 90
        2
176
     1
 62
     7
176
     1
 90
        3
176
     1
 90
        0
176
     1
 90
        0
176
     1
290
     0
176
     1
 90
       13
176
     1
 40
0.0
176
     1
 90
        0
176
     1
290
     0
176
     1
290
     1
176
     1
290
     1
176
     1
290
     0
176
     1
290
     0
176
     1
290
     0
176
     1
290
     0
176
     1
290
     0
176
     1
290
     0
176
     1
 90
       50
176
     1
 40
0.0
176
     1
 40
1.0
176
     1
 90
        0
176
     1
 62
    18
420
        0
176
     1
 90
       50
176
     1
 90
        3
176
     1
 62
     5
420
      255
176
     1
290
     0
176
     1
 90
       50
176
     1
 90
       50
176
     1
 90
       50
176
     1
290
     0
176
     1
 90
       50
176
     1
 62
   256
176
     0
 40
1.0
176
     0
 90
        2
176
     1
  1
strokes_ogs.tif
176
     1
290
     0
176
     1
 40
1.0
176
     1
 40
1.0
176
     1
  0
DICTIONARYVAR
  5
F889
102
{ACAD_REACTORS
330
51
102
}
330
51
100
DictionaryVariables
280
     0
  1
1:1
  0
DICTIONARYVAR
  5
F887
102
{ACAD_REACTORS
330
51
102
}
330
51
100
DictionaryVariables
280
     0
  1
STANDARD
  0
DICTIONARYVAR
  5
F886
102
{ACAD_REACTORS
330
51
102
}
330
51
100
DictionaryVariables
280
     0
  1
STANDARD
  0
DICTIONARYVAR
  5
12FD8
102
{ACAD_REACTORS
330
51
102
}
330
51
100
DictionaryVariables
280
     0
  1
Metric50
  0
DICTIONARYVAR
  5
12FD9
102
{ACAD_REACTORS
330
51
102
}
330
51
100
DictionaryVariables
280
     0
  1
Metric50
  0
DICTIONARYVAR
  5
52
102
{ACAD_REACTORS
330
51
102
}
330
51
100
DictionaryVariables
280
     0
  1
0
  0
DICTIONARYVAR
  5
F88B
102
{ACAD_REACTORS
330
51
102
}
330
51
100
DictionaryVariables
280
     0
  1
1
  0
DICTIONARYVAR
  5
F88C
102
{ACAD_REACTORS
330
51
102
}
330
51
100
DictionaryVariables
280
     0
  1
15
  0
DICTIONARYVAR
  5
F88A
102
{ACAD_REACTORS
330
51
102
}
330
51
100
DictionaryVariables
280
     0
  1
0
  0
DICTIONARYVAR
  5
F888
102
{ACAD_REACTORS
330
51
102
}
330
51
100
DictionaryVariables
280
     0
  1
0
  0
DICTIONARYVAR
  5
D1FE
102
{ACAD_REACTORS
330
51
102
}
330
51
100
DictionaryVariables
280
     0
  1
96
  0
DICTIONARY
  5
F86A
330
DDBC
100
AcDbDictionary
280
     1
281
     1
  0
DICTIONARY
  5
DD7B
330
DD7A
100
AcDbDictionary
280
     1
281
     1
  3
BUMPTILE
360
DD7D
  3
DIFFUSETILE
360
DD7C
  3
OPACITYTILE
360
DD80
  3
REFLECTIONTILE
360
DD7F
  3
REFRACTIONTILE
360
DD81
  3
SPECULARTILE
360
DD7E
  0
DICTIONARY
  5
DD73
330
DD72
100
AcDbDictionary
280
     1
281
     1
  3
BUMPTILE
360
DD75
  3
DIFFUSETILE
360
DD74
  3
OPACITYTILE
360
DD78
  3
REFLECTIONTILE
360
DD77
  3
REFRACTIONTILE
360
DD79
  3
SPECULARTILE
360
DD76
  0
DICTIONARY
  5
DD83
330
DD82
100
AcDbDictionary
280
     1
281
     1
  3
BUMPTILE
360
DD85
  3
DIFFUSETILE
360
DD84
  3
OPACITYTILE
360
DD88
  3
REFLECTIONTILE
360
DD87
  3
REFRACTIONTILE
360
DD89
  3
SPECULARTILE
360
DD86
  0
DICTIONARY
  5
17F7E
330
DDA5
100
AcDbDictionary
280
     1
281
     1
  3
ACAD_ROUNDTRIP_2008_TABLESTYLE_CELLSTYLEMAP
360
17F7F
  0
XRECORD
  5
DD7D
102
{ACAD_REACTORS
330
DD7B
102
}
330
DD7B
100
AcDbXrecord
280
     1
270
     1
271
     1
  0
XRECORD
  5
DD7C
102
{ACAD_REACTORS
330
DD7B
102
}
330
DD7B
100
AcDbXrecord
280
     1
270
     1
271
     1
  0
XRECORD
  5
DD80
102
{ACAD_REACTORS
330
DD7B
102
}
330
DD7B
100
AcDbXrecord
280
     1
270
     1
271
     1
  0
XRECORD
  5
DD7F
102
{ACAD_REACTORS
330
DD7B
102
}
330
DD7B
100
AcDbXrecord
280
     1
270
     1
271
     1
  0
XRECORD
  5
DD81
102
{ACAD_REACTORS
330
DD7B
102
}
330
DD7B
100
AcDbXrecord
280
     1
270
     1
271
     1
  0
XRECORD
  5
DD7E
102
{ACAD_REACTORS
330
DD7B
102
}
330
DD7B
100
AcDbXrecord
280
     1
270
     1
271
     1
  0
XRECORD
  5
DD75
102
{ACAD_REACTORS
330
DD73
102
}
330
DD73
100
AcDbXrecord
280
     1
270
     1
271
     1
  0
XRECORD
  5
DD74
102
{ACAD_REACTORS
330
DD73
102
}
330
DD73
100
AcDbXrecord
280
     1
270
     1
271
     1
  0
XRECORD
  5
DD78
102
{ACAD_REACTORS
330
DD73
102
}
330
DD73
100
AcDbXrecord
280
     1
270
     1
271
     1
  0
XRECORD
  5
DD77
102
{ACAD_REACTORS
330
DD73
102
}
330
DD73
100
AcDbXrecord
280
     1
270
     1
271
     1
  0
XRECORD
  5
DD79
102
{ACAD_REACTORS
330
DD73
102
}
330
DD73
100
AcDbXrecord
280
     1
270
     1
271
     1
  0
XRECORD
  5
DD76
102
{ACAD_REACTORS
330
DD73
102
}
330
DD73
100
AcDbXrecord
280
     1
270
     1
271
     1
  0
XRECORD
  5
DD85
102
{ACAD_REACTORS
330
DD83
102
}
330
DD83
100
AcDbXrecord
280
     1
270
     1
271
     1
  0
XRECORD
  5
DD84
102
{ACAD_REACTORS
330
DD83
102
}
330
DD83
100
AcDbXrecord
280
     1
270
     1
271
     1
  0
XRECORD
  5
DD88
102
{ACAD_REACTORS
330
DD83
102
}
330
DD83
100
AcDbXrecord
280
     1
270
     1
271
     1
  0
XRECORD
  5
DD87
102
{ACAD_REACTORS
330
DD83
102
}
330
DD83
100
AcDbXrecord
280
     1
270
     1
271
     1
  0
XRECORD
  5
DD89
102
{ACAD_REACTORS
330
DD83
102
}
330
DD83
100
AcDbXrecord
280
     1
270
     1
271
     1
  0
XRECORD
  5
DD86
102
{ACAD_REACTORS
330
DD83
102
}
330
DD83
100
AcDbXrecord
280
     1
270
     1
271
     1
  0
CELLSTYLEMAP
  5
17F7F
102
{ACAD_REACTORS
330
17F7E
102
}
330
17F7E
100
AcDbCellStyleMap
 90
        3
300
CELLSTYLE
  1
TABLEFORMAT_BEGIN
 90
        5
170
     1
 91
        0
 92
    32768
 62
   257
 93
        1
300
CONTENTFORMAT
  1
CONTENTFORMAT_BEGIN
 90
        0
 91
        0
 92
      512
 93
        0
300

 40
0.0
140
1.0
 94
        5
 62
     0
340
F
144
6.0
309
CONTENTFORMAT_END
171
     1
301
MARGIN
  1
CELLMARGIN_BEGIN
 40
1.5
 40
1.5
 40
1.5
 40
1.5
 40
4.5
 40
4.5
309
CELLMARGIN_END
 94
        6
 95
        1
302
GRIDFORMAT
  1
GRIDFORMAT_BEGIN
 90
        0
 91
        1
 62
     0
 92
       -2
340
0
 93
        0
 40
1.125
309
GRIDFORMAT_END
 95
        2
302
GRIDFORMAT
  1
GRIDFORMAT_BEGIN
 90
        0
 91
        1
 62
     0
 92
       -2
340
0
 93
        0
 40
1.125
309
GRIDFORMAT_END
 95
        4
302
GRIDFORMAT
  1
GRIDFORMAT_BEGIN
 90
        0
 91
        1
 62
     0
 92
       -2
340
0
 93
        0
 40
1.125
309
GRIDFORMAT_END
 95
        8
302
GRIDFORMAT
  1
GRIDFORMAT_BEGIN
 90
        0
 91
        1
 62
     0
 92
       -2
340
0
 93
        0
 40
1.125
309
GRIDFORMAT_END
 95
       16
302
GRIDFORMAT
  1
GRIDFORMAT_BEGIN
 90
        0
 91
        1
 62
     0
 92
       -2
340
0
 93
        0
 40
1.125
309
GRIDFORMAT_END
 95
       32
302
GRIDFORMAT
  1
GRIDFORMAT_BEGIN
 90
        0
 91
        1
 62
     0
 92
       -2
340
0
 93
        0
 40
1.125
309
GRIDFORMAT_END
309
TABLEFORMAT_END
  1
CELLSTYLE_BEGIN
 90
        1
 91
        1
300
_TITLE
309
CELLSTYLE_END
300
CELLSTYLE
  1
TABLEFORMAT_BEGIN
 90
        5
170
     1
 91
        0
 92
        0
 62
   257
 93
        1
300
CONTENTFORMAT
  1
CONTENTFORMAT_BEGIN
 90
        0
 91
        0
 92
      512
 93
        0
300

 40
0.0
140
1.0
 94
        5
 62
     0
340
F
144
4.5
309
CONTENTFORMAT_END
171
     1
301
MARGIN
  1
CELLMARGIN_BEGIN
 40
1.5
 40
1.5
 40
1.5
 40
1.5
 40
4.5
 40
4.5
309
CELLMARGIN_END
 94
        6
 95
        1
302
GRIDFORMAT
  1
GRIDFORMAT_BEGIN
 90
        0
 91
        1
 62
     0
 92
       -2
340
0
 93
        0
 40
1.125
309
GRIDFORMAT_END
 95
        2
302
GRIDFORMAT
  1
GRIDFORMAT_BEGIN
 90
        0
 91
        1
 62
     0
 92
       -2
340
0
 93
        0
 40
1.125
309
GRIDFORMAT_END
 95
        4
302
GRIDFORMAT
  1
GRIDFORMAT_BEGIN
 90
        0
 91
        1
 62
     0
 92
       -2
340
0
 93
        0
 40
1.125
309
GRIDFORMAT_END
 95
        8
302
GRIDFORMAT
  1
GRIDFORMAT_BEGIN
 90
        0
 91
        1
 62
     0
 92
       -2
340
0
 93
        0
 40
1.125
309
GRIDFORMAT_END
 95
       16
302
GRIDFORMAT
  1
GRIDFORMAT_BEGIN
 90
        0
 91
        1
 62
     0
 92
       -2
340
0
 93
        0
 40
1.125
309
GRIDFORMAT_END
 95
       32
302
GRIDFORMAT
  1
GRIDFORMAT_BEGIN
 90
        0
 91
        1
 62
     0
 92
       -2
340
0
 93
        0
 40
1.125
309
GRIDFORMAT_END
309
TABLEFORMAT_END
  1
CELLSTYLE_BEGIN
 90
        2
 91
        1
300
_HEADER
309
CELLSTYLE_END
300
CELLSTYLE
  1
TABLEFORMAT_BEGIN
 90
        5
170
     1
 91
        0
 92
        0
 62
   257
 93
        1
300
CONTENTFORMAT
  1
CONTENTFORMAT_BEGIN
 90
        0
 91
        0
 92
      512
 93
        0
300

 40
0.0
140
1.0
 94
        2
 62
     0
340
F
144
4.5
309
CONTENTFORMAT_END
171
     1
301
MARGIN
  1
CELLMARGIN_BEGIN
 40
1.5
 40
1.5
 40
1.5
 40
1.5
 40
4.5
 40
4.5
309
CELLMARGIN_END
 94
        6
 95
        1
302
GRIDFORMAT
  1
GRIDFORMAT_BEGIN
 90
        0
 91
        1
 62
     0
 92
       -2
340
0
 93
        0
 40
1.125
309
GRIDFORMAT_END
 95
        2
302
GRIDFORMAT
  1
GRIDFORMAT_BEGIN
 90
        0
 91
        1
 62
     0
 92
       -2
340
0
 93
        0
 40
1.125
309
GRIDFORMAT_END
 95
        4
302
GRIDFORMAT
  1
GRIDFORMAT_BEGIN
 90
        0
 91
        1
 62
     0
 92
       -2
340
0
 93
        0
 40
1.125
309
GRIDFORMAT_END
 95
        8
302
GRIDFORMAT
  1
GRIDFORMAT_BEGIN
 90
        0
 91
        1
 62
     0
 92
       -2
340
0
 93
        0
 40
1.125
309
GRIDFORMAT_END
 95
       16
302
GRIDFORMAT
  1
GRIDFORMAT_BEGIN
 90
        0
 91
        1
 62
     0
 92
       -2
340
0
 93
        0
 40
1.125
309
GRIDFORMAT_END
 95
       32
302
GRIDFORMAT
  1
GRIDFORMAT_BEGIN
 90
        0
 91
        1
 62
     0
 92
       -2
340
0
 93
        0
 40
1.125
309
GRIDFORMAT_END
309
TABLEFORMAT_END
  1
CELLSTYLE_BEGIN
 90
        3
 91
        2
300
_DATA
309
CELLSTYLE_END
  0
ENDSEC
  0
SECTION
  2
ACDSDATA
 70
     2
 71
     8
  0
ACDSSCHEMA
 90
        0
  1
AcDb_Thumbnail_Schema
  2
AcDbDs::ID
280
    10
 91
        8
  2
Thumbnail_Data
280
    15
 91
        0
101
ACDSRECORD
 95
        0
 90
        1
  2
AcDbDs::TreatedAsObjectData
280
     1
291
     1
101
ACDSRECORD
 95
        0
 90
        2
  2
AcDbDs::Legacy
280
     1
291
     1
101
ACDSRECORD
  1
AcDbDs::ID
 90
        3
  2
AcDs:Indexable
280
     1
291
     1
101
ACDSRECORD
  1
AcDbDs::ID
 90
        4
  2
AcDbDs::HandleAttribute
280
     7
282
     1
  0
ACDSSCHEMA
 90
        1
  1
AcDbDs::TreatedAsObjectDataSchema
  2
AcDbDs::TreatedAsObjectData
280
     1
 91
        0
  0
ACDSSCHEMA
 90
        2
  1
AcDbDs::LegacySchema
  2
AcDbDs::Legacy
280
     1
 91
        0
  0
ACDSSCHEMA
 90
        3
  1
AcDbDs::IndexedPropertySchema
  2
AcDs:Indexable
280
     1
 91
        0
  0
ACDSSCHEMA
 90
        4
  1
AcDbDs::HandleAttributeSchema
  2
AcDbDs::HandleAttribute
280
     7
 91
        1
284
     1
  0
ACDSRECORD
 90
        0
  2
AcDbDs::ID
280
    10
320
DDBC
  2
Thumbnail_Data
280
    15
 94
     1208
310
89504E470D0A1A0A0000000D4948445200000100000000670803000000D82A6C0200000300504C5445000000FFFFFF0000000000000000000000000000000000000000000000000000000000330000660000990000CC0000FF0033000033330033660033990033CC0033FF0066000066330066660066990066CC0066FF0099
310
000099330099660099990099CC0099FF00CC0000CC3300CC6600CC9900CCCC00CCFF00FF0000FF3300FF6600FF9900FFCC00FFFF3300003300333300663300993300CC3300FF3333003333333333663333993333CC3333FF3366003366333366663366993366CC3366FF3399003399333399663399993399CC3399FF33CC00
310
33CC3333CC6633CC9933CCCC33CCFF33FF0033FF3333FF6633FF9933FFCC33FFFF6600006600336600666600996600CC6600FF6633006633336633666633996633CC6633FF6666006666336666666666996666CC6666FF6699006699336699666699996699CC6699FF66CC0066CC3366CC6666CC9966CCCC66CCFF66FF0066
310
FF3366FF6666FF9966FFCC66FFFF9900009900339900669900999900CC9900FF9933009933339933669933999933CC9933FF9966009966339966669966999966CC9966FF9999009999339999669999999999CC9999FF99CC0099CC3399CC6699CC9999CCCC99CCFF99FF0099FF3399FF6699FF9999FFCC99FFFFCC0000CC00
310
33CC0066CC0099CC00CCCC00FFCC3300CC3333CC3366CC3399CC33CCCC33FFCC6600CC6633CC6666CC6699CC66CCCC66FFCC9900CC9933CC9966CC9999CC99CCCC99FFCCCC00CCCC33CCCC66CCCC99CCCCCCCCCCFFCCFF00CCFF33CCFF66CCFF99CCFFCCCCFFFFFF0000FF0033FF0066FF0099FF00CCFF00FFFF3300FF3333
310
FF3366FF3399FF33CCFF33FFFF6600FF6633FF6666FF6699FF66CCFF66FFFF9900FF9933FF9966FF9999FF99CCFF99FFFFCC00FFCC33FFCC66FFCC99FFCCCCFFCCFFFFFF00FFFF33FFFF66FFFF99FFFFCCFFFFFF0000000D0D0D1A1A1A2828283535354343435050505D5D5D6B6B6B787878868686939393A1A1A1AEAEAEBB
310
BBBBC9C9C9D6D6D6E4E4E4F1F1F1FFFFFF0000000000000000000000000000000000000000000000000000000000003AE5ACE9000000ED4944415478DAEDDB4B0E823014405196F3F6BF427540A4584A0725F1B5E78C143FA1D75294C46D030000000000068887E40990EA6D0578644FDFF3759FB5316ACF73CD80CFB0071F
310
BDC902EC231FB77A5903041040000104104000010410204B809B6B1AB5AD8D57640CD0FE10E3776BF43C367580E5678000E590D79C01D53B66C07C01A21E60AB3E276D80723DAB0F75E645F098A0BC407E71B31873FE00A77D8E9E00531D0202AC1EA0711630037A02E45F04CF3F757BCE02DF9341CC10E0F2AC7EBB7582EF
310
01CB5F111240000104104000010410400001041040808502ACFE8F1100000000000080BFF10295E862998D5462760000000049454E44AE426082B95FC315606F2E84AD00E7DB511A06F0B657C20294D6796B4D00F7EB7112003900FC73010020C334F80040F3E12501CE7BAD17D5A137457B005AB6FADFF65E60EAA7F17A1C
310
00000000000000000000000000000000000000000000000000000000000080E72E99FD172509218410F2CA7C00B890AA79805D53680000000049454E44AE426082
  0
ENDSEC
  0
EOF
