  0
SECTION
  2
HEADER
  9
$ACADVER
  1
AC1032
  9
$ACADMAINTVER
 90
      174
  9
$DWGCODEPAGE
  3
ANSI_932
  9
$LASTSAVEDBY
  1
satoshi.ogura
  9
$REQUIREDVERSIONS
160
                 0
  9
$INSBASE
 10
268.4340021441085
 20
176.78614296069
 30
0.0
  9
$EXTMIN
 10
599.0543590121909
 20
-133.8405431308306
 30
0.0
  9
$EXTMAX
 10
1964.615157808136
 20
429.4299706607874
 30
0.0
  9
$LIMMIN
 10
0.0
 20
0.0
  9
$LIMMAX
 10
554.0
 20
395.0
  9
$ORTHOMODE
 70
     1
  9
$REGENMODE
 70
     1
  9
$FILLMODE
 70
     1
  9
$QTEXTMODE
 70
     0
  9
$MIRRTEXT
 70
     1
  9
$LTSCALE
 40
2.0
  9
$ATTMODE
 70
     1
  9
$TEXTSIZE
 40
10.0
  9
$TRACEWID
 40
0.2
  9
$TEXTSTYLE
  7
KANJI
  9
$CLAYER
  8
1外形線
  9
$CELTYPE
  6
BYLAYER
  9
$CECOLOR
 62
   256
  9
$CELTSCALE
 40
3.0
  9
$DISPSILH
 70
     0
  9
$DIMSCALE
 40
1.0
  9
$DIMASZ
 40
1.0
  9
$DIMEXO
 40
1.0
  9
$DIMDLI
 40
6.0
  9
$DIMRND
 40
0.0
  9
$DIMDLE
 40
0.0
  9
$DIMEXE
 40
1.0
  9
$DIMTP
 40
0.0
  9
$DIMTM
 40
0.0
  9
$DIMTXT
 40
2.5
  9
$DIMCEN
 40
0.0
  9
$DIMTSZ
 40
0.0
  9
$DIMTOL
 70
     0
  9
$DIMLIM
 70
     0
  9
$DIMTIH
 70
     0
  9
$DIMTOH
 70
     0
  9
$DIMSE1
 70
     0
  9
$DIMSE2
 70
     0
  9
$DIMTAD
 70
     1
  9
$DIMZIN
 70
     8
  9
$DIMBLK
  1

  9
$DIMASO
 70
     1
  9
$DIMSHO
 70
     1
  9
$DIMPOST
  1

  9
$DIMAPOST
  1

  9
$DIMALT
 70
     0
  9
$DIMALTD
 70
     2
  9
$DIMALTF
 40
25.4
  9
$DIMLFAC
 40
1.0
  9
$DIMTOFL
 70
     1
  9
$DIMTVP
 40
0.0
  9
$DIMTIX
 70
     0
  9
$DIMSOXD
 70
     0
  9
$DIMSAH
 70
     1
  9
$DIMBLK1
  1
1
  9
$DIMBLK2
  1
1
  9
$DIMSTYLE
  2
STANDARD
  9
$DIMCLRD
 70
     0
  9
$DIMCLRE
 70
     0
  9
$DIMCLRT
 70
     0
  9
$DIMTFAC
 40
1.0
  9
$DIMGAP
 40
0.5
  9
$DIMJUST
 70
     0
  9
$DIMSD1
 70
     0
  9
$DIMSD2
 70
     0
  9
$DIMTOLJ
 70
     1
  9
$DIMTZIN
 70
     8
  9
$DIMALTZ
 70
     8
  9
$DIMALTTZ
 70
     8
  9
$DIMUPT
 70
     0
  9
$DIMDEC
 70
     4
  9
$DIMTDEC
 70
     4
  9
$DIMALTU
 70
     2
  9
$DIMALTTD
 70
     2
  9
$DIMTXSTY
  7
KANJI
  9
$DIMAUNIT
 70
     0
  9
$DIMADEC
 70
     0
  9
$DIMALTRND
 40
0.0
  9
$DIMAZIN
 70
     0
  9
$DIMDSEP
 70
    46
  9
$DIMATFIT
 70
     3
  9
$DIMFRAC
 70
     0
  9
$DIMLDRBLK
  1

  9
$DIMLUNIT
 70
     2
  9
$DIMLWD
 70
    -2
  9
$DIMLWE
 70
    -2
  9
$DIMTMOVE
 70
     0
  9
$DIMFXL
 40
1.0
  9
$DIMFXLON
 70
     0
  9
$DIMJOGANG
 40
0.7853981633974483
  9
$DIMTFILL
 70
     0
  9
$DIMTFILLCLR
 70
     0
  9
$DIMARCSYM
 70
     0
  9
$DIMLTYPE
  6

  9
$DIMLTEX1
  6

  9
$DIMLTEX2
  6

  9
$DIMTXTDIRECTION
 70
     0
  9
$LUNITS
 70
     2
  9
$LUPREC
 70
     4
  9
$SKETCHINC
 40
0.1
  9
$FILLETRAD
 40
0.0
  9
$AUNITS
 70
     0
  9
$AUPREC
 70
     0
  9
$MENU
  1
tcad-s
  9
$ELEVATION
 40
0.0
  9
$PELEVATION
 40
0.0
  9
$THICKNESS
 40
0.0
  9
$LIMCHECK
 70
     0
  9
$CHAMFERA
 40
0.0
  9
$CHAMFERB
 40
0.0
  9
$CHAMFERC
 40
0.0
  9
$CHAMFERD
 40
0.0
  9
$SKPOLY
 70
     0
  9
$TDCREATE
 40
2452046.581828704
  9
$TDUCREATE
 40
2452046.206828704
  9
$TDUPDATE
 40
2459600.765659722
  9
$TDUUPDATE
 40
2459600.390659722
  9
$TDINDWG
 40
0.0558503588
  9
$TDUSRTIMER
 40
0.0558503588
  9
$USRTIMER
 70
     1
  9
$ANGBASE
 50
0.0
  9
$ANGDIR
 70
     0
  9
$PDMODE
 70
     0
  9
$PDSIZE
 40
2.399999999999999
  9
$PLINEWID
 40
0.0
  9
$SPLFRAME
 70
     0
  9
$SPLINETYPE
 70
     6
  9
$SPLINESEGS
 70
     8
  9
$HANDSEED
  5
F3E0
  9
$SURFTAB1
 70
     6
  9
$SURFTAB2
 70
     6
  9
$SURFTYPE
 70
     6
  9
$SURFU
 70
     6
  9
$SURFV
 70
     6
  9
$UCSBASE
  2

  9
$UCSNAME
  2

  9
$UCSORG
 10
0.0
 20
0.0
 30
0.0
  9
$UCSXDIR
 10
1.0
 20
0.0
 30
0.0
  9
$UCSYDIR
 10
0.0
 20
1.0
 30
0.0
  9
$UCSORTHOREF
  2

  9
$UCSORTHOVIEW
 70
     0
  9
$UCSORGTOP
 10
0.0
 20
0.0
 30
0.0
  9
$UCSORGBOTTOM
 10
0.0
 20
0.0
 30
0.0
  9
$UCSORGLEFT
 10
0.0
 20
0.0
 30
0.0
  9
$UCSORGRIGHT
 10
0.0
 20
0.0
 30
0.0
  9
$UCSORGFRONT
 10
0.0
 20
0.0
 30
0.0
  9
$UCSORGBACK
 10
0.0
 20
0.0
 30
0.0
  9
$PUCSBASE
  2

  9
$PUCSNAME
  2

  9
$PUCSORG
 10
0.0
 20
0.0
 30
0.0
  9
$PUCSXDIR
 10
1.0
 20
0.0
 30
0.0
  9
$PUCSYDIR
 10
0.0
 20
1.0
 30
0.0
  9
$PUCSORTHOREF
  2

  9
$PUCSORTHOVIEW
 70
     0
  9
$PUCSORGTOP
 10
0.0
 20
0.0
 30
0.0
  9
$PUCSORGBOTTOM
 10
0.0
 20
0.0
 30
0.0
  9
$PUCSORGLEFT
 10
0.0
 20
0.0
 30
0.0
  9
$PUCSORGRIGHT
 10
0.0
 20
0.0
 30
0.0
  9
$PUCSORGFRONT
 10
0.0
 20
0.0
 30
0.0
  9
$PUCSORGBACK
 10
0.0
 20
0.0
 30
0.0
  9
$USERI1
 70
     0
  9
$USERI2
 70
     0
  9
$USERI3
 70
     0
  9
$USERI4
 70
     0
  9
$USERI5
 70
     0
  9
$USERR1
 40
0.0
  9
$USERR2
 40
0.0
  9
$USERR3
 40
0.0
  9
$USERR4
 40
0.0
  9
$USERR5
 40
0.0
  9
$WORLDVIEW
 70
     1
  9
$SHADEDGE
 70
     3
  9
$SHADEDIF
 70
    70
  9
$TILEMODE
 70
     1
  9
$MAXACTVP
 70
    16
  9
$PINSBASE
 10
0.0
 20
0.0
 30
0.0
  9
$PLIMCHECK
 70
     0
  9
$PEXTMIN
 10
1.000000000000000E+20
 20
1.000000000000000E+20
 30
1.000000000000000E+20
  9
$PEXTMAX
 10
-1.000000000000000E+20
 20
-1.000000000000000E+20
 30
-1.000000000000000E+20
  9
$PLIMMIN
 10
0.0
 20
0.0
  9
$PLIMMAX
 10
12.0
 20
9.0
  9
$UNITMODE
 70
     0
  9
$VISRETAIN
 70
     0
  9
$PLINEGEN
 70
     0
  9
$PSLTSCALE
 70
     0
  9
$TREEDEPTH
 70
  3020
  9
$CMLSTYLE
  2
STANDARD
  9
$CMLJUST
 70
     0
  9
$CMLSCALE
 40
1.0
  9
$PROXYGRAPHICS
 70
     1
  9
$MEASUREMENT
 70
     1
  9
$CELWEIGHT
370
    -1
  9
$ENDCAPS
280
     0
  9
$JOINSTYLE
280
     0
  9
$LWDISPLAY
290
     0
  9
$INSUNITS
 70
     0
  9
$HYPERLINKBASE
  1

  9
$STYLESHEET
  1

  9
$XEDIT
290
     1
  9
$CEPSNTYPE
380
     0
  9
$PSTYLEMODE
290
     1
  9
$FINGERPRINTGUID
  2
{54B9B81C-6285-3346-86F0-DE1D214FD4C5}
  9
$VERSIONGUID
  2
{B2BB4982-B110-3E4D-A208-9772BCA11E19}
  9
$EXTNAMES
290
     1
  9
$PSVPSCALE
 40
0.0
  9
$OLESTARTUP
290
     0
  9
$SORTENTS
280
    96
  9
$INDEXCTL
280
     0
  9
$HIDETEXT
280
     0
  9
$XCLIPFRAME
280
     2
  9
$HALOGAP
280
     0
  9
$OBSCOLOR
 70
   257
  9
$OBSLTYPE
280
     0
  9
$INTERSECTIONDISPLAY
280
     0
  9
$INTERSECTIONCOLOR
 70
   257
  9
$DIMASSOC
280
     1
  9
$PROJECTNAME
  1

  9
$CAMERADISPLAY
290
     0
  9
$LENSLENGTH
 40
50.0
  9
$CAMERAHEIGHT
 40
0.0
  9
$STEPSPERSEC
 40
2.0
  9
$STEPSIZE
 40
6.0
  9
$3DDWFPREC
 40
2.0
  9
$PSOLWIDTH
 40
0.25
  9
$PSOLHEIGHT
 40
4.0
  9
$LOFTANG1
 40
1.570796326794896
  9
$LOFTANG2
 40
1.570796326794896
  9
$LOFTMAG1
 40
0.0
  9
$LOFTMAG2
 40
0.0
  9
$LOFTPARAM
 70
     7
  9
$LOFTNORMALS
280
     1
  9
$LATITUDE
 40
37.795
  9
$LONGITUDE
 40
-122.394
  9
$NORTHDIRECTION
 40
0.0
  9
$TIMEZONE
 70
 -8000
  9
$LIGHTGLYPHDISPLAY
280
     1
  9
$TILEMODELIGHTSYNCH
280
     1
  9
$CMATERIAL
347
E6D1
  9
$SOLIDHIST
280
     0
  9
$SHOWHIST
280
     1
  9
$DWFFRAME
280
     2
  9
$DGNFRAME
280
     0
  9
$REALWORLDSCALE
290
     1
  9
$INTERFERECOLOR
 62
     1
  9
$INTERFEREOBJVS
345
E6F3
  9
$INTERFEREVPVS
346
E6F0
  9
$CSHADOW
280
     0
  9
$SHADOWPLANELOCATION
 40
0.0
  0
ENDSEC
  0
SECTION
  2
CLASSES
  0
CLASS
  1
DICTIONARYVAR
  2
AcDbDictionaryVar
  3
ObjectDBX Classes
 90
        0
 91
       47
280
     0
281
     0
  0
CLASS
  1
ACDBDICTIONARYWDFLT
  2
AcDbDictionaryWithDefault
  3
ObjectDBX Classes
 90
        0
 91
        1
280
     0
281
     0
  0
CLASS
  1
MATERIAL
  2
AcDbMaterial
  3
ObjectDBX Classes
 90
     1153
 91
        3
280
     0
281
     0
  0
CLASS
  1
VISUALSTYLE
  2
AcDbVisualStyle
  3
ObjectDBX Classes
 90
     4095
 91
       24
280
     0
281
     0
  0
CLASS
  1
TABLESTYLE
  2
AcDbTableStyle
  3
ObjectDBX Classes
 90
     4095
 91
        1
280
     0
281
     0
  0
CLASS
  1
SCALE
  2
AcDbScale
  3
ObjectDBX Classes
 90
     1153
 91
       17
280
     0
281
     0
  0
CLASS
  1
MLEADERSTYLE
  2
AcDbMLeaderStyle
  3
ACDB_MLEADERSTYLE_CLASS
 90
     4095
 91
        1
280
     0
281
     0
  0
CLASS
  1
ACDBSECTIONVIEWSTYLE
  2
AcDbSectionViewStyle
  3
ObjectDBX Classes
 90
     1025
 91
        2
280
     0
281
     0
  0
CLASS
  1
ACDBDETAILVIEWSTYLE
  2
AcDbDetailViewStyle
  3
ObjectDBX Classes
 90
     1025
 91
        2
280
     0
281
     0
  0
CLASS
  1
SORTENTSTABLE
  2
AcDbSortentsTable
  3
ObjectDBX Classes
 90
        0
 91
        1
280
     0
281
     0
  0
CLASS
  1
CELLSTYLEMAP
  2
AcDbCellStyleMap
  3
ObjectDBX Classes
 90
     1152
 91
        1
280
     0
281
     0
  0
ENDSEC
  0
SECTION
  2
TABLES
  0
TABLE
  2
VPORT
  5
8
330
0
100
AcDbSymbolTable
 70
     1
  0
VPORT
  5
E6CC
330
8
100
AcDbSymbolTableRecord
100
AcDbViewportTableRecord
  2
*ACTIVE
 70
     0
 10
0.0
 20
0.0
 11
1.0
 21
1.0
 12
908.8629013055081
 22
97.47431960454873
 13
0.0
 23
0.0
 14
1.0
 24
1.0
 15
0.0
 25
0.0
 16
0.0
 26
0.0
 36
1.0
 17
0.0
 27
0.0
 37
0.0
 40
720.4381176386981
 41
2.476129032258064
 42
50.0
 43
0.0
 44
0.0
 50
0.0
 51
0.0
 71
     0
 72
  1000
 73
     1
 74
     1
 75
     0
 76
     0
 77
     0
 78
     1
281
     0
 65
     1
110
0.0
120
0.0
130
0.0
111
1.0
121
0.0
131
0.0
112
0.0
122
1.0
132
0.0
 79
     0
146
0.0
348
E6EF
 60
     3
 61
     5
292
     1
282
     1
141
0.0
142
0.0
 63
   250
421
  3355443
1001
ACAD_NAV_VCDISPLAY
1070
     3
  0
ENDTAB
  0
TABLE
  2
LTYPE
  5
5
330
0
100
AcDbSymbolTable
 70
     4
  0
LTYPE
  5
11
330
5
100
AcDbSymbolTableRecord
100
AcDbLinetypeTableRecord
  2
BYBLOCK
 70
     0
  3

 72
    65
 73
     0
 40
0.0
  0
LTYPE
  5
12
330
5
100
AcDbSymbolTableRecord
100
AcDbLinetypeTableRecord
  2
BYLAYER
 70
     0
  3

 72
    65
 73
     0
 40
0.0
  0
LTYPE
  5
13
330
5
100
AcDbSymbolTableRecord
100
AcDbLinetypeTableRecord
  2
CONTINUOUS
 70
     0
  3
Solid line
 72
    65
 73
     0
 40
0.0
  0
LTYPE
  5
E7B2
330
5
100
AcDbSymbolTableRecord
100
AcDbLinetypeTableRecord
  2
CENTER
 70
     0
  3
____ _ ____ _ ____ _ ____ _ ____ _ ____ _ ____ 
 72
    65
 73
     4
 40
2.0
 49
1.25
 74
     0
 49
-0.25
 74
     0
 49
0.25
 74
     0
 49
-0.25
 74
     0
  0
LTYPE
  5
E7B3
330
5
100
AcDbSymbolTableRecord
100
AcDbLinetypeTableRecord
  2
中心線1
 70
     0
  3
___ _ ___ _ ___
 72
    65
 73
     4
 40
18.0
 49
12.0
 74
     0
 49
-2.0
 74
     0
 49
2.0
 74
     0
 49
-2.0
 74
     0
  0
ENDTAB
  0
TABLE
  2
LAYER
  5
2
102
{ACAD_XDICTIONARY
360
E7BC
102
}
330
0
100
AcDbSymbolTable
 70
     6
  0
LAYER
  5
E
102
{ACAD_XDICTIONARY
360
E725
102
}
330
2
100
AcDbSymbolTableRecord
100
AcDbLayerTableRecord
  2
0
 70
     0
 62
     7
  6
CONTINUOUS
370
    -3
390
E6CF
347
E6E1
348
0
  0
LAYER
  5
40
102
{ACAD_XDICTIONARY
360
E727
102
}
330
2
100
AcDbSymbolTableRecord
100
AcDbLayerTableRecord
  2
1外形線
 70
     0
 62
     3
  6
CONTINUOUS
370
    -3
390
E6CF
347
E6E1
348
0
  0
LAYER
  5
E7B4
330
2
100
AcDbSymbolTableRecord
100
AcDbLayerTableRecord
  2
DEFPOINTS
 70
     0
 62
     7
  6
CONTINUOUS
290
     0
370
    -3
390
E6CF
347
E6E1
348
0
  0
LAYER
  5
E7B5
102
{ACAD_XDICTIONARY
360
E7B6
102
}
330
2
100
AcDbSymbolTableRecord
100
AcDbLayerTableRecord
  2
2寸法線
 70
     0
 62
     2
  6
CONTINUOUS
370
    -3
390
E6CF
347
E6E1
348
0
  0
LAYER
  5
E7B7
330
2
100
AcDbSymbolTableRecord
100
AcDbLayerTableRecord
  2
L7中心
 70
     0
 62
     4
  6
CENTER
370
     9
390
E6CF
347
E6E1
348
0
1001
AcAecLayerStandard
1000

1000

1001
ACCMTRANSPARENCY
1071
        0
  0
LAYER
  5
E7B8
330
2
100
AcDbSymbolTableRecord
100
AcDbLayerTableRecord
  2
L0
 70
     0
 62
     3
  6
CONTINUOUS
370
    30
390
E6CF
347
E6E1
348
0
1001
AcAecLayerStandard
1000

1000

1001
ACCMTRANSPARENCY
1071
        0
  0
ENDTAB
  0
TABLE
  2
STYLE
  5
3
330
0
100
AcDbSymbolTable
 70
     2
  0
STYLE
  5
F
330
3
100
AcDbSymbolTableRecord
100
AcDbTextStyleTableRecord
  2
STANDARD
 70
     0
 40
0.0
 41
1.0
 50
0.0
 71
     0
 42
0.2
  3
txt
  4

  0
STYLE
  5
3B
330
3
100
AcDbSymbolTableRecord
100
AcDbTextStyleTableRecord
  2
KANJI
 70
     0
 40
0.0
 41
1.0
 50
0.0
 71
     0
 42
10.0
  3
simplex
  4
bigfont
  0
ENDTAB
  0
TABLE
  2
VIEW
  5
6
330
0
100
AcDbSymbolTable
 70
     3
  0
ENDTAB
  0
TABLE
  2
UCS
  5
7
330
0
100
AcDbSymbolTable
 70
     0
  0
ENDTAB
  0
TABLE
  2
APPID
  5
9
330
0
100
AcDbSymbolTable
 70
     6
  0
APPID
  5
10
330
9
100
AcDbSymbolTableRecord
100
AcDbRegAppTableRecord
  2
ACAD
 70
     0
  0
APPID
  5
E729
330
9
100
AcDbSymbolTableRecord
100
AcDbRegAppTableRecord
  2
ACAD_NAV_VCDISPLAY
 70
     0
  0
APPID
  5
E7B9
330
9
100
AcDbSymbolTableRecord
100
AcDbRegAppTableRecord
  2
ACAD_PSEXT
 70
     0
  0
APPID
  5
E7BA
330
9
100
AcDbSymbolTableRecord
100
AcDbRegAppTableRecord
  2
AcAecLayerStandard
 70
     0
  0
APPID
  5
E7BB
330
9
100
AcDbSymbolTableRecord
100
AcDbRegAppTableRecord
  2
ACCMTRANSPARENCY
 70
     0
  0
APPID
  5
F3A2
330
9
100
AcDbSymbolTableRecord
100
AcDbRegAppTableRecord
  2
ACAD_EXEMPT_FROM_CAD_STANDARDS
 70
     0
  0
ENDTAB
  0
TABLE
  2
DIMSTYLE
  5
A
330
0
100
AcDbSymbolTable
 70
     1
100
AcDbDimStyleTable
 71
     1
340
E11
  0
DIMSTYLE
105
E11
330
A
100
AcDbSymbolTableRecord
100
AcDbDimStyleTableRecord
  2
STANDARD
 70
     0
 41
1.0
 42
1.0
 43
6.0
 44
1.0
 73
     0
 74
     0
 77
     1
 78
     8
140
2.5
141
0.0
147
0.5
172
     1
173
     1
284
     8
285
     8
286
     8
340
3B
341
C7B3
343
C7B3
344
C7B3
  0
ENDTAB
  0
TABLE
  2
BLOCK_RECORD
  5
1
330
0
100
AcDbSymbolTable
 70
    24
  0
BLOCK_RECORD
  5
17
330
1
100
AcDbSymbolTableRecord
100
AcDbBlockTableRecord
  2
*MODEL_SPACE
340
E71F
 70
     0
280
     1
281
     0
  0
BLOCK_RECORD
  5
14
330
1
100
AcDbSymbolTableRecord
100
AcDbBlockTableRecord
  2
*PAPER_SPACE
340
E720
 70
     0
280
     1
281
     0
  0
BLOCK_RECORD
  5
C7B3
330
1
100
AcDbSymbolTableRecord
100
AcDbBlockTableRecord
  2
1
340
0
102
{BLKREFS
331
F33D
331
F33E
331
F346
331
F347
331
F34E
331
F34F
331
F357
331
F358
331
F361
331
F362
331
F36B
331
F36C
331
F376
331
F377
331
F37D
331
F37E
331
F386
331
F387
331
F38F
331
F390
331
F39C
331
F39D
102
}
 70
     0
280
     1
281
     0
  0
BLOCK_RECORD
  5
E733
330
1
100
AcDbSymbolTableRecord
100
AcDbBlockTableRecord
  2
Y2
340
0
102
{BLKREFS
331
E77A
331
E77B
331
E789
331
E78A
331
E793
331
E794
331
E79F
331
E7A0
331
E7AB
331
E7AC
331
E73C
331
E73D
331
E748
331
E749
331
E754
331
E755
331
E760
331
E761
331
E76D
331
E76E
102
}
 70
     0
280
     1
281
     0
  0
BLOCK_RECORD
  5
E737
330
1
100
AcDbSymbolTableRecord
100
AcDbBlockTableRecord
  2
*D2
340
0
 70
     0
280
     1
281
     0
  0
BLOCK_RECORD
  5
E743
330
1
100
AcDbSymbolTableRecord
100
AcDbBlockTableRecord
  2
*D3
340
0
 70
     0
280
     1
281
     0
  0
BLOCK_RECORD
  5
E74F
330
1
100
AcDbSymbolTableRecord
100
AcDbBlockTableRecord
  2
*D4
340
0
 70
     0
280
     1
281
     0
  0
BLOCK_RECORD
  5
E75B
330
1
100
AcDbSymbolTableRecord
100
AcDbBlockTableRecord
  2
*D5
340
0
 70
     0
280
     1
281
     0
  0
BLOCK_RECORD
  5
E767
330
1
100
AcDbSymbolTableRecord
100
AcDbBlockTableRecord
  2
*D6
340
0
 70
     0
280
     1
281
     0
  0
BLOCK_RECORD
  5
E774
330
1
100
AcDbSymbolTableRecord
100
AcDbBlockTableRecord
  2
*D7
340
0
 70
     0
280
     1
281
     0
  0
BLOCK_RECORD
  5
E781
330
1
100
AcDbSymbolTableRecord
100
AcDbBlockTableRecord
  2
*D8
340
0
 70
     0
280
     1
281
     0
  0
BLOCK_RECORD
  5
E78E
330
1
100
AcDbSymbolTableRecord
100
AcDbBlockTableRecord
  2
*D9
340
0
 70
     0
280
     1
281
     0
  0
BLOCK_RECORD
  5
E79A
330
1
100
AcDbSymbolTableRecord
100
AcDbBlockTableRecord
  2
*D10
340
0
 70
     0
280
     1
281
     0
  0
BLOCK_RECORD
  5
E7A6
330
1
100
AcDbSymbolTableRecord
100
AcDbBlockTableRecord
  2
*D11
340
0
 70
     0
280
     1
281
     0
  0
BLOCK_RECORD
  5
F266
330
1
100
AcDbSymbolTableRecord
100
AcDbBlockTableRecord
  2
*D13
340
0
 70
     0
280
     1
281
     0
  0
BLOCK_RECORD
  5
F272
330
1
100
AcDbSymbolTableRecord
100
AcDbBlockTableRecord
  2
*D14
340
0
 70
     0
280
     1
281
     0
  0
BLOCK_RECORD
  5
F27E
330
1
100
AcDbSymbolTableRecord
100
AcDbBlockTableRecord
  2
*D15
340
0
 70
     0
280
     1
281
     0
  0
BLOCK_RECORD
  5
F289
330
1
100
AcDbSymbolTableRecord
100
AcDbBlockTableRecord
  2
*D16
340
0
 70
     0
280
     1
281
     0
  0
BLOCK_RECORD
  5
F295
330
1
100
AcDbSymbolTableRecord
100
AcDbBlockTableRecord
  2
*D17
340
0
 70
     0
280
     1
281
     0
  0
BLOCK_RECORD
  5
F2A1
330
1
100
AcDbSymbolTableRecord
100
AcDbBlockTableRecord
  2
*D18
340
0
 70
     0
280
     1
281
     0
  0
BLOCK_RECORD
  5
F2AE
330
1
100
AcDbSymbolTableRecord
100
AcDbBlockTableRecord
  2
*D19
340
0
 70
     0
280
     1
281
     0
  0
BLOCK_RECORD
  5
F2BB
330
1
100
AcDbSymbolTableRecord
100
AcDbBlockTableRecord
  2
*D20
340
0
 70
     0
280
     1
281
     0
  0
BLOCK_RECORD
  5
F2C7
330
1
100
AcDbSymbolTableRecord
100
AcDbBlockTableRecord
  2
*D21
340
0
 70
     0
280
     1
281
     0
  0
BLOCK_RECORD
  5
F2D3
330
1
100
AcDbSymbolTableRecord
100
AcDbBlockTableRecord
  2
*D22
340
0
 70
     0
280
     1
281
     0
  0
BLOCK_RECORD
  5
F396
330
1
100
AcDbSymbolTableRecord
100
AcDbBlockTableRecord
  2
*D23
340
0
 70
     0
280
     1
281
     0
  0
ENDTAB
  0
ENDSEC
  0
SECTION
  2
BLOCKS
  0
BLOCK
  5
4F
330
17
100
AcDbEntity
  8
0
100
AcDbBlockBegin
  2
*MODEL_SPACE
 70
     0
 10
0.0
 20
0.0
 30
0.0
  3
*MODEL_SPACE
  1

  0
ENDBLK
  5
50
330
17
100
AcDbEntity
  8
0
100
AcDbBlockEnd
  0
BLOCK
  5
4D
330
14
100
AcDbEntity
 67
     1
  8
0
100
AcDbBlockBegin
  2
*PAPER_SPACE
 70
     0
 10
0.0
 20
0.0
 30
0.0
  3
*PAPER_SPACE
  1

  0
ENDBLK
  5
4E
330
14
100
AcDbEntity
 67
     1
  8
0
100
AcDbBlockEnd
  0
BLOCK
  5
C7B4
330
C7B3
100
AcDbEntity
  8
0
 48
2.0
100
AcDbBlockBegin
  2
1
 70
     0
 10
0.0
 20
0.0
 30
0.0
  3
1
  1

  0
SOLID
  5
C7B5
330
C7B3
100
AcDbEntity
  8
0
  6
ByBlock
 62
     0
100
AcDbTrace
 10
-1.811110924292052
 20
0.4852857095671653
 30
0.0
 11
-1.811110924292052
 21
-0.4852857095673642
 31
0.0
 12
0.0
 22
0.0
 32
0.0
 13
0.0
 23
0.0
 33
0.0
  0
ENDBLK
  5
C7B6
330
C7B3
100
AcDbEntity
  8
0
 48
2.0
100
AcDbBlockEnd
  0
BLOCK
  5
E734
330
E733
100
AcDbEntity
  8
0
 48
2.0
100
AcDbBlockBegin
  2
Y2
 70
     0
 10
0.0
 20
0.0
 30
0.0
  3
Y2
  1

  0
SOLID
  5
E735
330
E733
100
AcDbEntity
  8
0
  6
ByBlock
 62
     0
100
AcDbTrace
 10
-1.811110924292108
 20
0.485285709567151
 30
0.0
 11
-1.811110924292108
 21
-0.4852857095673784
 31
0.0
 12
-0.0000000000000568
 22
-0.0000000000000142
 32
0.0
 13
-0.0000000000000568
 23
-0.0000000000000142
 33
0.0
  0
ENDBLK
  5
E736
330
E733
100
AcDbEntity
  8
0
 48
2.0
100
AcDbBlockEnd
  0
BLOCK
  5
E738
330
E737
100
AcDbEntity
  8
0
 48
2.0
100
AcDbBlockBegin
  2
*D2
 70
     1
 10
0.0
 20
0.0
 30
0.0
  3
*D2
  1

  0
LINE
  5
E739
330
E737
100
AcDbEntity
  8
2寸法線
 62
     0
440
 16777216
 48
3.0
370
    -2
100
AcDbLine
 10
105.8342238716527
 20
247.1849039678764
 30
0.0
 11
105.8342238716527
 21
270.0118911921763
 31
0.0
  0
LINE
  5
E73A
330
E737
100
AcDbEntity
  8
2寸法線
 62
     0
440
 16777216
 48
3.0
370
    -2
100
AcDbLine
 10
205.8342238716527
 20
247.1849039678764
 30
0.0
 11
205.8342238716527
 21
270.0118911921763
 31
0.0
  0
LINE
  5
E73B
330
E737
100
AcDbEntity
  8
2寸法線
 62
     0
440
 16777216
 48
3.0
370
    -2
100
AcDbLine
 10
107.3342238716527
 20
269.0118911921763
 30
0.0
 11
204.3342238716527
 21
269.0118911921763
 31
0.0
  0
INSERT
  5
E73C
330
E737
100
AcDbEntity
  8
2寸法線
 62
     0
440
 16777216
 48
3.0
370
    -2
100
AcDbBlockReference
  2
Y2
 10
105.8342238716527
 20
269.0118911921763
 30
0.0
 41
1.5
 42
1.5
 43
1.5
 50
180.0
  0
INSERT
  5
E73D
330
E737
100
AcDbEntity
  8
2寸法線
 62
     0
440
 16777216
 48
3.0
370
    -2
100
AcDbBlockReference
  2
Y2
 10
205.8342238716527
 20
269.0118911921763
 30
0.0
 41
1.5
 42
1.5
 43
1.5
  0
MTEXT
  5
E73E
330
E737
100
AcDbEntity
  8
2寸法線
 62
     1
440
 16777216
 48
3.0
100
AcDbMText
 10
155.8342238716527
 20
271.7618911921763
 30
0.0
 40
3.5
 41
0.0
 46
0.0
 71
     5
 72
     1
  1
\A1;200
  7
KANJI
 73
     1
 44
1.0
  0
POINT
  5
E73F
330
E737
100
AcDbEntity
  8
DEFPOINTS
 62
     0
440
 16777216
 48
3.0
100
AcDbPoint
 10
105.8342238716527
 20
245.1849039678764
 30
0.0
  0
POINT
  5
E740
330
E737
100
AcDbEntity
  8
DEFPOINTS
 62
     0
440
 16777216
 48
3.0
100
AcDbPoint
 10
205.8342238716527
 20
245.1849039678764
 30
0.0
  0
POINT
  5
E741
330
E737
100
AcDbEntity
  8
DEFPOINTS
 62
     0
440
 16777216
 48
3.0
100
AcDbPoint
 10
205.8342238716527
 20
269.0118911921763
 30
0.0
  0
ENDBLK
  5
E742
330
E737
100
AcDbEntity
  8
0
 48
2.0
100
AcDbBlockEnd
  0
BLOCK
  5
E744
330
E743
100
AcDbEntity
  8
0
 48
2.0
100
AcDbBlockBegin
  2
*D3
 70
     1
 10
0.0
 20
0.0
 30
0.0
  3
*D3
  1

  0
LINE
  5
E745
330
E743
100
AcDbEntity
  8
2寸法線
 62
     0
440
 16777216
 48
2.0
370
    -2
100
AcDbLine
 10
95.15427956367357
 20
226.1709395227742
 30
0.0
 11
93.81928652517631
 21
225.4869851477141
 31
0.0
  0
LINE
  5
E746
330
E743
100
AcDbEntity
  8
2寸法線
 62
     0
440
 16777216
 48
2.0
370
    -2
100
AcDbLine
 10
116.5141681796311
 20
237.114209523736
 30
0.0
 11
128.6138669888684
 21
243.3132245738839
 31
0.0
  0
LINE
  5
E747
330
E743
100
AcDbEntity
  8
2寸法線
 62
     0
440
 16777216
 48
2.0
370
    -2
100
AcDbLine
 10
96.48927260217085
 20
226.8548938978343
 30
0.0
 11
115.1791751411338
 21
236.430255148676
 31
0.0
  0
INSERT
  5
E748
330
E743
100
AcDbEntity
  8
2寸法線
 62
     0
440
 16777216
 48
2.0
370
    -2
100
AcDbBlockReference
  2
Y2
 10
96.48927260217085
 20
226.8548938978343
 30
0.0
 41
1.5
 42
1.5
 43
1.5
 50
27.12733629753008
  0
INSERT
  5
E749
330
E743
100
AcDbEntity
  8
2寸法線
 62
     0
440
 16777216
 48
2.0
370
    -2
100
AcDbBlockReference
  2
Y2
 10
115.1791751411338
 20
236.430255148676
 30
0.0
 41
1.5
 42
1.5
 43
1.5
 50
207.12733629753
  0
MTEXT
  5
E74A
102
{ACAD_XDICTIONARY
360
E74B
102
}
330
E743
100
AcDbEntity
  8
2寸法線
 62
     1
440
 16777216
 48
2.0
100
AcDbMText
 10
121.8636053533783
 20
243.2256803133346
 30
0.0
 40
4.0
 41
0.0
 46
0.0
 71
     5
 72
     1
  1
\A1;∅42
  7
KANJI
 11
0.889995358998181
 21
0.4559695833733861
 31
0.0
 73
     1
 44
1.0
  0
POINT
  5
E74C
330
E743
100
AcDbEntity
  8
DEFPOINTS
 62
     0
440
 16777216
 48
2.0
100
AcDbPoint
 10
115.1791751411338
 20
236.430255148676
 30
0.0
  0
POINT
  5
E74D
330
E743
100
AcDbEntity
  8
DEFPOINTS
 62
     0
440
 16777216
 48
2.0
100
AcDbPoint
 10
96.48927260217085
 20
226.8548938978343
 30
0.0
  0
ENDBLK
  5
E74E
330
E743
100
AcDbEntity
  8
0
 48
2.0
100
AcDbBlockEnd
  0
BLOCK
  5
E750
330
E74F
100
AcDbEntity
  8
0
 48
2.0
100
AcDbBlockBegin
  2
*D4
 70
     1
 10
0.0
 20
0.0
 30
0.0
  3
*D4
  1

  0
LINE
  5
E751
330
E74F
100
AcDbEntity
  8
2寸法線
 62
     0
440
 16777216
 48
3.0
370
    -2
100
AcDbLine
 10
80.33422387165087
 20
153.5563498402443
 30
0.0
 11
80.33422387165087
 21
142.3467797630928
 31
0.0
  0
LINE
  5
E752
330
E74F
100
AcDbEntity
  8
2寸法線
 62
     0
440
 16777216
 48
3.0
370
    -2
100
AcDbLine
 10
231.3342169575139
 20
153.5563498402443
 30
0.0
 11
231.3342169575139
 21
142.3467797630928
 31
0.0
  0
LINE
  5
E753
330
E74F
100
AcDbEntity
  8
2寸法線
 62
     0
440
 16777216
 48
3.0
370
    -2
100
AcDbLine
 10
81.83422387165085
 20
143.3467797630928
 30
0.0
 11
229.8342169575139
 21
143.3467797630928
 31
0.0
  0
INSERT
  5
E754
330
E74F
100
AcDbEntity
  8
2寸法線
 62
     0
440
 16777216
 48
3.0
370
    -2
100
AcDbBlockReference
  2
Y2
 10
80.33422387165087
 20
143.3467797630928
 30
0.0
 41
1.5
 42
1.5
 43
1.5
 50
180.0
  0
INSERT
  5
E755
330
E74F
100
AcDbEntity
  8
2寸法線
 62
     0
440
 16777216
 48
3.0
370
    -2
100
AcDbBlockReference
  2
Y2
 10
231.3342169575139
 20
143.3467797630928
 30
0.0
 41
1.5
 42
1.5
 43
1.5
  0
MTEXT
  5
E756
330
E74F
100
AcDbEntity
  8
2寸法線
 62
     1
440
 16777216
 48
3.0
100
AcDbMText
 10
155.8342204145823
 20
146.0967797630928
 30
0.0
 40
3.5
 41
0.0
 46
0.0
 71
     5
 72
     1
  1
\A1;302
  7
KANJI
 73
     1
 44
1.0
  0
POINT
  5
E757
330
E74F
100
AcDbEntity
  8
DEFPOINTS
 62
     0
440
 16777216
 48
3.0
100
AcDbPoint
 10
80.33422387165087
 20
155.5563498402444
 30
0.0
  0
POINT
  5
E758
330
E74F
100
AcDbEntity
  8
DEFPOINTS
 62
     0
440
 16777216
 48
3.0
100
AcDbPoint
 10
231.3342169575139
 20
155.5563498402444
 30
0.0
  0
POINT
  5
E759
330
E74F
100
AcDbEntity
  8
DEFPOINTS
 62
     0
440
 16777216
 48
3.0
100
AcDbPoint
 10
231.3342169575139
 20
143.3467797630928
 30
0.0
  0
ENDBLK
  5
E75A
330
E74F
100
AcDbEntity
  8
0
 48
2.0
100
AcDbBlockEnd
  0
BLOCK
  5
E75C
330
E75B
100
AcDbEntity
  8
0
 48
2.0
100
AcDbBlockBegin
  2
*D5
 70
     1
 10
0.0
 20
0.0
 30
0.0
  3
*D5
  1

  0
LINE
  5
E75D
330
E75B
100
AcDbEntity
  8
2寸法線
 62
     0
440
 16777216
 48
3.0
370
    -2
100
AcDbLine
 10
331.8239591287351
 20
155.5563498402444
 30
0.0
 11
343.0029169975536
 21
155.5563498402444
 31
0.0
  0
LINE
  5
E75E
330
E75B
100
AcDbEntity
  8
2寸法線
 62
     0
440
 16777216
 48
3.0
370
    -2
100
AcDbLine
 10
327.037248960918
 20
183.5563499006885
 30
0.0
 11
343.0029169975536
 21
183.5563499006885
 31
0.0
  0
LINE
  5
E75F
330
E75B
100
AcDbEntity
  8
2寸法線
 62
     0
440
 16777216
 48
3.0
370
    -2
100
AcDbLine
 10
342.0029169975537
 20
157.0563498402443
 30
0.0
 11
342.0029169975537
 21
182.0563499006885
 31
0.0
  0
INSERT
  5
E760
330
E75B
100
AcDbEntity
  8
2寸法線
 62
     0
440
 16777216
 48
3.0
370
    -2
100
AcDbBlockReference
  2
Y2
 10
342.0029169975537
 20
155.5563498402444
 30
0.0
 41
1.5
 42
1.5
 43
1.5
 50
270.0
  0
INSERT
  5
E761
330
E75B
100
AcDbEntity
  8
2寸法線
 62
     0
440
 16777216
 48
3.0
370
    -2
100
AcDbBlockReference
  2
Y2
 10
342.0029169975537
 20
183.5563499006885
 30
0.0
 41
1.5
 42
1.5
 43
1.5
 50
90.0
  0
MTEXT
  5
E762
330
E75B
100
AcDbEntity
  8
2寸法線
 62
     1
440
 16777216
 48
3.0
100
AcDbMText
 10
339.2529169975536
 20
169.5563498704665
 30
0.0
 40
3.5
 41
0.0
 46
0.0
 71
     5
 72
     1
  1
\A1;56
  7
KANJI
 11
0.0000000000000001
 21
1.0
 31
0.0
 73
     1
 44
1.0
  0
POINT
  5
E763
330
E75B
100
AcDbEntity
  8
DEFPOINTS
 62
     0
440
 16777216
 48
3.0
100
AcDbPoint
 10
329.8239591287351
 20
155.5563498402444
 30
0.0
  0
POINT
  5
E764
330
E75B
100
AcDbEntity
  8
DEFPOINTS
 62
     0
440
 16777216
 48
3.0
100
AcDbPoint
 10
325.037248960918
 20
183.5563499006885
 30
0.0
  0
POINT
  5
E765
330
E75B
100
AcDbEntity
  8
DEFPOINTS
 62
     0
440
 16777216
 48
3.0
100
AcDbPoint
 10
342.0029169975537
 20
183.5563499006885
 30
0.0
  0
ENDBLK
  5
E766
330
E75B
100
AcDbEntity
  8
0
 48
2.0
100
AcDbBlockEnd
  0
BLOCK
  5
E768
330
E767
100
AcDbEntity
  8
0
 48
2.0
100
AcDbBlockBegin
  2
*D6
 70
     1
 10
0.0
 20
0.0
 30
0.0
  3
*D6
  1

  0
LINE
  5
E769
330
E767
100
AcDbEntity
  8
2寸法線
 62
     0
440
 16777216
 48
3.0
370
    -2
100
AcDbLine
 10
215.0092596530798
 20
67.80922310690584
 30
0.0
 11
211.0481665336675
 21
67.80922310690584
 31
0.0
  0
LINE
  5
E76A
330
E767
100
AcDbEntity
  8
2寸法線
 62
     0
440
 16777216
 48
3.0
370
    -2
100
AcDbLine
 10
218.4092238716416
 20
74.80530348526826
 30
0.0
 11
211.0481665336675
 21
74.80530348526826
 31
0.0
  0
LINE
  5
E76B
330
E767
100
AcDbEntity
  8
2寸法線
 62
     0
440
 16777216
 48
3.0
370
    -2
100
AcDbLine
 10
212.0481665336674
 20
73.30530348526827
 30
0.0
 11
212.0481665336674
 21
69.30922310690585
 31
0.0
  0
LINE
  5
E76C
330
E767
100
AcDbEntity
  8
2寸法線
 62
     0
440
 16777216
 48
3.0
370
    -2
100
AcDbLine
 10
212.0481665336674
 20
67.80922310690584
 30
0.0
 11
212.0481665336674
 21
58.09283187337962
 31
0.0
  0
INSERT
  5
E76D
330
E767
100
AcDbEntity
  8
2寸法線
 62
     0
440
 16777216
 48
3.0
370
    -2
100
AcDbBlockReference
  2
Y2
 10
212.0481665336674
 20
74.80530348526826
 30
0.0
 41
1.5
 42
1.5
 43
1.5
 50
90.0
  0
INSERT
  5
E76E
330
E767
100
AcDbEntity
  8
2寸法線
 62
     0
440
 16777216
 48
3.0
370
    -2
100
AcDbBlockReference
  2
Y2
 10
212.0481665336674
 20
67.80922310690584
 30
0.0
 41
1.5
 42
1.5
 43
1.5
 50
270.0
  0
MTEXT
  5
E76F
330
E767
100
AcDbEntity
  8
2寸法線
 62
     1
440
 16777216
 48
3.0
100
AcDbMText
 10
209.2981665336674
 20
61.67616520671299
 30
0.0
 40
3.5
 41
0.0
 46
0.0
 71
     5
 72
     1
  1
\A1;14
  7
KANJI
 11
0.0000000000000001
 21
1.0
 31
0.0
 73
     1
 44
1.0
  0
POINT
  5
E770
330
E767
100
AcDbEntity
  8
DEFPOINTS
 62
     0
440
 16777216
 48
3.0
100
AcDbPoint
 10
217.0092596530798
 20
67.80922310690584
 30
0.0
  0
POINT
  5
E771
330
E767
100
AcDbEntity
  8
DEFPOINTS
 62
     0
440
 16777216
 48
3.0
100
AcDbPoint
 10
220.4092238716416
 20
74.80530348526826
 30
0.0
  0
POINT
  5
E772
330
E767
100
AcDbEntity
  8
DEFPOINTS
 62
     0
440
 16777216
 48
3.0
100
AcDbPoint
 10
212.0481665336674
 20
74.80530348526826
 30
0.0
  0
ENDBLK
  5
E773
330
E767
100
AcDbEntity
  8
0
 48
2.0
100
AcDbBlockEnd
  0
BLOCK
  5
E775
330
E774
100
AcDbEntity
  8
0
 48
2.0
100
AcDbBlockBegin
  2
*D7
 70
     1
 10
0.0
 20
0.0
 30
0.0
  3
*D7
  1

  0
LINE
  5
E776
330
E774
100
AcDbEntity
  8
2寸法線
 62
     0
440
 16777216
 48
3.0
370
    -2
100
AcDbLine
 10
178.5287479980265
 20
112.8053049455811
 30
0.0
 11
169.6874763654418
 21
112.8053049455811
 31
0.0
  0
LINE
  5
E777
330
E774
100
AcDbEntity
  8
2寸法線
 62
     0
440
 16777216
 48
3.0
370
    -2
100
AcDbLine
 10
175.1342596530798
 20
119.8092223993649
 30
0.0
 11
169.6874763654418
 21
119.8092223993649
 31
0.0
  0
LINE
  5
E778
330
E774
100
AcDbEntity
  8
2寸法線
 62
     0
440
 16777216
 48
3.0
370
    -2
100
AcDbLine
 10
170.6874763654418
 20
114.3053049455811
 30
0.0
 11
170.6874763654418
 21
118.3092223993649
 31
0.0
  0
LINE
  5
E779
330
E774
100
AcDbEntity
  8
2寸法線
 62
     0
440
 16777216
 48
3.0
370
    -2
100
AcDbLine
 10
170.6874763654418
 20
119.8092223993649
 30
0.0
 11
170.6874763654418
 21
129.4718576231783
 31
0.0
  0
INSERT
  5
E77A
330
E774
100
AcDbEntity
  8
2寸法線
 62
     0
440
 16777216
 48
3.0
370
    -2
100
AcDbBlockReference
  2
Y2
 10
170.6874763654418
 20
112.8053049455811
 30
0.0
 41
1.5
 42
1.5
 43
1.5
 50
270.0
  0
INSERT
  5
E77B
330
E774
100
AcDbEntity
  8
2寸法線
 62
     0
440
 16777216
 48
3.0
370
    -2
100
AcDbBlockReference
  2
Y2
 10
170.6874763654418
 20
119.8092223993649
 30
0.0
 41
1.5
 42
1.5
 43
1.5
 50
90.0
  0
MTEXT
  5
E77C
330
E774
100
AcDbEntity
  8
2寸法線
 62
     1
440
 16777216
 48
3.0
100
AcDbMText
 10
167.9374763654418
 20
125.888524289845
 30
0.0
 40
3.5
 41
0.0
 46
0.0
 71
     5
 72
     1
  1
\A1;14
  7
KANJI
 11
0.0000000000000001
 21
1.0
 31
0.0
 73
     1
 44
1.0
  0
POINT
  5
E77D
330
E774
100
AcDbEntity
  8
DEFPOINTS
 62
     0
440
 16777216
 48
3.0
100
AcDbPoint
 10
180.5287479980265
 20
112.8053049455811
 30
0.0
  0
POINT
  5
E77E
330
E774
100
AcDbEntity
  8
DEFPOINTS
 62
     0
440
 16777216
 48
3.0
100
AcDbPoint
 10
177.1342596530798
 20
119.8092223993649
 30
0.0
  0
POINT
  5
E77F
330
E774
100
AcDbEntity
  8
DEFPOINTS
 62
     0
440
 16777216
 48
3.0
100
AcDbPoint
 10
170.6874763654418
 20
119.8092223993649
 30
0.0
  0
ENDBLK
  5
E780
330
E774
100
AcDbEntity
  8
0
 48
2.0
100
AcDbBlockEnd
  0
BLOCK
  5
E782
330
E781
100
AcDbEntity
  8
0
 48
2.0
100
AcDbBlockBegin
  2
*D8
 70
     1
 10
0.0
 20
0.0
 30
0.0
  3
*D8
  1

  0
LINE
  5
E783
330
E781
100
AcDbEntity
  8
2寸法線
 62
     0
440
 16777216
 48
2.0
370
    -2
100
AcDbLine
 10
178.0390880236113
 20
89.83590393150965
 30
0.0
 11
164.8819451664685
 21
89.83590393150963
 31
0.0
  0
LINE
  5
E784
330
E781
100
AcDbEntity
  8
2寸法線
 62
     0
440
 16777216
 48
2.0
370
    -2
100
AcDbLine
 10
164.8819451664685
 20
89.83590393150963
 30
0.0
 11
158.3211945955395
 21
96.70242495976872
 31
0.0
  0
LINE
  5
E785
330
E781
100
AcDbEntity
  8
2寸法線
 62
     0
440
 16777216
 48
2.0
370
    -2
100
AcDbLine
 10
153.3472531477617
 20
101.9081820107732
 30
0.0
 11
152.3110153461414
 21
102.9927147297325
 31
0.0
  0
MTEXT
  5
E786
102
{ACAD_XDICTIONARY
360
E787
102
}
330
E781
100
AcDbEntity
  8
2寸法線
 62
     0
440
 16777216
 48
2.0
100
AcDbMText
 10
171.71051659504
 20
91.83590393150963
 30
0.0
 40
3.0
 41
0.0
 46
0.0
 71
     5
 72
     1
  1
\A1;∅4.2穴
  7
KANJI
 73
     1
 44
1.0
  0
LINE
  5
E788
330
E781
100
AcDbEntity
  8
2寸法線
 62
     0
440
 16777216
 48
2.0
370
    -2
100
AcDbLine
 10
154.383490949382
 20
100.823649291814
 30
0.0
 11
157.2849567939192
 21
97.78695767872795
 31
0.0
  0
INSERT
  5
E789
330
E781
100
AcDbEntity
  8
2寸法線
 62
     0
440
 16777216
 48
2.0
370
    -2
100
AcDbBlockReference
  2
Y2
 10
154.383490949382
 20
100.823649291814
 30
0.0
 41
1.5
 42
1.5
 43
1.5
 50
313.695466229071
  0
INSERT
  5
E78A
330
E781
100
AcDbEntity
  8
2寸法線
 62
     0
440
 16777216
 48
2.0
370
    -2
100
AcDbBlockReference
  2
Y2
 10
157.2849567939192
 20
97.78695767872795
 30
0.0
 41
1.5
 42
1.5
 43
1.5
 50
133.695466229071
  0
POINT
  5
E78B
330
E781
100
AcDbEntity
  8
DEFPOINTS
 62
     0
440
 16777216
 48
2.0
100
AcDbPoint
 10
157.2849567939192
 20
97.78695767872795
 30
0.0
  0
POINT
  5
E78C
330
E781
100
AcDbEntity
  8
DEFPOINTS
 62
     0
440
 16777216
 48
2.0
100
AcDbPoint
 10
154.383490949382
 20
100.823649291814
 30
0.0
  0
ENDBLK
  5
E78D
330
E781
100
AcDbEntity
  8
0
 48
2.0
100
AcDbBlockEnd
  0
BLOCK
  5
E78F
330
E78E
100
AcDbEntity
  8
0
 48
2.0
100
AcDbBlockBegin
  2
*D9
 70
     1
 10
0.0
 20
0.0
 30
0.0
  3
*D9
  1

  0
LINE
  5
E790
330
E78E
100
AcDbEntity
  8
2寸法線
 62
     0
440
 16777216
 48
3.0
370
    -2
100
AcDbLine
 10
221.3765533162743
 20
231.6425745232546
 30
0.0
 11
244.6803542425045
 21
231.6425745232546
 31
0.0
  0
LINE
  5
E791
330
E78E
100
AcDbEntity
  8
2寸法線
 62
     0
440
 16777216
 48
3.0
370
    -2
100
AcDbLine
 10
223.3342238716527
 20
263.1425751789084
 30
0.0
 11
244.6803542425045
 21
263.1425751789084
 31
0.0
  0
LINE
  5
E792
330
E78E
100
AcDbEntity
  8
2寸法線
 62
     0
440
 16777216
 48
3.0
370
    -2
100
AcDbLine
 10
243.6803542425045
 20
233.1425745232546
 30
0.0
 11
243.6803542425045
 21
261.6425751789084
 31
0.0
  0
INSERT
  5
E793
330
E78E
100
AcDbEntity
  8
2寸法線
 62
     0
440
 16777216
 48
3.0
370
    -2
100
AcDbBlockReference
  2
Y2
 10
243.6803542425045
 20
231.6425745232546
 30
0.0
 41
1.5
 42
1.5
 43
1.5
 50
270.0
  0
INSERT
  5
E794
330
E78E
100
AcDbEntity
  8
2寸法線
 62
     0
440
 16777216
 48
3.0
370
    -2
100
AcDbBlockReference
  2
Y2
 10
243.6803542425045
 20
263.1425751789084
 30
0.0
 41
1.5
 42
1.5
 43
1.5
 50
90.0
  0
MTEXT
  5
E795
330
E78E
100
AcDbEntity
  8
2寸法線
 62
     1
440
 16777216
 48
3.0
100
AcDbMText
 10
240.9303542425045
 20
247.3925748510815
 30
0.0
 40
3.5
 41
0.0
 46
0.0
 71
     5
 72
     1
  1
\A1;63
  7
KANJI
 11
0.0000000000000001
 21
1.0
 31
0.0
 73
     1
 44
1.0
  0
POINT
  5
E796
330
E78E
100
AcDbEntity
  8
DEFPOINTS
 62
     0
440
 16777216
 48
3.0
100
AcDbPoint
 10
219.3765533162743
 20
231.6425745232546
 30
0.0
  0
POINT
  5
E797
330
E78E
100
AcDbEntity
  8
DEFPOINTS
 62
     0
440
 16777216
 48
3.0
100
AcDbPoint
 10
221.3342238716527
 20
263.1425751789084
 30
0.0
  0
POINT
  5
E798
330
E78E
100
AcDbEntity
  8
DEFPOINTS
 62
     0
440
 16777216
 48
3.0
100
AcDbPoint
 10
243.6803542425045
 20
263.1425751789084
 30
0.0
  0
ENDBLK
  5
E799
330
E78E
100
AcDbEntity
  8
0
 48
2.0
100
AcDbBlockEnd
  0
BLOCK
  5
E79B
330
E79A
100
AcDbEntity
  8
0
 48
2.0
100
AcDbBlockBegin
  2
*D10
 70
     1
 10
0.0
 20
0.0
 30
0.0
  3
*D10
  1

  0
LINE
  5
E79C
330
E79A
100
AcDbEntity
  8
2寸法線
 62
     0
440
 16777216
 48
3.0
370
    -2
100
AcDbLine
 10
223.3342238718073
 20
206.1425736291876
 30
0.0
 11
253.9574483500477
 21
206.1425736291876
 31
0.0
  0
LINE
  5
E79D
330
E79A
100
AcDbEntity
  8
2寸法線
 62
     0
440
 16777216
 48
3.0
370
    -2
100
AcDbLine
 10
223.3342238716527
 20
263.1425751789084
 30
0.0
 11
253.9574483500477
 21
263.1425751789084
 31
0.0
  0
LINE
  5
E79E
330
E79A
100
AcDbEntity
  8
2寸法線
 62
     0
440
 16777216
 48
3.0
370
    -2
100
AcDbLine
 10
252.9574483500478
 20
207.6425736291876
 30
0.0
 11
252.9574483500478
 21
261.6425751789084
 31
0.0
  0
INSERT
  5
E79F
330
E79A
100
AcDbEntity
  8
2寸法線
 62
     0
440
 16777216
 48
3.0
370
    -2
100
AcDbBlockReference
  2
Y2
 10
252.9574483500478
 20
206.1425736291876
 30
0.0
 41
1.5
 42
1.5
 43
1.5
 50
270.0
  0
INSERT
  5
E7A0
330
E79A
100
AcDbEntity
  8
2寸法線
 62
     0
440
 16777216
 48
3.0
370
    -2
100
AcDbBlockReference
  2
Y2
 10
252.9574483500478
 20
263.1425751789084
 30
0.0
 41
1.5
 42
1.5
 43
1.5
 50
90.0
  0
MTEXT
  5
E7A1
330
E79A
100
AcDbEntity
  8
2寸法線
 62
     1
440
 16777216
 48
3.0
100
AcDbMText
 10
250.2074483500477
 20
234.642574404048
 30
0.0
 40
3.5
 41
0.0
 46
0.0
 71
     5
 72
     1
  1
\A1;114
  7
KANJI
 11
0.0000000000000001
 21
1.0
 31
0.0
 73
     1
 44
1.0
  0
POINT
  5
E7A2
330
E79A
100
AcDbEntity
  8
DEFPOINTS
 62
     0
440
 16777216
 48
3.0
100
AcDbPoint
 10
221.3342238718073
 20
206.1425736291876
 30
0.0
  0
POINT
  5
E7A3
330
E79A
100
AcDbEntity
  8
DEFPOINTS
 62
     0
440
 16777216
 48
3.0
100
AcDbPoint
 10
221.3342238716527
 20
263.1425751789084
 30
0.0
  0
POINT
  5
E7A4
330
E79A
100
AcDbEntity
  8
DEFPOINTS
 62
     0
440
 16777216
 48
3.0
100
AcDbPoint
 10
252.9574483500478
 20
263.1425751789084
 30
0.0
  0
ENDBLK
  5
E7A5
330
E79A
100
AcDbEntity
  8
0
 48
2.0
100
AcDbBlockEnd
  0
BLOCK
  5
E7A7
330
E7A6
100
AcDbEntity
  8
0
 48
2.0
100
AcDbBlockBegin
  2
*D11
 70
     1
 10
0.0
 20
0.0
 30
0.0
  3
*D11
  1

  0
LINE
  5
E7A8
330
E7A6
100
AcDbEntity
  8
2寸法線
 62
     0
440
 16777216
 48
3.0
370
    -2
100
AcDbLine
 10
221.3765533162743
 20
231.6425745232546
 30
0.0
 11
244.6803542425045
 21
231.6425745232546
 31
0.0
  0
LINE
  5
E7A9
330
E7A6
100
AcDbEntity
  8
2寸法線
 62
     0
440
 16777216
 48
3.0
370
    -2
100
AcDbLine
 10
182.6538832511109
 20
211.1425744487515
 30
0.0
 11
244.6803542425045
 21
211.1425744487514
 31
0.0
  0
LINE
  5
E7AA
330
E7A6
100
AcDbEntity
  8
2寸法線
 62
     0
440
 16777216
 48
3.0
370
    -2
100
AcDbLine
 10
243.6803542425045
 20
230.1425745232545
 30
0.0
 11
243.6803542425045
 21
212.6425744487514
 31
0.0
  0
INSERT
  5
E7AB
330
E7A6
100
AcDbEntity
  8
2寸法線
 62
     0
440
 16777216
 48
3.0
370
    -2
100
AcDbBlockReference
  2
Y2
 10
243.6803542425045
 20
231.6425745232546
 30
0.0
 41
1.5
 42
1.5
 43
1.5
 50
90.0
  0
INSERT
  5
E7AC
330
E7A6
100
AcDbEntity
  8
2寸法線
 62
     0
440
 16777216
 48
3.0
370
    -2
100
AcDbBlockReference
  2
Y2
 10
243.6803542425045
 20
211.1425744487514
 30
0.0
 41
1.5
 42
1.5
 43
1.5
 50
270.0
  0
MTEXT
  5
E7AD
330
E7A6
100
AcDbEntity
  8
2寸法線
 62
     1
440
 16777216
 48
3.0
100
AcDbMText
 10
240.9303542425044
 20
221.3925744860031
 30
0.0
 40
3.5
 41
0.0
 46
0.0
 71
     5
 72
     1
  1
\A1;41
  7
KANJI
 11
0.0000000000000001
 21
1.0
 31
0.0
 73
     1
 44
1.0
  0
POINT
  5
E7AE
330
E7A6
100
AcDbEntity
  8
DEFPOINTS
 62
     0
440
 16777216
 48
3.0
100
AcDbPoint
 10
219.3765533162743
 20
231.6425745232546
 30
0.0
  0
POINT
  5
E7AF
330
E7A6
100
AcDbEntity
  8
DEFPOINTS
 62
     0
440
 16777216
 48
3.0
100
AcDbPoint
 10
180.6538832511109
 20
211.1425744487515
 30
0.0
  0
POINT
  5
E7B0
330
E7A6
100
AcDbEntity
  8
DEFPOINTS
 62
     0
440
 16777216
 48
3.0
100
AcDbPoint
 10
243.6803542425045
 20
211.1425744487514
 30
0.0
  0
ENDBLK
  5
E7B1
330
E7A6
100
AcDbEntity
  8
0
 48
2.0
100
AcDbBlockEnd
  0
BLOCK
  5
F267
330
F266
100
AcDbEntity
  8
0
 48
3.0
100
AcDbBlockBegin
  2
*D13
 70
     1
 10
0.0
 20
0.0
 30
0.0
  3
*D13
  1

  0
LINE
  5
F38C
330
F266
100
AcDbEntity
  8
2寸法線
 62
     0
440
 16777216
 48
3.0
370
    -2
100
AcDbLine
 10
1662.019423910023
 20
330.3595090792256
 30
0.0
 11
1709.627025762485
 21
330.3595090792257
 31
0.0
  0
LINE
  5
F38D
330
F266
100
AcDbEntity
  8
2寸法線
 62
     0
440
 16777216
 48
3.0
370
    -2
100
AcDbLine
 10
1584.574083779697
 20
289.3595089302195
 30
0.0
 11
1709.627025762485
 21
289.3595089302195
 31
0.0
  0
LINE
  5
F38E
330
F266
100
AcDbEntity
  8
2寸法線
 62
     0
440
 16777216
 48
3.0
370
    -2
100
AcDbLine
 10
1708.627025762485
 20
328.8595090792257
 30
0.0
 11
1708.627025762485
 21
290.8595089302195
 31
0.0
  0
INSERT
  5
F38F
330
F266
100
AcDbEntity
  8
2寸法線
 62
     0
440
 16777216
 48
3.0
370
    -2
100
AcDbBlockReference
  2
1
 10
1708.627025762485
 20
330.3595090792257
 30
0.0
 41
1.5
 42
1.5
 43
1.5
 50
90.0
  0
INSERT
  5
F390
330
F266
100
AcDbEntity
  8
2寸法線
 62
     0
440
 16777216
 48
3.0
370
    -2
100
AcDbBlockReference
  2
1
 10
1708.627025762485
 20
289.3595089302195
 30
0.0
 41
1.5
 42
1.5
 43
1.5
 50
270.0
  0
MTEXT
  5
F391
330
F266
100
AcDbEntity
  8
2寸法線
 62
     1
440
 16777216
 48
3.0
100
AcDbMText
 10
1705.877025762484
 20
309.859509004722
 30
0.0
 40
3.5
 41
0.0
 46
0.0
 71
     5
 72
     1
  1
\A1;82
  7
KANJI
 11
0.0000000000000001
 21
1.0
 31
0.0
 73
     1
 44
1.0
  0
POINT
  5
F392
330
F266
100
AcDbEntity
  8
DEFPOINTS
 62
     0
440
 16777216
 48
3.0
100
AcDbPoint
 10
1660.019423910023
 20
330.3595090792256
 30
0.0
  0
POINT
  5
F393
330
F266
100
AcDbEntity
  8
DEFPOINTS
 62
     0
440
 16777216
 48
3.0
100
AcDbPoint
 10
1582.574083779697
 20
289.3595089302195
 30
0.0
  0
POINT
  5
F394
330
F266
100
AcDbEntity
  8
DEFPOINTS
 62
     0
440
 16777216
 48
3.0
100
AcDbPoint
 10
1708.627025762485
 20
289.3595089302195
 30
0.0
  0
ENDBLK
  5
F268
330
F266
100
AcDbEntity
  8
0
 48
3.0
100
AcDbBlockEnd
  0
BLOCK
  5
F273
330
F272
100
AcDbEntity
  8
0
 48
3.0
100
AcDbBlockBegin
  2
*D14
 70
     1
 10
0.0
 20
0.0
 30
0.0
  3
*D14
  1

  0
LINE
  5
F33A
330
F272
100
AcDbEntity
  8
2寸法線
 62
     0
440
 16777216
 48
3.0
370
    -2
100
AcDbLine
 10
1432.934765020779
 20
359.4441679684692
 30
0.0
 11
1432.934765020779
 21
406.098142417069
 31
0.0
  0
LINE
  5
F33B
330
F272
100
AcDbEntity
  8
2寸法線
 62
     0
440
 16777216
 48
3.0
370
    -2
100
AcDbLine
 10
1632.934765020779
 20
359.4441679684692
 30
0.0
 11
1632.934765020779
 21
406.098142417069
 31
0.0
  0
LINE
  5
F33C
330
F272
100
AcDbEntity
  8
2寸法線
 62
     0
440
 16777216
 48
3.0
370
    -2
100
AcDbLine
 10
1434.434765020779
 20
405.098142417069
 30
0.0
 11
1631.434765020779
 21
405.098142417069
 31
0.0
  0
INSERT
  5
F33D
330
F272
100
AcDbEntity
  8
2寸法線
 62
     0
440
 16777216
 48
3.0
370
    -2
100
AcDbBlockReference
  2
1
 10
1432.934765020779
 20
405.098142417069
 30
0.0
 41
1.5
 42
1.5
 43
1.5
 50
180.0
  0
INSERT
  5
F33E
330
F272
100
AcDbEntity
  8
2寸法線
 62
     0
440
 16777216
 48
3.0
370
    -2
100
AcDbBlockReference
  2
1
 10
1632.934765020779
 20
405.098142417069
 30
0.0
 41
1.5
 42
1.5
 43
1.5
  0
MTEXT
  5
F33F
330
F272
100
AcDbEntity
  8
2寸法線
 62
     1
440
 16777216
 48
3.0
100
AcDbMText
 10
1532.93476502078
 20
407.848142417069
 30
0.0
 40
3.5
 41
0.0
 46
0.0
 71
     5
 72
     1
  1
\A1;400
  7
KANJI
 73
     1
 44
1.0
  0
POINT
  5
F340
330
F272
100
AcDbEntity
  8
DEFPOINTS
 62
     0
440
 16777216
 48
3.0
100
AcDbPoint
 10
1432.934765020779
 20
357.4441679684692
 30
0.0
  0
POINT
  5
F341
330
F272
100
AcDbEntity
  8
DEFPOINTS
 62
     0
440
 16777216
 48
3.0
100
AcDbPoint
 10
1632.934765020779
 20
357.4441679684692
 30
0.0
  0
POINT
  5
F342
330
F272
100
AcDbEntity
  8
DEFPOINTS
 62
     0
440
 16777216
 48
3.0
100
AcDbPoint
 10
1632.934765020779
 20
405.098142417069
 30
0.0
  0
ENDBLK
  5
F274
330
F272
100
AcDbEntity
  8
0
 48
3.0
100
AcDbBlockEnd
  0
BLOCK
  5
F27F
330
F27E
100
AcDbEntity
  8
0
 48
3.0
100
AcDbBlockBegin
  2
*D15
 70
     1
 10
0.0
 20
0.0
 30
0.0
  3
*D15
  1

  0
LINE
  5
F343
330
F27E
100
AcDbEntity
  8
2寸法線
 62
     0
440
 16777216
 48
2.0
370
    -2
100
AcDbLine
 10
1412.909869443318
 20
320.1001934533247
 30
0.0
 11
1411.574876404821
 21
319.4162390782647
 31
0.0
  0
LINE
  5
F344
330
F27E
100
AcDbEntity
  8
2寸法線
 62
     0
440
 16777216
 48
2.0
370
    -2
100
AcDbLine
 10
1452.959660598239
 20
340.6188247051285
 30
0.0
 11
1473.196459832603
 21
350.9867045175477
 31
0.0
  0
LINE
  5
F345
330
F27E
100
AcDbEntity
  8
2寸法線
 62
     0
440
 16777216
 48
2.0
370
    -2
100
AcDbLine
 10
1414.244862481816
 20
320.7841478283849
 30
0.0
 11
1451.624667559741
 21
339.9348703300685
 31
0.0
  0
INSERT
  5
F346
330
F27E
100
AcDbEntity
  8
2寸法線
 62
     0
440
 16777216
 48
2.0
370
    -2
100
AcDbBlockReference
  2
1
 10
1414.244862481816
 20
320.7841478283849
 30
0.0
 41
1.5
 42
1.5
 43
1.5
 50
27.12733629753024
  0
INSERT
  5
F347
330
F27E
100
AcDbEntity
  8
2寸法線
 62
     0
440
 16777216
 48
2.0
370
    -2
100
AcDbBlockReference
  2
1
 10
1451.624667559741
 20
339.9348703300685
 30
0.0
 41
1.5
 42
1.5
 43
1.5
 50
207.1273362975302
  0
MTEXT
  5
F348
330
F27E
100
AcDbEntity
  8
2寸法線
 62
     1
440
 16777216
 48
2.0
100
AcDbMText
 10
1466.361436734351
 20
350.8557345823915
 30
0.0
 40
4.0
 41
0.0
 46
0.0
 71
     5
 72
     1
  1
\A1;∅84
  7
KANJI
 11
0.8899953589981793
 21
0.4559695833733892
 31
0.0
 73
     1
 44
1.0
  0
POINT
  5
F349
330
F27E
100
AcDbEntity
  8
DEFPOINTS
 62
     0
440
 16777216
 48
2.0
100
AcDbPoint
 10
1451.624667559741
 20
339.9348703300685
 30
0.0
  0
POINT
  5
F34A
330
F27E
100
AcDbEntity
  8
DEFPOINTS
 62
     0
440
 16777216
 48
2.0
100
AcDbPoint
 10
1414.244862481816
 20
320.7841478283849
 30
0.0
  0
ENDBLK
  5
F280
330
F27E
100
AcDbEntity
  8
0
 48
3.0
100
AcDbBlockEnd
  0
BLOCK
  5
F28A
330
F289
100
AcDbEntity
  8
0
 48
3.0
100
AcDbBlockBegin
  2
*D16
 70
     1
 10
0.0
 20
0.0
 30
0.0
  3
*D16
  1

  0
LINE
  5
F34B
330
F289
100
AcDbEntity
  8
2寸法線
 62
     0
440
 16777216
 48
3.0
370
    -2
100
AcDbLine
 10
1381.934765020776
 20
176.1870597132051
 30
0.0
 11
1381.934765020776
 21
152.7679195589021
 31
0.0
  0
LINE
  5
F34C
330
F289
100
AcDbEntity
  8
2寸法線
 62
     0
440
 16777216
 48
3.0
370
    -2
100
AcDbLine
 10
1683.934751192502
 20
176.1870597132051
 30
0.0
 11
1683.934751192502
 21
152.7679195589021
 31
0.0
  0
LINE
  5
F34D
330
F289
100
AcDbEntity
  8
2寸法線
 62
     0
440
 16777216
 48
3.0
370
    -2
100
AcDbLine
 10
1383.434765020776
 20
153.7679195589021
 30
0.0
 11
1682.434751192502
 21
153.7679195589021
 31
0.0
  0
INSERT
  5
F34E
330
F289
100
AcDbEntity
  8
2寸法線
 62
     0
440
 16777216
 48
3.0
370
    -2
100
AcDbBlockReference
  2
1
 10
1381.934765020776
 20
153.7679195589021
 30
0.0
 41
1.5
 42
1.5
 43
1.5
 50
180.0
  0
INSERT
  5
F34F
330
F289
100
AcDbEntity
  8
2寸法線
 62
     0
440
 16777216
 48
3.0
370
    -2
100
AcDbBlockReference
  2
1
 10
1683.934751192502
 20
153.7679195589021
 30
0.0
 41
1.5
 42
1.5
 43
1.5
  0
MTEXT
  5
F350
330
F289
100
AcDbEntity
  8
2寸法線
 62
     1
440
 16777216
 48
3.0
100
AcDbMText
 10
1532.934758106639
 20
156.5179195589021
 30
0.0
 40
3.5
 41
0.0
 46
0.0
 71
     5
 72
     1
  1
\A1;604
  7
KANJI
 73
     1
 44
1.0
  0
POINT
  5
F351
330
F289
100
AcDbEntity
  8
DEFPOINTS
 62
     0
440
 16777216
 48
3.0
100
AcDbPoint
 10
1381.934765020776
 20
178.1870597132051
 30
0.0
  0
POINT
  5
F352
330
F289
100
AcDbEntity
  8
DEFPOINTS
 62
     0
440
 16777216
 48
3.0
100
AcDbPoint
 10
1683.934751192502
 20
178.1870597132051
 30
0.0
  0
POINT
  5
F353
330
F289
100
AcDbEntity
  8
DEFPOINTS
 62
     0
440
 16777216
 48
3.0
100
AcDbPoint
 10
1683.934751192502
 20
153.7679195589021
 30
0.0
  0
ENDBLK
  5
F28B
330
F289
100
AcDbEntity
  8
0
 48
3.0
100
AcDbBlockEnd
  0
BLOCK
  5
F296
330
F295
100
AcDbEntity
  8
0
 48
3.0
100
AcDbBlockBegin
  2
*D17
 70
     1
 10
0.0
 20
0.0
 30
0.0
  3
*D17
  1

  0
LINE
  5
F354
330
F295
100
AcDbEntity
  8
2寸法線
 62
     0
440
 16777216
 48
3.0
370
    -2
100
AcDbLine
 10
1882.914235534945
 20
178.1870597132052
 30
0.0
 11
1906.272151272584
 21
178.1870597132052
 31
0.0
  0
LINE
  5
F355
330
F295
100
AcDbEntity
  8
2寸法線
 62
     0
440
 16777216
 48
3.0
370
    -2
100
AcDbLine
 10
1873.340815199311
 20
234.1870598340935
 30
0.0
 11
1906.272151272584
 21
234.1870598340935
 31
0.0
  0
LINE
  5
F356
330
F295
100
AcDbEntity
  8
2寸法線
 62
     0
440
 16777216
 48
3.0
370
    -2
100
AcDbLine
 10
1905.272151272584
 20
179.6870597132052
 30
0.0
 11
1905.272151272584
 21
232.6870598340935
 31
0.0
  0
INSERT
  5
F357
330
F295
100
AcDbEntity
  8
2寸法線
 62
     0
440
 16777216
 48
3.0
370
    -2
100
AcDbBlockReference
  2
1
 10
1905.272151272584
 20
178.1870597132052
 30
0.0
 41
1.5
 42
1.5
 43
1.5
 50
270.0
  0
INSERT
  5
F358
330
F295
100
AcDbEntity
  8
2寸法線
 62
     0
440
 16777216
 48
3.0
370
    -2
100
AcDbBlockReference
  2
1
 10
1905.272151272584
 20
234.1870598340935
 30
0.0
 41
1.5
 42
1.5
 43
1.5
 50
90.0
  0
MTEXT
  5
F359
330
F295
100
AcDbEntity
  8
2寸法線
 62
     1
440
 16777216
 48
3.0
100
AcDbMText
 10
1902.522151272584
 20
206.1870597736487
 30
0.0
 40
3.5
 41
0.0
 46
0.0
 71
     5
 72
     1
  1
\A1;112
  7
KANJI
 11
0.0000000000000001
 21
1.0
 31
0.0
 73
     1
 44
1.0
  0
POINT
  5
F35A
330
F295
100
AcDbEntity
  8
DEFPOINTS
 62
     0
440
 16777216
 48
3.0
100
AcDbPoint
 10
1880.914235534945
 20
178.1870597132052
 30
0.0
  0
POINT
  5
F35B
330
F295
100
AcDbEntity
  8
DEFPOINTS
 62
     0
440
 16777216
 48
3.0
100
AcDbPoint
 10
1871.340815199311
 20
234.1870598340935
 30
0.0
  0
POINT
  5
F35C
330
F295
100
AcDbEntity
  8
DEFPOINTS
 62
     0
440
 16777216
 48
3.0
100
AcDbPoint
 10
1905.272151272584
 20
234.1870598340935
 30
0.0
  0
ENDBLK
  5
F297
330
F295
100
AcDbEntity
  8
0
 48
3.0
100
AcDbBlockEnd
  0
BLOCK
  5
F2A2
330
F2A1
100
AcDbEntity
  8
0
 48
3.0
100
AcDbBlockBegin
  2
*D18
 70
     1
 10
0.0
 20
0.0
 30
0.0
  3
*D18
  1

  0
LINE
  5
F35D
330
F2A1
100
AcDbEntity
  8
2寸法線
 62
     0
440
 16777216
 48
3.0
370
    -2
100
AcDbLine
 10
1653.284836583635
 20
2.692806246528107
 30
0.0
 11
1644.362650344809
 21
2.692806246528106
 31
0.0
  0
LINE
  5
F35E
330
F2A1
100
AcDbEntity
  8
2寸法線
 62
     0
440
 16777216
 48
3.0
370
    -2
100
AcDbLine
 10
1660.084765020758
 20
16.68496700325295
 30
0.0
 11
1644.362650344809
 21
16.68496700325295
 31
0.0
  0
LINE
  5
F35F
330
F2A1
100
AcDbEntity
  8
2寸法線
 62
     0
440
 16777216
 48
3.0
370
    -2
100
AcDbLine
 10
1645.362650344809
 20
15.18496700325295
 30
0.0
 11
1645.362650344809
 21
4.192806246528106
 31
0.0
  0
LINE
  5
F360
330
F2A1
100
AcDbEntity
  8
2寸法線
 62
     0
440
 16777216
 48
3.0
370
    -2
100
AcDbLine
 10
1645.362650344809
 20
2.692806246528106
 30
0.0
 11
1645.362650344809
 21
-13.40664288719047
 31
0.0
  0
INSERT
  5
F361
330
F2A1
100
AcDbEntity
  8
2寸法線
 62
     0
440
 16777216
 48
3.0
370
    -2
100
AcDbBlockReference
  2
1
 10
1645.362650344809
 20
16.68496700325295
 30
0.0
 41
1.5
 42
1.5
 43
1.5
 50
90.0
  0
INSERT
  5
F362
330
F2A1
100
AcDbEntity
  8
2寸法線
 62
     0
440
 16777216
 48
3.0
370
    -2
100
AcDbBlockReference
  2
1
 10
1645.362650344809
 20
2.692806246528106
 30
0.0
 41
1.5
 42
1.5
 43
1.5
 50
270.0
  0
MTEXT
  5
F363
330
F2A1
100
AcDbEntity
  8
2寸法線
 62
     1
440
 16777216
 48
3.0
100
AcDbMText
 10
1642.612650344809
 20
-9.573309553857598
 30
0.0
 40
3.5
 41
0.0
 46
0.0
 71
     5
 72
     1
  1
\A1;28
  7
KANJI
 11
0.0000000000000001
 21
1.0
 31
0.0
 73
     1
 44
1.0
  0
POINT
  5
F364
330
F2A1
100
AcDbEntity
  8
DEFPOINTS
 62
     0
440
 16777216
 48
3.0
100
AcDbPoint
 10
1655.284836583635
 20
2.692806246528108
 30
0.0
  0
POINT
  5
F365
330
F2A1
100
AcDbEntity
  8
DEFPOINTS
 62
     0
440
 16777216
 48
3.0
100
AcDbPoint
 10
1662.084765020758
 20
16.68496700325295
 30
0.0
  0
POINT
  5
F366
330
F2A1
100
AcDbEntity
  8
DEFPOINTS
 62
     0
440
 16777216
 48
3.0
100
AcDbPoint
 10
1645.362650344809
 20
16.68496700325295
 30
0.0
  0
ENDBLK
  5
F2A3
330
F2A1
100
AcDbEntity
  8
0
 48
3.0
100
AcDbBlockEnd
  0
BLOCK
  5
F2AF
330
F2AE
100
AcDbEntity
  8
0
 48
3.0
100
AcDbBlockBegin
  2
*D19
 70
     1
 10
0.0
 20
0.0
 30
0.0
  3
*D19
  1

  0
LINE
  5
F367
330
F2AE
100
AcDbEntity
  8
2寸法線
 62
     0
440
 16777216
 48
3.0
370
    -2
100
AcDbLine
 10
1580.323813273528
 20
92.68496992387875
 30
0.0
 11
1561.641270008358
 21
92.68496992387873
 31
0.0
  0
LINE
  5
F368
330
F2AE
100
AcDbEntity
  8
2寸法線
 62
     0
440
 16777216
 48
3.0
370
    -2
100
AcDbLine
 10
1573.534836583634
 20
106.6928048314462
 30
0.0
 11
1561.641270008358
 21
106.6928048314462
 31
0.0
  0
LINE
  5
F369
330
F2AE
100
AcDbEntity
  8
2寸法線
 62
     0
440
 16777216
 48
3.0
370
    -2
100
AcDbLine
 10
1562.641270008358
 20
94.18496992387874
 30
0.0
 11
1562.641270008358
 21
105.1928048314462
 31
0.0
  0
LINE
  5
F36A
330
F2AE
100
AcDbEntity
  8
2寸法線
 62
     0
440
 16777216
 48
3.0
370
    -2
100
AcDbLine
 10
1562.641270008358
 20
106.6928048314462
 30
0.0
 11
1562.641270008358
 21
122.6847419457402
 31
0.0
  0
INSERT
  5
F36B
330
F2AE
100
AcDbEntity
  8
2寸法線
 62
     0
440
 16777216
 48
3.0
370
    -2
100
AcDbBlockReference
  2
1
 10
1562.641270008358
 20
92.68496992387873
 30
0.0
 41
1.5
 42
1.5
 43
1.5
 50
270.0
  0
INSERT
  5
F36C
330
F2AE
100
AcDbEntity
  8
2寸法線
 62
     0
440
 16777216
 48
3.0
370
    -2
100
AcDbBlockReference
  2
1
 10
1562.641270008358
 20
106.6928048314462
 30
0.0
 41
1.5
 42
1.5
 43
1.5
 50
90.0
  0
MTEXT
  5
F36D
330
F2AE
100
AcDbEntity
  8
2寸法線
 62
     1
440
 16777216
 48
3.0
100
AcDbMText
 10
1559.891270008358
 20
118.8514086124064
 30
0.0
 40
3.5
 41
0.0
 46
0.0
 71
     5
 72
     1
  1
\A1;28
  7
KANJI
 11
0.0000000000000001
 21
1.0
 31
0.0
 73
     1
 44
1.0
  0
POINT
  5
F36E
330
F2AE
100
AcDbEntity
  8
DEFPOINTS
 62
     0
440
 16777216
 48
3.0
100
AcDbPoint
 10
1582.323813273528
 20
92.68496992387875
 30
0.0
  0
POINT
  5
F36F
330
F2AE
100
AcDbEntity
  8
DEFPOINTS
 62
     0
440
 16777216
 48
3.0
100
AcDbPoint
 10
1575.534836583635
 20
106.6928048314462
 30
0.0
  0
POINT
  5
F370
330
F2AE
100
AcDbEntity
  8
DEFPOINTS
 62
     0
440
 16777216
 48
3.0
100
AcDbPoint
 10
1562.641270008358
 20
106.6928048314462
 30
0.0
  0
ENDBLK
  5
F2B0
330
F2AE
100
AcDbEntity
  8
0
 48
3.0
100
AcDbBlockEnd
  0
BLOCK
  5
F2BC
330
F2BB
100
AcDbEntity
  8
0
 48
3.0
100
AcDbBlockBegin
  2
*D20
 70
     1
 10
0.0
 20
0.0
 30
0.0
  3
*D20
  1

  0
LINE
  5
F371
330
F2BB
100
AcDbEntity
  8
2寸法線
 62
     0
440
 16777216
 48
2.0
370
    -2
100
AcDbLine
 10
1571.015921896126
 20
46.74616789573554
 30
0.0
 11
1551.030207610411
 21
46.74616789573542
 31
0.0
  0
LINE
  5
F372
330
F2BB
100
AcDbEntity
  8
2寸法線
 62
     0
440
 16777216
 48
2.0
370
    -2
100
AcDbLine
 10
1551.030207610411
 20
46.74616789573542
 30
0.0
 11
1536.872468666932
 21
61.56374267121305
 31
0.0
  0
LINE
  5
F373
330
F2BB
100
AcDbEntity
  8
2寸法線
 62
     0
440
 16777216
 48
2.0
370
    -2
100
AcDbLine
 10
1528.997061374618
 20
69.80619133530376
 30
0.0
 11
1527.960823572997
 21
70.89072405426304
 31
0.0
  0
MTEXT
  5
F374
330
F2BB
100
AcDbEntity
  8
2寸法線
 62
     0
440
 16777216
 48
2.0
100
AcDbMText
 10
1564.687350467554
 20
48.74616789573543
 30
0.0
 40
3.0
 41
0.0
 46
0.0
 71
     5
 72
     1
  1
\A1;∅8.4穴
  7
KANJI
 73
     1
 44
1.0
  0
LINE
  5
F375
330
F2BB
100
AcDbEntity
  8
2寸法線
 62
     0
440
 16777216
 48
2.0
370
    -2
100
AcDbLine
 10
1530.033299176238
 20
68.7216586163446
 30
0.0
 11
1535.836230865312
 21
62.64827539017232
 31
0.0
  0
INSERT
  5
F376
330
F2BB
100
AcDbEntity
  8
2寸法線
 62
     0
440
 16777216
 48
2.0
370
    -2
100
AcDbBlockReference
  2
1
 10
1530.033299176238
 20
68.7216586163446
 30
0.0
 41
1.5
 42
1.5
 43
1.5
 50
313.6954662290699
  0
INSERT
  5
F377
330
F2BB
100
AcDbEntity
  8
2寸法線
 62
     0
440
 16777216
 48
2.0
370
    -2
100
AcDbBlockReference
  2
1
 10
1535.836230865312
 20
62.64827539017232
 30
0.0
 41
1.5
 42
1.5
 43
1.5
 50
133.6954662290699
  0
POINT
  5
F378
330
F2BB
100
AcDbEntity
  8
DEFPOINTS
 62
     0
440
 16777216
 48
2.0
100
AcDbPoint
 10
1535.836230865312
 20
62.64827539017232
 30
0.0
  0
POINT
  5
F379
330
F2BB
100
AcDbEntity
  8
DEFPOINTS
 62
     0
440
 16777216
 48
2.0
100
AcDbPoint
 10
1530.033299176238
 20
68.7216586163446
 30
0.0
  0
ENDBLK
  5
F2BD
330
F2BB
100
AcDbEntity
  8
0
 48
3.0
100
AcDbBlockEnd
  0
BLOCK
  5
F2C8
330
F2C7
100
AcDbEntity
  8
0
 48
3.0
100
AcDbBlockBegin
  2
*D21
 70
     1
 10
0.0
 20
0.0
 30
0.0
  3
*D21
  1

  0
LINE
  5
F37A
330
F2C7
100
AcDbEntity
  8
2寸法線
 62
     0
440
 16777216
 48
3.0
370
    -2
100
AcDbLine
 10
1662.019423910023
 20
330.3595090792256
 30
0.0
 11
1709.627025762485
 21
330.3595090792257
 31
0.0
  0
LINE
  5
F37B
330
F2C7
100
AcDbEntity
  8
2寸法線
 62
     0
440
 16777216
 48
3.0
370
    -2
100
AcDbLine
 10
1665.93476502078
 20
393.3595103905334
 30
0.0
 11
1709.627025762485
 21
393.3595103905334
 31
0.0
  0
LINE
  5
F37C
330
F2C7
100
AcDbEntity
  8
2寸法線
 62
     0
440
 16777216
 48
3.0
370
    -2
100
AcDbLine
 10
1708.627025762485
 20
331.8595090792257
 30
0.0
 11
1708.627025762485
 21
391.8595103905334
 31
0.0
  0
INSERT
  5
F37D
330
F2C7
100
AcDbEntity
  8
2寸法線
 62
     0
440
 16777216
 48
3.0
370
    -2
100
AcDbBlockReference
  2
1
 10
1708.627025762485
 20
330.3595090792257
 30
0.0
 41
1.5
 42
1.5
 43
1.5
 50
270.0
  0
INSERT
  5
F37E
330
F2C7
100
AcDbEntity
  8
2寸法線
 62
     0
440
 16777216
 48
3.0
370
    -2
100
AcDbBlockReference
  2
1
 10
1708.627025762485
 20
393.3595103905334
 30
0.0
 41
1.5
 42
1.5
 43
1.5
 50
90.0
  0
MTEXT
  5
F37F
330
F2C7
100
AcDbEntity
  8
2寸法線
 62
     1
440
 16777216
 48
3.0
100
AcDbMText
 10
1705.877025762484
 20
361.859509734879
 30
0.0
 40
3.5
 41
0.0
 46
0.0
 71
     5
 72
     1
  1
\A1;126
  7
KANJI
 11
0.0000000000000001
 21
1.0
 31
0.0
 73
     1
 44
1.0
  0
POINT
  5
F380
330
F2C7
100
AcDbEntity
  8
DEFPOINTS
 62
     0
440
 16777216
 48
3.0
100
AcDbPoint
 10
1660.019423910023
 20
330.3595090792256
 30
0.0
  0
POINT
  5
F381
330
F2C7
100
AcDbEntity
  8
DEFPOINTS
 62
     0
440
 16777216
 48
3.0
100
AcDbPoint
 10
1663.934765020781
 20
393.3595103905334
 30
0.0
  0
POINT
  5
F382
330
F2C7
100
AcDbEntity
  8
DEFPOINTS
 62
     0
440
 16777216
 48
3.0
100
AcDbPoint
 10
1708.627025762485
 20
393.3595103905334
 30
0.0
  0
ENDBLK
  5
F2C9
330
F2C7
100
AcDbEntity
  8
0
 48
3.0
100
AcDbBlockEnd
  0
BLOCK
  5
F2D4
330
F2D3
100
AcDbEntity
  8
0
 48
3.0
100
AcDbBlockBegin
  2
*D22
 70
     1
 10
0.0
 20
0.0
 30
0.0
  3
*D22
  1

  0
LINE
  5
F383
330
F2D3
100
AcDbEntity
  8
2寸法線
 62
     0
440
 16777216
 48
3.0
370
    -2
100
AcDbLine
 10
1665.93476502109
 20
279.3595072910918
 30
0.0
 11
1728.181213977572
 21
279.3595072910918
 31
0.0
  0
LINE
  5
F384
330
F2D3
100
AcDbEntity
  8
2寸法線
 62
     0
440
 16777216
 48
3.0
370
    -2
100
AcDbLine
 10
1665.93476502078
 20
393.3595103905334
 30
0.0
 11
1728.181213977572
 21
393.3595103905334
 31
0.0
  0
LINE
  5
F385
330
F2D3
100
AcDbEntity
  8
2寸法線
 62
     0
440
 16777216
 48
3.0
370
    -2
100
AcDbLine
 10
1727.181213977571
 20
280.8595072910918
 30
0.0
 11
1727.181213977571
 21
391.8595103905334
 31
0.0
  0
INSERT
  5
F386
330
F2D3
100
AcDbEntity
  8
2寸法線
 62
     0
440
 16777216
 48
3.0
370
    -2
100
AcDbBlockReference
  2
1
 10
1727.181213977571
 20
279.3595072910918
 30
0.0
 41
1.5
 42
1.5
 43
1.5
 50
270.0
  0
INSERT
  5
F387
330
F2D3
100
AcDbEntity
  8
2寸法線
 62
     0
440
 16777216
 48
3.0
370
    -2
100
AcDbBlockReference
  2
1
 10
1727.181213977571
 20
393.3595103905334
 30
0.0
 41
1.5
 42
1.5
 43
1.5
 50
90.0
  0
MTEXT
  5
F388
330
F2D3
100
AcDbEntity
  8
2寸法線
 62
     1
440
 16777216
 48
3.0
100
AcDbMText
 10
1724.431213977571
 20
336.359508840812
 30
0.0
 40
3.5
 41
0.0
 46
0.0
 71
     5
 72
     1
  1
\A1;228
  7
KANJI
 11
0.0000000000000001
 21
1.0
 31
0.0
 73
     1
 44
1.0
  0
POINT
  5
F389
330
F2D3
100
AcDbEntity
  8
DEFPOINTS
 62
     0
440
 16777216
 48
3.0
100
AcDbPoint
 10
1663.93476502109
 20
279.3595072910918
 30
0.0
  0
POINT
  5
F38A
330
F2D3
100
AcDbEntity
  8
DEFPOINTS
 62
     0
440
 16777216
 48
3.0
100
AcDbPoint
 10
1663.934765020781
 20
393.3595103905334
 30
0.0
  0
POINT
  5
F38B
330
F2D3
100
AcDbEntity
  8
DEFPOINTS
 62
     0
440
 16777216
 48
3.0
100
AcDbPoint
 10
1727.181213977571
 20
393.3595103905334
 30
0.0
  0
ENDBLK
  5
F2D5
330
F2D3
100
AcDbEntity
  8
0
 48
3.0
100
AcDbBlockEnd
  0
BLOCK
  5
F397
330
F396
100
AcDbEntity
  8
0
 48
3.0
100
AcDbBlockBegin
  2
*D23
 70
     1
 10
0.0
 20
0.0
 30
0.0
  3
*D23
  1

  0
LINE
  5
F399
330
F396
100
AcDbEntity
  8
1外形線
 62
     0
440
 16777216
 48
3.0
370
    -2
100
AcDbLine
 10
1381.934765020776
 20
177.1870597132051
 30
0.0
 11
1381.934765020776
 21
143.4182354344764
 31
0.0
  0
LINE
  5
F39A
330
F396
100
AcDbEntity
  8
1外形線
 62
     0
440
 16777216
 48
3.0
370
    -2
100
AcDbLine
 10
1683.934751192502
 20
177.1870597132051
 30
0.0
 11
1683.934751192502
 21
143.4182354344764
 31
0.0
  0
LINE
  5
F39B
330
F396
100
AcDbEntity
  8
1外形線
 62
     0
440
 16777216
 48
3.0
370
    -2
100
AcDbLine
 10
1382.934765020776
 20
144.4182354344764
 30
0.0
 11
1682.934751192502
 21
144.4182354344764
 31
0.0
  0
INSERT
  5
F39C
330
F396
100
AcDbEntity
  8
1外形線
 62
     0
440
 16777216
 48
3.0
370
    -2
100
AcDbBlockReference
  2
1
 10
1381.934765020776
 20
144.4182354344764
 30
0.0
 50
180.0
  0
INSERT
  5
F39D
330
F396
100
AcDbEntity
  8
1外形線
 62
     0
440
 16777216
 48
3.0
370
    -2
100
AcDbBlockReference
  2
1
 10
1683.934751192502
 20
144.4182354344764
 30
0.0
  0
MTEXT
  5
F39E
330
F396
100
AcDbEntity
  8
1外形線
 62
     0
440
 16777216
 48
3.0
100
AcDbMText
 10
1532.934758106639
 20
146.1682354344764
 30
0.0
 40
2.5
 41
0.0
 46
0.0
 71
     5
 72
     1
  1
\A1;302
  7
KANJI
 73
     1
 44
1.0
  0
POINT
  5
F39F
330
F396
100
AcDbEntity
  8
DEFPOINTS
 62
     0
440
 16777216
 48
3.0
100
AcDbPoint
 10
1381.934765020776
 20
178.1870597132051
 30
0.0
  0
POINT
  5
F3A0
330
F396
100
AcDbEntity
  8
DEFPOINTS
 62
     0
440
 16777216
 48
3.0
100
AcDbPoint
 10
1683.934751192502
 20
178.1870597132051
 30
0.0
  0
POINT
  5
F3A1
330
F396
100
AcDbEntity
  8
DEFPOINTS
 62
     0
440
 16777216
 48
3.0
100
AcDbPoint
 10
1683.934751192502
 20
144.4182354344764
 30
0.0
  0
ENDBLK
  5
F398
330
F396
100
AcDbEntity
  8
0
 48
3.0
100
AcDbBlockEnd
  0
ENDSEC
  0
SECTION
  2
ENTITIES
  0
CIRCLE
  5
ED16
330
17
100
AcDbEntity
  8
1外形線
100
AcDbCircle
 10
962.7886747247044
 20
-15.47154757011572
 30
0.0
 40
2.5
  0
CIRCLE
  5
ED17
330
17
100
AcDbEntity
  8
1外形線
100
AcDbCircle
 10
895.7886747246972
 20
-30.47154757012299
 30
0.0
 40
2.500000000000057
  0
CIRCLE
  5
ED18
330
17
100
AcDbEntity
  8
1外形線
100
AcDbCircle
 10
880.7886747246881
 20
36.52845242987701
 30
0.0
 40
2.5
  0
CIRCLE
  5
ED19
330
17
100
AcDbEntity
  8
1外形線
100
AcDbCircle
 10
962.7886747247044
 20
36.52845242987701
 30
0.0
 40
2.5
  0
LINE
  5
ED1A
330
17
100
AcDbEntity
  8
1外形線
100
AcDbLine
 10
941.1504781235704
 20
37.80484563215237
 30
0.0
 11
940.4268713258193
 21
39.25205922765622
 31
0.0
  0
ARC
  5
ED1B
330
17
100
AcDbEntity
  8
1外形線
100
AcDbCircle
 10
941.5976917190688
 20
38.02845242989884
 30
0.0
 40
0.5
100
AcDbArc
 50
206.5650511769804
 51
270.0
  0
LINE
  5
ED1C
330
17
100
AcDbEntity
  8
1外形線
100
AcDbLine
 10
941.5976917190688
 20
37.52845242989883
 30
0.0
 11
941.9796577303145
 21
37.52845242989883
 31
0.0
  0
ARC
  5
ED1D
330
17
100
AcDbEntity
  8
1外形線
100
AcDbCircle
 10
941.9796577303236
 20
38.02845242989884
 30
0.0
 40
0.5
100
AcDbArc
 50
270.0
 51
333.4349488230196
  0
LINE
  5
ED1E
330
17
100
AcDbEntity
  8
1外形線
100
AcDbLine
 10
942.426871325822
 20
37.80484563215237
 30
0.0
 11
943.1504781235686
 21
39.25205922764894
 31
0.0
  0
ARC
  5
ED1F
330
17
100
AcDbEntity
  8
1外形線
100
AcDbCircle
 10
943.597691719076
 20
39.0284524298952
 30
0.0
 40
0.5
100
AcDbArc
 50
90.0
 51
153.4349488230196
  0
LINE
  5
ED20
330
17
100
AcDbEntity
  8
1外形線
100
AcDbLine
 10
947.7886747246953
 20
39.52845242990247
 30
0.0
 11
943.597691719076
 21
39.52845242990247
 31
0.0
  0
ARC
  5
ED21
330
17
100
AcDbEntity
  8
1外形線
100
AcDbCircle
 10
947.7886747246953
 20
36.5284524298952
 30
0.0
 40
3.0
100
AcDbArc
 50
0.0
 51
90.0
  0
LINE
  5
ED22
330
17
100
AcDbEntity
  8
1外形線
100
AcDbLine
 10
950.7886747246971
 20
32.33746942426683
 30
0.0
 11
950.7886747246971
 21
36.5284524298952
 31
0.0
  0
ARC
  5
ED23
330
17
100
AcDbEntity
  8
1外形線
100
AcDbCircle
 10
950.2886747246952
 20
32.33746942426683
 30
0.0
 40
0.5000000000001706
100
AcDbArc
 50
296.5650511772402
 51
0.0
  0
LINE
  5
ED24
330
17
100
AcDbEntity
  8
1外形線
100
AcDbLine
 10
949.0650679269469
 20
31.16664903102378
 30
0.0
 11
950.512281522449
 21
31.89025582877389
 31
0.0
  0
ARC
  5
ED25
330
17
100
AcDbEntity
  8
1外形線
100
AcDbCircle
 10
949.2886747247007
 20
30.71943543551993
 30
0.0
 40
0.5
100
AcDbArc
 50
116.5650511769343
 51
180.0
  0
LINE
  5
ED26
330
17
100
AcDbEntity
  8
1外形線
100
AcDbLine
 10
948.7886747246989
 20
30.33746942427411
 30
0.0
 11
948.7886747246989
 21
30.71943543551993
 31
0.0
  0
ARC
  5
ED27
330
17
100
AcDbEntity
  8
1外形線
100
AcDbCircle
 10
949.2886747247007
 20
30.33746942427411
 30
0.0
 40
0.5
100
AcDbArc
 50
180.0
 51
243.4349488230657
  0
LINE
  5
ED28
330
17
100
AcDbEntity
  8
1外形線
100
AcDbLine
 10
949.0650679269469
 20
29.89025582877025
 30
0.0
 11
950.5122815224444
 21
29.16664903102014
 31
0.0
  0
LINE
  5
ED29
330
17
100
AcDbEntity
  8
1外形線
100
AcDbLine
 10
949.0650679269469
 20
22.66664903102378
 30
0.0
 11
950.512281522449
 21
23.39025582877025
 31
0.0
  0
ARC
  5
ED2A
330
17
100
AcDbEntity
  8
1外形線
100
AcDbCircle
 10
949.2886747247007
 20
22.21943543551993
 30
0.0
 40
0.5000000000000596
100
AcDbArc
 50
116.5650511769343
 51
180.0
  0
LINE
  5
ED2B
330
17
100
AcDbEntity
  8
1外形線
100
AcDbLine
 10
948.7886747246989
 20
21.83746942427047
 30
0.0
 11
948.7886747246989
 21
22.21943543551993
 31
0.0
  0
ARC
  5
ED2C
330
17
100
AcDbEntity
  8
1外形線
100
AcDbCircle
 10
949.2886747247007
 20
21.83746942427047
 30
0.0
 40
0.5000000000000596
100
AcDbArc
 50
180.0
 51
243.4349488230657
  0
LINE
  5
ED2D
330
17
100
AcDbEntity
  8
1外形線
100
AcDbLine
 10
949.0650679269469
 20
21.39025582877389
 30
0.0
 11
950.7886747246971
 21
20.52845242989883
 31
0.0
  0
LINE
  5
ED2E
330
17
100
AcDbEntity
  8
1外形線
100
AcDbLine
 10
950.7886747246971
 20
13.72845242989592
 30
0.0
 11
950.7886747246971
 21
20.52845242989883
 31
0.0
  0
ARC
  5
ED2F
330
17
100
AcDbEntity
  8
1外形線
100
AcDbCircle
 10
948.7886747246989
 20
13.72845242989592
 30
0.0
 40
2.0
100
AcDbArc
 50
270.0
 51
0.0
  0
LINE
  5
ED30
330
17
100
AcDbEntity
  8
1外形線
100
AcDbLine
 10
948.7886747246989
 20
11.72845242989592
 30
0.0
 11
936.7886747247007
 21
11.72845242989592
 31
0.0
  0
ARC
  5
ED31
330
17
100
AcDbEntity
  8
1外形線
100
AcDbCircle
 10
936.7886747247007
 20
13.72845242989592
 30
0.0
 40
2.0
100
AcDbArc
 50
180.0
 51
270.0
  0
LINE
  5
ED32
330
17
100
AcDbEntity
  8
1外形線
100
AcDbLine
 10
934.7886747247025
 20
13.72845242989592
 30
0.0
 11
934.7886747247025
 21
19.28581174278247
 31
0.0
  0
LINE
  5
ED33
330
17
100
AcDbEntity
  8
1外形線
100
AcDbLine
 10
934.7886747247025
 20
19.28581174278247
 30
0.0
 11
942.4957815058929
 21
26.99291852396368
 31
0.0
  0
ARC
  5
ED34
330
17
100
AcDbEntity
  8
1外形線
100
AcDbCircle
 10
941.7886747247008
 20
27.70002530515217
 30
0.0
 40
1.000000000000341
100
AcDbArc
 50
315.0000000004335
 51
0.0
  0
LINE
  5
ED35
330
17
100
AcDbEntity
  8
1外形線
100
AcDbLine
 10
942.7886747246953
 20
27.70002530515217
 30
0.0
 11
942.7886747246953
 21
31.02845242989884
 31
0.0
  0
ARC
  5
ED36
330
17
100
AcDbEntity
  8
1外形線
100
AcDbCircle
 10
942.2886747246934
 20
31.02845242989884
 30
0.0
 40
0.5
100
AcDbArc
 50
359.9999999997915
 51
90.0
  0
LINE
  5
ED37
330
17
100
AcDbEntity
  8
1外形線
100
AcDbLine
 10
938.9602475999504
 20
31.5284524298952
 30
0.0
 11
942.2886747246934
 21
31.5284524298952
 31
0.0
  0
ARC
  5
ED38
330
17
100
AcDbEntity
  8
1外形線
100
AcDbCircle
 10
938.9602475999504
 20
30.52845242989884
 30
0.0
 40
1.000000000000048
100
AcDbArc
 50
90.0
 51
134.9999999999913
  0
LINE
  5
ED39
330
17
100
AcDbEntity
  8
1外形線
100
AcDbLine
 10
930.5460340375772
 20
23.52845242989884
 30
0.0
 11
938.2531408187674
 21
31.23555921108368
 31
0.0
  0
LINE
  5
ED3A
330
17
100
AcDbEntity
  8
1外形線
100
AcDbLine
 10
924.9886747246979
 20
23.52845242989884
 30
0.0
 11
930.5460340375772
 21
23.52845242989884
 31
0.0
  0
ARC
  5
ED3B
330
17
100
AcDbEntity
  8
1外形線
100
AcDbCircle
 10
924.9886747246979
 20
25.52845242989156
 30
0.0
 40
2.0
100
AcDbArc
 50
180.0
 51
270.0
  0
LINE
  5
ED3C
330
17
100
AcDbEntity
  8
1外形線
100
AcDbLine
 10
922.9886747246906
 20
37.52845242989883
 30
0.0
 11
922.9886747246906
 21
25.52845242989156
 31
0.0
  0
ARC
  5
ED3D
330
17
100
AcDbEntity
  8
1外形線
100
AcDbCircle
 10
924.9886747246979
 20
37.52845242989883
 30
0.0
 40
2.0
100
AcDbArc
 50
90.0
 51
180.0
  0
LINE
  5
ED3E
330
17
100
AcDbEntity
  8
1外形線
100
AcDbLine
 10
931.7886747246916
 20
39.52845242990247
 30
0.0
 11
924.9886747246979
 21
39.52845242990247
 31
0.0
  0
LINE
  5
ED3F
330
17
100
AcDbEntity
  8
1外形線
100
AcDbLine
 10
932.6504781235758
 20
37.80484563215237
 30
0.0
 11
931.7886747246916
 21
39.52845242990247
 31
0.0
  0
ARC
  5
ED40
330
17
100
AcDbEntity
  8
1外形線
100
AcDbCircle
 10
933.0976917190652
 20
38.02845242989884
 30
0.0
 40
0.5
100
AcDbArc
 50
206.5650511769804
 51
270.0
  0
LINE
  5
ED41
330
17
100
AcDbEntity
  8
1外形線
100
AcDbLine
 10
933.0976917190652
 20
37.52845242989883
 30
0.0
 11
933.4796577303199
 21
37.52845242989883
 31
0.0
  0
ARC
  5
ED42
330
17
100
AcDbEntity
  8
1外形線
100
AcDbCircle
 10
933.4796577303199
 20
38.02845242989884
 30
0.0
 40
0.5
100
AcDbArc
 50
270.0
 51
333.4349488230196
  0
LINE
  5
ED43
330
17
100
AcDbEntity
  8
1外形線
100
AcDbLine
 10
933.9268713258183
 20
37.80484563215237
 30
0.0
 11
934.6504781235694
 21
39.25205922765622
 31
0.0
  0
ARC
  5
ED44
330
17
100
AcDbEntity
  8
1外形線
100
AcDbCircle
 10
710.097691719045
 20
38.02845242989884
 30
0.0
 40
0.5
100
AcDbArc
 50
206.5650511769804
 51
270.0
  0
LINE
  5
ED45
330
17
100
AcDbEntity
  8
1外形線
100
AcDbLine
 10
710.4796577302908
 20
37.52845242989883
 30
0.0
 11
710.097691719045
 21
37.52845242989883
 31
0.0
  0
ARC
  5
ED46
330
17
100
AcDbEntity
  8
1外形線
100
AcDbCircle
 10
710.4796577302908
 20
38.02845242989884
 30
0.0
 40
0.5
100
AcDbArc
 50
270.0
 51
333.4349488230196
  0
LINE
  5
ED47
330
17
100
AcDbEntity
  8
1外形線
100
AcDbLine
 10
710.9268713257892
 20
37.80484563215237
 30
0.0
 11
711.6504781235448
 21
39.25205922764894
 31
0.0
  0
ARC
  5
ED48
330
17
100
AcDbEntity
  8
1外形線
100
AcDbCircle
 10
712.0976917190432
 20
39.02845242990611
 30
0.0
 40
0.5
100
AcDbArc
 50
90.0
 51
153.4349488230196
  0
LINE
  5
ED49
330
17
100
AcDbEntity
  8
1外形線
100
AcDbLine
 10
712.0976917190432
 20
39.52845242990247
 30
0.0
 11
718.5886747246672
 21
39.52845242990247
 31
0.0
  0
ARC
  5
ED4A
330
17
100
AcDbEntity
  8
1外形線
100
AcDbCircle
 10
718.5886747246672
 20
37.52845242989883
 30
0.0
 40
2.0
100
AcDbArc
 50
0.0
 51
90.0
  0
LINE
  5
ED4B
330
17
100
AcDbEntity
  8
1外形線
100
AcDbLine
 10
720.5886747246745
 20
37.52845242989883
 30
0.0
 11
720.5886747246654
 21
25.52845242989884
 31
0.0
  0
ARC
  5
ED4C
330
17
100
AcDbEntity
  8
1外形線
100
AcDbCircle
 10
718.5886747246672
 20
25.52845242989884
 30
0.0
 40
2.0
100
AcDbArc
 50
270.0
 51
0.0
  0
LINE
  5
ED4D
330
17
100
AcDbEntity
  8
1外形線
100
AcDbLine
 10
718.5886747246672
 20
23.52845242989884
 30
0.0
 11
713.0313154118335
 21
23.52845242989884
 31
0.0
  0
LINE
  5
ED4E
330
17
100
AcDbEntity
  8
1外形線
100
AcDbLine
 10
713.0313154118335
 20
23.52845242989884
 30
0.0
 11
705.3242086306432
 21
31.23555921109096
 31
0.0
  0
ARC
  5
ED4F
330
17
100
AcDbEntity
  8
1外形線
100
AcDbCircle
 10
704.6171018494601
 20
30.52845242990611
 30
0.0
 40
1.0
100
AcDbArc
 50
45.00000000000865
 51
90.0
  0
LINE
  5
ED50
330
17
100
AcDbEntity
  8
1外形線
100
AcDbLine
 10
704.6171018494601
 20
31.52845242990611
 30
0.0
 11
701.288674724708
 21
31.52845242990611
 31
0.0
  0
ARC
  5
ED51
330
17
100
AcDbEntity
  8
1外形線
100
AcDbCircle
 10
701.2886747246898
 20
31.02845242990247
 30
0.0
 40
0.5
100
AcDbArc
 50
89.99999999739449
 51
180.0
  0
LINE
  5
ED52
330
17
100
AcDbEntity
  8
1外形線
100
AcDbLine
 10
700.7886747246971
 20
27.70002530515581
 30
0.0
 11
700.7886747246971
 21
31.02845242990247
 31
0.0
  0
ARC
  5
ED53
330
17
100
AcDbEntity
  8
1外形線
100
AcDbCircle
 10
701.7886747246916
 20
27.70002530515581
 30
0.0
 40
1.000000000000007
100
AcDbArc
 50
180.0
 51
225.0000000000086
  0
LINE
  5
ED54
330
17
100
AcDbEntity
  8
1外形線
100
AcDbLine
 10
708.7886747246898
 20
19.28581174278247
 30
0.0
 11
701.0815679435085
 21
26.99291852396732
 31
0.0
  0
LINE
  5
ED55
330
17
100
AcDbEntity
  8
1外形線
100
AcDbLine
 10
708.7886747246898
 20
13.7284524299032
 30
0.0
 11
708.7886747246898
 21
19.28581174278247
 31
0.0
  0
ARC
  5
ED56
330
17
100
AcDbEntity
  8
1外形線
100
AcDbCircle
 10
706.7886747246916
 20
13.7284524299032
 30
0.0
 40
2.0
100
AcDbArc
 50
270.0
 51
0.0
  0
LINE
  5
ED57
330
17
100
AcDbEntity
  8
1外形線
100
AcDbLine
 10
694.7886747246935
 20
11.72845242989956
 30
0.0
 11
706.7886747246916
 21
11.72845242989956
 31
0.0
  0
ARC
  5
ED58
330
17
100
AcDbEntity
  8
1外形線
100
AcDbCircle
 10
694.7886747246935
 20
13.7284524299032
 30
0.0
 40
2.0
100
AcDbArc
 50
180.0
 51
270.0
  0
LINE
  5
ED59
330
17
100
AcDbEntity
  8
1外形線
100
AcDbLine
 10
692.7886747246861
 20
13.7284524299032
 30
0.0
 11
692.7886747246861
 21
20.2194354355272
 31
0.0
  0
LINE
  5
ED5A
330
17
100
AcDbEntity
  8
1外形線
100
AcDbLine
 10
694.5122815224363
 20
21.39025582878117
 30
0.0
 11
693.0650679269433
 21
20.66664903103106
 31
0.0
  0
ARC
  5
ED5B
330
17
100
AcDbEntity
  8
1外形線
100
AcDbCircle
 10
693.288674724697
 20
20.2194354355272
 30
0.0
 40
0.5
100
AcDbArc
 50
116.5650511769343
 51
180.0
  0
ARC
  5
ED5C
330
17
100
AcDbEntity
  8
1外形線
100
AcDbCircle
 10
694.2886747246916
 20
21.8374694242741
 30
0.0
 40
0.5
100
AcDbArc
 50
296.5650511769343
 51
0.0
  0
LINE
  5
ED5D
330
17
100
AcDbEntity
  8
1外形線
100
AcDbLine
 10
694.7886747246935
 20
21.8374694242741
 30
0.0
 11
694.7886747246935
 21
22.21943543553084
 31
0.0
  0
ARC
  5
ED5E
330
17
100
AcDbEntity
  8
1外形線
100
AcDbCircle
 10
694.2886747246916
 20
22.21943543553084
 30
0.0
 40
0.5000000000000277
100
AcDbArc
 50
0.0
 51
63.43494882306567
  0
LINE
  5
ED5F
330
17
100
AcDbEntity
  8
1外形線
100
AcDbLine
 10
694.5122815224363
 20
22.66664903102378
 30
0.0
 11
693.0650679269388
 21
23.39025582878116
 31
0.0
  0
LINE
  5
ED60
330
17
100
AcDbEntity
  8
1外形線
100
AcDbLine
 10
694.5122815224363
 20
29.89025582878117
 30
0.0
 11
693.0650679269388
 21
29.16664903103106
 31
0.0
  0
ARC
  5
ED61
330
17
100
AcDbEntity
  8
1外形線
100
AcDbCircle
 10
694.2886747246916
 20
30.33746942427411
 30
0.0
 40
0.5
100
AcDbArc
 50
296.5650511769343
 51
0.0
  0
LINE
  5
ED62
330
17
100
AcDbEntity
  8
1外形線
100
AcDbLine
 10
694.7886747246935
 20
30.33746942427774
 30
0.0
 11
694.7886747246935
 21
30.71943543552356
 31
0.0
  0
ARC
  5
ED63
330
17
100
AcDbEntity
  8
1外形線
100
AcDbCircle
 10
694.2886747246916
 20
30.71943543552356
 30
0.0
 40
0.5000000000000277
100
AcDbArc
 50
0.0
 51
63.43494882306567
  0
LINE
  5
ED64
330
17
100
AcDbEntity
  8
1外形線
100
AcDbLine
 10
694.5122815224363
 20
31.16664903102742
 30
0.0
 11
693.0650679269433
 21
31.89025582877389
 31
0.0
  0
ARC
  5
ED65
330
17
100
AcDbEntity
  8
1外形線
100
AcDbCircle
 10
693.288674724688
 20
32.33746942427411
 30
0.0
 40
0.5000000000000342
100
AcDbArc
 50
180.0
 51
243.4349488230657
  0
LINE
  5
ED66
330
17
100
AcDbEntity
  8
1外形線
100
AcDbLine
 10
692.7886747246861
 20
32.33746942428138
 30
0.0
 11
692.7886747246861
 21
36.52845242990611
 31
0.0
  0
ARC
  5
ED67
330
17
100
AcDbEntity
  8
1外形線
100
AcDbCircle
 10
695.7886747246971
 20
36.52845242990611
 30
0.0
 40
3.0
100
AcDbArc
 50
90.00000000052109
 51
180.0
  0
LINE
  5
ED68
330
17
100
AcDbEntity
  8
1外形線
100
AcDbLine
 10
695.7886747246698
 20
39.52845242990247
 30
0.0
 11
699.979657730289
 21
39.52845242990247
 31
0.0
  0
ARC
  5
ED69
330
17
100
AcDbEntity
  8
1外形線
100
AcDbCircle
 10
699.979657730289
 20
39.02845242990611
 30
0.0
 40
0.500000000000174
100
AcDbArc
 50
26.56505117639779
 51
89.99999999973944
  0
LINE
  5
ED6A
330
17
100
AcDbEntity
  8
1外形線
100
AcDbLine
 10
701.150478123543
 20
37.80484563215237
 30
0.0
 11
700.4268713257966
 21
39.25205922764894
 31
0.0
  0
ARC
  5
ED6B
330
17
100
AcDbEntity
  8
1外形線
100
AcDbCircle
 10
701.5976917190414
 20
38.02845242989884
 30
0.0
 40
0.5
100
AcDbArc
 50
206.5650511769804
 51
270.0
  0
LINE
  5
ED6C
330
17
100
AcDbEntity
  8
1外形線
100
AcDbLine
 10
701.9796577302964
 20
37.52845242989883
 30
0.0
 11
701.5976917190414
 21
37.52845242989883
 31
0.0
  0
ARC
  5
ED6D
330
17
100
AcDbEntity
  8
1外形線
100
AcDbCircle
 10
701.9796577302964
 20
38.02845242989884
 30
0.0
 40
0.5
100
AcDbArc
 50
270.0
 51
333.4349488230196
  0
LINE
  5
ED6E
330
17
100
AcDbEntity
  8
1外形線
100
AcDbLine
 10
702.4268713257947
 20
37.80484563215237
 30
0.0
 11
703.1504781235412
 21
39.25205922765622
 31
0.0
  0
LINE
  5
ED6F
330
17
100
AcDbEntity
  8
1外形線
100
AcDbLine
 10
709.6504781235466
 20
37.80484563215237
 30
0.0
 11
708.9268713257911
 21
39.25205922765622
 31
0.0
  0
CIRCLE
  5
ED70
330
17
100
AcDbEntity
  8
1外形線
100
AcDbCircle
 10
821.7886747246916
 20
10.52845242990611
 30
0.0
 40
2.25
  0
CIRCLE
  5
ED71
330
17
100
AcDbEntity
  8
1外形線
100
AcDbCircle
 10
695.7886747246971
 20
51.52845242989156
 30
0.0
 40
2.499999999999943
  0
CIRCLE
  5
ED72
330
17
100
AcDbEntity
  8
1外形線
100
AcDbCircle
 10
680.788674724688
 20
36.52845242987701
 30
0.0
 40
2.5
  0
CIRCLE
  5
ED73
330
17
100
AcDbEntity
  8
1外形線
100
AcDbCircle
 10
747.7886747246862
 20
51.52845242989156
 30
0.0
 40
2.499999999999943
  0
CIRCLE
  5
ED74
330
17
100
AcDbEntity
  8
1外形線
100
AcDbCircle
 10
762.7886747247043
 20
36.52845242987701
 30
0.0
 40
2.5
  0
CIRCLE
  5
ED75
330
17
100
AcDbEntity
  8
1外形線
100
AcDbCircle
 10
762.7886747247043
 20
-15.47154757011572
 30
0.0
 40
2.5
  0
CIRCLE
  5
ED76
330
17
100
AcDbEntity
  8
1外形線
100
AcDbCircle
 10
747.7886747246862
 20
-30.47154757012299
 30
0.0
 40
2.500000000000057
  0
CIRCLE
  5
ED77
330
17
100
AcDbEntity
  8
1外形線
100
AcDbCircle
 10
695.7886747246971
 20
-30.47154757012299
 30
0.0
 40
2.500000000000057
  0
CIRCLE
  5
ED78
330
17
100
AcDbEntity
  8
1外形線
100
AcDbCircle
 10
680.788674724688
 20
-15.47154757011572
 30
0.0
 40
2.5
  0
CIRCLE
  5
ED79
330
17
100
AcDbEntity
  8
1外形線
100
AcDbCircle
 10
947.7886747246953
 20
51.52845242989156
 30
0.0
 40
2.499999999999943
  0
CIRCLE
  5
ED7A
330
17
100
AcDbEntity
  8
1外形線
100
AcDbCircle
 10
895.7886747246972
 20
51.52845242989156
 30
0.0
 40
2.499999999999943
  0
CIRCLE
  5
ED7B
330
17
100
AcDbEntity
  8
1外形線
100
AcDbCircle
 10
880.7886747246881
 20
-15.47154757011572
 30
0.0
 40
2.5
  0
CIRCLE
  5
ED7C
330
17
100
AcDbEntity
  8
1外形線
100
AcDbCircle
 10
947.7886747246953
 20
-30.47154757012299
 30
0.0
 40
2.500000000000057
  0
ARC
  5
ED7D
330
17
100
AcDbEntity
  8
1外形線
100
AcDbCircle
 10
749.788671100921
 20
41.5284466399246
 30
0.0
 40
17.00000761786082
100
AcDbArc
 50
41.81033211213227
 51
89.99998194850288
  0
LINE
  5
ED7E
330
17
100
AcDbEntity
  8
1外形線
100
AcDbLine
 10
749.788676456917
 20
58.52845425778673
 30
0.0
 11
739.7886747246866
 21
58.52845385612477
 31
0.0
  0
ARC
  5
ED7F
330
17
100
AcDbEntity
  8
1外形線
100
AcDbCircle
 10
690.7886820956242
 20
41.52845186364015
 30
0.0
 40
17.00000779297213
100
AcDbArc
 50
89.95485154773247
 51
180.0
  0
LINE
  5
ED80
330
17
100
AcDbEntity
  8
1外形線
100
AcDbLine
 10
673.7886743026479
 20
41.52845186364015
 30
0.0
 11
673.7886743026524
 21
-32.47154733169714
 31
0.0
  0
ARC
  5
ED81
330
17
100
AcDbEntity
  8
1外形線
100
AcDbCircle
 10
690.7886820956242
 20
-32.47154733169714
 30
0.0
 40
17.00000779297213
100
AcDbArc
 50
180.0
 51
270.0
  0
LINE
  5
ED82
330
17
100
AcDbEntity
  8
1外形線
100
AcDbLine
 10
690.7886820956242
 20
-49.47154757010117
 30
0.0
 11
691.6388178299598
 21
-49.47154757010117
 31
0.0
  0
ARC
  5
ED83
330
17
100
AcDbEntity
  8
1外形線
100
AcDbCircle
 10
691.6388178299598
 20
-48.97154757009753
 30
0.0
 40
0.5
100
AcDbArc
 50
270.0
 51
0.0
  0
LINE
  5
ED84
330
17
100
AcDbEntity
  8
1外形線
100
AcDbLine
 10
692.1388178299617
 20
-38.97154757009753
 30
0.0
 11
692.1388178299617
 21
-48.97154757009753
 31
0.0
  0
ARC
  5
ED85
330
17
100
AcDbEntity
  8
1外形線
100
AcDbCircle
 10
692.6388178299544
 20
-38.97154757009753
 30
0.0
 40
0.5
100
AcDbArc
 50
90.0
 51
180.0
  0
LINE
  5
ED86
330
17
100
AcDbEntity
  8
1外形線
100
AcDbLine
 10
713.7886747246898
 20
-38.47154757010116
 30
0.0
 11
692.6388178299544
 21
-38.47154757010116
 31
0.0
  0
LINE
  5
ED87
330
17
100
AcDbEntity
  8
1外形線
100
AcDbLine
 10
712.0976917190614
 20
-18.47154757010844
 30
0.0
 11
713.7886747246898
 21
-18.47154757010844
 31
0.0
  0
LINE
  5
ED88
330
17
100
AcDbEntity
  8
1外形線
100
AcDbLine
 10
710.9268713258074
 20
-16.74794077235833
 30
0.0
 11
711.6504781235721
 21
-18.19515436785855
 31
0.0
  0
ARC
  5
ED89
330
17
100
AcDbEntity
  8
1外形線
100
AcDbCircle
 10
712.0976917190614
 20
-17.97154757011208
 30
0.0
 40
0.5
100
AcDbArc
 50
206.5650511770973
 51
270.0
  0
ARC
  5
ED8A
330
17
100
AcDbEntity
  8
1外形線
100
AcDbCircle
 10
710.4796577303182
 20
-16.97154757010844
 30
0.0
 40
0.5
100
AcDbArc
 50
26.56505117698041
 51
90.0
  0
LINE
  5
ED8B
330
17
100
AcDbEntity
  8
1外形線
100
AcDbLine
 10
710.4796577303182
 20
-16.47154757010116
 30
0.0
 11
710.0976917190632
 21
-16.47154757010116
 31
0.0
  0
ARC
  5
ED8C
330
17
100
AcDbEntity
  8
1外形線
100
AcDbCircle
 10
710.0976917190632
 20
-16.97154757010844
 30
0.0
 40
0.5
100
AcDbArc
 50
90.0
 51
153.4349488230196
  0
LINE
  5
ED8D
330
17
100
AcDbEntity
  8
1外形線
100
AcDbLine
 10
709.6504781235648
 20
-16.74794077235469
 30
0.0
 11
708.9268713258138
 21
-18.19515436785127
 31
0.0
  0
LINE
  5
ED8E
330
17
100
AcDbEntity
  8
1外形線
100
AcDbLine
 10
702.426871325813
 20
-16.74794077235469
 30
0.0
 11
703.1504781235594
 21
-18.19515436785127
 31
0.0
  0
ARC
  5
ED8F
330
17
100
AcDbEntity
  8
1外形線
100
AcDbCircle
 10
701.9796577303146
 20
-16.97154757010844
 30
0.0
 40
0.5
100
AcDbArc
 50
26.56505117698041
 51
90.0
  0
LINE
  5
ED90
330
17
100
AcDbEntity
  8
1外形線
100
AcDbLine
 10
701.9796577303146
 20
-16.47154757010116
 30
0.0
 11
701.5976917190687
 21
-16.47154757010116
 31
0.0
  0
ARC
  5
ED91
330
17
100
AcDbEntity
  8
1外形線
100
AcDbCircle
 10
701.5976917190687
 20
-16.97154757010844
 30
0.0
 40
0.5
100
AcDbArc
 50
90.0
 51
153.4349488230196
  0
LINE
  5
ED92
330
17
100
AcDbEntity
  8
1外形線
100
AcDbLine
 10
701.1504781235612
 20
-16.74794077235469
 30
0.0
 11
700.4268713258148
 21
-18.19515436785127
 31
0.0
  0
ARC
  5
ED93
330
17
100
AcDbEntity
  8
1外形線
100
AcDbCircle
 10
699.9796577303164
 20
-17.97154757010116
 30
0.0
 40
0.5
100
AcDbArc
 50
270.0
 51
333.4349488230196
  0
LINE
  5
ED94
330
17
100
AcDbEntity
  8
1外形線
100
AcDbLine
 10
695.788674724688
 20
-18.4715475701048
 30
0.0
 11
699.9796577303164
 21
-18.4715475701048
 31
0.0
  0
ARC
  5
ED95
330
17
100
AcDbEntity
  8
1外形線
100
AcDbCircle
 10
695.7886747246971
 20
-15.47154757010116
 30
0.0
 40
3.0
100
AcDbArc
 50
180.0
 51
270.0
  0
LINE
  5
ED96
330
17
100
AcDbEntity
  8
1外形線
100
AcDbLine
 10
692.7886747246861
 20
-11.28056456447643
 30
0.0
 11
692.7886747246861
 21
-15.47154757010116
 31
0.0
  0
ARC
  5
ED97
330
17
100
AcDbEntity
  8
1外形線
100
AcDbCircle
 10
693.288674724697
 20
-11.28056456447643
 30
0.0
 40
0.5000000000002883
100
AcDbArc
 50
116.5650511772402
 51
180.0
  0
LINE
  5
ED98
330
17
100
AcDbEntity
  8
1外形線
100
AcDbLine
 10
694.5122815224363
 20
-10.10974417122975
 30
0.0
 11
693.0650679269433
 21
-10.83335096897986
 31
0.0
  0
ARC
  5
ED99
330
17
100
AcDbEntity
  8
1外形線
100
AcDbCircle
 10
694.2886747246916
 20
-9.662530575725895
 30
0.0
 40
0.5
100
AcDbArc
 50
296.5650511769343
 51
0.0
  0
LINE
  5
ED9A
330
17
100
AcDbEntity
  8
1外形線
100
AcDbLine
 10
694.7886747246935
 20
-9.280564564480073
 30
0.0
 11
694.7886747246935
 21
-9.662530575725895
 31
0.0
  0
ARC
  5
ED9B
330
17
100
AcDbEntity
  8
1外形線
100
AcDbCircle
 10
694.2886747246916
 20
-9.280564564480073
 30
0.0
 40
0.5
100
AcDbArc
 50
0.0
 51
63.43494882306567
  0
LINE
  5
ED9C
330
17
100
AcDbEntity
  8
1外形線
100
AcDbLine
 10
694.5122815224363
 20
-8.833350968976219
 30
0.0
 11
693.0650679269388
 21
-8.109744171226111
 31
0.0
  0
LINE
  5
ED9D
330
17
100
AcDbEntity
  8
1外形線
100
AcDbLine
 10
694.5122815224363
 20
-1.609744171229749
 30
0.0
 11
693.0650679269388
 21
-2.333350968979857
 31
0.0
  0
ARC
  5
ED9E
330
17
100
AcDbEntity
  8
1外形線
100
AcDbCircle
 10
694.2886747246916
 20
-1.162530575725895
 30
0.0
 40
0.5000000000000277
100
AcDbArc
 50
296.5650511769343
 51
0.0
  0
LINE
  5
ED9F
330
17
100
AcDbEntity
  8
1外形線
100
AcDbLine
 10
694.7886747246935
 20
-0.7805645644764354
 30
0.0
 11
694.7886747246935
 21
-1.162530575722257
 31
0.0
  0
ARC
  5
EDA0
330
17
100
AcDbEntity
  8
1外形線
100
AcDbCircle
 10
694.2886747246916
 20
-0.7805645644764354
 30
0.0
 40
0.5
100
AcDbArc
 50
0.0
 51
63.43494882306567
  0
LINE
  5
EDA1
330
17
100
AcDbEntity
  8
1外形線
100
AcDbLine
 10
694.5122815224363
 20
-0.3333509689834955
 30
0.0
 11
693.0650679269433
 21
0.3902558287738884
 31
0.0
  0
LINE
  5
EDA2
330
17
100
AcDbEntity
  8
1外形線
100
AcDbLine
 10
692.7886747246861
 20
7.328452429894468
 30
0.0
 11
692.7886747246861
 21
0.8374694242704663
 31
0.0
  0
ARC
  5
EDA3
330
17
100
AcDbEntity
  8
1外形線
100
AcDbCircle
 10
693.288674724697
 20
0.8374694242704663
 30
0.0
 40
0.5
100
AcDbArc
 50
180.0
 51
243.4349488230657
  0
ARC
  5
EDA4
330
17
100
AcDbEntity
  8
1外形線
100
AcDbCircle
 10
694.7886747246935
 20
7.328452429894468
 30
0.0
 40
2.0
100
AcDbArc
 50
90.0
 51
180.0
  0
LINE
  5
EDA5
330
17
100
AcDbEntity
  8
1外形線
100
AcDbLine
 10
694.7886747246935
 20
9.328452429898106
 30
0.0
 11
706.7886747246916
 21
9.328452429898106
 31
0.0
  0
ARC
  5
EDA6
330
17
100
AcDbEntity
  8
1外形線
100
AcDbCircle
 10
706.7886747246916
 20
7.328452429894468
 30
0.0
 40
2.0
100
AcDbArc
 50
0.0
 51
90.0
  0
LINE
  5
EDA7
330
17
100
AcDbEntity
  8
1外形線
100
AcDbLine
 10
708.7886747246898
 20
7.328452429894468
 30
0.0
 11
708.7886747246898
 21
1.771093117015198
 31
0.0
  0
LINE
  5
EDA8
330
17
100
AcDbEntity
  8
1外形線
100
AcDbLine
 10
708.7886747246898
 20
1.771093117015198
 30
0.0
 11
701.0815679435085
 21
-5.936013664169649
 31
0.0
  0
ARC
  5
EDA9
330
17
100
AcDbEntity
  8
1外形線
100
AcDbCircle
 10
701.7886747246916
 20
-6.643120445358135
 30
0.0
 40
1.0
100
AcDbArc
 50
135.0000000002855
 51
180.0
  0
LINE
  5
EDAA
330
17
100
AcDbEntity
  8
1外形線
100
AcDbLine
 10
700.7886747246971
 20
-6.643120445358135
 30
0.0
 11
700.7886747246971
 21
-9.971547570104803
 31
0.0
  0
ARC
  5
EDAB
330
17
100
AcDbEntity
  8
1外形線
100
AcDbCircle
 10
701.2886747246898
 20
-9.971547570104803
 30
0.0
 40
0.5
100
AcDbArc
 50
180.0
 51
270.000000002345
  0
LINE
  5
EDAC
330
17
100
AcDbEntity
  8
1外形線
100
AcDbLine
 10
704.6171018494601
 20
-10.47154757010116
 30
0.0
 11
701.2886747247171
 21
-10.47154757010116
 31
0.0
  0
ARC
  5
EDAD
330
17
100
AcDbEntity
  8
1外形線
100
AcDbCircle
 10
704.6171018494601
 20
-9.471547570108441
 30
0.0
 40
1.0
100
AcDbArc
 50
270.0
 51
314.9999999998437
  0
LINE
  5
EDAE
330
17
100
AcDbEntity
  8
1外形線
100
AcDbLine
 10
713.0313154118335
 20
-2.471547570104803
 30
0.0
 11
705.3242086306432
 21
-10.17865435129329
 31
0.0
  0
LINE
  5
EDAF
330
17
100
AcDbEntity
  8
1外形線
100
AcDbLine
 10
718.5886747246946
 20
-2.471547570104803
 30
0.0
 11
713.0313154118335
 21
-2.471547570104803
 31
0.0
  0
ARC
  5
EDB0
330
17
100
AcDbEntity
  8
1外形線
100
AcDbCircle
 10
718.5886747246946
 20
-4.471547570108441
 30
0.0
 40
2.0
100
AcDbArc
 50
0.0
 51
90.0
  0
LINE
  5
EDB1
330
17
100
AcDbEntity
  8
1外形線
100
AcDbLine
 10
720.5886747246927
 20
-16.47154757010844
 30
0.0
 11
720.5886747246927
 21
-4.471547570108441
 31
0.0
  0
LINE
  5
EDB2
330
17
100
AcDbEntity
  8
1外形線
100
AcDbLine
 10
722.9886747246905
 20
-16.47154757010116
 30
0.0
 11
722.9886747246905
 21
-4.471547570093889
 31
0.0
  0
ARC
  5
EDB3
330
17
100
AcDbEntity
  8
1外形線
100
AcDbCircle
 10
724.9886747246978
 20
-4.471547570093889
 30
0.0
 40
2.000000000000014
100
AcDbArc
 50
90.0
 51
180.0
  0
LINE
  5
EDB4
330
17
100
AcDbEntity
  8
1外形線
100
AcDbLine
 10
724.9886747246978
 20
-2.471547570101165
 30
0.0
 11
730.5460340375771
 21
-2.471547570101165
 31
0.0
  0
LINE
  5
EDB5
330
17
100
AcDbEntity
  8
1外形線
100
AcDbLine
 10
730.5460340375771
 20
-2.471547570101165
 30
0.0
 11
738.2531408187583
 21
-10.17865435128601
 31
0.0
  0
ARC
  5
EDB6
330
17
100
AcDbEntity
  8
1外形線
100
AcDbCircle
 10
738.9602475999504
 20
-9.471547570101165
 30
0.0
 40
1.000000000000018
100
AcDbArc
 50
225.0000000000086
 51
270.0
  0
LINE
  5
EDB7
330
17
100
AcDbEntity
  8
1外形線
100
AcDbLine
 10
738.9602475999504
 20
-10.47154757009753
 30
0.0
 11
742.2886747246934
 21
-10.47154757009753
 31
0.0
  0
ARC
  5
EDB8
330
17
100
AcDbEntity
  8
1外形線
100
AcDbCircle
 10
742.2886747246934
 20
-9.971547570101165
 30
0.0
 40
0.5
100
AcDbArc
 50
270.0
 51
0.0000000005211021
  0
LINE
  5
EDB9
330
17
100
AcDbEntity
  8
1外形線
100
AcDbLine
 10
742.7886747246861
 20
-6.643120445343583
 30
0.0
 11
742.7886747246861
 21
-9.971547570101165
 31
0.0
  0
ARC
  5
EDBA
330
17
100
AcDbEntity
  8
1外形線
100
AcDbCircle
 10
741.7886747246916
 20
-6.643120445343583
 30
0.0
 40
1.000000000000349
100
AcDbArc
 50
0.0
 51
44.99999999956646
  0
LINE
  5
EDBB
330
17
100
AcDbEntity
  8
1外形線
100
AcDbLine
 10
734.7886747246934
 20
1.771093117015198
 30
0.0
 11
742.4957815058838
 21
-5.936013664166011
 31
0.0
  0
LINE
  5
EDBC
330
17
100
AcDbEntity
  8
1外形線
100
AcDbLine
 10
734.7886747246934
 20
1.771093117015198
 30
0.0
 11
734.7886747246934
 21
7.32845242990902
 31
0.0
  0
ARC
  5
EDBD
330
17
100
AcDbEntity
  8
1外形線
100
AcDbCircle
 10
736.7886747247007
 20
7.32845242990902
 30
0.0
 40
2.0
100
AcDbArc
 50
90.0
 51
180.0
  0
LINE
  5
EDBE
330
17
100
AcDbEntity
  8
1外形線
100
AcDbLine
 10
748.7886747246898
 20
9.328452429901744
 30
0.0
 11
736.7886747247007
 21
9.328452429901744
 31
0.0
  0
LINE
  5
EDBF
330
17
100
AcDbEntity
  8
1外形線
100
AcDbLine
 10
748.7886747246898
 20
11.72845242989592
 30
0.0
 11
736.7886747247007
 21
11.72845242989592
 31
0.0
  0
ARC
  5
EDC0
330
17
100
AcDbEntity
  8
1外形線
100
AcDbCircle
 10
736.7886747247007
 20
13.72845242988865
 30
0.0
 40
2.000000000000014
100
AcDbArc
 50
180.0
 51
270.0
  0
LINE
  5
EDC1
330
17
100
AcDbEntity
  8
1外形線
100
AcDbLine
 10
734.7886747246934
 20
13.72845242988865
 30
0.0
 11
734.7886747246934
 21
19.28581174278247
 31
0.0
  0
LINE
  5
EDC2
330
17
100
AcDbEntity
  8
1外形線
100
AcDbLine
 10
734.7886747246934
 20
19.28581174278247
 30
0.0
 11
742.4957815058838
 21
26.99291852396368
 31
0.0
  0
ARC
  5
EDC3
330
17
100
AcDbEntity
  8
1外形線
100
AcDbCircle
 10
741.7886747246916
 20
27.70002530514125
 30
0.0
 40
1.0000000000004
100
AcDbArc
 50
315.0000000004335
 51
0.0
  0
LINE
  5
EDC4
330
17
100
AcDbEntity
  8
1外形線
100
AcDbLine
 10
742.7886747246953
 20
27.70002530514125
 30
0.0
 11
742.7886747246953
 21
31.02845242989884
 31
0.0
  0
ARC
  5
EDC5
330
17
100
AcDbEntity
  8
1外形線
100
AcDbCircle
 10
742.2886747246934
 20
31.02845242989884
 30
0.0
 40
0.5000000000000142
100
AcDbArc
 50
359.9999999994789
 51
90.0
  0
LINE
  5
EDC6
330
17
100
AcDbEntity
  8
1外形線
100
AcDbLine
 10
738.9602475999504
 20
31.5284524298952
 30
0.0
 11
742.2886747246934
 21
31.5284524298952
 31
0.0
  0
ARC
  5
EDC7
330
17
100
AcDbEntity
  8
1外形線
100
AcDbCircle
 10
738.9602475999504
 20
30.52845242989884
 30
0.0
 40
1.0
100
AcDbArc
 50
90.0
 51
134.9999999999913
  0
LINE
  5
EDC8
330
17
100
AcDbEntity
  8
1外形線
100
AcDbLine
 10
730.5460340375771
 20
23.52845242989884
 30
0.0
 11
738.2531408187583
 21
31.23555921108368
 31
0.0
  0
LINE
  5
EDC9
330
17
100
AcDbEntity
  8
1外形線
100
AcDbLine
 10
724.9886747246978
 20
23.52845242989884
 30
0.0
 11
730.5460340375771
 21
23.52845242989884
 31
0.0
  0
ARC
  5
EDCA
330
17
100
AcDbEntity
  8
1外形線
100
AcDbCircle
 10
724.9886747246978
 20
25.52845242989156
 30
0.0
 40
2.0
100
AcDbArc
 50
180.0
 51
270.0
  0
LINE
  5
EDCB
330
17
100
AcDbEntity
  8
1外形線
100
AcDbLine
 10
722.9886747246905
 20
37.52845242989883
 30
0.0
 11
722.9886747246905
 21
25.52845242989156
 31
0.0
  0
ARC
  5
EDCC
330
17
100
AcDbEntity
  8
1外形線
100
AcDbCircle
 10
724.9886747246978
 20
37.52845242989883
 30
0.0
 40
2.0
100
AcDbArc
 50
90.0
 51
180.0
  0
LINE
  5
EDCD
330
17
100
AcDbEntity
  8
1外形線
100
AcDbLine
 10
731.4796577303218
 20
39.52845242990247
 30
0.0
 11
724.9886747246978
 21
39.52845242990247
 31
0.0
  0
ARC
  5
EDCE
330
17
100
AcDbEntity
  8
1外形線
100
AcDbCircle
 10
731.4796577303218
 20
39.0284524298952
 30
0.0
 40
0.5
100
AcDbArc
 50
26.56505117698041
 51
90.0
  0
LINE
  5
EDCF
330
17
100
AcDbEntity
  8
1外形線
100
AcDbLine
 10
732.6504781235667
 20
37.80484563214873
 30
0.0
 11
731.9268713258111
 21
39.25205922764894
 31
0.0
  0
ARC
  5
EDD0
330
17
100
AcDbEntity
  8
1外形線
100
AcDbCircle
 10
733.0976917190651
 20
38.02845242989156
 30
0.0
 40
0.5000000000000214
100
AcDbArc
 50
206.5650511770973
 51
270.0
  0
LINE
  5
EDD1
330
17
100
AcDbEntity
  8
1外形線
100
AcDbLine
 10
733.0976917190651
 20
37.5284524298952
 30
0.0
 11
733.47965773032
 21
37.5284524298952
 31
0.0
  0
ARC
  5
EDD2
330
17
100
AcDbEntity
  8
1外形線
100
AcDbCircle
 10
733.47965773032
 20
38.02845242989156
 30
0.0
 40
0.5000000000000214
100
AcDbArc
 50
270.0
 51
333.4349488230196
  0
LINE
  5
EDD3
330
17
100
AcDbEntity
  8
1外形線
100
AcDbLine
 10
733.9268713258184
 20
37.80484563214873
 30
0.0
 11
734.6504781235739
 21
39.25205922765622
 31
0.0
  0
LINE
  5
EDD4
330
17
100
AcDbEntity
  8
1外形線
100
AcDbLine
 10
741.1504781235703
 20
37.80484563214873
 30
0.0
 11
740.4268713258193
 21
39.25205922765622
 31
0.0
  0
ARC
  5
EDD5
330
17
100
AcDbEntity
  8
1外形線
100
AcDbCircle
 10
741.5976917190687
 20
38.02845242989156
 30
0.0
 40
0.5000000000000088
100
AcDbArc
 50
206.5650511769804
 51
270.0
  0
LINE
  5
EDD6
330
17
100
AcDbEntity
  8
1外形線
100
AcDbLine
 10
741.5976917190687
 20
37.5284524298952
 30
0.0
 11
741.9796577303145
 21
37.5284524298952
 31
0.0
  0
ARC
  5
EDD7
330
17
100
AcDbEntity
  8
1外形線
100
AcDbCircle
 10
741.9796577303145
 20
38.02845242989156
 30
0.0
 40
0.5000000000000342
100
AcDbArc
 50
270.0
 51
333.4349488230196
  0
LINE
  5
EDD8
330
17
100
AcDbEntity
  8
1外形線
100
AcDbLine
 10
742.4268713258221
 20
37.80484563214873
 30
0.0
 11
743.1504781235685
 21
39.25205922764531
 31
0.0
  0
ARC
  5
EDD9
330
17
100
AcDbEntity
  8
1外形線
100
AcDbCircle
 10
743.5976917190669
 20
39.0284524298952
 30
0.0
 40
0.5
100
AcDbArc
 50
90.0
 51
153.4349488230196
  0
LINE
  5
EDDA
330
17
100
AcDbEntity
  8
1外形線
100
AcDbLine
 10
747.7886747246953
 20
39.52845242989884
 30
0.0
 11
743.5976917190669
 21
39.52845242989884
 31
0.0
  0
ARC
  5
EDDB
330
17
100
AcDbEntity
  8
1外形線
100
AcDbCircle
 10
747.7886747246953
 20
36.5284524298952
 30
0.0
 40
3.0
100
AcDbArc
 50
0.0
 51
90.0
  0
LINE
  5
EDDC
330
17
100
AcDbEntity
  8
1外形線
100
AcDbLine
 10
750.7886747246971
 20
32.33746942426683
 30
0.0
 11
750.7886747246971
 21
36.5284524298952
 31
0.0
  0
ARC
  5
EDDD
330
17
100
AcDbEntity
  8
1外形線
100
AcDbCircle
 10
750.2886747246953
 20
32.33746942426683
 30
0.0
 40
0.5000000000001613
100
AcDbArc
 50
296.5650511772402
 51
0.0
  0
LINE
  5
EDDE
330
17
100
AcDbEntity
  8
1外形線
100
AcDbLine
 10
749.065067926947
 20
31.16664903102378
 30
0.0
 11
750.5122815224399
 21
31.89025582877389
 31
0.0
  0
ARC
  5
EDDF
330
17
100
AcDbEntity
  8
1外形線
100
AcDbCircle
 10
749.2886747247007
 20
30.71943543551993
 30
0.0
 40
0.5000000000000277
100
AcDbArc
 50
116.5650511769343
 51
180.0
  0
LINE
  5
EDE0
330
17
100
AcDbEntity
  8
1外形線
100
AcDbLine
 10
748.7886747246898
 20
30.33746942427411
 30
0.0
 11
748.7886747246898
 21
30.71943543551993
 31
0.0
  0
ARC
  5
EDE1
330
17
100
AcDbEntity
  8
1外形線
100
AcDbCircle
 10
749.2886747247007
 20
30.33746942427411
 30
0.0
 40
0.5000000000000277
100
AcDbArc
 50
180.0
 51
243.4349488230657
  0
LINE
  5
EDE2
330
17
100
AcDbEntity
  8
1外形線
100
AcDbLine
 10
749.065067926947
 20
29.89025582877025
 30
0.0
 11
750.5122815224445
 21
29.16664903102014
 31
0.0
  0
LINE
  5
EDE3
330
17
100
AcDbEntity
  8
1外形線
100
AcDbLine
 10
749.065067926947
 20
22.66664903102378
 30
0.0
 11
750.5122815224445
 21
23.39025582877025
 31
0.0
  0
ARC
  5
EDE4
330
17
100
AcDbEntity
  8
1外形線
100
AcDbCircle
 10
749.2886747247007
 20
22.21943543551993
 30
0.0
 40
0.5
100
AcDbArc
 50
116.5650511769343
 51
180.0
  0
LINE
  5
EDE5
330
17
100
AcDbEntity
  8
1外形線
100
AcDbLine
 10
748.7886747246898
 20
21.83746942427047
 30
0.0
 11
748.7886747246898
 21
22.21943543551629
 31
0.0
  0
ARC
  5
EDE6
330
17
100
AcDbEntity
  8
1外形線
100
AcDbCircle
 10
749.2886747247007
 20
21.83746942427047
 30
0.0
 40
0.5
100
AcDbArc
 50
180.0
 51
243.4349488230657
  0
LINE
  5
EDE7
330
17
100
AcDbEntity
  8
1外形線
100
AcDbLine
 10
749.065067926947
 20
21.39025582876661
 30
0.0
 11
750.5122815224399
 21
20.66664903102014
 31
0.0
  0
LINE
  5
EDE8
330
17
100
AcDbEntity
  8
1外形線
100
AcDbLine
 10
750.7886747246971
 20
18.52845242990247
 30
0.0
 11
750.7886747246971
 21
20.21943543552357
 31
0.0
  0
ARC
  5
EDE9
330
17
100
AcDbEntity
  8
1外形線
100
AcDbCircle
 10
750.2886747246953
 20
20.21943543552357
 30
0.0
 40
0.5
100
AcDbArc
 50
0.0
 51
63.43494882306567
  0
LINE
  5
EDEA
330
17
100
AcDbEntity
  8
1外形線
100
AcDbLine
 10
750.7886747246788
 20
2.528452429898834
 30
0.0
 11
750.7886747246788
 21
0.8374694242704663
 31
0.0
  0
LINE
  5
EDEB
330
17
100
AcDbEntity
  8
1外形線
100
AcDbLine
 10
749.0650679269378
 20
-0.3333509689762195
 30
0.0
 11
750.5122815224399
 21
0.3902558287775264
 31
0.0
  0
ARC
  5
EDEC
330
17
100
AcDbEntity
  8
1外形線
100
AcDbCircle
 10
750.2886747246861
 20
0.8374694242704663
 30
0.0
 40
0.5
100
AcDbArc
 50
296.5650511769343
 51
0.0
  0
ARC
  5
EDED
330
17
100
AcDbEntity
  8
1外形線
100
AcDbCircle
 10
749.2886747246825
 20
-0.7805645644764354
 30
0.0
 40
0.5
100
AcDbArc
 50
116.5650511769343
 51
180.0
  0
LINE
  5
EDEE
330
17
100
AcDbEntity
  8
1外形線
100
AcDbLine
 10
748.7886747246898
 20
-0.7805645644764354
 30
0.0
 11
748.7886747246898
 21
-1.162530575722257
 31
0.0
  0
ARC
  5
EDEF
330
17
100
AcDbEntity
  8
1外形線
100
AcDbCircle
 10
749.2886747246825
 20
-1.162530575722257
 30
0.0
 40
0.5
100
AcDbArc
 50
180.0
 51
243.4349488230657
  0
LINE
  5
EDF0
330
17
100
AcDbEntity
  8
1外形線
100
AcDbLine
 10
749.0650679269378
 20
-1.609744171226111
 30
0.0
 11
750.5122815224445
 21
-2.333350968976219
 31
0.0
  0
LINE
  5
EDF1
330
17
100
AcDbEntity
  8
1外形線
100
AcDbLine
 10
749.0650679269378
 20
-8.833350968972581
 30
0.0
 11
750.5122815224445
 21
-8.109744171226111
 31
0.0
  0
ARC
  5
EDF2
330
17
100
AcDbEntity
  8
1外形線
100
AcDbCircle
 10
749.2886747246825
 20
-9.280564564476435
 30
0.0
 40
0.5
100
AcDbArc
 50
116.5650511769343
 51
180.0
  0
LINE
  5
EDF3
330
17
100
AcDbEntity
  8
1外形線
100
AcDbLine
 10
748.7886747246898
 20
-9.280564564476435
 30
0.0
 11
748.7886747246898
 21
-9.662530575725895
 31
0.0
  0
ARC
  5
EDF4
330
17
100
AcDbEntity
  8
1外形線
100
AcDbCircle
 10
749.2886747246825
 20
-9.662530575725895
 30
0.0
 40
0.5
100
AcDbArc
 50
180.0
 51
243.4349488230657
  0
LINE
  5
EDF5
330
17
100
AcDbEntity
  8
1外形線
100
AcDbLine
 10
749.0650679269378
 20
-10.10974417122975
 30
0.0
 11
750.5122815224399
 21
-10.83335096897622
 31
0.0
  0
ARC
  5
EDF6
330
17
100
AcDbEntity
  8
1外形線
100
AcDbCircle
 10
750.2886747246953
 20
-11.28056456448371
 30
0.0
 40
0.4999999999997863
100
AcDbArc
 50
0.0
 51
63.43494882449306
  0
LINE
  5
EDF7
330
17
100
AcDbEntity
  8
1外形線
100
AcDbLine
 10
750.7886747246971
 20
-11.28056456448371
 30
0.0
 11
750.7886747246971
 21
-15.47154757011208
 31
0.0
  0
ARC
  5
EDF8
330
17
100
AcDbEntity
  8
1外形線
100
AcDbCircle
 10
747.7886747246953
 20
-15.47154757011208
 30
0.0
 40
3.000000000000014
100
AcDbArc
 50
270.0
 51
0.0
  0
LINE
  5
EDF9
330
17
100
AcDbEntity
  8
1外形線
100
AcDbLine
 10
747.7886747246953
 20
-18.47154757010844
 30
0.0
 11
743.5976917190759
 21
-18.47154757010844
 31
0.0
  0
ARC
  5
EDFA
330
17
100
AcDbEntity
  8
1外形線
100
AcDbCircle
 10
743.5976917190759
 20
-17.97154757011208
 30
0.0
 40
0.5000000000001231
100
AcDbArc
 50
206.5650511763978
 51
269.9999999997394
  0
LINE
  5
EDFB
330
17
100
AcDbEntity
  8
1外形線
100
AcDbLine
 10
742.4268713258221
 20
-16.74794077235469
 30
0.0
 11
743.1504781235685
 21
-18.19515436785127
 31
0.0
  0
ARC
  5
EDFC
330
17
100
AcDbEntity
  8
1外形線
100
AcDbCircle
 10
741.9796577303145
 20
-16.97154757010844
 30
0.0
 40
0.5
100
AcDbArc
 50
26.56505117698041
 51
90.0
  0
LINE
  5
EDFD
330
17
100
AcDbEntity
  8
1外形線
100
AcDbLine
 10
741.5976917190687
 20
-16.47154757010116
 30
0.0
 11
741.9796577303145
 21
-16.47154757010116
 31
0.0
  0
ARC
  5
EDFE
330
17
100
AcDbEntity
  8
1外形線
100
AcDbCircle
 10
741.5976917190687
 20
-16.97154757010844
 30
0.0
 40
0.5
100
AcDbArc
 50
90.0
 51
153.4349488230196
  0
LINE
  5
EDFF
330
17
100
AcDbEntity
  8
1外形線
100
AcDbLine
 10
741.1504781235703
 20
-16.74794077235469
 30
0.0
 11
740.4268713258239
 21
-18.19515436785127
 31
0.0
  0
LINE
  5
EE00
330
17
100
AcDbEntity
  8
1外形線
100
AcDbLine
 10
733.9268713258184
 20
-16.74794077235469
 30
0.0
 11
734.6504781235694
 21
-18.19515436785127
 31
0.0
  0
ARC
  5
EE01
330
17
100
AcDbEntity
  8
1外形線
100
AcDbCircle
 10
733.47965773032
 20
-16.97154757010116
 30
0.0
 40
0.5000000000000088
100
AcDbArc
 50
26.56505117698041
 51
90.0
  0
LINE
  5
EE02
330
17
100
AcDbEntity
  8
1外形線
100
AcDbLine
 10
733.0976917190651
 20
-16.47154757010116
 30
0.0
 11
733.47965773032
 21
-16.47154757010116
 31
0.0
  0
ARC
  5
EE03
330
17
100
AcDbEntity
  8
1外形線
100
AcDbCircle
 10
733.0976917190651
 20
-16.97154757010116
 30
0.0
 40
0.5000000000000214
100
AcDbArc
 50
90.0
 51
153.4349488229027
  0
LINE
  5
EE04
330
17
100
AcDbEntity
  8
1外形線
100
AcDbLine
 10
732.6504781235757
 20
-16.74794077235469
 30
0.0
 11
731.9268713258202
 21
-18.19515436785127
 31
0.0
  0
LINE
  5
EE05
330
17
100
AcDbEntity
  8
1外形線
100
AcDbLine
 10
731.4796577303218
 20
-18.4715475701048
 30
0.0
 11
729.7886747246934
 21
-18.4715475701048
 31
0.0
  0
ARC
  5
EE06
330
17
100
AcDbEntity
  8
1外形線
100
AcDbCircle
 10
731.4796577303218
 20
-17.97154757010116
 30
0.0
 40
0.5
100
AcDbArc
 50
270.0
 51
333.4349488230196
  0
LINE
  5
EE07
330
17
100
AcDbEntity
  8
1外形線
100
AcDbLine
 10
739.3886747246938
 20
-38.47154757010116
 30
0.0
 11
729.7886747246934
 21
-38.47154757010116
 31
0.0
  0
ARC
  5
EE08
330
17
100
AcDbEntity
  8
1外形線
100
AcDbCircle
 10
739.3886747246938
 20
-39.47154757010117
 30
0.0
 40
1.0
100
AcDbArc
 50
0.0
 51
90.0
  0
LINE
  5
EE09
330
17
100
AcDbEntity
  8
1外形線
100
AcDbLine
 10
791.4385316194762
 20
-38.47154757010116
 30
0.0
 11
763.2886747246971
 21
-38.47154757010116
 31
0.0
  0
LINE
  5
EE0A
330
17
100
AcDbEntity
  8
1外形線
100
AcDbLine
 10
761.2886747246898
 20
-38.47154757010116
 30
0.0
 11
744.6886747246913
 21
-38.47154757010116
 31
0.0
  0
ARC
  5
EE0B
330
17
100
AcDbEntity
  8
1外形線
100
AcDbCircle
 10
791.4385316194762
 20
-38.97154757009753
 30
0.0
 40
0.5
100
AcDbArc
 50
0.0
 51
90.0
  0
LINE
  5
EE0C
330
17
100
AcDbEntity
  8
1外形線
100
AcDbLine
 10
791.9385316194871
 20
-38.97154757009753
 30
0.0
 11
791.9385316194871
 21
-48.61747415831974
 31
0.0
  0
ARC
  5
EE0D
330
17
100
AcDbEntity
  8
1外形線
100
AcDbCircle
 10
792.4385316194798
 20
-48.61747415831974
 30
0.0
 40
0.5000000000000629
100
AcDbArc
 50
180.0
 51
281.8910581025457
  0
ARC
  5
EE0E
330
17
100
AcDbEntity
  8
1外形線
100
AcDbCircle
 10
789.0386878913864
 20
-32.47157146054064
 30
0.0
 40
16.99997306972494
100
AcDbArc
 50
281.8910581025457
 51
318.1897094881731
  0
ARC
  5
EE0F
330
17
100
AcDbEntity
  8
1外形線
100
AcDbCircle
 10
811.3993652552357
 20
-52.47157232753284
 30
0.0
 40
13.00002571111705
100
AcDbArc
 50
97.09033038153343
 51
138.1896432845703
  0
ARC
  5
EE10
330
17
100
AcDbEntity
  8
1外形線
100
AcDbCircle
 10
833.2886776895453
 20
-39.49357631416911
 30
0.0
 40
0.5
100
AcDbArc
 50
270.0
 51
351.0962876211973
  0
ARC
  5
EE11
330
17
100
AcDbEntity
  8
1外形線
100
AcDbCircle
 10
832.1779841941474
 20
-52.47157232753284
 30
0.0
 40
13.00002571111839
100
AcDbArc
 50
41.81037657638654
 51
82.90956653477829
  0
ARC
  5
EE12
330
17
100
AcDbEntity
  8
1外形線
100
AcDbCircle
 10
854.538661558006
 20
-32.47157146054064
 30
0.0
 40
16.99997306972889
100
AcDbArc
 50
221.8102753239048
 51
258.1089418974409
  0
ARC
  5
EE13
330
17
100
AcDbEntity
  8
1外形線
100
AcDbCircle
 10
851.1388178299217
 20
-48.61747415833065
 30
0.0
 40
0.5000000000000804
100
AcDbArc
 50
258.1089418974409
 51
0.0
  0
ARC
  5
EE14
330
17
100
AcDbEntity
  8
1外形線
100
AcDbCircle
 10
851.1388178299217
 20
-48.61747415833065
 30
0.0
 40
0.5000000000000804
100
AcDbArc
 50
258.1089418974409
 51
258.1089418974409
  0
LINE
  5
EE15
330
17
100
AcDbEntity
  8
1外形線
100
AcDbLine
 10
851.6388178299234
 20
-38.97154757009753
 30
0.0
 11
851.6388178299234
 21
-48.61747415833065
 31
0.0
  0
ARC
  5
EE16
330
17
100
AcDbEntity
  8
1外形線
100
AcDbCircle
 10
852.1388178299252
 20
-38.97154757009753
 30
0.0
 40
0.5
100
AcDbArc
 50
90.0
 51
180.0
  0
LINE
  5
EE17
330
17
100
AcDbEntity
  8
1外形線
100
AcDbLine
 10
852.1388178299252
 20
-38.47154757010116
 30
0.0
 11
880.2886747246953
 21
-38.47154757010116
 31
0.0
  0
LINE
  5
EE18
330
17
100
AcDbEntity
  8
1外形線
100
AcDbLine
 10
882.2886747246935
 20
-38.47154757010116
 30
0.0
 11
898.8886747246921
 21
-38.47154757010116
 31
0.0
  0
LINE
  5
EE19
330
17
100
AcDbEntity
  8
1外形線
100
AcDbLine
 10
904.1886747246985
 20
-38.47154757010116
 30
0.0
 11
913.7886747246898
 21
-38.47154757010116
 31
0.0
  0
LINE
  5
EE1A
330
17
100
AcDbEntity
  8
1外形線
100
AcDbLine
 10
911.7886747246917
 20
-18.47154757010844
 30
0.0
 11
913.7886747246898
 21
-18.47154757010844
 31
0.0
  0
LINE
  5
EE1B
330
17
100
AcDbEntity
  8
1外形線
100
AcDbLine
 10
910.9268713258165
 20
-16.74794077235469
 30
0.0
 11
911.7886747246917
 21
-18.47154757010844
 31
0.0
  0
ARC
  5
EE1C
330
17
100
AcDbEntity
  8
1外形線
100
AcDbCircle
 10
910.4796577303181
 20
-16.97154757010844
 30
0.0
 40
0.5000000000000851
100
AcDbArc
 50
26.56505117709729
 51
90.0
  0
LINE
  5
EE1D
330
17
100
AcDbEntity
  8
1外形線
100
AcDbLine
 10
910.4796577303181
 20
-16.47154757010116
 30
0.0
 11
910.0976917190724
 21
-16.47154757010116
 31
0.0
  0
ARC
  5
EE1E
330
17
100
AcDbEntity
  8
1外形線
100
AcDbCircle
 10
910.0976917190633
 20
-16.97154757010844
 30
0.0
 40
0.5
100
AcDbArc
 50
90.0
 51
153.4349488230196
  0
LINE
  5
EE1F
330
17
100
AcDbEntity
  8
1外形線
100
AcDbLine
 10
909.6504781235649
 20
-16.74794077235469
 30
0.0
 11
908.9268713258229
 21
-18.19515436785491
 31
0.0
  0
LINE
  5
EE20
330
17
100
AcDbEntity
  8
1外形線
100
AcDbLine
 10
902.4268713258129
 20
-16.74794077235469
 30
0.0
 11
903.1504781235639
 21
-18.19515436785127
 31
0.0
  0
ARC
  5
EE21
330
17
100
AcDbEntity
  8
1外形線
100
AcDbCircle
 10
901.9796577303145
 20
-16.97154757010844
 30
0.0
 40
0.5
100
AcDbArc
 50
26.56505117698041
 51
90.0
  0
LINE
  5
EE22
330
17
100
AcDbEntity
  8
1外形線
100
AcDbLine
 10
901.9796577303145
 20
-16.47154757010116
 30
0.0
 11
901.5976917190688
 21
-16.47154757010116
 31
0.0
  0
ARC
  5
EE23
330
17
100
AcDbEntity
  8
1外形線
100
AcDbCircle
 10
901.5976917190688
 20
-16.97154757010844
 30
0.0
 40
0.5000000000000088
100
AcDbArc
 50
90.0
 51
153.4349488230196
  0
LINE
  5
EE24
330
17
100
AcDbEntity
  8
1外形線
100
AcDbLine
 10
901.1504781235613
 20
-16.74794077235469
 30
0.0
 11
900.4268713258147
 21
-18.19515436785127
 31
0.0
  0
ARC
  5
EE25
330
17
100
AcDbEntity
  8
1外形線
100
AcDbCircle
 10
899.9796577303163
 20
-17.97154757010116
 30
0.0
 40
0.5
100
AcDbArc
 50
270.0
 51
333.4349488230196
  0
LINE
  5
EE26
330
17
100
AcDbEntity
  8
1外形線
100
AcDbLine
 10
895.7886747246879
 20
-18.4715475701048
 30
0.0
 11
899.9796577303163
 21
-18.4715475701048
 31
0.0
  0
ARC
  5
EE27
330
17
100
AcDbEntity
  8
1外形線
100
AcDbCircle
 10
895.7886747246972
 20
-15.47154757010116
 30
0.0
 40
3.0
100
AcDbArc
 50
180.0
 51
270.0
  0
LINE
  5
EE28
330
17
100
AcDbEntity
  8
1外形線
100
AcDbLine
 10
892.7886747246953
 20
-11.28056456447643
 30
0.0
 11
892.7886747246953
 21
-15.47154757010116
 31
0.0
  0
ARC
  5
EE29
330
17
100
AcDbEntity
  8
1外形線
100
AcDbCircle
 10
893.2886747246971
 20
-11.28056456447643
 30
0.0
 40
0.5000000000002883
100
AcDbArc
 50
116.5650511772402
 51
180.0
  0
LINE
  5
EE2A
330
17
100
AcDbEntity
  8
1外形線
100
AcDbLine
 10
894.5122815224454
 20
-10.10974417122975
 30
0.0
 11
893.0650679269433
 21
-10.83335096897986
 31
0.0
  0
ARC
  5
EE2B
330
17
100
AcDbEntity
  8
1外形線
100
AcDbCircle
 10
894.2886747246916
 20
-9.662530575725895
 30
0.0
 40
0.4999999999999833
100
AcDbArc
 50
296.5650511771091
 51
0.0
  0
LINE
  5
EE2C
330
17
100
AcDbEntity
  8
1外形線
100
AcDbLine
 10
894.7886747246935
 20
-9.280564564480073
 30
0.0
 11
894.7886747246935
 21
-9.662530575725895
 31
0.0
  0
ARC
  5
EE2D
330
17
100
AcDbEntity
  8
1外形線
100
AcDbCircle
 10
894.2886747246916
 20
-9.280564564480073
 30
0.0
 40
0.4999999999999833
100
AcDbArc
 50
0.0
 51
63.43494882306567
  0
LINE
  5
EE2E
330
17
100
AcDbEntity
  8
1外形線
100
AcDbLine
 10
894.5122815224454
 20
-8.833350968976219
 30
0.0
 11
893.0650679269479
 21
-8.109744171229749
 31
0.0
  0
LINE
  5
EE2F
330
17
100
AcDbEntity
  8
1外形線
100
AcDbLine
 10
894.5122815224454
 20
-1.609744171229749
 30
0.0
 11
893.0650679269479
 21
-2.333350968976219
 31
0.0
  0
ARC
  5
EE30
330
17
100
AcDbEntity
  8
1外形線
100
AcDbCircle
 10
894.2886747246916
 20
-1.162530575725895
 30
0.0
 40
0.5000000000000088
100
AcDbArc
 50
296.5650511769343
 51
0.0
  0
LINE
  5
EE31
330
17
100
AcDbEntity
  8
1外形線
100
AcDbLine
 10
894.7886747246935
 20
-0.7805645644764354
 30
0.0
 11
894.7886747246935
 21
-1.162530575722257
 31
0.0
  0
ARC
  5
EE32
330
17
100
AcDbEntity
  8
1外形線
100
AcDbCircle
 10
894.2886747246916
 20
-0.7805645644764354
 30
0.0
 40
0.4999999999999833
100
AcDbArc
 50
0.0
 51
63.43494882306567
  0
LINE
  5
EE33
330
17
100
AcDbEntity
  8
1外形線
100
AcDbLine
 10
894.5122815224454
 20
-0.3333509689834955
 30
0.0
 11
892.7886747246953
 21
0.5284524298915585
 31
0.0
  0
LINE
  5
EE34
330
17
100
AcDbEntity
  8
1外形線
100
AcDbLine
 10
892.7886747246953
 20
2.528452429898834
 30
0.0
 11
892.7886747246953
 21
0.5284524298915585
 31
0.0
  0
LINE
  5
EE35
330
17
100
AcDbEntity
  8
1外形線
100
AcDbLine
 10
892.7886747246953
 20
18.52845242990247
 30
0.0
 11
892.7886747246953
 21
20.52845242990611
 31
0.0
  0
LINE
  5
EE36
330
17
100
AcDbEntity
  8
1外形線
100
AcDbLine
 10
894.5122815224454
 20
21.39025582878117
 30
0.0
 11
892.7886747246953
 21
20.52845242990611
 31
0.0
  0
ARC
  5
EE37
330
17
100
AcDbEntity
  8
1外形線
100
AcDbCircle
 10
894.2886747246916
 20
21.8374694242741
 30
0.0
 40
0.499999999999958
100
AcDbArc
 50
296.5650511769343
 51
0.0
  0
LINE
  5
EE38
330
17
100
AcDbEntity
  8
1外形線
100
AcDbLine
 10
894.7886747246935
 20
21.8374694242741
 30
0.0
 11
894.7886747246935
 21
22.21943543553084
 31
0.0
  0
ARC
  5
EE39
330
17
100
AcDbEntity
  8
1外形線
100
AcDbCircle
 10
894.2886747246916
 20
22.21943543553084
 30
0.0
 40
0.4999999999999833
100
AcDbArc
 50
0.0
 51
63.43494882306567
  0
LINE
  5
EE3A
330
17
100
AcDbEntity
  8
1外形線
100
AcDbLine
 10
894.5122815224454
 20
22.66664903102378
 30
0.0
 11
893.0650679269479
 21
23.39025582877389
 31
0.0
  0
LINE
  5
EE3B
330
17
100
AcDbEntity
  8
1外形線
100
AcDbLine
 10
894.5122815224454
 20
29.89025582878117
 30
0.0
 11
893.0650679269433
 21
29.16664903103106
 31
0.0
  0
ARC
  5
EE3C
330
17
100
AcDbEntity
  8
1外形線
100
AcDbCircle
 10
894.2886747246916
 20
30.33746942427774
 30
0.0
 40
0.5000000000000342
100
AcDbArc
 50
296.5650511769343
 51
0.0
  0
LINE
  5
EE3D
330
17
100
AcDbEntity
  8
1外形線
100
AcDbLine
 10
894.7886747246935
 20
30.33746942427774
 30
0.0
 11
894.7886747246935
 21
30.71943543552356
 31
0.0
  0
ARC
  5
EE3E
330
17
100
AcDbEntity
  8
1外形線
100
AcDbCircle
 10
894.2886747246916
 20
30.71943543552356
 30
0.0
 40
0.5000000000000342
100
AcDbArc
 50
0.0
 51
63.43494882306567
  0
LINE
  5
EE3F
330
17
100
AcDbEntity
  8
1外形線
100
AcDbLine
 10
894.5122815224454
 20
31.16664903102742
 30
0.0
 11
893.0650679269433
 21
31.89025582877389
 31
0.0
  0
ARC
  5
EE40
330
17
100
AcDbEntity
  8
1外形線
100
AcDbCircle
 10
893.2886747246971
 20
32.33746942427411
 30
0.0
 40
0.5000000000000569
100
AcDbArc
 50
180.0
 51
243.4349488230657
  0
LINE
  5
EE41
330
17
100
AcDbEntity
  8
1外形線
100
AcDbLine
 10
892.7886747246953
 20
32.33746942428138
 30
0.0
 11
892.7886747246953
 21
36.52845242990611
 31
0.0
  0
ARC
  5
EE42
330
17
100
AcDbEntity
  8
1外形線
100
AcDbCircle
 10
895.7886747246972
 20
36.52845242990611
 30
0.0
 40
3.0
100
AcDbArc
 50
90.00000000052109
 51
180.0
  0
LINE
  5
EE43
330
17
100
AcDbEntity
  8
1外形線
100
AcDbLine
 10
895.7886747246698
 20
39.52845242990247
 30
0.0
 11
899.9796577302982
 21
39.52845242990247
 31
0.0
  0
ARC
  5
EE44
330
17
100
AcDbEntity
  8
1外形線
100
AcDbCircle
 10
899.9796577302891
 20
39.02845242990611
 30
0.0
 40
0.5000000000002376
100
AcDbArc
 50
26.56505117639779
 51
89.99999999973944
  0
LINE
  5
EE45
330
17
100
AcDbEntity
  8
1外形線
100
AcDbLine
 10
901.150478123543
 20
37.80484563215237
 30
0.0
 11
900.4268713257966
 21
39.25205922764894
 31
0.0
  0
ARC
  5
EE46
330
17
100
AcDbEntity
  8
1外形線
100
AcDbCircle
 10
901.5976917190505
 20
38.02845242989884
 30
0.0
 40
0.5
100
AcDbArc
 50
206.5650511769804
 51
270.0
  0
LINE
  5
EE47
330
17
100
AcDbEntity
  8
1外形線
100
AcDbLine
 10
901.9796577302964
 20
37.52845242989883
 30
0.0
 11
901.5976917190505
 21
37.52845242989883
 31
0.0
  0
ARC
  5
EE48
330
17
100
AcDbEntity
  8
1外形線
100
AcDbCircle
 10
901.9796577302964
 20
38.02845242989884
 30
0.0
 40
0.5
100
AcDbArc
 50
270.0
 51
333.4349488230196
  0
LINE
  5
EE49
330
17
100
AcDbEntity
  8
1外形線
100
AcDbLine
 10
902.4268713257947
 20
37.80484563215237
 30
0.0
 11
903.1504781235458
 21
39.25205922765622
 31
0.0
  0
LINE
  5
EE4A
330
17
100
AcDbEntity
  8
1外形線
100
AcDbLine
 10
909.6504781235466
 20
37.80484563215237
 30
0.0
 11
908.9268713257956
 21
39.25205922765622
 31
0.0
  0
ARC
  5
EE4B
330
17
100
AcDbEntity
  8
1外形線
100
AcDbCircle
 10
910.097691719045
 20
38.02845242989884
 30
0.0
 40
0.5000000000000088
100
AcDbArc
 50
206.5650511769804
 51
270.0
  0
LINE
  5
EE4C
330
17
100
AcDbEntity
  8
1外形線
100
AcDbLine
 10
910.4796577303
 20
37.52845242989883
 30
0.0
 11
910.097691719045
 21
37.52845242989883
 31
0.0
  0
ARC
  5
EE4D
330
17
100
AcDbEntity
  8
1外形線
100
AcDbCircle
 10
910.4796577303
 20
38.02845242989884
 30
0.0
 40
0.5
100
AcDbArc
 50
270.0
 51
333.4349488229027
  0
LINE
  5
EE4E
330
17
100
AcDbEntity
  8
1外形線
100
AcDbLine
 10
910.9268713257984
 20
37.80484563215237
 30
0.0
 11
911.7886747246734
 21
39.52845242990247
 31
0.0
  0
LINE
  5
EE4F
330
17
100
AcDbEntity
  8
1外形線
100
AcDbLine
 10
911.7886747246734
 20
39.52845242990247
 30
0.0
 11
918.5886747246673
 21
39.52845242990247
 31
0.0
  0
ARC
  5
EE50
330
17
100
AcDbEntity
  8
1外形線
100
AcDbCircle
 10
918.5886747246673
 20
37.52845242989883
 30
0.0
 40
2.0
100
AcDbArc
 50
0.0
 51
90.0
  0
LINE
  5
EE51
330
17
100
AcDbEntity
  8
1外形線
100
AcDbLine
 10
920.5886747246745
 20
37.52845242989883
 30
0.0
 11
920.5886747246745
 21
25.52845242989884
 31
0.0
  0
ARC
  5
EE52
330
17
100
AcDbEntity
  8
1外形線
100
AcDbCircle
 10
918.5886747246673
 20
25.52845242989884
 30
0.0
 40
2.0
100
AcDbArc
 50
270.0
 51
0.0
  0
LINE
  5
EE53
330
17
100
AcDbEntity
  8
1外形線
100
AcDbLine
 10
918.5886747246673
 20
23.52845242989884
 30
0.0
 11
913.0313154118061
 21
23.52845242989884
 31
0.0
  0
LINE
  5
EE54
330
17
100
AcDbEntity
  8
1外形線
100
AcDbLine
 10
913.0313154118061
 20
23.52845242989884
 30
0.0
 11
905.324208630625
 21
31.23555921109096
 31
0.0
  0
ARC
  5
EE55
330
17
100
AcDbEntity
  8
1外形線
100
AcDbCircle
 10
904.6171018494328
 20
30.52845242990611
 30
0.0
 40
1.0
100
AcDbArc
 50
45.00000000000865
 51
90.0
  0
LINE
  5
EE56
330
17
100
AcDbEntity
  8
1外形線
100
AcDbLine
 10
904.6171018494328
 20
31.52845242990611
 30
0.0
 11
901.2886747246898
 21
31.52845242990611
 31
0.0
  0
ARC
  5
EE57
330
17
100
AcDbEntity
  8
1外形線
100
AcDbCircle
 10
901.2886747246898
 20
31.02845242990247
 30
0.0
 40
0.5000000000000569
100
AcDbArc
 50
90.0
 51
180.0
  0
LINE
  5
EE58
330
17
100
AcDbEntity
  8
1外形線
100
AcDbLine
 10
900.788674724688
 20
27.70002530515581
 30
0.0
 11
900.788674724688
 21
31.02845242990247
 31
0.0
  0
ARC
  5
EE59
330
17
100
AcDbEntity
  8
1外形線
100
AcDbCircle
 10
901.7886747246917
 20
27.70002530515581
 30
0.0
 40
1.000000000000056
100
AcDbArc
 50
180.0
 51
225.0000000000086
  0
LINE
  5
EE5A
330
17
100
AcDbEntity
  8
1外形線
100
AcDbLine
 10
908.7886747246898
 20
19.28581174278247
 30
0.0
 11
901.0815679435086
 21
26.99291852396732
 31
0.0
  0
LINE
  5
EE5B
330
17
100
AcDbEntity
  8
1外形線
100
AcDbLine
 10
908.7886747246898
 20
13.7284524299032
 30
0.0
 11
908.7886747246898
 21
19.28581174278247
 31
0.0
  0
ARC
  5
EE5C
330
17
100
AcDbEntity
  8
1外形線
100
AcDbCircle
 10
906.7886747246916
 20
13.7284524299032
 30
0.0
 40
2.0
100
AcDbArc
 50
270.0
 51
0.0
  0
LINE
  5
EE5D
330
17
100
AcDbEntity
  8
1外形線
100
AcDbLine
 10
894.7886747246935
 20
11.72845242989956
 30
0.0
 11
906.7886747246916
 21
11.72845242989956
 31
0.0
  0
LINE
  5
EE5E
330
17
100
AcDbEntity
  8
1外形線
100
AcDbLine
 10
894.7886747246935
 20
9.328452429898106
 30
0.0
 11
906.7886747246916
 21
9.328452429898106
 31
0.0
  0
ARC
  5
EE5F
330
17
100
AcDbEntity
  8
1外形線
100
AcDbCircle
 10
906.7886747246916
 20
7.328452429894468
 30
0.0
 40
2.0
100
AcDbArc
 50
0.0
 51
90.0
  0
LINE
  5
EE60
330
17
100
AcDbEntity
  8
1外形線
100
AcDbLine
 10
908.7886747246898
 20
1.771093117015198
 30
0.0
 11
908.7886747246898
 21
7.328452429894468
 31
0.0
  0
LINE
  5
EE61
330
17
100
AcDbEntity
  8
1外形線
100
AcDbLine
 10
908.7886747246898
 20
1.771093117015198
 30
0.0
 11
901.0815679435086
 21
-5.936013664166011
 31
0.0
  0
ARC
  5
EE62
330
17
100
AcDbEntity
  8
1外形線
100
AcDbCircle
 10
901.7886747246917
 20
-6.643120445358135
 30
0.0
 40
1.000000000000007
100
AcDbArc
 50
134.9999999999913
 51
180.0
  0
LINE
  5
EE63
330
17
100
AcDbEntity
  8
1外形線
100
AcDbLine
 10
900.7886747246971
 20
-6.643120445358135
 30
0.0
 11
900.7886747246971
 21
-9.971547570104803
 31
0.0
  0
ARC
  5
EE64
330
17
100
AcDbEntity
  8
1外形線
100
AcDbCircle
 10
901.2886747246898
 20
-9.971547570104803
 30
0.0
 40
0.5000000000000569
100
AcDbArc
 50
180.0
 51
270.0000000020844
  0
LINE
  5
EE65
330
17
100
AcDbEntity
  8
1外形線
100
AcDbLine
 10
904.617101849451
 20
-10.47154757010116
 30
0.0
 11
901.288674724708
 21
-10.47154757010116
 31
0.0
  0
ARC
  5
EE66
330
17
100
AcDbEntity
  8
1外形線
100
AcDbCircle
 10
904.617101849451
 20
-9.471547570108441
 30
0.0
 40
1.000000000000007
100
AcDbArc
 50
270.0
 51
314.9999999999914
  0
LINE
  5
EE67
330
17
100
AcDbEntity
  8
1外形線
100
AcDbLine
 10
913.0313154118335
 20
-2.471547570101165
 30
0.0
 11
905.3242086306431
 21
-10.17865435128601
 31
0.0
  0
LINE
  5
EE68
330
17
100
AcDbEntity
  8
1外形線
100
AcDbLine
 10
918.5886747246945
 20
-2.471547570101165
 30
0.0
 11
913.0313154118335
 21
-2.471547570101165
 31
0.0
  0
ARC
  5
EE69
330
17
100
AcDbEntity
  8
1外形線
100
AcDbCircle
 10
918.5886747246945
 20
-4.471547570101165
 30
0.0
 40
2.0
100
AcDbArc
 50
0.0
 51
90.0
  0
LINE
  5
EE6A
330
17
100
AcDbEntity
  8
1外形線
100
AcDbLine
 10
920.5886747246927
 20
-16.47154757010844
 30
0.0
 11
920.5886747246927
 21
-4.471547570101165
 31
0.0
  0
LINE
  5
EE6B
330
17
100
AcDbEntity
  8
1外形線
100
AcDbLine
 10
922.9886747246906
 20
-16.47154757010116
 30
0.0
 11
922.9886747246906
 21
-4.471547570093889
 31
0.0
  0
ARC
  5
EE6C
330
17
100
AcDbEntity
  8
1外形線
100
AcDbCircle
 10
924.9886747246979
 20
-4.471547570093889
 30
0.0
 40
2.0
100
AcDbArc
 50
90.0
 51
180.0
  0
LINE
  5
EE6D
330
17
100
AcDbEntity
  8
1外形線
100
AcDbLine
 10
924.9886747246979
 20
-2.471547570101165
 30
0.0
 11
930.5460340375772
 21
-2.471547570101165
 31
0.0
  0
LINE
  5
EE6E
330
17
100
AcDbEntity
  8
1外形線
100
AcDbLine
 10
930.5460340375772
 20
-2.471547570101165
 30
0.0
 11
938.2531408187583
 21
-10.17865435128601
 31
0.0
  0
ARC
  5
EE6F
330
17
100
AcDbEntity
  8
1外形線
100
AcDbCircle
 10
938.9602475999504
 20
-9.471547570101165
 30
0.0
 40
1.0
100
AcDbArc
 50
225.0000000000086
 51
270.0
  0
LINE
  5
EE70
330
17
100
AcDbEntity
  8
1外形線
100
AcDbLine
 10
938.9602475999504
 20
-10.47154757009753
 30
0.0
 11
942.2886747246934
 21
-10.47154757009753
 31
0.0
  0
ARC
  5
EE71
330
17
100
AcDbEntity
  8
1外形線
100
AcDbCircle
 10
942.2886747246934
 20
-9.971547570101165
 30
0.0
 40
0.5
100
AcDbArc
 50
270.0
 51
0.0000000005211021
  0
LINE
  5
EE72
330
17
100
AcDbEntity
  8
1外形線
100
AcDbLine
 10
942.7886747246953
 20
-6.643120445343583
 30
0.0
 11
942.7886747246953
 21
-9.971547570101165
 31
0.0
  0
ARC
  5
EE73
330
17
100
AcDbEntity
  8
1外形線
100
AcDbCircle
 10
941.7886747246916
 20
-6.643120445343583
 30
0.0
 40
1.000000000000397
100
AcDbArc
 50
0.0
 51
44.99999999956646
  0
LINE
  5
EE74
330
17
100
AcDbEntity
  8
1外形線
100
AcDbLine
 10
934.7886747246935
 20
1.771093117015198
 30
0.0
 11
942.4957815058837
 21
-5.936013664166011
 31
0.0
  0
LINE
  5
EE75
330
17
100
AcDbEntity
  8
1外形線
100
AcDbLine
 10
934.7886747246935
 20
7.328452429901744
 30
0.0
 11
934.7886747246935
 21
1.771093117015198
 31
0.0
  0
ARC
  5
EE76
330
17
100
AcDbEntity
  8
1外形線
100
AcDbCircle
 10
936.7886747247007
 20
7.328452429901744
 30
0.0
 40
2.000000000000056
100
AcDbArc
 50
90.0
 51
180.0
  0
LINE
  5
EE77
330
17
100
AcDbEntity
  8
1外形線
100
AcDbLine
 10
948.7886747246898
 20
9.328452429901744
 30
0.0
 11
936.7886747247007
 21
9.328452429901744
 31
0.0
  0
ARC
  5
EE78
330
17
100
AcDbEntity
  8
1外形線
100
AcDbCircle
 10
948.7886747246898
 20
7.328452429901744
 30
0.0
 40
2.0
100
AcDbArc
 50
0.0
 51
90.0
  0
LINE
  5
EE79
330
17
100
AcDbEntity
  8
1外形線
100
AcDbLine
 10
950.788674724688
 20
7.328452429901744
 30
0.0
 11
950.788674724688
 21
0.5284524298988345
 31
0.0
  0
LINE
  5
EE7A
330
17
100
AcDbEntity
  8
1外形線
100
AcDbLine
 10
949.0650679269378
 20
-0.3333509689762195
 30
0.0
 11
950.788674724688
 21
0.5284524298988345
 31
0.0
  0
ARC
  5
EE7B
330
17
100
AcDbEntity
  8
1外形線
100
AcDbCircle
 10
949.2886747246826
 20
-0.7805645644764354
 30
0.0
 40
0.5000000000000342
100
AcDbArc
 50
116.5650511769343
 51
180.0
  0
LINE
  5
EE7C
330
17
100
AcDbEntity
  8
1外形線
100
AcDbLine
 10
948.7886747246898
 20
-0.7805645644764354
 30
0.0
 11
948.7886747246898
 21
-1.162530575722257
 31
0.0
  0
ARC
  5
EE7D
330
17
100
AcDbEntity
  8
1外形線
100
AcDbCircle
 10
949.2886747246826
 20
-1.162530575722257
 30
0.0
 40
0.4999999999999433
100
AcDbArc
 50
180.0
 51
243.4349488230657
  0
LINE
  5
EE7E
330
17
100
AcDbEntity
  8
1外形線
100
AcDbLine
 10
949.0650679269378
 20
-1.609744171226111
 30
0.0
 11
950.5122815224444
 21
-2.333350968976219
 31
0.0
  0
LINE
  5
EE7F
330
17
100
AcDbEntity
  8
1外形線
100
AcDbLine
 10
949.0650679269378
 20
-8.833350968972581
 30
0.0
 11
950.5122815224444
 21
-8.109744171226111
 31
0.0
  0
ARC
  5
EE80
330
17
100
AcDbEntity
  8
1外形線
100
AcDbCircle
 10
949.2886747246826
 20
-9.280564564476435
 30
0.0
 40
0.5
100
AcDbArc
 50
116.5650511771091
 51
180.0
  0
LINE
  5
EE81
330
17
100
AcDbEntity
  8
1外形線
100
AcDbLine
 10
948.7886747246898
 20
-9.280564564476435
 30
0.0
 11
948.7886747246898
 21
-9.662530575725895
 31
0.0
  0
ARC
  5
EE82
330
17
100
AcDbEntity
  8
1外形線
100
AcDbCircle
 10
949.2886747246826
 20
-9.662530575725895
 30
0.0
 40
0.5000000000000596
100
AcDbArc
 50
180.0
 51
243.4349488230657
  0
LINE
  5
EE83
330
17
100
AcDbEntity
  8
1外形線
100
AcDbLine
 10
949.0650679269378
 20
-10.10974417122975
 30
0.0
 11
950.51228152244
 21
-10.83335096897622
 31
0.0
  0
ARC
  5
EE84
330
17
100
AcDbEntity
  8
1外形線
100
AcDbCircle
 10
950.2886747246952
 20
-11.28056456448371
 30
0.0
 40
0.4999999999997545
100
AcDbArc
 50
0.0
 51
63.43494882392501
  0
LINE
  5
EE85
330
17
100
AcDbEntity
  8
1外形線
100
AcDbLine
 10
950.7886747246971
 20
-11.28056456448371
 30
0.0
 11
950.7886747246971
 21
-15.47154757010116
 31
0.0
  0
ARC
  5
EE86
330
17
100
AcDbEntity
  8
1外形線
100
AcDbCircle
 10
947.7886747246953
 20
-15.47154757010116
 30
0.0
 40
3.0
100
AcDbArc
 50
270.0
 51
0.0
  0
LINE
  5
EE87
330
17
100
AcDbEntity
  8
1外形線
100
AcDbLine
 10
947.7886747246953
 20
-18.4715475701048
 30
0.0
 11
943.597691719067
 21
-18.4715475701048
 31
0.0
  0
ARC
  5
EE88
330
17
100
AcDbEntity
  8
1外形線
100
AcDbCircle
 10
943.597691719076
 20
-17.97154757010116
 30
0.0
 40
0.5000000000001137
100
AcDbArc
 50
206.5650511763978
 51
269.9999999997394
  0
LINE
  5
EE89
330
17
100
AcDbEntity
  8
1外形線
100
AcDbLine
 10
942.426871325822
 20
-16.74794077235469
 30
0.0
 11
943.1504781235686
 21
-18.19515436785127
 31
0.0
  0
ARC
  5
EE8A
330
17
100
AcDbEntity
  8
1外形線
100
AcDbCircle
 10
941.9796577303145
 20
-16.97154757010116
 30
0.0
 40
0.5000000000000342
100
AcDbArc
 50
26.56505117698041
 51
90.0
  0
LINE
  5
EE8B
330
17
100
AcDbEntity
  8
1外形線
100
AcDbLine
 10
941.5976917190688
 20
-16.47154757010116
 30
0.0
 11
941.9796577303145
 21
-16.47154757010116
 31
0.0
  0
ARC
  5
EE8C
330
17
100
AcDbEntity
  8
1外形線
100
AcDbCircle
 10
941.5976917190688
 20
-16.97154757010116
 30
0.0
 40
0.5000000000000342
100
AcDbArc
 50
90.0
 51
153.4349488230196
  0
LINE
  5
EE8D
330
17
100
AcDbEntity
  8
1外形線
100
AcDbLine
 10
941.1504781235704
 20
-16.74794077235469
 30
0.0
 11
940.4268713258193
 21
-18.19515436785127
 31
0.0
  0
LINE
  5
EE8E
330
17
100
AcDbEntity
  8
1外形線
100
AcDbLine
 10
933.9268713258183
 20
-16.74794077235469
 30
0.0
 11
934.6504781235694
 21
-18.19515436785127
 31
0.0
  0
ARC
  5
EE8F
330
17
100
AcDbEntity
  8
1外形線
100
AcDbCircle
 10
933.4796577303199
 20
-16.97154757010116
 30
0.0
 40
0.5
100
AcDbArc
 50
26.56505117698041
 51
90.0
  0
LINE
  5
EE90
330
17
100
AcDbEntity
  8
1外形線
100
AcDbLine
 10
933.0976917190652
 20
-16.47154757010116
 30
0.0
 11
933.4796577303199
 21
-16.47154757010116
 31
0.0
  0
ARC
  5
EE91
330
17
100
AcDbEntity
  8
1外形線
100
AcDbCircle
 10
933.0976917190652
 20
-16.97154757010116
 30
0.0
 40
0.5
100
AcDbArc
 50
90.0
 51
153.4349488230196
  0
LINE
  5
EE92
330
17
100
AcDbEntity
  8
1外形線
100
AcDbLine
 10
932.6504781235758
 20
-16.74794077235469
 30
0.0
 11
931.7886747246916
 21
-18.4715475701048
 31
0.0
  0
LINE
  5
EE93
330
17
100
AcDbEntity
  8
1外形線
100
AcDbLine
 10
931.7886747246916
 20
-18.4715475701048
 30
0.0
 11
929.7886747246934
 21
-18.4715475701048
 31
0.0
  0
LINE
  5
EE94
330
17
100
AcDbEntity
  8
1外形線
100
AcDbLine
 10
929.7886747246934
 20
-38.47154757010116
 30
0.0
 11
950.9386747246731
 21
-38.47154757010116
 31
0.0
  0
ARC
  5
EE95
330
17
100
AcDbEntity
  8
1外形線
100
AcDbCircle
 10
950.9386747246731
 20
-38.97154757009753
 30
0.0
 40
0.5
100
AcDbArc
 50
0.0
 51
90.0
  0
LINE
  5
EE96
330
17
100
AcDbEntity
  8
1外形線
100
AcDbLine
 10
951.4386747246749
 20
-38.97154757009753
 30
0.0
 11
951.4386747246749
 21
-48.97154757009753
 31
0.0
  0
ARC
  5
EE97
330
17
100
AcDbEntity
  8
1外形線
100
AcDbCircle
 10
951.9386747246768
 20
-48.97154757009753
 30
0.0
 40
0.5000000000000569
100
AcDbArc
 50
180.0
 51
270.0
  0
LINE
  5
EE98
330
17
100
AcDbEntity
  8
1外形線
100
AcDbLine
 10
952.7886852895495
 20
-49.47154757010117
 30
0.0
 11
951.9386747246768
 21
-49.47154757010117
 31
0.0
  0
ARC
  5
EE99
330
17
100
AcDbEntity
  8
1外形線
100
AcDbCircle
 10
952.7886852895495
 20
-32.47156493425041
 30
0.0
 40
16.99998985718577
100
AcDbArc
 50
270.0
 51
0.0
  0
LINE
  5
EE9A
330
17
100
AcDbEntity
  8
1外形線
100
AcDbLine
 10
969.7886751467354
 20
-32.47156493425041
 30
0.0
 11
969.7886751467354
 21
41.52845188785454
 31
0.0
  0
LINE
  5
EE9B
330
17
100
AcDbEntity
  8
1外形線
100
AcDbLine
 10
939.7886747246934
 20
58.52845241005366
 30
0.0
 11
952.7886758296039
 21
58.52845188785818
 31
0.0
  0
ARC
  5
EE9E
330
17
100
AcDbEntity
  8
1外形線
100
AcDbCircle
 10
952.7886751467372
 20
41.52845188785454
 30
0.0
 40
17.0
100
AcDbArc
 50
0.0
 51
89.99999769855266
  0
LINE
  5
EE9F
330
17
100
AcDbEntity
  8
1外形線
100
AcDbLine
 10
893.7886729924754
 20
58.52845425778673
 30
0.0
 11
903.7886747246966
 21
58.52845385611749
 31
0.0
  0
ARC
  5
EEA0
330
17
100
AcDbEntity
  8
1外形線
100
AcDbCircle
 10
893.7886783484623
 20
41.5284466399246
 30
0.0
 40
17.00000761786088
100
AcDbArc
 50
90.00001805149713
 51
138.1896678878677
  0
ARC
  5
EEA1
330
17
100
AcDbEntity
  8
1外形線
100
AcDbCircle
 10
871.4280031037175
 20
61.52843102633801
 30
0.0
 40
12.99997859643481
100
AcDbArc
 50
273.2294981655665
 51
318.1897455987205
  0
ARC
  5
EEA2
330
17
100
AcDbEntity
  8
1外形線
100
AcDbCircle
 10
872.1885316194562
 20
48.04989184433384
 30
0.0
 40
0.5
100
AcDbArc
 50
93.22949816556649
 51
180.0
  0
LINE
  5
EEA3
330
17
100
AcDbEntity
  8
1外形線
100
AcDbLine
 10
871.6885316194543
 20
38.02845242990611
 30
0.0
 11
871.6885316194543
 21
48.04989184433384
 31
0.0
  0
LINE
  5
EEA4
330
17
100
AcDbEntity
  8
1外形線
100
AcDbLine
 10
771.8888178299289
 20
38.02845242990611
 30
0.0
 11
771.8888178299289
 21
48.04989184433384
 31
0.0
  0
ARC
  5
EEA5
330
17
100
AcDbEntity
  8
1外形線
100
AcDbCircle
 10
772.3888178299307
 20
38.02845242990611
 30
0.0
 40
0.5
100
AcDbArc
 50
180.0
 51
270.0
  0
ARC
  5
EEA6
330
17
100
AcDbEntity
  8
1外形線
100
AcDbCircle
 10
771.3888178299362
 20
48.04989184433384
 30
0.0
 40
0.5000000000000164
100
AcDbArc
 50
0.0
 51
86.77050183443354
  0
ARC
  5
EEA7
330
17
100
AcDbEntity
  8
1外形線
100
AcDbCircle
 10
772.1493463456659
 20
61.52843102633801
 30
0.0
 40
12.99997859643477
100
AcDbArc
 50
221.8102544012795
 51
266.7705018344335
  0
LINE
  5
EEA8
330
17
100
AcDbEntity
  8
1外形線
100
AcDbLine
 10
717.7886747246953
 20
-18.47154757010844
 30
0.0
 11
713.7886747246898
 21
-18.47154757010844
 31
0.0
  0
LINE
  5
EEA9
330
17
100
AcDbEntity
  8
1外形線
100
AcDbLine
 10
713.7886747246898
 20
-38.47154757010116
 30
0.0
 11
717.7886747246953
 21
-38.47154757010116
 31
0.0
  0
LINE
  5
EEAA
330
17
100
AcDbEntity
  8
1外形線
100
AcDbLine
 10
917.7886747246953
 20
-38.47154757010116
 30
0.0
 11
913.7886747246898
 21
-38.47154757010116
 31
0.0
  0
LINE
  5
EEAB
330
17
100
AcDbEntity
  8
1外形線
100
AcDbLine
 10
913.7886747246898
 20
-18.47154757010844
 30
0.0
 11
917.7886747246953
 21
-18.47154757010844
 31
0.0
  0
LINE
  5
EEAC
330
17
100
AcDbEntity
  8
1外形線
100
AcDbLine
 10
929.7886747246934
 20
-18.4715475701048
 30
0.0
 11
925.7886747246971
 21
-18.4715475701048
 31
0.0
  0
LINE
  5
EEAD
330
17
100
AcDbEntity
  8
1外形線
100
AcDbLine
 10
929.7886747246934
 20
-38.47154757010116
 30
0.0
 11
925.7886747246971
 21
-38.47154757010116
 31
0.0
  0
LINE
  5
EEAE
330
17
100
AcDbEntity
  8
1外形線
100
AcDbLine
 10
725.7886747246971
 20
-18.4715475701048
 30
0.0
 11
729.7886747246934
 21
-18.4715475701048
 31
0.0
  0
LINE
  5
EEAF
330
17
100
AcDbEntity
  8
1外形線
100
AcDbLine
 10
725.7886747246971
 20
-38.47154757010116
 30
0.0
 11
729.7886747246934
 21
-38.47154757010116
 31
0.0
  0
ARC
  5
EEB0
330
17
100
AcDbEntity
  8
1外形線
100
AcDbCircle
 10
739.9796577303255
 20
-17.97154757010116
 30
0.0
 40
0.5000000000000214
100
AcDbArc
 50
270.0
 51
333.4349488230196
  0
LINE
  5
EEB1
330
17
100
AcDbEntity
  8
1外形線
100
AcDbLine
 10
739.9796577303255
 20
-18.4715475701048
 30
0.0
 11
735.0976917190723
 21
-18.4715475701048
 31
0.0
  0
ARC
  5
EEB2
330
17
100
AcDbEntity
  8
1外形線
100
AcDbCircle
 10
735.0976917190723
 20
-17.97154757010116
 30
0.0
 40
0.5
100
AcDbArc
 50
206.5650511769804
 51
270.0
  0
ARC
  5
EEB3
330
17
100
AcDbEntity
  8
1外形線
100
AcDbCircle
 10
939.9796577303163
 20
-17.97154757010116
 30
0.0
 40
0.5000000000000088
100
AcDbArc
 50
270.0
 51
333.4349488230196
  0
LINE
  5
EEB4
330
17
100
AcDbEntity
  8
1外形線
100
AcDbLine
 10
939.9796577303163
 20
-18.4715475701048
 30
0.0
 11
935.0976917190724
 21
-18.4715475701048
 31
0.0
  0
ARC
  5
EEB5
330
17
100
AcDbEntity
  8
1外形線
100
AcDbCircle
 10
935.0976917190724
 20
-17.97154757010116
 30
0.0
 40
0.5
100
AcDbArc
 50
206.5650511769804
 51
270.0
  0
ARC
  5
EEB6
330
17
100
AcDbEntity
  8
1外形線
100
AcDbCircle
 10
708.4796577303109
 20
-17.97154757010116
 30
0.0
 40
0.5
100
AcDbArc
 50
270.0
 51
333.4349488230196
  0
LINE
  5
EEB7
330
17
100
AcDbEntity
  8
1外形線
100
AcDbLine
 10
708.4796577303109
 20
-18.4715475701048
 30
0.0
 11
703.5976917190578
 21
-18.4715475701048
 31
0.0
  0
ARC
  5
EEB8
330
17
100
AcDbEntity
  8
1外形線
100
AcDbCircle
 10
703.5976917190578
 20
-17.97154757010116
 30
0.0
 40
0.5
100
AcDbArc
 50
206.5650511769804
 51
270.0
  0
ARC
  5
EEB9
330
17
100
AcDbEntity
  8
1外形線
100
AcDbCircle
 10
908.4796577303109
 20
-17.97154757010116
 30
0.0
 40
0.5000000000000596
100
AcDbArc
 50
270.0
 51
333.4349488230196
  0
LINE
  5
EEBA
330
17
100
AcDbEntity
  8
1外形線
100
AcDbLine
 10
908.4796577303109
 20
-18.4715475701048
 30
0.0
 11
903.5976917190669
 21
-18.4715475701048
 31
0.0
  0
ARC
  5
EEBB
330
17
100
AcDbEntity
  8
1外形線
100
AcDbCircle
 10
903.5976917190669
 20
-17.97154757010116
 30
0.0
 40
0.5000000000000342
100
AcDbArc
 50
206.5650511769804
 51
270.0
  0
ARC
  5
EEBC
330
17
100
AcDbEntity
  8
1外形線
100
AcDbCircle
 10
718.5886747246946
 20
-16.47154757010844
 30
0.0
 40
2.000000000000025
100
AcDbArc
 50
330.0000000004806
 51
0.0
  0
ARC
  5
EEBD
330
17
100
AcDbEntity
  8
1外形線
100
AcDbCircle
 10
724.9886747246978
 20
-16.47154757010116
 30
0.0
 40
2.000000000000014
100
AcDbArc
 50
180.0
 51
209.9999999997564
  0
ARC
  5
EEBE
330
17
100
AcDbEntity
  8
1外形線
100
AcDbCircle
 10
918.5886747246945
 20
-16.47154757010844
 30
0.0
 40
2.000000000000056
100
AcDbArc
 50
330.0000000004806
 51
0.0
  0
ARC
  5
EEBF
330
17
100
AcDbEntity
  8
1外形線
100
AcDbCircle
 10
924.9886747246979
 20
-16.47154757010116
 30
0.0
 40
2.000000000000045
100
AcDbArc
 50
180.0
 51
209.9999999997564
  0
ARC
  5
EEC0
330
17
100
AcDbEntity
  8
1外形線
100
AcDbCircle
 10
893.2886747246971
 20
-7.662530575733171
 30
0.0
 40
0.5000000000000569
100
AcDbArc
 50
180.0
 51
243.4349488230657
  0
LINE
  5
EEC1
330
17
100
AcDbEntity
  8
1外形線
100
AcDbLine
 10
892.7886747246953
 20
-7.662530575733171
 30
0.0
 11
892.7886747246953
 21
-2.780564564480073
 31
0.0
  0
ARC
  5
EEC2
330
17
100
AcDbEntity
  8
1外形線
100
AcDbCircle
 10
893.2886747246971
 20
-2.780564564480073
 30
0.0
 40
0.5
100
AcDbArc
 50
116.5650511769343
 51
180.0
  0
ARC
  5
EEC3
330
17
100
AcDbEntity
  8
1外形線
100
AcDbCircle
 10
693.288674724688
 20
-7.662530575733171
 30
0.0
 40
0.5
100
AcDbArc
 50
180.0
 51
243.4349488230657
  0
LINE
  5
EEC4
330
17
100
AcDbEntity
  8
1外形線
100
AcDbLine
 10
692.7886747246861
 20
-7.662530575733171
 30
0.0
 11
692.7886747246861
 21
-2.780564564480073
 31
0.0
  0
ARC
  5
EEC5
330
17
100
AcDbEntity
  8
1外形線
100
AcDbCircle
 10
693.288674724688
 20
-2.780564564480073
 30
0.0
 40
0.5000000000000342
100
AcDbArc
 50
116.5650511769343
 51
180.0
  0
ARC
  5
EEC6
330
17
100
AcDbEntity
  8
1外形線
100
AcDbCircle
 10
950.2886747246952
 20
-2.780564564480073
 30
0.0
 40
0.5000000000000342
100
AcDbArc
 50
0.0
 51
63.43494882306567
  0
LINE
  5
EEC7
330
17
100
AcDbEntity
  8
1外形線
100
AcDbLine
 10
950.7886747246971
 20
-2.780564564480073
 30
0.0
 11
950.7886747246971
 21
-7.662530575718619
 31
0.0
  0
ARC
  5
EEC8
330
17
100
AcDbEntity
  8
1外形線
100
AcDbCircle
 10
950.2886747246952
 20
-7.662530575718619
 30
0.0
 40
0.5000000000000088
100
AcDbArc
 50
296.5650511769343
 51
0.0
  0
ARC
  5
EEC9
330
17
100
AcDbEntity
  8
1外形線
100
AcDbCircle
 10
750.2886747246953
 20
-2.780564564480073
 30
0.0
 40
0.5
100
AcDbArc
 50
0.0
 51
63.43494882306567
  0
LINE
  5
EECA
330
17
100
AcDbEntity
  8
1外形線
100
AcDbLine
 10
750.7886747246971
 20
-2.780564564480073
 30
0.0
 11
750.7886747246971
 21
-7.662530575718619
 31
0.0
  0
ARC
  5
EECB
330
17
100
AcDbEntity
  8
1外形線
100
AcDbCircle
 10
750.2886747246953
 20
-7.662530575718619
 30
0.0
 40
0.5000000000000214
100
AcDbArc
 50
296.5650511769343
 51
0.0
  0
LINE
  5
EECC
330
17
100
AcDbEntity
  8
1外形線
100
AcDbLine
 10
750.7886747246788
 20
2.528452429898834
 30
0.0
 11
750.7886747246788
 21
6.52845242990611
 31
0.0
  0
LINE
  5
EECD
330
17
100
AcDbEntity
  8
1外形線
100
AcDbLine
 10
892.7886747246953
 20
6.52845242990611
 30
0.0
 11
892.7886747246953
 21
2.528452429898834
 31
0.0
  0
ARC
  5
EECE
330
17
100
AcDbEntity
  8
1外形線
100
AcDbCircle
 10
894.7886747246935
 20
13.7284524299032
 30
0.0
 40
2.000000000000008
100
AcDbArc
 50
239.9999999999399
 51
270.0
  0
ARC
  5
EECF
330
17
100
AcDbEntity
  8
1外形線
100
AcDbCircle
 10
894.7886747246935
 20
7.328452429894468
 30
0.0
 40
2.000000000000008
100
AcDbArc
 50
90.0
 51
120.0000000000601
  0
ARC
  5
EED0
330
17
100
AcDbEntity
  8
1外形線
100
AcDbCircle
 10
748.7886747246898
 20
13.72845242988865
 30
0.0
 40
2.0
100
AcDbArc
 50
270.0
 51
300.0000000000601
  0
ARC
  5
EED1
330
17
100
AcDbEntity
  8
1外形線
100
AcDbCircle
 10
748.7886747246898
 20
7.32845242990902
 30
0.0
 40
2.0
100
AcDbArc
 50
59.99999999974416
 51
90.0
  0
LINE
  5
EED2
330
17
100
AcDbEntity
  8
1外形線
100
AcDbLine
 10
892.7886747246953
 20
14.52845242990247
 30
0.0
 11
892.7886747246953
 21
18.52845242990247
 31
0.0
  0
LINE
  5
EED3
330
17
100
AcDbEntity
  8
1外形線
100
AcDbLine
 10
750.7886747246971
 20
18.52845242990247
 30
0.0
 11
750.7886747246971
 21
14.52845242990247
 31
0.0
  0
ARC
  5
EED4
330
17
100
AcDbEntity
  8
1外形線
100
AcDbCircle
 10
950.2886747246952
 20
28.71943543552357
 30
0.0
 40
0.5000000000000342
100
AcDbArc
 50
0.0
 51
63.43494882306567
  0
LINE
  5
EED5
330
17
100
AcDbEntity
  8
1外形線
100
AcDbLine
 10
950.7886747246971
 20
28.71943543552357
 30
0.0
 11
950.7886747246971
 21
23.83746942427411
 31
0.0
  0
ARC
  5
EED6
330
17
100
AcDbEntity
  8
1外形線
100
AcDbCircle
 10
950.2886747246952
 20
23.83746942427411
 30
0.0
 40
0.5000000000000342
100
AcDbArc
 50
296.5650511769343
 51
0.0
  0
ARC
  5
EED7
330
17
100
AcDbEntity
  8
1外形線
100
AcDbCircle
 10
893.2886747246971
 20
23.83746942427774
 30
0.0
 40
0.5000000000000596
100
AcDbArc
 50
180.0
 51
243.4349488230657
  0
LINE
  5
EED8
330
17
100
AcDbEntity
  8
1外形線
100
AcDbLine
 10
892.7886747246953
 20
23.83746942427774
 30
0.0
 11
892.7886747246953
 21
28.71943543553084
 31
0.0
  0
ARC
  5
EED9
330
17
100
AcDbEntity
  8
1外形線
100
AcDbCircle
 10
893.2886747246971
 20
28.71943543553084
 30
0.0
 40
0.5000000000000088
100
AcDbArc
 50
116.5650511769343
 51
180.0
  0
ARC
  5
EEDA
330
17
100
AcDbEntity
  8
1外形線
100
AcDbCircle
 10
693.288674724688
 20
23.83746942427774
 30
0.0
 40
0.5000000000000342
100
AcDbArc
 50
180.0
 51
243.4349488230657
  0
LINE
  5
EEDB
330
17
100
AcDbEntity
  8
1外形線
100
AcDbLine
 10
692.7886747246861
 20
23.83746942427774
 30
0.0
 11
692.7886747246861
 21
28.71943543553084
 31
0.0
  0
ARC
  5
EEDC
330
17
100
AcDbEntity
  8
1外形線
100
AcDbCircle
 10
693.288674724688
 20
28.71943543553084
 30
0.0
 40
0.5
100
AcDbArc
 50
116.5650511769343
 51
180.0
  0
ARC
  5
EEDD
330
17
100
AcDbEntity
  8
1外形線
100
AcDbCircle
 10
750.2886747246953
 20
28.71943543551629
 30
0.0
 40
0.5
100
AcDbArc
 50
0.0
 51
63.43494882306567
  0
LINE
  5
EEDE
330
17
100
AcDbEntity
  8
1外形線
100
AcDbLine
 10
750.7886747246971
 20
28.71943543551629
 30
0.0
 11
750.7886747246971
 21
23.83746942427411
 31
0.0
  0
ARC
  5
EEDF
330
17
100
AcDbEntity
  8
1外形線
100
AcDbCircle
 10
750.2886747246953
 20
23.83746942427411
 30
0.0
 40
0.5
100
AcDbArc
 50
296.5650511769343
 51
0.0
  0
ARC
  5
EEE0
330
17
100
AcDbEntity
  8
1外形線
100
AcDbCircle
 10
703.5976917190396
 20
39.02845242990611
 30
0.0
 40
0.5
100
AcDbArc
 50
90.0
 51
153.4349488230196
  0
LINE
  5
EEE1
330
17
100
AcDbEntity
  8
1外形線
100
AcDbLine
 10
703.5976917190396
 20
39.52845242990247
 30
0.0
 11
708.4796577302927
 21
39.52845242990247
 31
0.0
  0
ARC
  5
EEE2
330
17
100
AcDbEntity
  8
1外形線
100
AcDbCircle
 10
708.4796577302927
 20
39.02845242990611
 30
0.0
 40
0.5000000000000088
100
AcDbArc
 50
26.56505117698041
 51
90.0
  0
ARC
  5
EEE3
330
17
100
AcDbEntity
  8
1外形線
100
AcDbCircle
 10
903.5976917190486
 20
39.02845242990611
 30
0.0
 40
0.5000000000000851
100
AcDbArc
 50
90.0
 51
153.4349488230196
  0
LINE
  5
EEE4
330
17
100
AcDbEntity
  8
1外形線
100
AcDbLine
 10
903.5976917190486
 20
39.52845242990247
 30
0.0
 11
908.4796577302928
 21
39.52845242990247
 31
0.0
  0
ARC
  5
EEE5
330
17
100
AcDbEntity
  8
1外形線
100
AcDbCircle
 10
908.4796577302928
 20
39.02845242990611
 30
0.0
 40
0.5
100
AcDbArc
 50
26.56505117698041
 51
90.0
  0
ARC
  5
EEE6
330
17
100
AcDbEntity
  8
1外形線
100
AcDbCircle
 10
735.0976917190723
 20
39.02845242990611
 30
0.0
 40
0.5000000000000088
100
AcDbArc
 50
90.0
 51
153.4349488230196
  0
LINE
  5
EEE7
330
17
100
AcDbEntity
  8
1外形線
100
AcDbLine
 10
735.0976917190723
 20
39.52845242990247
 30
0.0
 11
739.9796577303163
 21
39.52845242990247
 31
0.0
  0
ARC
  5
EEE8
330
17
100
AcDbEntity
  8
1外形線
100
AcDbCircle
 10
739.9796577303163
 20
39.02845242990611
 30
0.0
 40
0.5000000000000088
100
AcDbArc
 50
26.56505117698041
 51
90.0
  0
ARC
  5
EEE9
330
17
100
AcDbEntity
  8
1外形線
100
AcDbCircle
 10
935.0976917190724
 20
39.02845242990611
 30
0.0
 40
0.5000000000000851
100
AcDbArc
 50
90.0
 51
153.4349488230196
  0
LINE
  5
EEEA
330
17
100
AcDbEntity
  8
1外形線
100
AcDbLine
 10
935.0976917190724
 20
39.52845242990247
 30
0.0
 11
939.9796577303254
 21
39.52845242990247
 31
0.0
  0
ARC
  5
EEEB
330
17
100
AcDbEntity
  8
1外形線
100
AcDbCircle
 10
939.9796577303254
 20
39.02845242990611
 30
0.0
 40
0.5
100
AcDbArc
 50
26.56505117698041
 51
90.0
  0
ARC
  5
EEEC
330
17
100
AcDbEntity
  8
1外形線
100
AcDbCircle
 10
718.5886747246946
 20
-16.47154757010844
 30
0.0
 40
2.000000000000025
100
AcDbArc
 50
270.0
 51
330.0000000004806
  0
LINE
  5
EEED
330
17
100
AcDbEntity
  8
1外形線
100
AcDbLine
 10
724.9886747246978
 20
-18.4715475701048
 30
0.0
 11
725.7886747246971
 21
-18.4715475701048
 31
0.0
  0
ARC
  5
EEEE
330
17
100
AcDbEntity
  8
1外形線
100
AcDbCircle
 10
724.9886747246978
 20
-16.47154757010116
 30
0.0
 40
2.000000000000014
100
AcDbArc
 50
209.9999999997564
 51
270.0
  0
LINE
  5
EEEF
330
17
100
AcDbEntity
  8
1外形線
100
AcDbLine
 10
718.5886747246946
 20
-18.47154757010844
 30
0.0
 11
717.7886747246953
 21
-18.47154757010844
 31
0.0
  0
LINE
  5
EEF0
330
17
100
AcDbEntity
  8
1外形線
100
AcDbLine
 10
717.7886747246953
 20
-38.47154757010116
 30
0.0
 11
720.7886747246971
 21
-38.47154757010116
 31
0.0
  0
LINE
  5
EEF1
330
17
100
AcDbEntity
  8
1外形線
100
AcDbLine
 10
722.7886747246953
 20
-38.47154757010116
 30
0.0
 11
725.7886747246971
 21
-38.47154757010116
 31
0.0
  0
ARC
  5
EEF2
330
17
100
AcDbEntity
  8
1外形線
100
AcDbCircle
 10
918.5886747246945
 20
-16.47154757010844
 30
0.0
 40
2.000000000000056
100
AcDbArc
 50
270.0
 51
330.0000000004806
  0
LINE
  5
EEF3
330
17
100
AcDbEntity
  8
1外形線
100
AcDbLine
 10
917.7886747246953
 20
-18.47154757010844
 30
0.0
 11
918.5886747246945
 21
-18.47154757010844
 31
0.0
  0
ARC
  5
EEF4
330
17
100
AcDbEntity
  8
1外形線
100
AcDbCircle
 10
924.9886747246979
 20
-16.47154757010116
 30
0.0
 40
2.000000000000045
100
AcDbArc
 50
209.9999999997564
 51
270.0
  0
LINE
  5
EEF5
330
17
100
AcDbEntity
  8
1外形線
100
AcDbLine
 10
925.7886747246971
 20
-18.4715475701048
 30
0.0
 11
924.9886747246979
 21
-18.4715475701048
 31
0.0
  0
LINE
  5
EEF6
330
17
100
AcDbEntity
  8
1外形線
100
AcDbLine
 10
925.7886747246971
 20
-38.47154757010116
 30
0.0
 11
922.7886747246953
 21
-38.47154757010116
 31
0.0
  0
LINE
  5
EEF7
330
17
100
AcDbEntity
  8
1外形線
100
AcDbLine
 10
920.7886747246972
 20
-38.47154757010116
 30
0.0
 11
917.7886747246953
 21
-38.47154757010116
 31
0.0
  0
LINE
  5
EEF8
330
17
100
AcDbEntity
  8
1外形線
100
AcDbLine
 10
892.7886747246953
 20
13.7284524299032
 30
0.0
 11
892.7886747246953
 21
14.52845242990247
 31
0.0
  0
ARC
  5
EEF9
330
17
100
AcDbEntity
  8
1外形線
100
AcDbCircle
 10
894.7886747246935
 20
13.7284524299032
 30
0.0
 40
2.000000000000008
100
AcDbArc
 50
180.0
 51
239.9999999999399
  0
ARC
  5
EEFA
330
17
100
AcDbEntity
  8
1外形線
100
AcDbCircle
 10
894.7886747246935
 20
7.328452429894468
 30
0.0
 40
2.000000000000008
100
AcDbArc
 50
120.0000000000601
 51
180.0
  0
LINE
  5
EEFB
330
17
100
AcDbEntity
  8
1外形線
100
AcDbLine
 10
892.7886747246953
 20
7.328452429894468
 30
0.0
 11
892.7886747246953
 21
6.52845242990611
 31
0.0
  0
LINE
  5
EEFC
330
17
100
AcDbEntity
  8
1外形線
100
AcDbLine
 10
750.7886747246971
 20
14.52845242990247
 30
0.0
 11
750.7886747246971
 21
13.72845242988865
 31
0.0
  0
ARC
  5
EEFD
330
17
100
AcDbEntity
  8
1外形線
100
AcDbCircle
 10
748.7886747246898
 20
13.72845242988865
 30
0.0
 40
2.0
100
AcDbArc
 50
300.0000000000601
 51
0.0
  0
ARC
  5
EEFE
330
17
100
AcDbEntity
  8
1外形線
100
AcDbCircle
 10
748.7886747246898
 20
7.32845242990902
 30
0.0
 40
2.000000000000028
100
AcDbArc
 50
0.0
 51
59.99999999974416
  0
LINE
  5
EEFF
330
17
100
AcDbEntity
  8
1外形線
100
AcDbLine
 10
750.7886747246788
 20
6.52845242990611
 30
0.0
 11
750.7886747246788
 21
7.32845242990902
 31
0.0
  0
LINE
  5
EF00
330
17
100
AcDbEntity
  8
1外形線
100
AcDbLine
 10
871.1885316194615
 20
37.52845242989883
 30
0.0
 11
843.0386747246917
 21
37.52845242989883
 31
0.0
  0
LINE
  5
EF01
330
17
100
AcDbEntity
  8
1外形線
100
AcDbLine
 10
841.0386747246935
 20
37.52845242989883
 30
0.0
 11
824.4386747246949
 21
37.52845242989883
 31
0.0
  0
ARC
  5
EF02
330
17
100
AcDbEntity
  8
1外形線
100
AcDbCircle
 10
871.1885316194615
 20
38.02845242990611
 30
0.0
 40
0.5
100
AcDbArc
 50
270.0
 51
0.0
  0
LINE
  5
EF03
330
17
100
AcDbEntity
  8
1外形線
100
AcDbLine
 10
819.1386747246884
 20
37.52845242989883
 30
0.0
 11
802.5386747246898
 21
37.52845242989883
 31
0.0
  0
LINE
  5
EF04
330
17
100
AcDbEntity
  8
1外形線
100
AcDbLine
 10
800.5386747246916
 20
37.52845242989883
 30
0.0
 11
772.3888178299307
 21
37.52845242989883
 31
0.0
  0
LINE
  5
EF05
330
17
100
AcDbEntity
  8
1外形線
100
AcDbLine
 10
823.4386747246912
 20
47.52845242989883
 30
0.0
 11
823.4386747246912
 21
38.52845242990247
 31
0.0
  0
ARC
  5
EF06
330
17
100
AcDbEntity
  8
1外形線
100
AcDbCircle
 10
824.4386747246949
 20
38.52845242990247
 30
0.0
 40
1.0
100
AcDbArc
 50
180.0
 51
270.0
  0
LINE
  5
EF07
330
17
100
AcDbEntity
  8
1外形線
100
AcDbLine
 10
820.1386747246919
 20
47.52845242989883
 30
0.0
 11
820.1386747246919
 21
38.52845242990247
 31
0.0
  0
ARC
  5
EF08
330
17
100
AcDbEntity
  8
1外形線
100
AcDbCircle
 10
819.1386747246884
 20
38.52845242990247
 30
0.0
 40
1.0
100
AcDbArc
 50
270.0
 51
0.0
  0
ARC
  5
EF09
330
17
100
AcDbEntity
  8
1外形線
100
AcDbCircle
 10
821.1386747246956
 20
47.52845242989883
 30
0.0
 40
1.0
100
AcDbArc
 50
90.0
 51
180.0
  0
ARC
  5
EF0A
330
17
100
AcDbEntity
  8
1外形線
100
AcDbCircle
 10
822.4386747246967
 20
47.52845242989883
 30
0.0
 40
1.0
100
AcDbArc
 50
0.0
 51
90.0
  0
LINE
  5
EF0B
330
17
100
AcDbEntity
  8
1外形線
100
AcDbLine
 10
821.1386747246956
 20
48.52845242989883
 30
0.0
 11
821.1386747246956
 21
48.52845242989883
 31
0.0
  0
LINE
  5
EF0C
330
17
100
AcDbEntity
  8
1外形線
100
AcDbLine
 10
822.4386747246967
 20
48.52845242989883
 30
0.0
 11
822.4386747246876
 21
48.52845242989883
 31
0.0
  0
LINE
  5
EF0D
330
17
100
AcDbEntity
  8
1外形線
100
AcDbLine
 10
824.8550091004812
 20
37.52845242989883
 30
0.0
 11
824.4386747246949
 21
37.52845242989883
 31
0.0
  0
LINE
  5
EF0E
330
17
100
AcDbEntity
  8
1外形線
100
AcDbLine
 10
819.1386747246884
 20
37.52845242989883
 30
0.0
 11
818.722340348911
 21
37.52845242989883
 31
0.0
  0
LINE
  5
EF0F
330
17
100
AcDbEntity
  8
1外形線
100
AcDbLine
 10
821.6472533684623
 20
48.52845242989883
 30
0.0
 11
821.1386747246956
 21
48.52845242989883
 31
0.0
  0
LINE
  5
EF10
330
17
100
AcDbEntity
  8
1外形線
100
AcDbLine
 10
822.4386747246876
 20
48.52845242989883
 30
0.0
 11
821.9300960809301
 21
48.52845242989883
 31
0.0
  0
LINE
  5
EF11
330
17
100
AcDbEntity
  8
1外形線
100
AcDbLine
 10
821.9300960809301
 20
48.52845242989883
 30
0.0
 11
821.6472533684623
 21
48.52845242989883
 31
0.0
  0
ARC
  5
EF12
330
17
100
AcDbEntity
  8
1外形線
 48
3.0
100
AcDbCircle
 10
842.038674724697
 20
37.52845242989883
 30
0.0
 40
1.0
100
AcDbArc
 50
0.0
 51
180.0
  0
ARC
  5
EF13
330
17
100
AcDbEntity
  8
1外形線
 48
3.0
100
AcDbCircle
 10
801.5386747246953
 20
37.52845242989883
 30
0.0
 40
1.0
100
AcDbArc
 50
0.0
 51
180.0
  0
LINE
  5
EF14
330
17
100
AcDbEntity
  8
1外形線
100
AcDbLine
 10
743.6886747246967
 20
-48.47154757010116
 30
0.0
 11
743.6886747246967
 21
-39.47154757010117
 31
0.0
  0
ARC
  5
EF15
330
17
100
AcDbEntity
  8
1外形線
100
AcDbCircle
 10
742.6886747246931
 20
-48.47154757010116
 30
0.0
 40
1.0
100
AcDbArc
 50
270.0
 51
0.0
  0
ARC
  5
EF16
330
17
100
AcDbEntity
  8
1外形線
100
AcDbCircle
 10
741.388674724692
 20
-48.47154757010116
 30
0.0
 40
1.0
100
AcDbArc
 50
180.0
 51
270.0
  0
LINE
  5
EF17
330
17
100
AcDbEntity
  8
1外形線
100
AcDbLine
 10
742.5386747246898
 20
-49.47154757009389
 30
0.0
 11
742.5386747246898
 21
-49.47154757009389
 31
0.0
  0
LINE
  5
EF18
330
17
100
AcDbEntity
  8
1外形線
100
AcDbLine
 10
741.5386747246862
 20
-49.47154757009389
 30
0.0
 11
741.5386747246953
 21
-49.47154757009389
 31
0.0
  0
LINE
  5
EF19
330
17
100
AcDbEntity
  8
1外形線
100
AcDbLine
 10
742.1800960809355
 20
-49.47154757009389
 30
0.0
 11
742.5386747246898
 21
-49.47154757009389
 31
0.0
  0
LINE
  5
EF1A
330
17
100
AcDbEntity
  8
1外形線
100
AcDbLine
 10
741.5386747246953
 20
-49.47154757009389
 30
0.0
 11
741.8972533684587
 21
-49.47154757009389
 31
0.0
  0
LINE
  5
EF1B
330
17
100
AcDbEntity
  8
1外形線
100
AcDbLine
 10
741.8972533684587
 20
-49.47154757009389
 30
0.0
 11
742.1800960809355
 21
-49.47154757009389
 31
0.0
  0
ARC
  5
EF1C
330
17
100
AcDbEntity
  8
1外形線
 48
3.0
100
AcDbCircle
 10
801.5386747246953
 20
37.52845242989883
 30
0.0
 40
1.0
100
AcDbArc
 50
0.0
 51
180.0
  0
ARC
  5
EF1D
330
17
100
AcDbEntity
  8
1外形線
 48
3.0
100
AcDbCircle
 10
842.038674724697
 20
37.52845242989883
 30
0.0
 40
1.0
100
AcDbArc
 50
0.0
 51
180.0
  0
LINE
  5
EF1E
330
17
100
AcDbEntity
  8
1外形線
100
AcDbLine
 10
740.3886747246883
 20
-48.47154757010116
 30
0.0
 11
740.3886747246883
 21
-39.47154757010117
 31
0.0
  0
LINE
  5
EF1F
330
17
100
AcDbEntity
  8
1外形線
100
AcDbLine
 10
743.6886747246967
 20
-48.47154757010116
 30
0.0
 11
743.6886747246967
 21
-39.47154757010117
 31
0.0
  0
ARC
  5
EF20
330
17
100
AcDbEntity
  8
1外形線
100
AcDbCircle
 10
742.6886747246931
 20
-48.47154757010116
 30
0.0
 40
1.0
100
AcDbArc
 50
270.0
 51
0.0
  0
LINE
  5
EF21
330
17
100
AcDbEntity
  8
1外形線
100
AcDbLine
 10
742.5386747246898
 20
-49.47154757009389
 30
0.0
 11
742.5386747246898
 21
-49.47154757009389
 31
0.0
  0
LINE
  5
EF22
330
17
100
AcDbEntity
  8
1外形線
100
AcDbLine
 10
741.5386747246862
 20
-49.47154757009389
 30
0.0
 11
741.5386747246953
 21
-49.47154757009389
 31
0.0
  0
LINE
  5
EF23
330
17
100
AcDbEntity
  8
1外形線
100
AcDbLine
 10
739.1223403489107
 20
-38.47154757010116
 30
0.0
 11
739.3886747246938
 21
-38.47154757010116
 31
0.0
  0
LINE
  5
EF24
330
17
100
AcDbEntity
  8
1外形線
100
AcDbLine
 10
744.6886747246913
 20
-38.47154757010116
 30
0.0
 11
744.9550091004835
 21
-38.47154757010116
 31
0.0
  0
ARC
  5
EF25
330
17
100
AcDbEntity
  8
1外形線
100
AcDbCircle
 10
744.6886747246913
 20
-39.47154757010117
 30
0.0
 40
1.0
100
AcDbArc
 50
90.0
 51
180.0
  0
LINE
  5
EF26
330
17
100
AcDbEntity
  8
1外形線
100
AcDbLine
 10
742.1800960809355
 20
-49.47154757009389
 30
0.0
 11
742.6886747246931
 21
-49.47154757009389
 31
0.0
  0
LINE
  5
EF27
330
17
100
AcDbEntity
  8
1外形線
100
AcDbLine
 10
741.388674724692
 20
-49.47154757009389
 30
0.0
 11
741.8972533684587
 21
-49.47154757009389
 31
0.0
  0
LINE
  5
EF28
330
17
100
AcDbEntity
  8
1外形線
100
AcDbLine
 10
741.8972533684587
 20
-49.47154757009389
 30
0.0
 11
742.1800960809355
 21
-49.47154757009389
 31
0.0
  0
ARC
  5
EF29
330
17
100
AcDbEntity
  8
1外形線
 48
3.0
100
AcDbCircle
 10
721.7886747247007
 20
-38.47154757010116
 30
0.0
 40
1.0
100
AcDbArc
 50
180.0
 51
0.0
  0
ARC
  5
EF2A
330
17
100
AcDbEntity
  8
1外形線
 48
3.0
100
AcDbCircle
 10
762.2886747246934
 20
-38.47154757010116
 30
0.0
 40
1.0
100
AcDbArc
 50
180.0
 51
0.0
  0
ARC
  5
EF2B
330
17
100
AcDbEntity
  8
1外形線
 48
3.0
100
AcDbCircle
 10
762.2886747246934
 20
-38.47154757010116
 30
0.0
 40
1.0
100
AcDbArc
 50
180.0
 51
0.0
  0
ARC
  5
EF2C
330
17
100
AcDbEntity
  8
1外形線
 48
3.0
100
AcDbCircle
 10
721.7886747247007
 20
-38.47154757010116
 30
0.0
 40
1.0
100
AcDbArc
 50
180.0
 51
0.0
  0
ARC
  5
EF2D
330
17
100
AcDbEntity
  8
1外形線
 48
3.0
100
AcDbCircle
 10
921.7886747246916
 20
-38.47154757010116
 30
0.0
 40
1.0
100
AcDbArc
 50
180.0
 51
0.0
  0
ARC
  5
EF2E
330
17
100
AcDbEntity
  8
1外形線
 48
3.0
100
AcDbCircle
 10
921.7886747246916
 20
-38.47154757010116
 30
0.0
 40
1.0
100
AcDbArc
 50
180.0
 51
0.0
  0
ARC
  5
EF2F
330
17
100
AcDbEntity
  8
1外形線
 48
3.0
100
AcDbCircle
 10
881.2886747246897
 20
-38.47154757010116
 30
0.0
 40
1.0
100
AcDbArc
 50
180.0
 51
0.0
  0
LINE
  5
EF30
330
17
100
AcDbEntity
  8
1外形線
100
AcDbLine
 10
903.1886747246948
 20
-48.47154757010116
 30
0.0
 11
903.1886747246948
 21
-39.47154757010117
 31
0.0
  0
ARC
  5
EF31
330
17
100
AcDbEntity
  8
1外形線
100
AcDbCircle
 10
902.1886747246913
 20
-48.47154757010116
 30
0.0
 40
1.0
100
AcDbArc
 50
270.0
 51
0.0
  0
ARC
  5
EF32
330
17
100
AcDbEntity
  8
1外形線
100
AcDbCircle
 10
900.8886747246902
 20
-48.47154757010116
 30
0.0
 40
1.0
100
AcDbArc
 50
180.0
 51
270.0
  0
LINE
  5
EF33
330
17
100
AcDbEntity
  8
1外形線
100
AcDbLine
 10
902.0386747246972
 20
-49.47154757009389
 30
0.0
 11
902.0386747246972
 21
-49.47154757009389
 31
0.0
  0
LINE
  5
EF34
330
17
100
AcDbEntity
  8
1外形線
100
AcDbLine
 10
901.0386747246935
 20
-49.47154757009389
 30
0.0
 11
901.0386747246935
 21
-49.47154757009389
 31
0.0
  0
LINE
  5
EF35
330
17
100
AcDbEntity
  8
1外形線
100
AcDbLine
 10
901.6800960809247
 20
-49.47154757009389
 30
0.0
 11
902.0386747246972
 21
-49.47154757009389
 31
0.0
  0
LINE
  5
EF36
330
17
100
AcDbEntity
  8
1外形線
100
AcDbLine
 10
901.0386747246935
 20
-49.47154757009389
 30
0.0
 11
901.3972533684569
 21
-49.47154757009389
 31
0.0
  0
LINE
  5
EF37
330
17
100
AcDbEntity
  8
1外形線
100
AcDbLine
 10
901.3972533684569
 20
-49.47154757009389
 30
0.0
 11
901.6800960809247
 21
-49.47154757009389
 31
0.0
  0
LINE
  5
EF38
330
17
100
AcDbEntity
  8
1外形線
100
AcDbLine
 10
899.8886747246956
 20
-48.47154757010116
 30
0.0
 11
899.8886747246956
 21
-39.47154757010117
 31
0.0
  0
LINE
  5
EF39
330
17
100
AcDbEntity
  8
1外形線
100
AcDbLine
 10
903.1886747246948
 20
-48.47154757010116
 30
0.0
 11
903.1886747246948
 21
-39.47154757010117
 31
0.0
  0
ARC
  5
EF3A
330
17
100
AcDbEntity
  8
1外形線
100
AcDbCircle
 10
902.1886747246913
 20
-48.47154757010116
 30
0.0
 40
1.0
100
AcDbArc
 50
270.0
 51
0.0
  0
LINE
  5
EF3B
330
17
100
AcDbEntity
  8
1外形線
100
AcDbLine
 10
902.0386747246972
 20
-49.47154757009389
 30
0.0
 11
902.0386747246972
 21
-49.47154757009389
 31
0.0
  0
LINE
  5
EF3C
330
17
100
AcDbEntity
  8
1外形線
100
AcDbLine
 10
901.0386747246935
 20
-49.47154757009389
 30
0.0
 11
901.0386747246935
 21
-49.47154757009389
 31
0.0
  0
LINE
  5
EF3D
330
17
100
AcDbEntity
  8
1外形線
100
AcDbLine
 10
898.6223403488997
 20
-38.47154757010116
 30
0.0
 11
898.8886747246921
 21
-38.47154757010116
 31
0.0
  0
ARC
  5
EF3E
330
17
100
AcDbEntity
  8
1外形線
100
AcDbCircle
 10
898.8886747246921
 20
-39.47154757010117
 30
0.0
 40
1.0
100
AcDbArc
 50
0.0
 51
90.0
  0
LINE
  5
EF3F
330
17
100
AcDbEntity
  8
1外形線
100
AcDbLine
 10
904.1886747246985
 20
-38.47154757010116
 30
0.0
 11
904.4550091004726
 21
-38.47154757010116
 31
0.0
  0
ARC
  5
EF40
330
17
100
AcDbEntity
  8
1外形線
100
AcDbCircle
 10
904.1886747246985
 20
-39.47154757010117
 30
0.0
 40
1.0
100
AcDbArc
 50
90.0
 51
180.0
  0
LINE
  5
EF41
330
17
100
AcDbEntity
  8
1外形線
100
AcDbLine
 10
901.6800960809247
 20
-49.47154757009389
 30
0.0
 11
902.1886747246913
 21
-49.47154757009389
 31
0.0
  0
LINE
  5
EF42
330
17
100
AcDbEntity
  8
1外形線
100
AcDbLine
 10
900.8886747246902
 20
-49.47154757009389
 30
0.0
 11
901.3972533684569
 21
-49.47154757009389
 31
0.0
  0
LINE
  5
EF43
330
17
100
AcDbEntity
  8
1外形線
100
AcDbLine
 10
901.3972533684569
 20
-49.47154757009389
 30
0.0
 11
901.6800960809247
 21
-49.47154757009389
 31
0.0
  0
LINE
  5
EF44
330
17
100
AcDbEntity
  8
1外形線
 48
3.0
100
AcDbLine
 10
777.2886747247025
 20
24.52845242990247
 30
0.0
 11
777.2886747247025
 21
14.52845242990247
 31
0.0
  0
LINE
  5
EF45
330
17
100
AcDbEntity
  8
1外形線
 48
3.0
100
AcDbLine
 10
775.2886747246953
 20
24.52845242990247
 30
0.0
 11
775.2886747246953
 21
14.52845242990247
 31
0.0
  0
LINE
  5
EF46
330
17
100
AcDbEntity
  8
1外形線
 48
3.0
100
AcDbLine
 10
775.2886747247043
 20
12.52845242989883
 30
0.0
 11
775.2886747247043
 21
2.528452429898834
 31
0.0
  0
LINE
  5
EF47
330
17
100
AcDbEntity
  8
1外形線
 48
3.0
100
AcDbLine
 10
791.0386747247025
 20
27.52845242989883
 30
0.0
 11
780.2886747246953
 21
27.52845242989883
 31
0.0
  0
ARC
  5
EF48
330
17
100
AcDbEntity
  8
1外形線
 48
3.0
100
AcDbCircle
 10
791.0386747247025
 20
25.52845242990611
 30
0.0
 40
2.0
100
AcDbArc
 50
0.0
 51
90.0
  0
LINE
  5
EF49
330
17
100
AcDbEntity
  8
1外形線
 48
3.0
100
AcDbLine
 10
809.2886747246916
 20
29.52845242990247
 30
0.0
 11
780.2886747246953
 21
29.52845242990247
 31
0.0
  0
ARC
  5
EF4A
330
17
100
AcDbEntity
  8
1外形線
 48
3.0
100
AcDbCircle
 10
780.2886747246953
 20
24.52845242990247
 30
0.0
 40
3.0
100
AcDbArc
 50
90.0
 51
180.0
  0
ARC
  5
EF4B
330
17
100
AcDbEntity
  8
1外形線
 48
3.0
100
AcDbCircle
 10
780.2886747246953
 20
24.52845242990247
 30
0.0
 40
5.0
100
AcDbArc
 50
90.0
 51
180.0
  0
LINE
  5
EF4C
330
17
100
AcDbEntity
  8
1外形線
 48
3.0
100
AcDbLine
 10
812.2886747246933
 20
24.52845242990247
 30
0.0
 11
812.2886747246933
 21
14.52845242990247
 31
0.0
  0
LINE
  5
EF4D
330
17
100
AcDbEntity
  8
1外形線
 48
3.0
100
AcDbLine
 10
814.2886747246915
 20
24.52845242990247
 30
0.0
 11
814.2886747246915
 21
14.52845242990247
 31
0.0
  0
LINE
  5
EF4E
330
17
100
AcDbEntity
  8
1外形線
 48
3.0
100
AcDbLine
 10
814.2886747246915
 20
12.52845242989883
 30
0.0
 11
814.2886747246915
 21
2.528452429898834
 31
0.0
  0
ARC
  5
EF4F
330
17
100
AcDbEntity
  8
1外形線
 48
3.0
100
AcDbCircle
 10
809.2886747246916
 20
24.52845242990247
 30
0.0
 40
3.0
100
AcDbArc
 50
0.0
 51
90.0
  0
ARC
  5
EF50
330
17
100
AcDbEntity
  8
1外形線
 48
3.0
100
AcDbCircle
 10
809.2886747246916
 20
24.52845242990247
 30
0.0
 40
5.0
100
AcDbArc
 50
0.0
 51
90.0
  0
LINE
  5
EF51
330
17
100
AcDbEntity
  8
1外形線
 48
3.0
100
AcDbLine
 10
798.5386747247026
 20
27.52845242989883
 30
0.0
 11
809.2886747246916
 21
27.52845242989883
 31
0.0
  0
ARC
  5
EF52
330
17
100
AcDbEntity
  8
1外形線
 48
3.0
100
AcDbCircle
 10
798.5386747247026
 20
25.52845242990611
 30
0.0
 40
2.0
100
AcDbArc
 50
90.0
 51
180.0
  0
LINE
  5
EF53
330
17
100
AcDbEntity
  8
1外形線
 48
3.0
100
AcDbLine
 10
777.2886747247025
 20
2.528452429898834
 30
0.0
 11
777.2886747247025
 21
12.52845242989883
 31
0.0
  0
ARC
  5
EF54
330
17
100
AcDbEntity
  8
1外形線
 48
3.0
100
AcDbCircle
 10
780.2886747246953
 20
2.528452429898834
 30
0.0
 40
3.0
100
AcDbArc
 50
180.0
 51
270.0
  0
ARC
  5
EF55
330
17
100
AcDbEntity
  8
1外形線
 48
3.0
100
AcDbCircle
 10
780.2886747246953
 20
2.528452429898834
 30
0.0
 40
5.0
100
AcDbArc
 50
180.0
 51
270.0
  0
LINE
  5
EF56
330
17
100
AcDbEntity
  8
1外形線
 48
3.0
100
AcDbLine
 10
791.0386747247025
 20
-0.4715475700975276
 30
0.0
 11
780.2886747246953
 21
-0.4715475700975276
 31
0.0
  0
ARC
  5
EF57
330
17
100
AcDbEntity
  8
1外形線
 48
3.0
100
AcDbCircle
 10
791.0386747247025
 20
1.52845242990611
 30
0.0
 40
2.0
100
AcDbArc
 50
270.0
 51
0.0
  0
LINE
  5
EF58
330
17
100
AcDbEntity
  8
1外形線
 48
3.0
100
AcDbLine
 10
809.2886747246916
 20
-2.471547570101165
 30
0.0
 11
780.2886747246953
 21
-2.471547570101165
 31
0.0
  0
LINE
  5
EF59
330
17
100
AcDbEntity
  8
1外形線
 48
3.0
100
AcDbLine
 10
793.0386747247007
 20
1.52845242990611
 30
0.0
 11
793.0386747247007
 21
9.528452429902472
 31
0.0
  0
ARC
  5
EF5A
330
17
100
AcDbEntity
  8
1外形線
 48
3.0
100
AcDbCircle
 10
794.0386747246953
 20
9.528452429902472
 30
0.0
 40
1.0
100
AcDbArc
 50
90.0
 51
180.0
  0
LINE
  5
EF5B
330
17
100
AcDbEntity
  8
1外形線
 48
3.0
100
AcDbLine
 10
794.0386747246953
 20
10.52845242989883
 30
0.0
 11
794.7886747247025
 21
10.52845242989883
 31
0.0
  0
LINE
  5
EF5C
330
17
100
AcDbEntity
  8
1外形線
 48
3.0
100
AcDbLine
 10
812.2886747246933
 20
2.528452429898834
 30
0.0
 11
812.2886747246933
 21
12.52845242989883
 31
0.0
  0
LINE
  5
EF5D
330
17
100
AcDbEntity
  8
1外形線
 48
3.0
100
AcDbLine
 10
798.5386747247026
 20
-0.4715475700975276
 30
0.0
 11
809.2886747246916
 21
-0.4715475700975276
 31
0.0
  0
ARC
  5
EF5E
330
17
100
AcDbEntity
  8
1外形線
 48
3.0
100
AcDbCircle
 10
798.5386747247026
 20
1.52845242990611
 30
0.0
 40
2.0
100
AcDbArc
 50
180.0
 51
270.0
  0
ARC
  5
EF5F
330
17
100
AcDbEntity
  8
1外形線
 48
3.0
100
AcDbCircle
 10
809.2886747246916
 20
2.528452429898834
 30
0.0
 40
3.0
100
AcDbArc
 50
270.0
 51
0.0
  0
ARC
  5
EF60
330
17
100
AcDbEntity
  8
1外形線
 48
3.0
100
AcDbCircle
 10
809.2886747246916
 20
2.528452429898834
 30
0.0
 40
5.0
100
AcDbArc
 50
270.0
 51
0.0
  0
LINE
  5
EF61
330
17
100
AcDbEntity
  8
1外形線
 48
3.0
100
AcDbLine
 10
796.5386747246952
 20
1.52845242990611
 30
0.0
 11
796.5386747246952
 21
9.528452429902472
 31
0.0
  0
ARC
  5
EF62
330
17
100
AcDbEntity
  8
1外形線
 48
3.0
100
AcDbCircle
 10
795.5386747247007
 20
9.528452429902472
 30
0.0
 40
1.0
100
AcDbArc
 50
0.0
 51
90.0
  0
LINE
  5
EF63
330
17
100
AcDbEntity
  8
1外形線
 48
3.0
100
AcDbLine
 10
795.5386747247007
 20
10.52845242989883
 30
0.0
 11
794.7886747246935
 21
10.52845242989883
 31
0.0
  0
LINE
  5
EF64
330
17
100
AcDbEntity
  8
1外形線
  6
CENTER
 48
3.0
100
AcDbLine
 10
775.2886747246953
 20
14.52845242990247
 30
0.0
 11
777.2886747247025
 21
14.52845242990247
 31
0.0
  0
LINE
  5
EF65
330
17
100
AcDbEntity
  8
1外形線
  6
CENTER
 48
3.0
100
AcDbLine
 10
775.2886747246953
 20
12.52845242989883
 30
0.0
 11
777.2886747247025
 21
12.52845242989883
 31
0.0
  0
LINE
  5
EF66
330
17
100
AcDbEntity
  8
1外形線
  6
CENTER
 48
3.0
100
AcDbLine
 10
814.2886747246915
 20
14.52845242990247
 30
0.0
 11
812.2886747246843
 21
14.52845242990247
 31
0.0
  0
LINE
  5
EF67
330
17
100
AcDbEntity
  8
1外形線
  6
CENTER
 48
3.0
100
AcDbLine
 10
814.2886747246915
 20
12.52845242989883
 30
0.0
 11
812.2886747246843
 21
12.52845242989883
 31
0.0
  0
LINE
  5
EF68
330
17
100
AcDbEntity
  8
1外形線
 48
3.0
100
AcDbLine
 10
793.0386747247007
 20
25.52845242990611
 30
0.0
 11
793.0386747247007
 21
17.52845242990611
 31
0.0
  0
ARC
  5
EF69
330
17
100
AcDbEntity
  8
1外形線
 48
3.0
100
AcDbCircle
 10
794.0386747246953
 20
17.52845242990611
 30
0.0
 40
1.0
100
AcDbArc
 50
180.0
 51
270.0
  0
LINE
  5
EF6A
330
17
100
AcDbEntity
  8
1外形線
 48
3.0
100
AcDbLine
 10
794.0386747246953
 20
16.52845242990975
 30
0.0
 11
794.7886747247025
 21
16.52845242990975
 31
0.0
  0
LINE
  5
EF6B
330
17
100
AcDbEntity
  8
1外形線
 48
3.0
100
AcDbLine
 10
796.5386747246952
 20
25.52845242990611
 30
0.0
 11
796.5386747246952
 21
17.52845242990611
 31
0.0
  0
ARC
  5
EF6C
330
17
100
AcDbEntity
  8
1外形線
 48
3.0
100
AcDbCircle
 10
795.5386747247007
 20
17.52845242990611
 30
0.0
 40
1.0
100
AcDbArc
 50
270.0
 51
0.0
  0
LINE
  5
EF6D
330
17
100
AcDbEntity
  8
1外形線
 48
3.0
100
AcDbLine
 10
795.5386747247007
 20
16.52845242990975
 30
0.0
 11
794.7886747246935
 21
16.52845242990975
 31
0.0
  0
LINE
  5
EF6E
330
17
100
AcDbEntity
  8
1外形線
100
AcDbLine
 10
831.7886747246916
 20
-36.27154757009316
 30
0.0
 11
811.7886747246917
 21
-36.27154757009316
 31
0.0
  0
LINE
  5
EF6F
330
17
100
AcDbEntity
  8
1外形線
100
AcDbLine
 10
903.7886747246943
 20
55.32846045168139
 30
0.0
 11
939.7886747246934
 21
55.3284519580377
 31
0.0
  0
LINE
  5
EF70
330
17
100
AcDbEntity
  8
1外形線
 48
3.0
100
AcDbLine
 10
831.7886747246939
 20
-39.99357631416547
 30
0.0
 11
831.7886747246916
 21
-36.27154757009316
 31
0.0
  0
LINE
  5
EF71
330
17
100
AcDbEntity
  8
1外形線
 48
3.0
100
AcDbLine
 10
811.7886747246917
 20
-39.99357631416547
 30
0.0
 11
811.7886747246917
 21
-36.27154757009316
 31
0.0
  0
LINE
  5
EF72
330
17
100
AcDbEntity
  8
1外形線
 48
3.0
100
AcDbLine
 10
939.7886747246934
 20
55.3284519580377
 30
0.0
 11
939.7886747246934
 21
58.5284524301353
 31
0.0
  0
LINE
  5
EF74
330
17
100
AcDbEntity
  8
1外形線
 48
3.0
100
AcDbLine
 10
903.7886747246943
 20
55.32846045168139
 30
0.0
 11
903.7886747246943
 21
58.52845383604313
 31
0.0
  0
LINE
  5
EF76
330
17
100
AcDbEntity
  8
1外形線
100
AcDbLine
 10
739.7886747246888
 20
55.32846045168139
 30
0.0
 11
703.7886747246898
 21
55.3284519580377
 31
0.0
  0
LINE
  5
EF77
330
17
100
AcDbEntity
  8
1外形線
 48
3.0
100
AcDbLine
 10
703.7886747246898
 20
55.3284519580377
 30
0.0
 11
703.7886747246898
 21
58.52825140660957
 31
0.0
  0
LINE
  5
EF78
330
17
100
AcDbEntity
  8
1外形線
 48
3.0
100
AcDbLine
 10
739.7886747246888
 20
55.32846045168139
 30
0.0
 11
739.7886747246888
 21
58.52824999942481
 31
0.0
  0
LINE
  5
EF79
330
17
100
AcDbEntity
  8
1外形線
100
AcDbLine
 10
831.7886747246939
 20
-39.99357631416437
 30
0.0
 11
833.2886776895453
 21
-39.99357631416547
 31
0.0
  0
LINE
  5
EF7A
330
17
100
AcDbEntity
  8
1外形線
100
AcDbLine
 10
810.2886773789919
 20
-39.99357631416547
 30
0.0
 11
811.7886747246917
 21
-39.99357631416547
 31
0.0
  0
ELLIPSE
  5
EF7B
330
17
100
AcDbEntity
  8
1外形線
100
AcDbEllipse
 10
810.288674724693
 20
-39.49342008857616
 30
0.0
 11
-0.0000000000000001
 21
-0.500156225593571
 31
0.0
210
0.0
220
0.0
230
1.0
 40
0.9996876464081086
 41
4.868049469179052
 42
6.283185307179586
  0
LINE
  5
EF80
330
17
100
AcDbEntity
  8
1外形線
100
AcDbLine
 10
690.8020779158323
 20
58.52845437775272
 30
0.0
 11
703.7886747246921
 21
58.52845385612477
 31
0.0
  0
SPLINE
  5
EF81
330
17
100
AcDbEntity
  8
1外形線
100
AcDbSpline
210
0.0
220
0.0
230
1.0
 70
     8
 71
     3
 72
    42
 73
    38
 74
     0
 42
0.000000001
 43
0.0000000001
 40
0.0
 40
0.0
 40
0.0
 40
0.0
 40
0.0312499999999996
 40
0.0312499999999996
 40
0.0351562499999996
 40
0.0351562499999996
 40
0.0390624999999996
 40
0.0390624999999996
 40
0.0468749999999999
 40
0.0468749999999999
 40
0.0546875000000003
 40
0.0546875000000003
 40
0.0625000000000007
 40
0.0625000000000007
 40
0.0781250000000013
 40
0.0781250000000013
 40
0.0859375000000017
 40
0.0859375000000017
 40
0.093750000000002
 40
0.093750000000002
 40
0.1015625000000023
 40
0.1015625000000023
 40
0.1093750000000027
 40
0.1093750000000027
 40
0.1250000000000031
 40
0.1250000000000031
 40
0.1406250000000034
 40
0.1406250000000034
 40
0.1562500000000038
 40
0.1562500000000038
 40
0.1601562500000039
 40
0.1601562500000039
 40
0.1640625000000039
 40
0.1640625000000039
 40
0.1718750000000039
 40
0.1875000000000039
 40
0.2126083941424647
 40
0.2126083941424647
 40
0.2126083941424647
 40
0.2126083941424647
 10
944.1387462875495
 20
-50.45575222150524
 30
0.0
 10
946.531233976038
 20
-50.45575222172534
 30
0.0
 10
948.9237188628608
 20
-50.4557350943303
 30
0.0
 10
951.6152768564602
 20
-50.45603954900048
 30
0.0
 10
951.9143390284584
 20
-50.45607777120654
 30
0.0
 10
952.512463755956
 20
-50.45616397250682
 30
0.0
 10
952.8116225529625
 20
-50.45866045199705
 30
0.0
 10
953.7081605136767
 20
-50.44227508692689
 30
0.0
 10
954.3046899023279
 20
-50.40177393613499
 30
0.0
 10
955.4954036346385
 20
-50.26111085004754
 30
0.0
 10
956.0926029288525
 20
-50.16013439573339
 30
0.0
 10
957.2688330877786
 20
-49.89935237078658
 30
0.0
 10
957.8461820028818
 20
-49.74049887017077
 30
0.0
 10
959.5468785576226
 20
-49.18105792937945
 30
0.0
 10
960.6388519373791
 20
-48.69752641831087
 30
0.0
 10
962.212518930351
 20
-47.80225766773924
 30
0.0
 10
962.7212875377987
 20
-47.4777111531655
 30
0.0
 10
963.6963796328268
 20
-46.78469153025594
 30
0.0
 10
964.1647402487901
 20
-46.41536074051851
 30
0.0
 10
965.0636259471207
 20
-45.6316939763617
 30
0.0
 10
965.4940831677299
 20
-45.21727728070049
 30
0.0
 10
966.3158039983059
 20
-44.34182327860049
 30
0.0
 10
966.7086654846857
 20
-43.87871019549106
 30
0.0
 10
967.8040030342886
 20
-42.44857822034805
 30
0.0
 10
968.4307307249868
 20
-41.43388491725431
 30
0.0
 10
969.4808000959124
 20
-39.28409072796217
 30
0.0
 10
969.9042010948319
 20
-38.14033311875915
 30
0.0
 10
970.509269456364
 20
-35.80305737461254
 30
0.0
 10
970.6890049647403
 20
-34.62840539934564
 30
0.0
 10
970.7699040136354
 20
-33.15304923328745
 30
0.0
 10
970.7788309402236
 20
-32.85762278786365
 30
0.0
 10
970.7820690775584
 20
-32.26605408778573
 30
0.0
 10
970.7807186108544
 20
-31.9701243038287
 30
0.0
 10
970.7807186108544
 20
-31.08253337053407
 30
0.0
 10
970.7807186108544
 20
-29.30735150395208
 30
0.0
 10
970.7807186108544
 20
-25.63043242218714
 30
0.0
 10
970.7807186108544
 20
-22.5452406292859
 30
0.0
 10
970.7807186108544
 20
-20.64350341410841
 30
0.0
  0
SPLINE
  5
EF82
330
17
100
AcDbEntity
  8
1外形線
100
AcDbSpline
210
0.0
220
0.0
230
1.0
 70
     8
 71
     3
 72
    95
 73
    91
 74
     0
 42
0.000000001
 43
0.0000000001
 40
0.2038064692068322
 40
0.2038064692068322
 40
0.2038064692068322
 40
0.2038064692068322
 40
0.2126083922300296
 40
0.2126083922300296
 40
0.2126083922300296
 40
0.2126083941424647
 40
0.2126083941424647
 40
0.2126083941424647
 40
0.2500000000000043
 40
0.3750000000000051
 40
0.4375000000000055
 40
0.4687500000000058
 40
0.4765625000000058
 40
0.4765625000000058
 40
0.4804687500000059
 40
0.4804687500000059
 40
0.4843750000000059
 40
0.4843750000000059
 40
0.4921875000000059
 40
0.4921875000000059
 40
0.5000000000000059
 40
0.5000000000000059
 40
0.5156250000000059
 40
0.5156250000000059
 40
0.5234375000000059
 40
0.5234375000000059
 40
0.5312500000000059
 40
0.5312500000000059
 40
0.5390625000000059
 40
0.5390625000000059
 40
0.5468750000000061
 40
0.5468750000000061
 40
0.5625000000000063
 40
0.5625000000000063
 40
0.5703125000000066
 40
0.5703125000000066
 40
0.5781250000000068
 40
0.5781250000000068
 40
0.5937500000000075
 40
0.5937500000000075
 40
0.6015625000000079
 40
0.6015625000000079
 40
0.6093750000000081
 40
0.6093750000000081
 40
0.6250000000000085
 40
0.7500000000000095
 40
0.8125000000000097
 40
0.8437500000000097
 40
0.8593750000000097
 40
0.8593750000000097
 40
0.8632812500000095
 40
0.8632812500000095
 40
0.8671875000000094
 40
0.8671875000000094
 40
0.875000000000009
 40
0.875000000000009
 40
0.8906250000000079
 40
0.8906250000000079
 40
0.8984375000000072
 40
0.8984375000000072
 40
0.9062500000000067
 40
0.9062500000000067
 40
0.9218750000000055
 40
0.9218750000000055
 40
0.9257812500000051
 40
0.9257812500000051
 40
0.9277343750000049
 40
0.9277343750000049
 40
0.9296875000000049
 40
0.9296875000000049
 40
0.9375000000000042
 40
0.9375000000000042
 40
0.9453125000000035
 40
0.9453125000000035
 40
0.9492187500000031
 40
0.9492187500000031
 40
0.9531250000000028
 40
0.9531250000000028
 40
0.9609375000000021
 40
0.9609375000000021
 40
0.9648437500000019
 40
0.9648437500000019
 40
0.9687500000000015
 40
0.9687500000000015
 40
0.9707031250000014
 40
0.9707031250000014
 40
0.9726562500000014
 40
0.9765625000000012
 40
0.9843750000000007
 40
1.0
 40
1.0
 40
1.0
 40
1.0
 10
970.7807186108544
 20
-20.64350341410659
 30
0.0
 10
970.7807186108544
 20
-19.97683689229029
 30
0.0
 10
970.7807186108544
 20
-19.310170370474
 30
0.0
 10
970.7807186108544
 20
-18.6435038486577
 30
0.0
 10
970.7807186108544
 20
-18.64350370380794
 30
0.0
 10
970.7807186108544
 20
-18.64350355895817
 30
0.0
 10
970.7807186108544
 20
-18.64350341410841
 30
0.0
 10
970.7807186108544
 20
-15.81142231839453
 30
0.0
 10
970.7807186108544
 20
-3.511704600897928
 30
0.0
 10
970.7807186108544
 20
13.52183142748822
 30
0.0
 10
970.7807186108544
 20
30.090195515608
 30
0.0
 10
970.7807186108544
 20
37.78265027080875
 30
0.0
 10
970.7807186108544
 20
40.74128671511448
 30
0.0
 10
970.7807186108544
 20
41.62887764840729
 30
0.0
 10
970.7789421042575
 20
41.92467151981349
 30
0.0
 10
970.7564335220371
 20
42.51551477489215
 30
0.0
 10
970.7379093642625
 20
42.81065087544289
 30
0.0
 10
970.6604899635673
 20
43.69520113007115
 30
0.0
 10
970.5798288838336
 20
44.28376042200056
 30
0.0
 10
970.3582015955285
 20
45.45851049722682
 30
0.0
 10
970.2185203420517
 20
46.03742439264919
 30
0.0
 10
969.718660554899
 20
47.74012302414871
 30
0.0
 10
969.2768839182276
 20
48.83422881345746
 30
0.0
 10
968.4496089632116
 20
50.41316532782571
 30
0.0
 10
968.1448476727233
 20
50.93089600544431
 30
0.0
 10
967.4919549318506
 20
51.92298560861877
 30
0.0
 10
967.1427504586931
 20
52.39990684014287
 30
0.0
 10
966.4003471951142
 20
53.31678100143313
 30
0.0
 10
966.0071435891946
 20
53.75672988475731
 30
0.0
 10
965.1757500451854
 20
54.59882576229779
 30
0.0
 10
964.7360804280975
 20
55.00207166641326
 30
0.0
 10
963.3570727886139
 20
56.14598598130419
 30
0.0
 10
962.3770850133874
 20
56.80620127632233
 30
0.0
 10
960.8188727785231
 20
57.64756461320962
 30
0.0
 10
960.2847808878937
 20
57.90322163676705
 30
0.0
 10
959.1861903722159
 20
58.36320001798617
 30
0.0
 10
958.6214756001131
 20
58.56710991639943
 30
0.0
 10
956.9058863692148
 20
59.09153891676237
 30
0.0
 10
955.7462807042716
 20
59.32283150808894
 30
0.0
 10
953.9838505110379
 20
59.49822340819832
 30
0.0
 10
953.3925304774234
 20
59.52804886908075
 30
0.0
 10
952.2019616707325
 20
59.5286185061343
 30
0.0
 10
951.6066010969803
 20
59.52833573815064
 30
0.0
 10
949.8206332185505
 20
59.52833573815064
 30
0.0
 10
939.1048259480008
 20
59.52833573815064
 30
0.0
 10
923.6264376683134
 20
59.52833573815064
 30
0.0
 10
906.957404136348
 20
59.52833573815064
 30
0.0
 10
898.6228873703616
 20
59.52833573815064
 30
0.0
 10
895.0509516135129
 20
59.52833573815064
 30
0.0
 10
893.5626450481573
 20
59.52833573815064
 30
0.0
 10
893.2649974584233
 20
59.52308736831605
 30
0.0
 10
892.669746399933
 20
59.49571694237988
 30
0.0
 10
892.3715596204161
 20
59.47459274716516
 30
0.0
 10
891.4815828390597
 20
59.38946175797195
 30
0.0
 10
890.8957232175048
 20
59.30407051984571
 30
0.0
 10
889.1602296823252
 20
58.96309615278392
 30
0.0
 10
888.0323957198775
 20
58.62380813329242
 30
0.0
 10
886.3848520251918
 20
57.94513430475331
 30
0.0
 10
885.842876303413
 20
57.68951323737588
 30
0.0
 10
884.7980703525605
 20
57.13223712829699
 30
0.0
 10
884.2921252032097
 20
56.82930237355709
 30
0.0
 10
882.822852530891
 20
55.84880484944938
 30
0.0
 10
881.9061819858685
 20
55.09891606933002
 30
0.0
 10
880.848688486632
 20
54.04059381750653
 30
0.0
 10
880.641912800365
 20
53.82313511806592
 30
0.0
 10
880.3390331655933
 20
53.48801110060617
 30
0.0
 10
880.2383887054743
 20
53.37591613606696
 30
0.0
 10
880.0318233513312
 20
53.15819939868584
 30
0.0
 10
879.9267381263193
 20
53.05155241718626
 30
0.0
 10
879.3922165684085
 20
52.52947589456766
 30
0.0
 10
878.9363896590471
 20
52.14642262561778
 30
0.0
 10
877.9690941641451
 20
51.44857795591656
 30
0.0
 10
877.4573561265128
 20
51.13411712219044
 30
0.0
 10
876.6454572647594
 20
50.71676358358877
 30
0.0
 10
876.3680287710663
 20
50.58732854033246
 30
0.0
 10
875.8091167601882
 20
50.35195674032024
 30
0.0
 10
875.5263264434685
 20
50.24540126395755
 30
0.0
 10
874.6682600996896
 20
49.95809949109776
 30
0.0
 10
874.0832732417361
 20
49.80976938274785
 30
0.0
 10
873.1858259736796
 20
49.65392695302966
 30
0.0
 10
872.8822961609798
 20
49.61298435578306
 30
0.0
 10
872.2759232789243
 20
49.55422522830872
 30
0.0
 10
871.9726673799554
 20
49.53668493178724
 30
0.0
 10
871.5176818159157
 20
49.52771214476911
 30
0.0
 10
871.3659987653805
 20
49.52833409902291
 30
0.0
 10
871.0626399619973
 20
49.52833409902473
 30
0.0
 10
870.6076017569207
 20
49.52833409902291
 30
0.0
 10
869.5458459450778
 20
49.52833409902291
 30
0.0
 10
867.422334321392
 20
49.52833409902473
 30
0.0
 10
865.6021815010857
 20
49.52833409902291
 30
0.0
 10
864.3887462875495
 20
49.52833409902291
 30
0.0
  0
LINE
  5
EF83
330
17
100
AcDbEntity
  8
1外形線
100
AcDbLine
 10
864.3887462875495
 20
51.53629021286201
 30
0.0
 11
864.3887462875495
 21
49.52833409902291
 31
0.0
  0
LINE
  5
EF84
330
17
100
AcDbEntity
  8
1外形線
100
AcDbLine
 10
864.3887462875495
 20
51.53629021286201
 30
0.0
 11
871.4279934860892
 21
51.53629021286201
 31
0.0
  0
ARC
  5
EF85
330
17
100
AcDbEntity
  8
1外形線
100
AcDbCircle
 10
871.4279934836117
 20
61.53629021286201
 30
0.0
 40
9.999999999999928
100
AcDbArc
 50
270.0
 51
318.1896893042249
  0
ARC
  5
EF86
330
17
100
AcDbEntity
  8
1外形線
100
AcDbCircle
 10
893.7886747246917
 20
41.53629185198974
 30
0.0
 40
20.00000000000008
100
AcDbArc
 50
90.0
 51
138.1896893042249
  0
LINE
  5
EF87
330
17
100
AcDbEntity
  8
1外形線
100
AcDbLine
 10
893.7886747246917
 20
61.53629185198974
 30
0.0
 11
952.7886747249972
 21
61.53629185198974
 31
0.0
  0
ARC
  5
EF88
330
17
100
AcDbEntity
  8
1外形線
100
AcDbCircle
 10
952.7886747246952
 20
41.53629185198974
 30
0.0
 40
20.0
100
AcDbArc
 50
0.0000000004168817
 51
89.99999999911413
  0
LINE
  5
EF89
330
17
100
AcDbEntity
  8
1外形線
100
AcDbLine
 10
972.7886747246953
 20
41.53629185196064
 30
0.0
 11
972.7886747246881
 21
-32.46371124744269
 31
0.0
  0
ARC
  5
EF8A
330
17
100
AcDbEntity
  8
1外形線
100
AcDbCircle
 10
952.788674724688
 20
-32.46371124745178
 30
0.0
 40
20.00000000000001
100
AcDbArc
 50
269.9690362280694
 51
0.0
  0
LINE
  5
EF8B
330
17
100
AcDbEntity
  8
1外形線
100
AcDbLine
 10
952.7778660826694
 20
-52.463708326826
 30
0.0
 11
944.1387462875495
 21
-52.463708326826
 31
0.0
  0
LINE
  5
EF8C
330
17
100
AcDbEntity
  8
1外形線
100
AcDbLine
 10
944.1387462875495
 20
-52.463708326826
 30
0.0
 11
944.1387462875495
 21
-50.45575222150524
 31
0.0
  0
LINE
  5
EF8D
330
17
100
AcDbEntity
  8
1外形線
100
AcDbLine
 10
784.6387462875496
 20
-52.463708326826
 30
0.0
 11
784.6387462875496
 21
-50.4557522129869
 31
0.0
  0
SPLINE
  5
EF8E
330
17
100
AcDbEntity
  8
1外形線
100
AcDbSpline
210
0.0
220
0.0
230
1.0
 70
     8
 71
     3
 72
    85
 73
    81
 74
     0
 42
0.000000001
 43
0.0000000001
 40
0.0
 40
0.0
 40
0.0
 40
0.0
 40
0.0312500000000003
 40
0.0468750000000004
 40
0.0468750000000004
 40
0.0625000000000005
 40
0.0625000000000005
 40
0.0937500000000008
 40
0.0937500000000008
 40
0.125000000000001
 40
0.125000000000001
 40
0.1562500000000012
 40
0.1562500000000012
 40
0.1875000000000015
 40
0.1875000000000015
 40
0.2187500000000017
 40
0.2187500000000017
 40
0.2343750000000019
 40
0.2343750000000019
 40
0.2421875000000019
 40
0.2421875000000019
 40
0.2500000000000019
 40
0.2500000000000019
 40
0.2812500000000017
 40
0.2812500000000017
 40
0.2968750000000017
 40
0.2968750000000017
 40
0.3125000000000015
 40
0.3125000000000015
 40
0.3281250000000014
 40
0.3281250000000014
 40
0.3437500000000013
 40
0.3437500000000013
 40
0.3593750000000013
 40
0.3593750000000013
 40
0.3671875000000012
 40
0.3671875000000012
 40
0.3750000000000011
 40
0.3750000000000011
 40
0.5
 40
0.6249999999999986
 40
0.6249999999999986
 40
0.6328124999999986
 40
0.6328124999999986
 40
0.6406249999999984
 40
0.6406249999999984
 40
0.6562499999999984
 40
0.6562499999999984
 40
0.6718749999999983
 40
0.6718749999999983
 40
0.6874999999999982
 40
0.6874999999999982
 40
0.7031249999999982
 40
0.7031249999999982
 40
0.7187499999999981
 40
0.7187499999999981
 40
0.7499999999999981
 40
0.7499999999999981
 40
0.7578124999999982
 40
0.7578124999999982
 40
0.7656249999999982
 40
0.7656249999999982
 40
0.7812499999999983
 40
0.7812499999999983
 40
0.8124999999999984
 40
0.8124999999999984
 40
0.8437499999999987
 40
0.8437499999999987
 40
0.8593749999999989
 40
0.8593749999999989
 40
0.8749999999999989
 40
0.8749999999999989
 40
0.9062499999999992
 40
0.9062499999999992
 40
0.9374999999999994
 40
0.9374999999999994
 40
0.9531249999999996
 40
0.9531249999999996
 40
0.9687499999999998
 40
1.0
 40
1.0
 40
1.0
 40
1.0
 10
784.6387462875496
 20
-50.4557522129869
 30
0.0
 10
785.4657175456481
 20
-50.4557522129869
 30
0.0
 10
786.706174432798
 20
-50.4557522129869
 30
0.0
 10
787.9466313199441
 20
-50.4557522129869
 30
0.0
 10
788.7736025780464
 20
-50.4557522129869
 30
0.0
 10
789.1871005206334
 20
-50.45990596912247
 30
0.0
 10
790.4274417177252
 20
-50.42087997168505
 30
0.0
 10
791.2561900889664
 20
-50.33729712196123
 30
0.0
 10
792.8758988980766
 20
-50.06119420266782
 30
0.0
 10
793.671421442646
 20
-49.86843970166024
 30
0.0
 10
795.2342724770783
 20
-49.37531727453256
 30
0.0
 10
796.0037196059743
 20
-49.07371728824159
 30
0.0
 10
797.5030978866266
 20
-48.36191221871354
 30
0.0
 10
798.223142946284
 20
-47.9567179466137
 30
0.0
 10
799.5930414805693
 20
-47.05777312302939
 30
0.0
 10
800.2452333711149
 20
-46.56338327289972
 30
0.0
 10
801.1737049745311
 20
-45.753489683633
 30
0.0
 10
801.4749117630776
 20
-45.47216634906158
 30
0.0
 10
801.9139872124283
 20
-45.03271927715445
 30
0.0
 10
802.0582281798592
 20
-44.88330945063876
 30
0.0
 10
802.3420082668193
 20
-44.57891516884387
 30
0.0
 10
802.4797691371782
 20
-44.42164622650466
 30
0.0
 10
803.189377994418
 20
-43.66085537695266
 30
0.0
 10
803.8122398355694
 20
-43.11999302216441
 30
0.0
 10
804.8259658142811
 20
-42.40626611956372
 30
0.0
 10
805.177276955524
 20
-42.18481921934812
 30
0.0
 10
805.9082039766867
 20
-41.77669170509921
 30
0.0
 10
806.2874982470161
 20
-41.59050403533706
 30
0.0
 10
807.0562407682004
 20
-41.26095465400044
 30
0.0
 10
807.4479110886018
 20
-41.11649935688342
 30
0.0
 10
808.2462807896368
 20
-40.86942721824539
 30
0.0
 10
808.6542573100881
 20
-40.7664601563099
 30
0.0
 10
809.4789823674831
 20
-40.60297370632702
 30
0.0
 10
809.8933600322629
 20
-40.54320134265231
 30
0.0
 10
810.5179150750441
 20
-40.48612666183157
 30
0.0
 10
810.7266045906577
 20
-40.47260230458209
 30
0.0
 10
811.1449940446904
 20
-40.4565701459594
 30
0.0
 10
811.3548491230281
 20
-40.45575382230686
 30
0.0
 10
814.9236582795088
 20
-40.45575382230686
 30
0.0
 10
821.6414166917015
 20
-40.45575382230686
 30
0.0
 10
828.3591751038979
 20
-40.45575382230867
 30
0.0
 10
831.9279842603787
 20
-40.45575382230686
 30
0.0
 10
832.1379143657937
 20
-40.45401477019891
 30
0.0
 10
832.5577737466588
 20
-40.45984649636898
 30
0.0
 10
832.7667665673356
 20
-40.46821031976264
 30
0.0
 10
833.3905879283806
 20
-40.50967766982444
 30
0.0
 10
833.8024498680237
 20
-40.55893860877017
 30
0.0
 10
834.6183933431088
 20
-40.69930743137752
 30
0.0
 10
835.0225118596785
 20
-40.79021641185295
 30
0.0
 10
835.8228689254824
 20
-41.01441681835763
 30
0.0
 10
836.2204613634672
 20
-41.14866461286669
 30
0.0
 10
837.0000132795608
 20
-41.45879526646399
 30
0.0
 10
837.3825069990521
 20
-41.63434836399187
 30
0.0
 10
838.1238336667152
 20
-42.02266465693333
 30
0.0
 10
838.4815663646072
 20
-42.23477438086024
 30
0.0
 10
839.5169168552016
 20
-42.92364730855275
 30
0.0
 10
840.1581226498452
 20
-43.45116170757115
 30
0.0
 10
840.8939933066717
 20
-44.20116557367123
 30
0.0
 10
841.0366419216876
 20
-44.35714169596917
 30
0.0
 10
841.3201559074837
 20
-44.67144848001566
 30
0.0
 10
841.4642223333862
 20
-44.82555256953651
 30
0.0
 10
841.9031735319581
 20
-45.27894981468285
 30
0.0
 10
842.2047954518161
 20
-45.56934745362172
 30
0.0
 10
843.1359036196585
 20
-46.40589072210945
 30
0.0
 10
843.7916817103028
 20
-46.91732143171043
 30
0.0
 10
845.1727747276486
 20
-47.84836860539667
 30
0.0
 10
845.8981940885964
 20
-48.26784717780515
 30
0.0
 10
847.041162931138
 20
-48.82465629235025
 30
0.0
 10
847.4317389572203
 20
-48.99805209450438
 30
0.0
 10
848.2211522623325
 20
-49.31542830707417
 30
0.0
 10
848.621197675307
 20
-49.46018687807896
 30
0.0
 10
849.8377032219828
 20
-49.8517528923146
 30
0.0
 10
850.6561672799175
 20
-50.05181231326401
 30
0.0
 10
852.2983341003195
 20
-50.33500137824535
 30
0.0
 10
853.1234983799835
 20
-50.41891770722372
 30
0.0
 10
854.3672635700527
 20
-50.45972408533248
 30
0.0
 10
854.7830953687293
 20
-50.45575221305785
 30
0.0
 10
855.6141969273554
 20
-50.45575221312515
 30
0.0
 10
856.8608492652815
 20
-50.45575221322883
 30
0.0
 10
858.1075016032114
 20
-50.45575221333251
 30
0.0
 10
858.9386031618337
 20
-50.45575221340527
 30
0.0
  0
LINE
  5
EF8F
330
17
100
AcDbEntity
  8
1外形線
100
AcDbLine
 10
858.9386031618337
 20
-52.463708326826
 30
0.0
 11
858.9386031618337
 21
-50.45575221340527
 31
0.0
  0
LINE
  5
EF90
330
17
100
AcDbEntity
  8
1外形線
100
AcDbLine
 10
789.0386751846886
 20
-52.463708326826
 30
0.0
 11
784.6387462875496
 21
-52.463708326826
 31
0.0
  0
ARC
  5
EF91
330
17
100
AcDbEntity
  8
1外形線
100
AcDbCircle
 10
789.0386751846886
 20
-32.46370832682601
 30
0.0
 40
20.00000000000015
100
AcDbArc
 50
270.0
 51
318.1896809846995
  0
ARC
  5
EF92
330
17
100
AcDbEntity
  8
1外形線
100
AcDbCircle
 10
811.3993535202675
 20
-52.46370993614414
 30
0.0
 40
10.00000000000001
100
AcDbArc
 50
89.99999998108398
 51
138.1896809723892
  0
LINE
  5
EF93
330
17
100
AcDbEntity
  8
1外形線
100
AcDbLine
 10
821.7886747255612
 20
-42.46370993614414
 30
0.0
 11
811.3993535235708
 21
-42.46370993614414
 31
0.0
  0
LINE
  5
EF94
330
17
100
AcDbEntity
  8
1外形線
100
AcDbLine
 10
832.1779959290829
 20
-42.46370993614414
 30
0.0
 11
821.7886747255612
 21
-42.46370993614414
 31
0.0
  0
ARC
  5
EF95
330
17
100
AcDbEntity
  8
1外形線
100
AcDbCircle
 10
832.1779959291157
 20
-52.46370993614414
 30
0.0
 40
10.00000000000005
100
AcDbArc
 50
41.81031901942374
 51
90.00000000020843
  0
ARC
  5
EF96
330
17
100
AcDbEntity
  8
1外形線
100
AcDbCircle
 10
854.5386742646909
 20
-32.46370832682601
 30
0.0
 40
20.00000000000003
100
AcDbArc
 50
221.8103190194234
 51
270.0000000002606
  0
LINE
  5
EF97
330
17
100
AcDbEntity
  8
1外形線
100
AcDbLine
 10
858.9386031618337
 20
-52.463708326826
 30
0.0
 11
854.5386742647819
 21
-52.463708326826
 31
0.0
  0
LINE
  5
EF98
330
17
100
AcDbEntity
  8
1外形線
100
AcDbLine
 10
784.6387462875496
 20
-50.4557522129869
 30
0.0
 11
784.2789456938767
 21
-48.55706043432087
 31
0.0
  0
LINE
  5
EF99
330
17
100
AcDbEntity
  8
1外形線
100
AcDbLine
 10
784.6387462870148
 20
-52.463708326826
 30
0.0
 11
784.2789456938767
 21
-50.56501654816179
 31
0.0
  0
LINE
  5
EF9A
330
17
100
AcDbEntity
  8
1外形線
100
AcDbLine
 10
779.18860316183
 20
51.53629021286201
 30
0.0
 11
779.18860316183
 21
49.52833409902291
 31
0.0
  0
SPLINE
  5
EF9B
330
17
100
AcDbEntity
  8
1外形線
100
AcDbSpline
210
0.0
220
0.0
230
1.0
 70
     8
 71
     3
 72
    92
 73
    88
 74
     0
 42
0.000000001
 43
0.0000000001
 40
0.0
 40
0.0
 40
0.0
 40
0.0
 40
0.0156250000000006
 40
0.023437500000001
 40
0.0273437500000012
 40
0.0273437500000012
 40
0.0312500000000014
 40
0.0312500000000014
 40
0.0390625000000017
 40
0.0390625000000017
 40
0.0468750000000021
 40
0.0468750000000021
 40
0.0546875000000024
 40
0.0546875000000024
 40
0.0625000000000028
 40
0.0625000000000028
 40
0.0703125000000031
 40
0.0703125000000031
 40
0.0742187500000033
 40
0.0742187500000033
 40
0.0761718750000033
 40
0.0761718750000033
 40
0.0781250000000034
 40
0.0781250000000034
 40
0.0937500000000035
 40
0.0937500000000035
 40
0.1015625000000035
 40
0.1015625000000035
 40
0.1093750000000035
 40
0.1093750000000035
 40
0.1250000000000037
 40
0.1250000000000037
 40
0.1328125000000037
 40
0.1328125000000037
 40
0.1406250000000037
 40
0.1406250000000037
 40
0.1445312500000037
 40
0.1445312500000037
 40
0.1484375000000038
 40
0.1562500000000038
 40
0.187500000000004
 40
0.2500000000000044
 40
0.3750000000000053
 40
0.3906250000000054
 40
0.3984375000000054
 40
0.3984375000000054
 40
0.4062500000000055
 40
0.4062500000000055
 40
0.4140625000000055
 40
0.4140625000000055
 40
0.4218750000000055
 40
0.4218750000000055
 40
0.4375000000000056
 40
0.4375000000000056
 40
0.4453125000000058
 40
0.4453125000000058
 40
0.4531250000000061
 40
0.4531250000000061
 40
0.4609375000000063
 40
0.4609375000000063
 40
0.4687500000000064
 40
0.4687500000000064
 40
0.4843750000000068
 40
0.4843750000000068
 40
0.492187500000007
 40
0.492187500000007
 40
0.5000000000000071
 40
0.5000000000000071
 40
0.5078125000000073
 40
0.5078125000000073
 40
0.5156250000000076
 40
0.5156250000000076
 40
0.5195312500000076
 40
0.5195312500000076
 40
0.5234375000000075
 40
0.5234375000000075
 40
0.5312500000000073
 40
0.5625000000000071
 40
0.6250000000000063
 40
0.7500000000000049
 40
0.7862625528703485
 40
0.7862625528703485
 40
0.7862625528703485
 40
0.7862625638077444
 40
0.7862625738077444
 40
0.7862625838077444
 40
0.7950581188283256
 40
0.7950581188283256
 40
0.7950581188283256
 40
0.7950581188283256
 10
779.18860316183
 20
49.52833409902291
 30
0.0
 10
778.0046741193286
 20
49.52833409902473
 30
0.0
 10
776.2287805555711
 20
49.52833409902473
 30
0.0
 10
774.1569047311891
 20
49.52833409902473
 30
0.0
 10
773.2689579493121
 20
49.52833409902291
 30
0.0
 10
772.6769934280633
 20
49.52833409902291
 30
0.0
 10
772.3810108800457
 20
49.5269613427738
 30
0.0
 10
771.4930650652927
 20
49.53158094714331
 30
0.0
 10
770.9059875964335
 20
49.57882915776304
 30
0.0
 10
769.7511539433758
 20
49.75573570146685
 30
0.0
 10
769.1818361274922
 20
49.88589942560088
 30
0.0
 10
768.0596821191788
 20
50.23110834880049
 30
0.0
 10
767.5055123039851
 20
50.44677484980479
 30
0.0
 10
766.4376153403786
 20
50.95722742649582
 30
0.0
 10
765.9272326181739
 20
51.2494307013842
 30
0.0
 10
764.9579223746073
 20
51.90219992892185
 30
0.0
 10
764.4981415827674
 20
52.26344408913814
 30
0.0
 10
763.8454396758893
 20
52.85712006130075
 30
0.0
 10
763.6342152770225
 20
53.06409452347384
 30
0.0
 10
763.3277341156968
 20
53.38809207712825
 30
0.0
 10
763.2281287303808
 20
53.49944911639636
 30
0.0
 10
763.0278258894245
 20
53.7207279656252
 30
0.0
 10
762.9265240622585
 20
53.82985549362661
 30
0.0
 10
762.0046429862118
 20
54.79864460299018
 30
0.0
 10
761.1138697601668
 20
55.56605529885223
 30
0.0
 10
759.6739565220627
 20
56.58081572752985
 30
0.0
 10
759.1767183179395
 20
56.89637626609533
 30
0.0
 10
758.1463429990467
 20
57.48031799208934
 30
0.0
 10
757.6111057388511
 20
57.75004557458328
 30
0.0
 10
755.9644490479763
 20
58.47763181772302
 30
0.0
 10
754.8352026825446
 20
58.84691400478209
 30
0.0
 10
753.0954448019033
 20
59.23204631983231
 30
0.0
 10
752.5077075260846
 20
59.33166688894584
 30
0.0
 10
751.3164878201491
 20
59.47299265627975
 30
0.0
 10
750.7161295320834
 20
59.51420768737103
 30
0.0
 10
749.8183846687384
 20
59.53082576699876
 30
0.0
 10
749.5191053407102
 20
59.52833573815064
 30
0.0
 10
748.9205659366994
 20
59.52833573815064
 30
0.0
 10
748.0227568306977
 20
59.52833573815064
 30
0.0
 10
744.7307901086674
 20
59.52833573815064
 30
0.0
 10
736.9497778565923
 20
59.52833573815064
 30
0.0
 10
720.1906745444461
 20
59.52833573815064
 30
0.0
 10
704.6286500403034
 20
59.52833573815064
 30
0.0
 10
693.2564013642036
 20
59.52833573815064
 30
0.0
 10
691.4607831521894
 20
59.52833573815246
 30
0.0
 10
690.263704344175
 20
59.52833573815246
 30
0.0
 10
689.6661522572899
 20
59.503197435841
 30
0.0
 10
688.4735665372822
 20
59.38879791600107
 30
0.0
 10
687.877828915552
 20
59.30170583041422
 30
0.0
 10
686.6913096094572
 20
59.06600318608821
 30
0.0
 10
686.1089739416743
 20
58.91925224147803
 30
0.0
 10
684.393398517866
 20
58.39584653263614
 30
0.0
 10
683.2916041542989
 20
57.93600235102371
 30
0.0
 10
681.7027882486796
 20
57.07725179065551
 30
0.0
 10
681.1839146373963
 20
56.76218425807405
 30
0.0
 10
680.1914086791216
 20
56.08867889147609
 30
0.0
 10
679.7145585119937
 20
55.72883579220456
 30
0.0
 10
678.7986742534226
 20
54.96414637877228
 30
0.0
 10
678.3596512647595
 20
54.55928685169806
 30
0.0
 10
677.5205843462385
 20
53.70318056863857
 30
0.0
 10
677.1184094327249
 20
53.24935900817786
 30
0.0
 10
675.9888612140817
 20
51.83816649194364
 30
0.0
 10
675.3400296364775
 20
50.83565222728634
 30
0.0
 10
674.5192103995064
 20
49.24159580998116
 30
0.0
 10
674.271034114226
 20
48.69518109978367
 30
0.0
 10
673.8279501437314
 20
47.57080004481418
 30
0.0
 10
673.6347338261616
 20
46.996948215987
 30
0.0
 10
673.3066983707535
 20
45.83244476913773
 30
0.0
 10
673.1730134201275
 20
45.24570671134301
 30
0.0
 10
672.966182238138
 20
44.07187404585442
 30
0.0
 10
672.8925820748477
 20
43.48344721892885
 30
0.0
 10
672.8256408121155
 20
42.59860528147351
 30
0.0
 10
672.8105901809572
 20
42.30329000830375
 30
0.0
 10
672.7950568875853
 20
41.71192142686073
 30
0.0
 10
672.7966308389654
 20
41.41576392746742
 30
0.0
 10
672.7966308388345
 20
40.52753064548255
 30
0.0
 10
672.7966308384853
 20
37.56675303886209
 30
0.0
 10
672.7966308385289
 20
29.86873126160413
 30
0.0
 10
672.7966308385289
 20
13.28837666443746
 30
0.0
 10
672.7966308385289
 20
-3.671908922571446
 30
0.0
 10
672.7966308385289
 20
-15.89495033895741
 30
0.0
 10
672.7966308385289
 20
-18.64350341410659
 30
0.0
 10
672.7966308385289
 20
-18.64350348515813
 30
0.0
 10
672.7966308385289
 20
-18.64350355620786
 30
0.0
 10
672.7966308385289
 20
-18.6435036272594
 30
0.0
 10
672.7966308385289
 20
-19.31017022287392
 30
0.0
 10
672.7966308385289
 20
-19.97683681849025
 30
0.0
 10
672.7966308385289
 20
-20.64350341410659
 30
0.0
  0
SPLINE
  5
EF9C
330
17
100
AcDbEntity
  8
1外形線
100
AcDbSpline
210
0.0
220
0.0
230
1.0
 70
     8
 71
     3
 72
    43
 73
    39
 74
     0
 42
0.000000001
 43
0.0000000001
 40
0.7862625528703485
 40
0.7862625528703485
 40
0.7862625528703485
 40
0.7862625528703485
 40
0.8125000000000042
 40
0.828125000000004
 40
0.8359375000000039
 40
0.8359375000000039
 40
0.8398437500000039
 40
0.8398437500000039
 40
0.8437500000000037
 40
0.8437500000000037
 40
0.8515625000000037
 40
0.8515625000000037
 40
0.8593750000000035
 40
0.8593750000000035
 40
0.8750000000000033
 40
0.8750000000000033
 40
0.8828125000000033
 40
0.8828125000000033
 40
0.8906250000000031
 40
0.8906250000000031
 40
0.9062500000000026
 40
0.9062500000000026
 40
0.9140625000000023
 40
0.9140625000000023
 40
0.9218750000000019
 40
0.9218750000000019
 40
0.9296875000000015
 40
0.9296875000000015
 40
0.9375000000000012
 40
0.9375000000000012
 40
0.9531250000000008
 40
0.9531250000000008
 40
0.9609375000000007
 40
0.9609375000000007
 40
0.9648437500000005
 40
0.9648437500000005
 40
0.9687500000000005
 40
1.0
 40
1.0
 40
1.0
 40
1.0
 10
672.7966308385289
 20
-20.64350341410659
 30
0.0
 10
672.7966308385289
 20
-22.63219450957672
 30
0.0
 10
672.7966308385289
 20
-25.80519664770304
 30
0.0
 10
672.7966308385289
 20
-29.57035430715564
 30
0.0
 10
672.7966308385289
 20
-31.34682087113629
 30
0.0
 10
672.7966308385289
 20
-32.23505415312843
 30
0.0
 10
672.7943202425917
 20
-32.53122259343013
 30
0.0
 10
672.8063024936195
 20
-33.1229078697595
 30
0.0
 10
672.8195903666342
 20
-33.4184641461195
 30
0.0
 10
672.8812917271202
 20
-34.30427595020205
 30
0.0
 10
672.9514637248534
 20
-34.8936775623622
 30
0.0
 10
673.1516177220178
 20
-36.07013353539674
 30
0.0
 10
673.2816857704851
 20
-36.65505982994705
 30
0.0
 10
673.7524985696068
 20
-38.36999575126333
 30
0.0
 10
674.1753656083597
 20
-39.47212115554407
 30
0.0
 10
674.9738576996419
 20
-41.06329563808299
 30
0.0
 10
675.2693094204509
 20
-41.58616782646435
 30
0.0
 10
675.9064302385482
 20
-42.59251755085983
 30
0.0
 10
676.2479927798917
 20
-43.07637366453286
 30
0.0
 10
677.3389360788565
 20
-44.4722960025881
 30
0.0
 10
678.1541885860856
 20
-45.32903867048275
 30
0.0
 10
679.5150044417564
 20
-46.49830375830402
 30
0.0
 10
679.985862838002
 20
-46.86376517541771
 30
0.0
 10
680.9555891649865
 20
-47.54285488082655
 30
0.0
 10
681.455478530875
 20
-47.85704566445724
 30
0.0
 10
682.4847691656973
 20
-48.43563109502042
 30
0.0
 10
683.0141204607748
 20
-48.70011006403342
 30
0.0
 10
684.1029867181418
 20
-49.17817212817294
 30
0.0
 10
684.6646374859696
 20
-49.39195925601393
 30
0.0
 10
686.3633924095297
 20
-49.94345087448687
 30
0.0
 10
687.5228988450503
 20
-50.19722392556627
 30
0.0
 10
689.3033218611703
 20
-50.40427362081732
 30
0.0
 10
689.9008923794603
 20
-50.44382346526777
 30
0.0
 10
690.7949747785164
 20
-50.45867289567081
 30
0.0
 10
691.093044631954
 20
-50.45615962474926
 30
0.0
 10
691.6891562748347
 20
-50.45607430102222
 30
0.0
 10
694.3716584254139
 20
-50.45573302427669
 30
0.0
 10
697.0541585286987
 20
-50.4557522129869
 30
0.0
 10
699.4386031618301
 20
-50.4557522129869
 30
0.0
  0
LINE
  5
EF9D
330
17
100
AcDbEntity
  8
1外形線
100
AcDbLine
 10
699.4386031618301
 20
-52.463708326826
 30
0.0
 11
699.4386031618301
 21
-50.4557522129869
 31
0.0
  0
LINE
  5
EF9E
330
17
100
AcDbEntity
  8
1外形線
100
AcDbLine
 10
772.1493559658442
 20
51.53629021286201
 30
0.0
 11
779.18860316183
 21
51.53629021286201
 31
0.0
  0
ARC
  5
EF9F
330
17
100
AcDbEntity
  8
1外形線
100
AcDbCircle
 10
772.1493559657679
 20
61.53629021286201
 30
0.0
 40
9.999999999999928
100
AcDbArc
 50
221.8103106958348
 51
270.0000000004169
  0
ARC
  5
EFA0
330
17
100
AcDbEntity
  8
1外形線
100
AcDbCircle
 10
749.7886747246916
 20
41.53629185198974
 30
0.0
 40
20.00000000000008
100
AcDbArc
 50
41.81031069576492
 51
90.00000000015633
  0
LINE
  5
EFA1
330
17
100
AcDbEntity
  8
1外形線
100
AcDbLine
 10
690.7886747246589
 20
61.53629185198974
 30
0.0
 11
749.788674724637
 21
61.53629185198974
 31
0.0
  0
ARC
  5
EFA2
330
17
100
AcDbEntity
  8
1外形線
100
AcDbCircle
 10
690.7886747246916
 20
41.53629185198974
 30
0.0
 40
19.99999999999993
100
AcDbArc
 50
90.00000000005213
 51
180.0000000001042
  0
LINE
  5
EFA3
330
17
100
AcDbEntity
  8
1外形線
100
AcDbLine
 10
670.7886747246917
 20
-32.46371124754273
 30
0.0
 11
670.7886747246917
 21
41.53629185196064
 31
0.0
  0
ARC
  5
EFA4
330
17
100
AcDbEntity
  8
1外形線
100
AcDbCircle
 10
690.7886747246916
 20
-32.46371124745178
 30
0.0
 40
19.99999999999979
100
AcDbArc
 50
180.0000000002605
 51
270.0309637709405
  0
LINE
  5
EFA5
330
17
100
AcDbEntity
  8
1外形線
100
AcDbLine
 10
699.4386031618301
 20
-52.463708326826
 30
0.0
 11
690.7994833663756
 21
-52.463708326826
 31
0.0
  0
LINE
  5
EFA6
330
17
100
AcDbEntity
  8
1外形線
100
AcDbLine
 10
944.1387462875495
 20
-50.45575222150524
 30
0.0
 11
943.7789456938803
 21
-48.55706145445743
 31
0.0
  0
LINE
  5
EFA7
330
17
100
AcDbEntity
  8
1外形線
100
AcDbLine
 10
944.1387462875495
 20
-52.463708326826
 30
0.0
 11
943.7789456938803
 21
-50.56501755985459
 31
0.0
  0
LINE
  5
EFA8
330
17
100
AcDbEntity
  8
1外形線
100
AcDbLine
 10
699.7984037555029
 20
-48.55706043432087
 30
0.0
 11
699.4386031618301
 21
-50.4557522129869
 31
0.0
  0
LINE
  5
EFA9
330
17
100
AcDbEntity
  8
1外形線
100
AcDbLine
 10
699.7984037555029
 20
-50.56501654815815
 30
0.0
 11
699.4386031618301
 21
-52.463708326826
 31
0.0
  0
LINE
  5
EFAA
330
17
100
AcDbEntity
  8
1外形線
100
AcDbLine
 10
859.2984037555066
 20
-48.55706048929437
 30
0.0
 11
858.9386031618337
 21
-50.45575221340527
 31
0.0
  0
LINE
  5
EFAB
330
17
100
AcDbEntity
  8
1外形線
100
AcDbLine
 10
859.2984037555066
 20
-50.56501660266963
 30
0.0
 11
858.9386031618337
 21
-52.463708326826
 31
0.0
  0
LINE
  5
EFAC
330
17
100
AcDbEntity
  8
1外形線
100
AcDbLine
 10
864.3887462875495
 20
49.52833409902291
 30
0.0
 11
864.0289456938804
 21
47.62964232035687
 31
0.0
  0
LINE
  5
EFAD
330
17
100
AcDbEntity
  8
1外形線
100
AcDbLine
 10
864.3887462789784
 20
51.53629021286201
 30
0.0
 11
864.0289456938804
 21
49.63759843419779
 31
0.0
  0
LINE
  5
EFAE
330
17
100
AcDbEntity
  8
1外形線
100
AcDbLine
 10
779.5484037555065
 20
47.62964232035687
 30
0.0
 11
779.18860316183
 21
49.52833409902291
 31
0.0
  0
LINE
  5
EFAF
330
17
100
AcDbEntity
  8
1外形線
100
AcDbLine
 10
779.5484037555065
 20
49.63759843419779
 30
0.0
 11
779.18860316183
 21
51.53629021286201
 31
0.0
  0
SPLINE
  5
EFB1
330
17
100
AcDbEntity
  8
1外形線
100
AcDbSpline
210
0.0
220
0.0
230
1.0
 70
     8
 71
     3
 72
    28
 73
    24
 74
     0
 42
0.000000001
 43
0.0000000001
 40
0.0
 40
0.0
 40
0.0
 40
0.0
 40
0.125
 40
0.125
 40
0.1875
 40
0.1875
 40
0.25
 40
0.25
 40
0.3749999999999998
 40
0.3749999999999998
 40
0.4374999999999999
 40
0.4374999999999999
 40
0.4999999999999997
 40
0.4999999999999997
 40
0.6249999999999995
 40
0.6249999999999995
 40
0.6874999999999993
 40
0.6874999999999993
 40
0.7499999999999995
 40
0.7499999999999995
 40
0.8749999999999998
 40
0.8749999999999998
 40
1.0
 40
1.0
 40
1.0
 40
1.0
 10
762.044924676185
 20
-46.58225420458234
 30
0.0
 10
763.5062504995872
 20
-46.58377802547852
 30
0.0
 10
764.9417840718665
 20
-46.59786769858851
 30
0.0
 10
767.0580070886167
 20
-46.63706609859741
 30
0.0
 10
767.7571906193001
 20
-46.65316460172448
 30
0.0
 10
769.1428490462745
 20
-46.69155318935167
 30
0.0
 10
769.8318654085446
 20
-46.71396791321399
 30
0.0
 10
771.8369861100032
 20
-46.78921418815275
 30
0.0
 10
773.1042819966855
 20
-46.85022230754634
 30
0.0
 10
774.9025713404257
 20
-46.957762689555
 30
0.0
 10
775.4852829521728
 20
-46.99633627542948
 30
0.0
 10
776.6129636918735
 20
-47.07890023183222
 30
0.0
 10
777.1497114994923
 20
-47.12228120280428
 30
0.0
 10
778.6814929470306
 20
-47.25850294716269
 30
0.0
 10
779.5987683746529
 20
-47.35736802803853
 30
0.0
 10
780.8166996574578
 20
-47.51790527351636
 30
0.0
 10
781.1970920321614
 20
-47.57368452067544
 30
0.0
 10
781.8885943738491
 20
-47.68707789172345
 30
0.0
 10
782.2018149619029
 20
-47.74493204262194
 30
0.0
 10
783.0458757634619
 20
-47.92189605763428
 30
0.0
 10
783.4822605063378
 20
-48.04447583631713
 30
0.0
 10
784.0900416631552
 20
-48.29862221760937
 30
0.0
 10
784.254323192566
 20
-48.42712584936612
 30
0.0
 10
784.2789456938767
 20
-48.55706043432087
 30
0.0
  0
SPLINE
  5
EFB2
330
17
100
AcDbEntity
  8
1外形線
100
AcDbSpline
210
0.0
220
0.0
230
1.0
 70
     8
 71
     3
 72
     8
 73
     4
 74
     0
 42
0.000000001
 43
0.0000000001
 40
0.0
 40
0.0
 40
0.0
 40
0.0
 40
0.4587628865007792
 40
0.4587628865007792
 40
0.4587628865007792
 40
0.4587628865007792
 10
722.0324247729836
 20
-46.58225420458234
 30
0.0
 10
728.1511747568847
 20
-46.57587378009316
 30
0.0
 10
734.2699247407863
 20
-46.5724204575597
 30
0.0
 10
740.3886747246883
 20
-46.57189423698196
 30
0.0
  0
SPLINE
  5
EFB3
330
17
100
AcDbEntity
  8
1外形線
100
AcDbSpline
210
0.0
220
0.0
230
1.0
 70
     8
 71
     3
 72
     8
 73
     4
 74
     0
 42
0.000000001
 43
0.0000000001
 40
0.5412371135046308
 40
0.5412371135046308
 40
0.5412371135046308
 40
0.5412371135046308
 40
1.0
 40
1.0
 40
1.0
 40
1.0
 10
743.6886747246967
 20
-46.57189423698196
 30
0.0
 10
749.8074247085265
 20
-46.57242045755788
 30
0.0
 10
755.9261746923562
 20
-46.57587378009134
 30
0.0
 10
762.044924676185
 20
-46.58225420458234
 30
0.0
  0
SPLINE
  5
EFB4
330
17
100
AcDbEntity
  8
1外形線
100
AcDbSpline
210
0.0
220
0.0
230
1.0
 70
     8
 71
     3
 72
    28
 73
    24
 74
     0
 42
0.000000001
 43
0.0000000001
 40
0.0
 40
0.0
 40
0.0
 40
0.0
 40
0.1250000000000004
 40
0.1250000000000004
 40
0.1875000000000007
 40
0.1875000000000007
 40
0.2500000000000009
 40
0.2500000000000009
 40
0.3750000000000014
 40
0.3750000000000014
 40
0.437500000000002
 40
0.437500000000002
 40
0.5000000000000026
 40
0.5000000000000026
 40
0.6250000000000029
 40
0.6250000000000029
 40
0.6875000000000029
 40
0.6875000000000029
 40
0.7500000000000029
 40
0.7500000000000029
 40
0.8750000000000014
 40
0.8750000000000014
 40
1.0
 40
1.0
 40
1.0
 40
1.0
 10
699.7984037555029
 20
-48.55706043432087
 30
0.0
 10
699.8230282613544
 20
-48.42711527127699
 30
0.0
 10
699.9871493411514
 20
-48.29949676989577
 30
0.0
 10
700.4340644558756
 20
-48.11141704934721
 30
0.0
 10
700.6167308626204
 20
-48.04928580268984
 30
0.0
 10
701.0508754763281
 20
-47.92617102054805
 30
0.0
 10
701.3038634454856
 20
-47.86492921984041
 30
0.0
 10
702.152377839167
 20
-47.68661153942207
 30
0.0
 10
702.8387898536088
 20
-47.57392291463816
 30
0.0
 10
704.0470653426742
 20
-47.41404931198826
 30
0.0
 10
704.4798014698385
 20
-47.36229499144587
 30
0.0
 10
705.4073719647781
 20
-47.26196997636157
 30
0.0
 10
705.8958005500312
 20
-47.21410482388068
 30
0.0
 10
707.4272270595933
 20
-47.07773047198656
 30
0.0
 10
708.5380851743607
 20
-46.9961262797949
 30
0.0
 10
710.3410713931002
 20
-46.88787846396531
 30
0.0
 10
710.9682968461852
 20
-46.85403621619457
 30
0.0
 10
712.2449593450615
 20
-46.79249990927542
 30
0.0
 10
712.8961130962593
 20
-46.76466476045038
 30
0.0
 10
714.8872182323097
 20
-46.68976993332194
 30
0.0
 10
716.2644559588038
 20
-46.65123909088083
 30
0.0
 10
719.1227259519433
 20
-46.59791925240074
 30
0.0
 10
720.5709778131236
 20
-46.5837781517946
 30
0.0
 10
722.0324247729836
 20
-46.58225420458234
 30
0.0
  0
SPLINE
  5
EFB5
330
17
100
AcDbEntity
  8
1外形線
100
AcDbSpline
210
0.0
220
0.0
230
1.0
 70
     8
 71
     3
 72
    28
 73
    24
 74
     0
 42
0.000000001
 43
0.0000000001
 40
0.0
 40
0.0
 40
0.0
 40
0.0
 40
0.1250000000000003
 40
0.1250000000000003
 40
0.1875000000000002
 40
0.1875000000000002
 40
0.2500000000000002
 40
0.2500000000000002
 40
0.3750000000000002
 40
0.3750000000000002
 40
0.4375000000000001
 40
0.4375000000000001
 40
0.5
 40
0.5
 40
0.6250000000000002
 40
0.6250000000000002
 40
0.6875000000000002
 40
0.6875000000000002
 40
0.7500000000000001
 40
0.7500000000000001
 40
0.875
 40
0.875
 40
1.0
 40
1.0
 40
1.0
 40
1.0
 10
779.5484037555065
 20
47.62964232035687
 30
0.0
 10
779.5730282613508
 20
47.49969715731299
 30
0.0
 10
779.7371493411478
 20
47.37207865593359
 30
0.0
 10
780.1840644558756
 20
47.18399893538685
 30
0.0
 10
780.3667308626204
 20
47.12186768872584
 30
0.0
 10
780.8008754763282
 20
46.99875290658588
 30
0.0
 10
781.0538634454855
 20
46.93751110587823
 30
0.0
 10
781.9023778391633
 20
46.7591934254599
 30
0.0
 10
782.5887898536088
 20
46.64650480067416
 30
0.0
 10
783.7970653426741
 20
46.48663119802608
 30
0.0
 10
784.2298014698386
 20
46.43487687748188
 30
0.0
 10
785.1573719647781
 20
46.33455186239939
 30
0.0
 10
785.6458005500276
 20
46.28668670991669
 30
0.0
 10
787.1772270595934
 20
46.15031235802439
 30
0.0
 10
788.2880851743607
 20
46.06870816583091
 30
0.0
 10
790.0910713931002
 20
45.96046035000131
 30
0.0
 10
790.7182968461852
 20
45.9266181022324
 30
0.0
 10
791.9949593450614
 20
45.86508179531324
 30
0.0
 10
792.646113096252
 20
45.83724664648821
 30
0.0
 10
794.6372182323098
 20
45.76235181935977
 30
0.0
 10
796.0144559588038
 20
45.72382097691684
 30
0.0
 10
798.8727259519359
 20
45.67050113843674
 30
0.0
 10
800.3209778131163
 20
45.65636003783242
 30
0.0
 10
801.78242477298
 20
45.65483609062016
 30
0.0
  0
SPLINE
  5
EFB6
330
17
100
AcDbEntity
  8
1外形線
100
AcDbSpline
210
0.0
220
0.0
230
1.0
 70
     8
 71
     3
 72
     8
 73
     4
 74
     0
 42
0.000000001
 43
0.0000000001
 40
0.0
 40
0.0
 40
0.0
 40
0.0
 40
0.4587628865009532
 40
0.4587628865009532
 40
0.4587628865009532
 40
0.4587628865009532
 10
801.78242477298
 20
45.65483609062016
 30
0.0
 10
807.9011747568834
 20
45.64845566612916
 30
0.0
 10
814.0199247407876
 20
45.6450023435957
 30
0.0
 10
820.1386747246919
 20
45.64447612301797
 30
0.0
  0
SPLINE
  5
EFB7
330
17
100
AcDbEntity
  8
1外形線
100
AcDbSpline
210
0.0
220
0.0
230
1.0
 70
     8
 71
     3
 72
     8
 73
     4
 74
     0
 42
0.000000001
 43
0.0000000001
 40
0.5412371135045726
 40
0.5412371135045726
 40
0.5412371135045726
 40
0.5412371135045726
 40
1.0
 40
1.0
 40
1.0
 40
1.0
 10
823.4386747246912
 20
45.64447612301797
 30
0.0
 10
829.5574247085223
 20
45.6450023435957
 30
0.0
 10
835.6761746923535
 20
45.64845566612916
 30
0.0
 10
841.794924676185
 20
45.65483609062016
 30
0.0
  0
SPLINE
  5
EFB8
330
17
100
AcDbEntity
  8
1外形線
100
AcDbSpline
210
0.0
220
0.0
230
1.0
 70
     8
 71
     3
 72
    28
 73
    24
 74
     0
 42
0.000000001
 43
0.0000000001
 40
0.0
 40
0.0
 40
0.0
 40
0.0
 40
0.1250000000000002
 40
0.1250000000000002
 40
0.1875000000000002
 40
0.1875000000000002
 40
0.2500000000000003
 40
0.2500000000000003
 40
0.3750000000000007
 40
0.3750000000000007
 40
0.4375000000000007
 40
0.4375000000000007
 40
0.5000000000000007
 40
0.5000000000000007
 40
0.6250000000000001
 40
0.6250000000000001
 40
0.6875000000000001
 40
0.6875000000000001
 40
0.7500000000000001
 40
0.7500000000000001
 40
0.875
 40
0.875
 40
1.0
 40
1.0
 40
1.0
 40
1.0
 10
841.794924676185
 20
45.65483609062016
 30
0.0
 10
843.2562504995871
 20
45.65635991151452
 30
0.0
 10
844.6917840718665
 20
45.67044958462452
 30
0.0
 10
846.8080070886166
 20
45.70964798463705
 30
0.0
 10
847.5071906193038
 20
45.72574648776049
 30
0.0
 10
848.8928490462745
 20
45.76413507538768
 30
0.0
 10
849.5818654085447
 20
45.78654979925182
 30
0.0
 10
851.5869861099995
 20
45.86179607419057
 30
0.0
 10
852.8542819966892
 20
45.92280419358234
 30
0.0
 10
854.6525713404257
 20
46.03034457559101
 30
0.0
 10
855.2352829521728
 20
46.06891816146912
 30
0.0
 10
856.3629636918735
 20
46.15148211786823
 30
0.0
 10
856.8997114994923
 20
46.19486308884211
 30
0.0
 10
858.4314929470306
 20
46.33108483320052
 30
0.0
 10
859.3487683746529
 20
46.42994991407454
 30
0.0
 10
860.5666996574578
 20
46.59048715955418
 30
0.0
 10
860.9470920321614
 20
46.64626640671326
 30
0.0
 10
861.6385943738528
 20
46.75965977775945
 30
0.0
 10
861.9518149619029
 20
46.81751392866158
 30
0.0
 10
862.7958757634583
 20
46.99447794367211
 30
0.0
 10
863.2322605063377
 20
47.11705772235496
 30
0.0
 10
863.8400416631515
 20
47.37120410364537
 30
0.0
 10
864.0043231925661
 20
47.49970773540212
 30
0.0
 10
864.0289456938804
 20
47.62964232035687
 30
0.0
  0
SPLINE
  5
EFB9
330
17
100
AcDbEntity
  8
1外形線
100
AcDbSpline
210
0.0
220
0.0
230
1.0
 70
     8
 71
     3
 72
    28
 73
    24
 74
     0
 42
0.000000001
 43
0.0000000001
 40
0.0
 40
0.0
 40
0.0
 40
0.0
 40
0.1249999999999996
 40
0.1249999999999996
 40
0.1874999999999994
 40
0.1874999999999994
 40
0.2499999999999992
 40
0.2499999999999992
 40
0.3750000000000002
 40
0.3750000000000002
 40
0.4375000000000001
 40
0.4375000000000001
 40
0.5
 40
0.5
 40
0.6250000000000002
 40
0.6250000000000002
 40
0.6875000000000002
 40
0.6875000000000002
 40
0.7500000000000004
 40
0.7500000000000004
 40
0.8750000000000001
 40
0.8750000000000001
 40
1.0
 40
1.0
 40
1.0
 40
1.0
 10
921.5449246761814
 20
-46.58225575400297
 30
0.0
 10
923.0062504974407
 20
-46.58377960808297
 30
0.0
 10
924.4417840674355
 20
-46.59786930879795
 30
0.0
 10
926.5580070806132
 20
-46.63706774079559
 30
0.0
 10
927.2571906100816
 20
-46.65316625300124
 30
0.0
 10
928.6428490345819
 20
-46.69155485533678
 30
0.0
 10
929.3318653958335
 20
-46.71396958483069
 30
0.0
 10
931.3369860950983
 20
-46.78921587082164
 30
0.0
 10
932.6042819805476
 20
-46.85022398998057
 30
0.0
 10
934.4025713228251
 20
-46.95776435954917
 30
0.0
 10
934.9852829334555
 20
-46.99633793919725
 30
0.0
 10
936.1129636739638
 20
-47.0789018791163
 30
0.0
 10
936.6497114820226
 20
-47.12228283986019
 30
0.0
 10
938.1814929309761
 20
-47.25850454772239
 30
0.0
 10
939.0987683596682
 20
-47.35736959655127
 30
0.0
 10
940.3166996442628
 20
-47.51790678247357
 30
0.0
 10
940.6970920200979
 20
-47.57368600783024
 30
0.0
 10
941.3885943642739
 20
-47.68707933249402
 30
0.0
 10
941.7018149534447
 20
-47.74493345869245
 30
0.0
 10
942.5458757580122
 20
-47.92189739538094
 30
0.0
 10
942.9822605019504
 20
-48.04447711597799
 30
0.0
 10
943.5900416622203
 20
-48.29862337211284
 30
0.0
 10
943.7543231924969
 20
-48.42712693790395
 30
0.0
 10
943.7789456938803
 20
-48.55706145445743
 30
0.0
  0
SPLINE
  5
EFBA
330
17
100
AcDbEntity
  8
1外形線
100
AcDbSpline
210
0.0
220
0.0
230
1.0
 70
     8
 71
     3
 72
     8
 73
     4
 74
     0
 42
0.000000001
 43
0.0000000001
 40
0.0
 40
0.0
 40
0.0
 40
0.0
 40
0.458762886494989
 40
0.458762886494989
 40
0.458762886494989
 40
0.458762886494989
 10
881.5324247729799
 20
-46.58225482622379
 30
0.0
 10
887.6511747569539
 20
-46.57587454445615
 30
0.0
 10
893.7699247408591
 20
-46.57242136520813
 30
0.0
 10
899.8886747246956
 20
-46.57189528717004
 30
0.0
  0
SPLINE
  5
EFBB
330
17
100
AcDbEntity
  8
1外形線
100
AcDbSpline
210
0.0
220
0.0
230
1.0
 70
     8
 71
     3
 72
     8
 73
     4
 74
     0
 42
0.000000001
 43
0.0000000001
 40
0.5412371134986194
 40
0.5412371134986194
 40
0.5412371134986194
 40
0.5412371134986194
 40
1.0
 40
1.0
 40
1.0
 40
1.0
 10
903.1886747246948
 20
-46.57189536396413
 30
0.0
 10
909.3074247085919
 20
-46.57242172677046
 30
0.0
 10
915.4261746924207
 20
-46.57587519055391
 30
0.0
 10
921.5449246761814
 20
-46.58225575400297
 30
0.0
  0
SPLINE
  5
EFBC
330
17
100
AcDbEntity
  8
1外形線
100
AcDbSpline
210
0.0
220
0.0
230
1.0
 70
     8
 71
     3
 72
    28
 73
    24
 74
     0
 42
0.000000001
 43
0.0000000001
 40
0.0
 40
0.0
 40
0.0
 40
0.0
 40
0.1250000000000007
 40
0.1250000000000007
 40
0.1875000000000008
 40
0.1875000000000008
 40
0.250000000000001
 40
0.250000000000001
 40
0.3750000000000015
 40
0.3750000000000015
 40
0.4375000000000017
 40
0.4375000000000017
 40
0.5000000000000017
 40
0.5000000000000017
 40
0.6250000000000015
 40
0.6250000000000015
 40
0.6875000000000011
 40
0.6875000000000011
 40
0.7500000000000008
 40
0.7500000000000008
 40
0.8750000000000003
 40
0.8750000000000003
 40
1.0
 40
1.0
 40
1.0
 40
1.0
 10
859.2984037555066
 20
-48.55706048929437
 30
0.0
 10
859.3230282613435
 20
-48.42711533036322
 30
0.0
 10
859.4871493409842
 20
-48.2994968345572
 30
0.0
 10
859.9340644554317
 20
-48.11141712579751
 30
0.0
 10
860.1167308620819
 20
-48.04928588364032
 30
0.0
 10
860.5508754756151
 20
-47.92617111189042
 30
0.0
 10
860.8038634446925
 20
-47.86492931710722
 30
0.0
 10
861.6523778381374
 20
-47.68661165653407
 30
0.0
 10
862.3387898524921
 20
-47.57392304778091
 30
0.0
 10
863.5470653417355
 20
-47.4140494742312
 30
0.0
 10
863.9798014690054
 20
-47.36229516422986
 30
0.0
 10
864.9073719643125
 20
-47.26197017207027
 30
0.0
 10
865.3958005496091
 20
-47.21410503183301
 30
0.0
 10
866.9272270596479
 20
-47.07773071878887
 30
0.0
 10
868.0380851748664
 20
-46.99612655541727
 30
0.0
 10
869.8410713945481
 20
-46.88787878695779
 30
0.0
 10
870.4682968479133
 20
-46.85403655575441
 30
0.0
 10
871.7449593469714
 20
-46.79250028260116
 30
0.0
 10
872.3961130982566
 20
-46.76466515100196
 30
0.0
 10
874.3872182345798
 20
-46.68977037635136
 30
0.0
 10
875.7644559612522
 20
-46.65123956995535
 30
0.0
 10
878.6227259546826
 20
-46.59791980415116
 30
0.0
 10
880.0709778141932
 20
-46.58377873934637
 30
0.0
 10
881.5324247729799
 20
-46.58225482622379
 30
0.0
  0
SPLINE
  5
EFFF
330
17
100
AcDbEntity
  8
1外形線
100
AcDbSpline
210
0.0
220
0.0
230
1.0
 70
     8
 71
     3
 72
    28
 73
    24
 74
     0
 42
0.000000001
 43
0.0000000001
 40
0.0
 40
0.0
 40
0.0
 40
0.0
 40
0.1250000000000002
 40
0.1250000000000002
 40
0.1875000000000005
 40
0.1875000000000005
 40
0.2500000000000008
 40
0.2500000000000008
 40
0.3750000000000013
 40
0.3750000000000013
 40
0.4375000000000019
 40
0.4375000000000019
 40
0.5000000000000025
 40
0.5000000000000025
 40
0.6250000000000028
 40
0.6250000000000028
 40
0.6875000000000028
 40
0.6875000000000028
 40
0.7500000000000029
 40
0.7500000000000029
 40
0.8750000000000014
 40
0.8750000000000014
 40
1.0
 40
1.0
 40
1.0
 40
1.0
 10
699.7984037555029
 20
-50.56501654815815
 30
0.0
 10
699.8230282613544
 20
-50.43507138511427
 30
0.0
 10
699.9871493411514
 20
-50.30745288373305
 30
0.0
 10
700.4340644558756
 20
-50.11937316318813
 30
0.0
 10
700.6167308626204
 20
-50.05724191652712
 30
0.0
 10
701.0508754763281
 20
-49.93412713438715
 30
0.0
 10
701.3038634454856
 20
-49.87288533367769
 30
0.0
 10
702.152377839167
 20
-49.69456765326118
 30
0.0
 10
702.8387898536088
 20
-49.58187902847726
 30
0.0
 10
704.0470653426742
 20
-49.42200542582736
 30
0.0
 10
704.4798014698385
 20
-49.37025110528134
 30
0.0
 10
705.4073719647781
 20
-49.26992609019885
 30
0.0
 10
705.8958005500312
 20
-49.22206093771979
 30
0.0
 10
707.4272270595933
 20
-49.08568658582566
 30
0.0
 10
708.5380851743607
 20
-49.004082393634
 30
0.0
 10
710.3410713931002
 20
-48.89583457780623
 30
0.0
 10
710.9682968461852
 20
-48.86199233003367
 30
0.0
 10
712.2449593450615
 20
-48.80045602311452
 30
0.0
 10
712.8961130962593
 20
-48.77262087428949
 30
0.0
 10
714.8872182323097
 20
-48.69772604716104
 30
0.0
 10
716.2644559588038
 20
-48.65919520471994
 30
0.0
 10
719.1227259519433
 20
-48.60587536623985
 30
0.0
 10
720.5709778131236
 20
-48.5917342656337
 30
0.0
 10
722.0324247729836
 20
-48.59021031842144
 30
0.0
  0
SPLINE
  5
F000
330
17
100
AcDbEntity
  8
1外形線
100
AcDbSpline
210
0.0
220
0.0
230
1.0
 70
     8
 71
     3
 72
    28
 73
    24
 74
     0
 42
0.000000001
 43
0.0000000001
 40
0.0
 40
0.0
 40
0.0
 40
0.0
 40
0.1249999999999997
 40
0.1249999999999997
 40
0.1874999999999997
 40
0.1874999999999997
 40
0.2499999999999996
 40
0.2499999999999996
 40
0.3750000000000001
 40
0.3750000000000001
 40
0.4375000000000004
 40
0.4375000000000004
 40
0.5000000000000006
 40
0.5000000000000006
 40
0.6250000000000002
 40
0.6250000000000002
 40
0.6875000000000001
 40
0.6875000000000001
 40
0.7500000000000001
 40
0.7500000000000001
 40
0.875
 40
0.875
 40
1.0
 40
1.0
 40
1.0
 40
1.0
 10
779.5484037555065
 20
49.63759843419779
 30
0.0
 10
779.5730282613508
 20
49.50765327115391
 30
0.0
 10
779.7371493411478
 20
49.38003476977269
 30
0.0
 10
780.1840644558756
 20
49.19195504922413
 30
0.0
 10
780.3667308626204
 20
49.12982380256313
 30
0.0
 10
780.8008754763282
 20
49.00670902042498
 30
0.0
 10
781.0538634454855
 20
48.94546721971369
 30
0.0
 10
781.9023778391633
 20
48.76714953929718
 30
0.0
 10
782.5887898536088
 20
48.65446091451326
 30
0.0
 10
783.7970653426741
 20
48.494587311867
 30
0.0
 10
784.2298014698386
 20
48.44283299132098
 30
0.0
 10
785.1573719647781
 20
48.34250797623849
 30
0.0
 10
785.6458005500276
 20
48.29464282375579
 30
0.0
 10
787.1772270595934
 20
48.15826847186349
 30
0.0
 10
788.2880851743607
 20
48.07666427967001
 30
0.0
 10
790.0910713931002
 20
47.96841646384223
 30
0.0
 10
790.7182968461852
 20
47.93457421606968
 30
0.0
 10
791.9949593450614
 20
47.87303790915053
 30
0.0
 10
792.646113096252
 20
47.84520276032731
 30
0.0
 10
794.6372182323098
 20
47.77030793319887
 30
0.0
 10
796.0144559588038
 20
47.73177709075594
 30
0.0
 10
798.8727259519359
 20
47.67845725227584
 30
0.0
 10
800.32097781312
 20
47.66431615166971
 30
0.0
 10
801.78242477298
 20
47.66279220445745
 30
0.0
  0
SPLINE
  5
F001
330
17
100
AcDbEntity
  8
1外形線
100
AcDbSpline
210
0.0
220
0.0
230
1.0
 70
     8
 71
     3
 72
    28
 73
    24
 74
     0
 42
0.000000001
 43
0.0000000001
 40
0.0
 40
0.0
 40
0.0
 40
0.0
 40
0.1250000000000001
 40
0.1250000000000001
 40
0.1875000000000001
 40
0.1875000000000001
 40
0.2500000000000001
 40
0.2500000000000001
 40
0.3750000000000004
 40
0.3750000000000004
 40
0.4375000000000002
 40
0.4375000000000002
 40
0.5000000000000001
 40
0.5000000000000001
 40
0.6249999999999999
 40
0.6249999999999999
 40
0.6874999999999999
 40
0.6874999999999999
 40
0.7499999999999999
 40
0.7499999999999999
 40
0.8749999999999998
 40
0.8749999999999998
 40
1.0
 40
1.0
 40
1.0
 40
1.0
 10
859.2984037555066
 20
-50.56501660266963
 30
0.0
 10
859.3230282613435
 20
-50.43507144373666
 30
0.0
 10
859.4871493409842
 20
-50.30745294791245
 30
0.0
 10
859.934064455439
 20
-50.11937323911275
 30
0.0
 10
860.1167308620819
 20
-50.05724199693919
 30
0.0
 10
860.5508754756188
 20
-49.93412722514745
 30
0.0
 10
860.8038634446998
 20
-49.87288543033878
 30
0.0
 10
861.6523778381411
 20
-49.69456776968923
 30
0.0
 10
862.3387898524956
 20
-49.5818791608724
 30
0.0
 10
863.5470653417355
 20
-49.4220055872081
 30
0.0
 10
863.9798014690091
 20
-49.37025127716492
 30
0.0
 10
864.9073719643125
 20
-49.26992628491802
 30
0.0
 10
865.3958005496091
 20
-49.22206114463347
 30
0.0
 10
866.9272270596479
 20
-49.0856868314438
 30
0.0
 10
868.0380851748664
 20
-49.00408266796489
 30
0.0
 10
869.8410713945445
 20
-48.89583489933261
 30
0.0
 10
870.4682968479096
 20
-48.86199266807103
 30
0.0
 10
871.7449593469606
 20
-48.80045639479408
 30
0.0
 10
872.3961130982493
 20
-48.77262126313485
 30
0.0
 10
874.3872182345725
 20
-48.69772648829144
 30
0.0
 10
875.7644559612449
 20
-48.65919568176628
 30
0.0
 10
878.6227259546754
 20
-48.60587591568924
 30
0.0
 10
880.0709778141895
 20
-48.59173485074802
 30
0.0
 10
881.5324247729799
 20
-48.59021093748902
 30
0.0
  0
SPLINE
  5
F002
330
17
100
AcDbEntity
  8
1外形線
100
AcDbSpline
210
0.0
220
0.0
230
1.0
 70
     8
 71
     3
 72
    28
 73
    24
 74
     0
 42
0.000000001
 43
0.0000000001
 40
0.0
 40
0.0
 40
0.0
 40
0.0
 40
0.1250000000000008
 40
0.1250000000000008
 40
0.1875000000000012
 40
0.1875000000000012
 40
0.2500000000000017
 40
0.2500000000000017
 40
0.3750000000000014
 40
0.3750000000000014
 40
0.4375000000000014
 40
0.4375000000000014
 40
0.5000000000000013
 40
0.5000000000000013
 40
0.6250000000000011
 40
0.6250000000000011
 40
0.6875000000000008
 40
0.6875000000000008
 40
0.7500000000000006
 40
0.7500000000000006
 40
0.8750000000000003
 40
0.8750000000000003
 40
1.0
 40
1.0
 40
1.0
 40
1.0
 10
921.5449246761814
 20
-48.5902118615138
 30
0.0
 10
923.0062504974371
 20
-48.59173571545557
 30
0.0
 10
924.4417840674282
 20
-48.60582541603776
 30
0.0
 10
926.5580070806022
 20
-48.64502384783714
 30
0.0
 10
927.2571906100706
 20
-48.66112235998094
 30
0.0
 10
928.6428490345711
 20
-48.69951096218733
 30
0.0
 10
929.3318653958262
 20
-48.72192569161757
 30
0.0
 10
931.3369860950912
 20
-48.79717197741934
 30
0.0
 10
932.6042819805403
 20
-48.85818009646186
 30
0.0
 10
934.4025713228178
 20
-48.96572046586311
 30
0.0
 10
934.9852829334482
 20
-49.00429404545661
 30
0.0
 10
936.1129636739601
 20
-49.08685798527017
 30
0.0
 10
936.6497114820189
 20
-49.13023894596131
 30
0.0
 10
938.1814929309761
 20
-49.26646065367981
 30
0.0
 10
939.0987683596717
 20
-49.36532570242139
 30
0.0
 10
940.3166996442664
 20
-49.52586288822544
 30
0.0
 10
940.6970920201015
 20
-49.58164211354392
 30
0.0
 10
941.3885943642812
 20
-49.69503543813857
 30
0.0
 10
941.7018149534447
 20
-49.75288956430791
 30
0.0
 10
942.5458757580159
 20
-49.92985350091089
 30
0.0
 10
942.9822605019539
 20
-50.0524332214643
 30
0.0
 10
943.5900416622203
 20
-50.3065794775373
 30
0.0
 10
943.7543231924969
 20
-50.43508304330839
 30
0.0
 10
943.7789456938803
 20
-50.56501755985459
 30
0.0
  0
SPLINE
  5
F003
330
17
100
AcDbEntity
  8
1外形線
100
AcDbSpline
210
0.0
220
0.0
230
1.0
 70
     8
 71
     3
 72
    28
 73
    24
 74
     0
 42
0.000000001
 43
0.0000000001
 40
0.0
 40
0.0
 40
0.0
 40
0.0
 40
0.1249999999999996
 40
0.1249999999999996
 40
0.1874999999999993
 40
0.1874999999999993
 40
0.2499999999999991
 40
0.2499999999999991
 40
0.3749999999999992
 40
0.3749999999999992
 40
0.4374999999999993
 40
0.4374999999999993
 40
0.4999999999999993
 40
0.4999999999999993
 40
0.625
 40
0.625
 40
0.6875000000000001
 40
0.6875000000000001
 40
0.7500000000000001
 40
0.7500000000000001
 40
0.875
 40
0.875
 40
1.0
 40
1.0
 40
1.0
 40
1.0
 10
762.044924676185
 20
-48.59021031842144
 30
0.0
 10
763.5062504995872
 20
-48.59173413931398
 30
0.0
 10
764.9417840718665
 20
-48.60582381242579
 30
0.0
 10
767.0580070886167
 20
-48.64502221243651
 30
0.0
 10
767.7571906193001
 20
-48.66112071556177
 30
0.0
 10
769.1428490462745
 20
-48.69950930318896
 30
0.0
 10
769.8318654085446
 20
-48.72192402705309
 30
0.0
 10
771.8369861100032
 20
-48.79717030199185
 30
0.0
 10
773.1042819966855
 20
-48.85817842138727
 30
0.0
 10
774.9025713404257
 20
-48.96571880339411
 30
0.0
 10
775.4852829521728
 20
-49.00429238926858
 30
0.0
 10
776.6129636918735
 20
-49.08685634567132
 30
0.0
 10
777.1497114994923
 20
-49.13023731664338
 30
0.0
 10
778.6814929470306
 20
-49.2664590610018
 30
0.0
 10
779.5987683746529
 20
-49.36532414187581
 30
0.0
 10
780.8166996574578
 20
-49.52586138735364
 30
0.0
 10
781.1970920321614
 20
-49.58164063451272
 30
0.0
 10
781.8885943738491
 20
-49.69503400556073
 30
0.0
 10
782.2018149619029
 20
-49.75288815646286
 30
0.0
 10
783.0458757634619
 20
-49.92985217147339
 30
0.0
 10
783.4822605063378
 20
-50.05243195015623
 30
0.0
 10
784.0900416631552
 20
-50.30657833144847
 30
0.0
 10
784.254323192566
 20
-50.4350819632034
 30
0.0
 10
784.2789456938767
 20
-50.56501654816179
 30
0.0
  0
SPLINE
  5
F004
330
17
100
AcDbEntity
  8
1外形線
100
AcDbSpline
210
0.0
220
0.0
230
1.0
 70
     8
 71
     3
 72
    28
 73
    24
 74
     0
 42
0.000000001
 43
0.0000000001
 40
0.0
 40
0.0
 40
0.0
 40
0.0
 40
0.1249999999999996
 40
0.1249999999999996
 40
0.1874999999999993
 40
0.1874999999999993
 40
0.2499999999999989
 40
0.2499999999999989
 40
0.3749999999999986
 40
0.3749999999999986
 40
0.4374999999999984
 40
0.4374999999999984
 40
0.4999999999999984
 40
0.4999999999999984
 40
0.6249999999999983
 40
0.6249999999999983
 40
0.6874999999999983
 40
0.6874999999999983
 40
0.7499999999999984
 40
0.7499999999999984
 40
0.8749999999999992
 40
0.8749999999999992
 40
1.0
 40
1.0
 40
1.0
 40
1.0
 10
841.794924676185
 20
47.66279220445745
 30
0.0
 10
843.2562504995871
 20
47.6643160253518
 30
0.0
 10
844.6917840718665
 20
47.67840569846362
 30
0.0
 10
846.8080070886166
 20
47.71760409847433
 30
0.0
 10
847.5071906193038
 20
47.73370260159959
 30
0.0
 10
848.8928490462745
 20
47.77209118922678
 30
0.0
 10
849.5818654085447
 20
47.7945059130891
 30
0.0
 10
851.5869861099995
 20
47.86975218803149
 30
0.0
 10
852.8542819966892
 20
47.93076030742327
 30
0.0
 10
854.6525713404257
 20
48.03830068943011
 30
0.0
 10
855.2352829521728
 20
48.07687427530641
 30
0.0
 10
856.3629636918735
 20
48.15943823170733
 30
0.0
 10
856.8997114994923
 20
48.20281920268121
 30
0.0
 10
858.4314929470306
 20
48.33904094703962
 30
0.0
 10
859.3487683746529
 20
48.43790602791364
 30
0.0
 10
860.5666996574578
 20
48.59844327339328
 30
0.0
 10
860.9470920321614
 20
48.65422252055236
 30
0.0
 10
861.6385943738528
 20
48.76761589159674
 30
0.0
 10
861.9518149619029
 20
48.82547004249886
 30
0.0
 10
862.7958757634583
 20
49.00243405751121
 30
0.0
 10
863.2322605063377
 20
49.12501383619406
 30
0.0
 10
863.8400416631515
 20
49.37916021748447
 30
0.0
 10
864.0043231925661
 20
49.50766384923941
 30
0.0
 10
864.0289456938804
 20
49.63759843419779
 30
0.0
  0
SPLINE
  5
F005
330
17
100
AcDbEntity
  8
1外形線
100
AcDbSpline
210
0.0
220
0.0
230
1.0
 70
     8
 71
     3
 72
     8
 73
     4
 74
     0
 42
0.000000001
 43
0.0000000001
 40
0.0
 40
0.0
 40
0.0
 40
0.0
 40
0.4589098903218432
 40
0.4589098903218432
 40
0.4589098903218432
 40
0.4589098903218432
 10
722.0324247729836
 20
-48.59021031842144
 30
0.0
 10
728.1531354203434
 20
-48.58382784941728
 30
0.0
 10
734.2738460677037
 20
-48.58037435856363
 30
0.0
 10
740.3945567150644
 20
-48.57984984586233
 30
0.0
  0
SPLINE
  5
F006
330
17
100
AcDbEntity
  8
1外形線
100
AcDbSpline
210
0.0
220
0.0
230
1.0
 70
     8
 71
     3
 72
     8
 73
     4
 74
     0
 42
0.000000001
 43
0.0000000001
 40
0.541090109683567
 40
0.541090109683567
 40
0.541090109683567
 40
0.541090109683567
 40
1.0
 40
1.0
 40
1.0
 40
1.0
 10
743.6827927343206
 20
-48.57984984586233
 30
0.0
 10
749.8035033816091
 20
-48.58037435856545
 30
0.0
 10
755.9242140288975
 20
-48.58382784941728
 30
0.0
 10
762.044924676185
 20
-48.59021031842144
 30
0.0
  0
SPLINE
  5
F007
330
17
100
AcDbEntity
  8
1外形線
100
AcDbSpline
210
0.0
220
0.0
230
1.0
 70
     8
 71
     3
 72
     8
 73
     4
 74
     0
 42
0.000000001
 43
0.0000000001
 40
0.0
 40
0.0
 40
0.0
 40
0.0
 40
0.4589557056497262
 40
0.4589557056497262
 40
0.4589557056497262
 40
0.4589557056497262
 10
801.78242477298
 20
47.66279220445745
 30
0.0
 10
807.9037464822741
 20
47.65640909825947
 30
0.0
 10
814.0250681915686
 20
47.65295555507168
 30
0.0
 10
820.1463899008636
 20
47.65243157489408
 30
0.0
  0
SPLINE
  5
F008
330
17
100
AcDbEntity
  8
1外形線
100
AcDbSpline
210
0.0
220
0.0
230
1.0
 70
     8
 71
     3
 72
     8
 73
     4
 74
     0
 42
0.000000001
 43
0.0000000001
 40
0.5410442943560277
 40
0.5410442943560277
 40
0.5410442943560277
 40
0.5410442943560277
 40
1.0
 40
1.0
 40
1.0
 40
1.0
 10
823.4309595485287
 20
47.65243157489408
 30
0.0
 10
829.5522812577473
 20
47.6529555550735
 30
0.0
 10
835.673602966966
 20
47.65640909826129
 30
0.0
 10
841.794924676185
 20
47.66279220445745
 30
0.0
  0
SPLINE
  5
F009
330
17
100
AcDbEntity
  8
1外形線
100
AcDbSpline
210
0.0
220
0.0
230
1.0
 70
     8
 71
     3
 72
     8
 73
     4
 74
     0
 42
0.000000001
 43
0.0000000001
 40
0.0
 40
0.0
 40
0.0
 40
0.0
 40
0.4589098931638613
 40
0.4589098931638613
 40
0.4589098931638613
 40
0.4589098931638613
 10
881.5324247729799
 20
-48.59021093748902
 30
0.0
 10
887.6531354583953
 20
-48.58382861063706
 30
0.0
 10
893.7738461437421
 20
-48.58037526253951
 30
0.0
 10
899.8945568290196
 20
-48.57985089188128
 30
0.0
  0
SPLINE
  5
F00A
330
17
100
AcDbEntity
  8
1外形線
100
AcDbSpline
210
0.0
220
0.0
230
1.0
 70
     8
 71
     3
 72
     8
 73
     4
 74
     0
 42
0.000000001
 43
0.0000000001
 40
0.5410901066220096
 40
0.5410901066220096
 40
0.5410901066220096
 40
0.5410901066220096
 40
1.0
 40
1.0
 40
1.0
 40
1.0
 10
903.1827926120591
 20
-48.57985096809329
 30
0.0
 10
909.3035033001683
 20
-48.58037562246295
 30
0.0
 10
915.4242139882089
 20
-48.5838292540409
 30
0.0
 10
921.5449246761814
 20
-48.5902118615138
 30
0.0
  0
LINE
  5
F01C
330
17
100
AcDbEntity
  8
1外形線
100
AcDbLine
 10
742.5386692900351
 20
-18.35899501867948
 30
0.0
 11
742.5386692900351
 21
-12.49493873534243
 31
0.0
  0
LINE
  5
F01D
330
17
100
AcDbEntity
  8
1外形線
100
AcDbLine
 10
741.5386692900315
 20
-13.35800841927425
 30
0.0
 11
741.5386692900315
 21
-18.35899501867948
 31
0.0
  0
LINE
  5
F01E
330
17
100
AcDbEntity
  8
1外形線
100
AcDbLine
 10
784.2789456938767
 20
-50.56501654816179
 30
0.0
 11
784.2789456938767
 21
-48.55706043432087
 31
0.0
  0
LINE
  5
F01F
330
17
100
AcDbEntity
  8
1外形線
100
AcDbLine
 10
943.7789456938803
 20
-50.56501755985459
 30
0.0
 11
943.7789456938803
 21
-48.55706145445743
 31
0.0
  0
LINE
  5
F020
330
17
100
AcDbEntity
  8
1外形線
100
AcDbLine
 10
699.7984037555029
 20
-50.56501654815815
 30
0.0
 11
699.7984037555029
 21
-48.55706043432087
 31
0.0
  0
LINE
  5
F021
330
17
100
AcDbEntity
  8
1外形線
100
AcDbLine
 10
859.2984037555066
 20
-50.56501660266963
 30
0.0
 11
859.2984037555066
 21
-48.55706048929437
 31
0.0
  0
LINE
  5
F022
330
17
100
AcDbEntity
  8
1外形線
100
AcDbLine
 10
864.0289456938804
 20
49.63759843419779
 30
0.0
 11
864.0289456938804
 21
47.62964232035687
 31
0.0
  0
LINE
  5
F023
330
17
100
AcDbEntity
  8
1外形線
100
AcDbLine
 10
779.5484037555065
 20
49.63759843419779
 30
0.0
 11
779.5484037555065
 21
47.62964232035687
 31
0.0
  0
ARC
  5
F12D
330
17
100
AcDbEntity
  8
1外形線
 48
3.0
100
AcDbCircle
 10
821.7886678105546
 20
-1546.541430554105
 30
0.0
 40
1713.071979677416
100
AcDbArc
 50
89.33085138399473
 51
90.66914861600528
  0
LINE
  5
F130
330
17
100
AcDbEntity
  8
1外形線
100
AcDbLine
 10
779.548398371025
 20
144.2958960776252
 30
0.0
 11
779.1885948902304
 21
123.030545139851
 31
0.0
  0
LINE
  5
F131
330
17
100
AcDbEntity
  8
1外形線
100
AcDbLine
 10
670.7886747246917
 20
123.030545139851
 30
0.0
 11
779.1885948902304
 21
123.030545139851
 31
0.0
  0
ARC
  5
F132
330
17
100
AcDbEntity
  8
1外形線
100
AcDbCircle
 10
680.3621296560481
 20
174.030545139851
 30
0.0
 40
5.000000000000406
100
AcDbArc
 50
90.0
 51
174.897834601343
  0
ARC
  5
F133
330
17
100
AcDbEntity
  8
1外形線
100
AcDbCircle
 10
799.0386678105529
 20
174.030545139851
 30
0.0
 40
5.00000000000004
100
AcDbArc
 50
29.99999999999948
 51
90.0
  0
ARC
  5
F134
330
17
100
AcDbEntity
  8
1外形線
100
AcDbCircle
 10
807.6989218483973
 20
179.030545139851
 30
0.0
 40
5.000000000000005
100
AcDbArc
 50
209.9999999999995
 51
270.0000000000521
  0
LINE
  5
F135
330
17
100
AcDbEntity
  8
1外形線
100
AcDbLine
 10
789.6386674767668
 20
162.6066062098164
 30
0.0
 11
789.6386674767668
 21
125.5305451398492
 31
0.0
  0
LINE
  5
F137
330
17
100
AcDbEntity
  8
1外形線
100
AcDbLine
 10
1165.17490327905
 20
174.475243264975
 30
0.0
 11
1165.174877202018
 21
174.4752097373623
 31
0.0
  0
LINE
  5
F138
330
17
100
AcDbEntity
  8
1外形線
100
AcDbLine
 10
1055.768145507081
 20
123.030545139851
 30
0.0
 11
1075.768146922691
 21
123.030545139851
 31
0.0
  0
LINE
  5
F139
330
17
100
AcDbEntity
  8
1外形線
100
AcDbLine
 10
1075.768146922691
 20
123.030545139851
 30
0.0
 11
1149.768149411185
 21
123.030545139851
 31
0.0
  0
LINE
  5
F13A
330
17
100
AcDbEntity
  8
1外形線
100
AcDbLine
 10
1149.768149411185
 20
123.030545139851
 30
0.0
 11
1169.76814523886
 21
123.030545139851
 31
0.0
  0
ARC
  5
F13B
330
17
100
AcDbEntity
  8
1外形線
100
AcDbCircle
 10
1160.194724816657
 20
174.030545139851
 30
0.0
 40
5.000000120887737
100
AcDbArc
 50
5.10264243345878
 51
90.0
  0
ARC
  5
F13C
330
17
100
AcDbEntity
  8
1外形線
100
AcDbCircle
 10
1065.341608203725
 20
174.030545139851
 30
0.0
 40
4.99999999999994
100
AcDbArc
 50
90.0
 51
174.8978347476219
  0
LWPOLYLINE
  5
F13D
330
17
100
AcDbEntity
  8
1外形線
100
AcDbPolyline
 90
        2
 70
   128
 43
0.0
 10
1065.341608857615
 20
179.0305468683857
 10
1065.341608857615
 20
179.0305468683857
  0
LINE
  5
F13E
330
17
100
AcDbEntity
  8
1外形線
 48
3.0
100
AcDbLine
 10
670.7886747246917
 20
123.030545139851
 30
0.0
 11
675.3819411306108
 21
174.4752048424382
 31
0.0
  0
LINE
  5
F13F
330
17
100
AcDbEntity
  8
1外形線
 48
3.0
100
AcDbLine
 10
799.0386678105529
 20
179.030545139851
 30
0.0
 11
680.3621296560491
 21
179.030545139851
 31
0.0
  0
LINE
  5
F140
330
17
100
AcDbEntity
  8
1外形線
 48
3.0
100
AcDbLine
 10
784.6387393003638
 20
123.030545139851
 30
0.0
 11
821.7886678105529
 21
123.030545139851
 31
0.0
  0
LINE
  5
F143
330
17
100
AcDbEntity
  8
1外形線
100
AcDbLine
 10
864.0289372500843
 20
144.295896077627
 30
0.0
 11
864.3887407308788
 21
123.030545139851
 31
0.0
  0
LINE
  5
F144
330
17
100
AcDbEntity
  8
1外形線
100
AcDbLine
 10
972.7886608964176
 20
123.030545139851
 30
0.0
 11
864.3887407308788
 21
123.030545139851
 31
0.0
  0
ARC
  5
F145
330
17
100
AcDbEntity
  8
1外形線
100
AcDbCircle
 10
963.2152059650611
 20
174.030545139851
 30
0.0
 40
5.000000000000406
100
AcDbArc
 50
5.102165398656969
 51
90.0
  0
ARC
  5
F146
330
17
100
AcDbEntity
  8
1外形線
100
AcDbCircle
 10
844.5386678105565
 20
174.030545139851
 30
0.0
 40
5.00000000000004
100
AcDbArc
 50
90.0
 51
150.0000000000005
  0
ARC
  5
F147
330
17
100
AcDbEntity
  8
1外形線
100
AcDbCircle
 10
835.878413772712
 20
179.030545139851
 30
0.0
 40
5.000000000000005
100
AcDbArc
 50
270.0
 51
330.0000000000006
  0
LINE
  5
F148
330
17
100
AcDbEntity
  8
1外形線
100
AcDbLine
 10
853.9386681443424
 20
162.6066062098164
 30
0.0
 11
853.9386681443424
 21
125.5305451398501
 31
0.0
  0
LINE
  5
F14A
330
17
100
AcDbEntity
  8
1外形線
 48
3.0
100
AcDbLine
 10
972.7886608964176
 20
123.030545139851
 30
0.0
 11
968.1953945497893
 21
174.4752041783906
 31
0.0
  0
LINE
  5
F14B
330
17
100
AcDbEntity
  8
1外形線
 48
3.0
100
AcDbLine
 10
844.5386678105565
 20
179.030545139851
 30
0.0
 11
963.2152059650611
 21
179.030545139851
 31
0.0
  0
LINE
  5
F14C
330
17
100
AcDbEntity
  8
1外形線
 48
3.0
100
AcDbLine
 10
858.9385963207455
 20
123.030545139851
 30
0.0
 11
821.7886678105564
 21
123.030545139851
 31
0.0
  0
ARC
  5
F14D
330
17
100
AcDbEntity
  8
1外形線
100
AcDbCircle
 10
802.0451784523652
 20
143.9152571780544
 30
0.0
 40
22.5
100
AcDbArc
 50
90.66912575020637
 51
179.0306647614544
  0
ARC
  5
F14E
330
17
100
AcDbEntity
  8
1外形線
100
AcDbCircle
 10
841.5321571687432
 20
143.9152571780526
 30
0.0
 40
22.5
100
AcDbArc
 50
0.9693352385455717
 51
89.33087424979364
  0
SPLINE
  5
F14F
330
17
100
AcDbEntity
  8
1外形線
100
AcDbSpline
210
0.0
220
0.0
230
1.0
 70
     8
 71
     3
 72
     8
 73
     4
 74
     0
 42
0.000000001
 43
0.0000000001
 40
0.0
 40
0.0
 40
0.0
 40
0.0
 40
1.0
 40
1.0
 40
1.0
 40
1.0
 10
881.5324247729837
 20
334.3294955072163
 30
0.0
 10
894.8699247410401
 20
334.3155879254739
 30
0.0
 10
908.2074247087726
 20
334.3155882380108
 30
0.0
 10
921.5449246761814
 20
334.3294964312392
 30
0.0
  0
SPLINE
  5
F150
330
17
100
AcDbEntity
  8
1外形線
100
AcDbSpline
210
0.0
220
0.0
230
1.0
 70
     8
 71
     3
 72
    28
 73
    24
 74
     0
 42
0.000000001
 43
0.0000000001
 40
0.0
 40
0.0
 40
0.0
 40
0.0
 40
0.1249999999999996
 40
0.1249999999999996
 40
0.1874999999999994
 40
0.1874999999999994
 40
0.2499999999999993
 40
0.2499999999999993
 40
0.3749999999999989
 40
0.3749999999999989
 40
0.4374999999999989
 40
0.4374999999999989
 40
0.4999999999999987
 40
0.4999999999999987
 40
0.6249999999999988
 40
0.6249999999999988
 40
0.6874999999999992
 40
0.6874999999999992
 40
0.7499999999999995
 40
0.7499999999999995
 40
0.8749999999999998
 40
0.8749999999999998
 40
1.0
 40
1.0
 40
1.0
 40
1.0
 10
921.5449246761814
 20
334.3294964312392
 30
0.0
 10
923.0062504974371
 20
334.331020285181
 30
0.0
 10
924.4417840674318
 20
334.3451099857632
 30
0.0
 10
926.5580070806059
 20
334.3843084175644
 30
0.0
 10
927.2571906100743
 20
334.4004069297064
 30
0.0
 10
928.6428490345784
 20
334.4387955319128
 30
0.0
 10
929.33186539583
 20
334.461210261343
 30
0.0
 10
931.3369860950912
 20
334.5364565471484
 30
0.0
 10
932.6042819805403
 20
334.5974646661873
 30
0.0
 10
934.4025713228216
 20
334.7050050355885
 30
0.0
 10
934.9852829334517
 20
334.7435786151857
 30
0.0
 10
936.1129636739601
 20
334.8261425549956
 30
0.0
 10
936.6497114820189
 20
334.8695235156886
 30
0.0
 10
938.1814929309761
 20
335.0057452234052
 30
0.0
 10
939.0987683596717
 20
335.1046102721468
 30
0.0
 10
940.3166996442701
 20
335.2651474579509
 30
0.0
 10
940.6970920201015
 20
335.3209266832694
 30
0.0
 10
941.3885943642812
 20
335.4343200078677
 30
0.0
 10
941.701814953452
 20
335.4921741340334
 30
0.0
 10
942.5458757580159
 20
335.6691380706363
 30
0.0
 10
942.9822605019539
 20
335.7917177911897
 30
0.0
 10
943.5900416622203
 20
336.0458640472627
 30
0.0
 10
943.7543231924969
 20
336.1743676130338
 30
0.0
 10
943.7789456938803
 20
336.3043021295819
 30
0.0
  0
LINE
  5
F151
330
17
100
AcDbEntity
  8
1外形線
100
AcDbLine
 10
944.1387462875532
 20
338.2029928965514
 30
0.0
 11
943.7789456938803
 21
336.3043021295819
 31
0.0
  0
LINE
  5
F152
330
17
100
AcDbEntity
  8
1外形線
100
AcDbLine
 10
952.7778660826694
 20
338.2029928965514
 30
0.0
 11
944.1387462875532
 21
338.2029928965514
 31
0.0
  0
ARC
  5
F153
330
17
100
AcDbEntity
  8
1外形線
100
AcDbCircle
 10
952.7886747246952
 20
318.202995817179
 30
0.0
 40
20.00000000000005
100
AcDbArc
 50
0.0
 51
90.03096377187846
  0
LINE
  5
F154
330
17
100
AcDbEntity
  8
1外形線
100
AcDbLine
 10
972.7886747246953
 20
244.2029927175884
 30
0.0
 11
972.7886747246953
 21
318.2029958171681
 31
0.0
  0
ARC
  5
F155
330
17
100
AcDbEntity
  8
1外形線
100
AcDbCircle
 10
952.7886747246952
 20
244.2029927177375
 30
0.0
 40
20.0
100
AcDbArc
 50
270.0000000008858
 51
359.9999999995831
  0
LINE
  5
F156
330
17
100
AcDbEntity
  8
1外形線
100
AcDbLine
 10
893.7886747246917
 20
224.2029927177375
 30
0.0
 11
952.7886747250045
 21
224.2029927177375
 31
0.0
  0
ARC
  5
F157
330
17
100
AcDbEntity
  8
1外形線
100
AcDbCircle
 10
893.7886747246917
 20
244.2029927177375
 30
0.0
 40
20.00000000000003
100
AcDbArc
 50
221.8103106957747
 51
270.0
  0
ARC
  5
F158
330
17
100
AcDbEntity
  8
1外形線
100
AcDbCircle
 10
871.4279934836117
 20
224.2029943568653
 30
0.0
 40
10.00000000000001
100
AcDbArc
 50
41.81031069577473
 51
90.0
  0
LINE
  5
F159
330
17
100
AcDbEntity
  8
1外形線
100
AcDbLine
 10
864.3887462875532
 20
234.2029943568653
 30
0.0
 11
871.4279934860964
 21
234.2029943568653
 31
0.0
  0
LINE
  5
F15A
330
17
100
AcDbEntity
  8
1外形線
100
AcDbLine
 10
864.3887462789821
 20
234.2029943568653
 30
0.0
 11
864.0289456938804
 21
236.1016861355313
 31
0.0
  0
SPLINE
  5
F15B
330
17
100
AcDbEntity
  8
1外形線
100
AcDbSpline
210
0.0
220
0.0
230
1.0
 70
     8
 71
     3
 72
    28
 73
    24
 74
     0
 42
0.000000001
 43
0.0000000001
 40
0.0
 40
0.0
 40
0.0
 40
0.0
 40
0.1250000000000005
 40
0.1250000000000005
 40
0.1875000000000008
 40
0.1875000000000008
 40
0.2500000000000011
 40
0.2500000000000011
 40
0.3750000000000015
 40
0.3750000000000015
 40
0.4375000000000015
 40
0.4375000000000015
 40
0.5000000000000015
 40
0.5000000000000015
 40
0.6250000000000009
 40
0.6250000000000009
 40
0.6875000000000007
 40
0.6875000000000007
 40
0.7500000000000005
 40
0.7500000000000005
 40
0.8750000000000001
 40
0.8750000000000001
 40
1.0
 40
1.0
 40
1.0
 40
1.0
 10
841.794924676185
 20
238.0764923652698
 30
0.0
 10
843.2562504995908
 20
238.0749685443754
 30
0.0
 10
844.6917840718665
 20
238.0608788712637
 30
0.0
 10
846.8080070886166
 20
238.0216804712529
 30
0.0
 10
847.5071906193038
 20
238.0055819681277
 30
0.0
 10
848.8928490462745
 20
237.9671933805005
 30
0.0
 10
849.5818654085519
 20
237.9447786566382
 30
0.0
 10
851.5869861100032
 20
237.8695323816994
 30
0.0
 10
852.8542819966892
 20
237.8085242623058
 30
0.0
 10
854.6525713404294
 20
237.7009838802972
 30
0.0
 10
855.2352829521728
 20
237.6624102944209
 30
0.0
 10
856.3629636918735
 20
237.5798463380199
 30
0.0
 10
856.8997114994923
 20
237.5364653670461
 30
0.0
 10
858.4314929470343
 20
237.4002436226876
 30
0.0
 10
859.3487683746529
 20
237.3013785418136
 30
0.0
 10
860.5666996574578
 20
237.1408412963376
 30
0.0
 10
860.9470920321614
 20
237.0850620491749
 30
0.0
 10
861.6385943738528
 20
236.9716686781305
 30
0.0
 10
861.9518149619066
 20
236.9138145272302
 30
0.0
 10
862.7958757634583
 20
236.736850512216
 30
0.0
 10
863.2322605063414
 20
236.6142707335332
 30
0.0
 10
863.8400416631515
 20
236.3601243522446
 30
0.0
 10
864.0043231925734
 20
236.2316207204878
 30
0.0
 10
864.0289456938804
 20
236.1016861355313
 30
0.0
  0
SPLINE
  5
F15C
330
17
100
AcDbEntity
  8
1外形線
100
AcDbSpline
210
0.0
220
0.0
230
1.0
 70
     8
 71
     3
 72
     8
 73
     4
 74
     0
 42
0.000000001
 43
0.0000000001
 40
0.0
 40
0.0
 40
0.0
 40
0.0
 40
1.0
 40
1.0
 40
1.0
 40
1.0
 10
801.78242477298
 20
238.0764923652698
 30
0.0
 10
815.1199247407161
 20
238.090400256857
 30
0.0
 10
828.4574247084488
 20
238.090400256857
 30
0.0
 10
841.794924676185
 20
238.0764923652698
 30
0.0
  0
SPLINE
  5
F15D
330
17
100
AcDbEntity
  8
1外形線
100
AcDbSpline
210
0.0
220
0.0
230
1.0
 70
     8
 71
     3
 72
    28
 73
    24
 74
     0
 42
0.000000001
 43
0.0000000001
 40
0.0
 40
0.0
 40
0.0
 40
0.0
 40
0.125
 40
0.125
 40
0.1874999999999998
 40
0.1874999999999998
 40
0.2499999999999996
 40
0.2499999999999996
 40
0.3749999999999997
 40
0.3749999999999997
 40
0.4374999999999999
 40
0.4374999999999999
 40
0.4999999999999999
 40
0.4999999999999999
 40
0.6249999999999999
 40
0.6249999999999999
 40
0.6875
 40
0.6875
 40
0.7500000000000002
 40
0.7500000000000002
 40
0.875
 40
0.875
 40
1.0
 40
1.0
 40
1.0
 40
1.0
 10
779.5484037555102
 20
236.1016861355313
 30
0.0
 10
779.5730282613581
 20
236.2316312985752
 30
0.0
 10
779.7371493411515
 20
236.3592497999546
 30
0.0
 10
780.1840644558756
 20
236.5473295205049
 30
0.0
 10
780.3667308626204
 20
236.6094607671641
 30
0.0
 10
780.8008754763318
 20
236.7325755493023
 30
0.0
 10
781.0538634454892
 20
236.7938173500136
 30
0.0
 10
781.9023778391669
 20
236.9721350304301
 30
0.0
 10
782.5887898536125
 20
237.084823655214
 30
0.0
 10
783.7970653426741
 20
237.2446972578639
 30
0.0
 10
784.2298014698386
 20
237.2964515784063
 30
0.0
 10
785.1573719647817
 20
237.3967765934888
 30
0.0
 10
785.6458005500276
 20
237.4446417459715
 30
0.0
 10
787.1772270595934
 20
237.5810160978637
 30
0.0
 10
788.2880851743607
 20
237.6626202900573
 30
0.0
 10
790.0910713931002
 20
237.7708681058869
 30
0.0
 10
790.7182968461852
 20
237.8047103536576
 30
0.0
 10
791.9949593450614
 20
237.8662466605767
 30
0.0
 10
792.6461130962593
 20
237.8940818094036
 30
0.0
 10
794.6372182323134
 20
237.9689766365284
 30
0.0
 10
796.0144559588038
 20
238.0075074789731
 30
0.0
 10
798.8727259519432
 20
238.0608273174532
 30
0.0
 10
800.3209778131235
 20
238.0749684180575
 30
0.0
 10
801.78242477298
 20
238.0764923652698
 30
0.0
  0
LINE
  5
F15E
330
17
100
AcDbEntity
  8
1外形線
100
AcDbLine
 10
779.5484037555102
 20
236.1016861355313
 30
0.0
 11
779.1886031618337
 21
234.2029943568653
 31
0.0
  0
LINE
  5
F15F
330
17
100
AcDbEntity
  8
1外形線
100
AcDbLine
 10
772.1493559657715
 20
234.2029943568653
 30
0.0
 11
779.1886031618337
 21
234.2029943568653
 31
0.0
  0
ARC
  5
F160
330
17
100
AcDbEntity
  8
1外形線
100
AcDbCircle
 10
772.1493559657715
 20
224.2029943568653
 30
0.0
 40
10.0
100
AcDbArc
 50
89.99999999958312
 51
138.1896893042351
  0
ARC
  5
F161
330
17
100
AcDbEntity
  8
1外形線
100
AcDbCircle
 10
749.7886747246916
 20
244.2029927177375
 30
0.0
 40
20.00000000000008
100
AcDbArc
 50
269.9999999998437
 51
318.1896893042351
  0
LINE
  5
F162
330
17
100
AcDbEntity
  8
1外形線
100
AcDbLine
 10
690.7886747246589
 20
224.2029927177375
 30
0.0
 11
749.7886747246916
 21
224.2029927177375
 31
0.0
  0
ARC
  5
F163
330
17
100
AcDbEntity
  8
1外形線
100
AcDbCircle
 10
690.7886747246916
 20
244.2029927177375
 30
0.0
 40
19.99999999999993
100
AcDbArc
 50
179.9999999998957
 51
269.9999999998437
  0
LINE
  5
F164
330
17
100
AcDbEntity
  8
1外形線
100
AcDbLine
 10
670.7886747246917
 20
318.20299581727
 30
0.0
 11
670.7886747246917
 21
244.2029927177666
 31
0.0
  0
ARC
  5
F165
330
17
100
AcDbEntity
  8
1外形線
100
AcDbCircle
 10
690.7886747246916
 20
318.202995817179
 30
0.0
 40
19.99999999999972
100
AcDbArc
 50
89.96903622905954
 51
179.9999999997394
  0
LINE
  5
F166
330
17
100
AcDbEntity
  8
1外形線
100
AcDbLine
 10
699.4386031618301
 20
338.2029928965514
 30
0.0
 11
690.7994833663792
 21
338.2029928965514
 31
0.0
  0
LINE
  5
F167
330
17
100
AcDbEntity
  8
1外形線
100
AcDbLine
 10
699.7984037555101
 20
336.3043011178872
 30
0.0
 11
699.4386031618301
 21
338.2029928965514
 31
0.0
  0
SPLINE
  5
F168
330
17
100
AcDbEntity
  8
1外形線
100
AcDbSpline
210
0.0
220
0.0
230
1.0
 70
     8
 71
     3
 72
    28
 73
    24
 74
     0
 42
0.000000001
 43
0.0000000001
 40
0.0
 40
0.0
 40
0.0
 40
0.0
 40
0.1250000000000001
 40
0.1250000000000001
 40
0.1875000000000004
 40
0.1875000000000004
 40
0.2500000000000006
 40
0.2500000000000006
 40
0.3750000000000012
 40
0.3750000000000012
 40
0.4375000000000019
 40
0.4375000000000019
 40
0.5000000000000025
 40
0.5000000000000025
 40
0.6250000000000028
 40
0.6250000000000028
 40
0.6875000000000028
 40
0.6875000000000028
 40
0.7500000000000028
 40
0.7500000000000028
 40
0.8750000000000014
 40
0.8750000000000014
 40
1.0
 40
1.0
 40
1.0
 40
1.0
 10
699.7984037555101
 20
336.3043011178872
 30
0.0
 10
699.8230282613544
 20
336.1743559548397
 30
0.0
 10
699.9871493411514
 20
336.0467374534603
 30
0.0
 10
700.4340644558793
 20
335.8586577329136
 30
0.0
 10
700.6167308626204
 20
335.7965264862544
 30
0.0
 10
701.0508754763318
 20
335.6734117041126
 30
0.0
 10
701.3038634454892
 20
335.612169903405
 30
0.0
 10
702.152377839167
 20
335.4338522229866
 30
0.0
 10
702.8387898536125
 20
335.3211635982027
 30
0.0
 10
704.0470653426778
 20
335.1612899955528
 30
0.0
 10
704.4798014698385
 20
335.1095356750086
 30
0.0
 10
705.4073719647817
 20
335.0092106599261
 30
0.0
 10
705.8958005500312
 20
334.9613455074452
 30
0.0
 10
707.4272270595933
 20
334.8249711555511
 30
0.0
 10
708.5380851743607
 20
334.7433669633594
 30
0.0
 10
710.3410713931002
 20
334.6351191475317
 30
0.0
 10
710.9682968461888
 20
334.6012768997591
 30
0.0
 10
712.2449593450615
 20
334.5397405928399
 30
0.0
 10
712.8961130962593
 20
334.5119054440149
 30
0.0
 10
714.8872182323134
 20
334.4370106168865
 30
0.0
 10
716.2644559588038
 20
334.3984797744454
 30
0.0
 10
719.1227259519433
 20
334.3451599359653
 30
0.0
 10
720.5709778131236
 20
334.3310188353592
 30
0.0
 10
722.0324247729836
 20
334.3294948881469
 30
0.0
  0
SPLINE
  5
F169
330
17
100
AcDbEntity
  8
1外形線
100
AcDbSpline
210
0.0
220
0.0
230
1.0
 70
     8
 71
     3
 72
     8
 73
     4
 74
     0
 42
0.000000001
 43
0.0000000001
 40
0.0
 40
0.0
 40
0.0
 40
0.0
 40
1.0
 40
1.0
 40
1.0
 40
1.0
 10
722.0324247729836
 20
334.3294948881469
 30
0.0
 10
735.3699247407162
 20
334.3155869965579
 30
0.0
 10
748.7074247084524
 20
334.3155869965579
 30
0.0
 10
762.044924676185
 20
334.3294948881469
 30
0.0
  0
SPLINE
  5
F16A
330
17
100
AcDbEntity
  8
1外形線
100
AcDbSpline
210
0.0
220
0.0
230
1.0
 70
     8
 71
     3
 72
    28
 73
    24
 74
     0
 42
0.000000001
 43
0.0000000001
 40
0.0
 40
0.0
 40
0.0
 40
0.0
 40
0.1249999999999992
 40
0.1249999999999992
 40
0.1874999999999988
 40
0.1874999999999988
 40
0.2499999999999984
 40
0.2499999999999984
 40
0.3749999999999982
 40
0.3749999999999982
 40
0.4374999999999984
 40
0.4374999999999984
 40
0.4999999999999986
 40
0.4999999999999986
 40
0.6249999999999992
 40
0.6249999999999992
 40
0.6874999999999996
 40
0.6874999999999996
 40
0.7499999999999997
 40
0.7499999999999997
 40
0.8749999999999998
 40
0.8749999999999998
 40
1.0
 40
1.0
 40
1.0
 40
1.0
 10
762.044924676185
 20
334.3294948881469
 30
0.0
 10
763.5062504995872
 20
334.3310187090413
 30
0.0
 10
764.9417840718665
 20
334.3451083821549
 30
0.0
 10
767.0580070886167
 20
334.3843067821638
 30
0.0
 10
767.7571906193074
 20
334.400405285289
 30
0.0
 10
769.1428490462745
 20
334.4387938729162
 30
0.0
 10
769.8318654085483
 20
334.4612085967785
 30
0.0
 10
771.8369861100032
 20
334.5364548717173
 30
0.0
 10
773.1042819966892
 20
334.5974629911127
 30
0.0
 10
774.9025713404294
 20
334.7050033731195
 30
0.0
 10
775.4852829521728
 20
334.7435769589958
 30
0.0
 10
776.6129636918735
 20
334.8261409153986
 30
0.0
 10
777.1497114994923
 20
334.8695218863688
 30
0.0
 10
778.6814929470306
 20
335.0057436307273
 30
0.0
 10
779.5987683746529
 20
335.1046087116031
 30
0.0
 10
780.8166996574578
 20
335.2651459570809
 30
0.0
 10
781.197092032165
 20
335.32092520424
 30
0.0
 10
781.8885943738564
 20
335.434318575288
 30
0.0
 10
782.2018149619066
 20
335.4921727261883
 30
0.0
 10
783.0458757634619
 20
335.6691367411988
 30
0.0
 10
783.4822605063414
 20
335.7917165198817
 30
0.0
 10
784.0900416631552
 20
336.0458629011739
 30
0.0
 10
784.2543231925697
 20
336.1743665329307
 30
0.0
 10
784.278945693884
 20
336.3043011178872
 30
0.0
  0
LINE
  5
F16B
330
17
100
AcDbEntity
  8
1外形線
100
AcDbLine
 10
784.638746287022
 20
338.2029928965514
 30
0.0
 11
784.278945693884
 21
336.3043011178872
 31
0.0
  0
LINE
  5
F16C
330
17
100
AcDbEntity
  8
1外形線
100
AcDbLine
 10
789.0386751846886
 20
338.2029928965514
 30
0.0
 11
784.6387462875532
 21
338.2029928965514
 31
0.0
  0
ARC
  5
F16D
330
17
100
AcDbEntity
  8
1外形線
100
AcDbCircle
 10
789.0386751846922
 20
318.2029928965515
 30
0.0
 40
20.00000000000024
100
AcDbArc
 50
41.81031901530052
 51
90.0
  0
ARC
  5
F16E
330
17
100
AcDbEntity
  8
1外形線
100
AcDbCircle
 10
811.3993535202713
 20
338.2029945058714
 30
0.0
 40
10.0
100
AcDbArc
 50
221.8103190276108
 51
270.000000018916
  0
LINE
  5
F16F
330
17
100
AcDbEntity
  8
1外形線
100
AcDbLine
 10
821.7886747255647
 20
328.2029945058714
 30
0.0
 11
811.3993535235708
 21
328.2029945058714
 31
0.0
  0
LINE
  5
F170
330
17
100
AcDbEntity
  8
1外形線
100
AcDbLine
 10
832.1779959290829
 20
328.2029945058714
 30
0.0
 11
821.7886747255647
 21
328.2029945058714
 31
0.0
  0
ARC
  5
F171
330
17
100
AcDbEntity
  8
1外形線
100
AcDbCircle
 10
832.1779959291157
 20
338.2029945058714
 30
0.0
 40
10.0
100
AcDbArc
 50
269.9999999997916
 51
318.1896809805766
  0
ARC
  5
F172
330
17
100
AcDbEntity
  8
1外形線
100
AcDbCircle
 10
854.5386742646909
 20
318.2029928965515
 30
0.0
 40
20.00000000000007
100
AcDbArc
 50
89.99999999973944
 51
138.1896809805762
  0
LINE
  5
F173
330
17
100
AcDbEntity
  8
1外形線
100
AcDbLine
 10
858.9386031618337
 20
338.2029928965514
 30
0.0
 11
854.5386742647819
 21
338.2029928965514
 31
0.0
  0
LINE
  5
F174
330
17
100
AcDbEntity
  8
1外形線
100
AcDbLine
 10
859.2984037555066
 20
336.3043011723951
 30
0.0
 11
858.9386031618337
 21
338.2029928965514
 31
0.0
  0
SPLINE
  5
F175
330
17
100
AcDbEntity
  8
1外形線
100
AcDbSpline
210
0.0
220
0.0
230
1.0
 70
     8
 71
     3
 72
    28
 73
    24
 74
     0
 42
0.000000001
 43
0.0000000001
 40
0.0
 40
0.0
 40
0.0
 40
0.0
 40
0.1250000000000004
 40
0.1250000000000004
 40
0.1875000000000006
 40
0.1875000000000006
 40
0.2500000000000007
 40
0.2500000000000007
 40
0.375000000000001
 40
0.375000000000001
 40
0.4375000000000008
 40
0.4375000000000008
 40
0.5000000000000007
 40
0.5000000000000007
 40
0.625
 40
0.625
 40
0.6875
 40
0.6875
 40
0.7499999999999999
 40
0.7499999999999999
 40
0.8749999999999998
 40
0.8749999999999998
 40
1.0
 40
1.0
 40
1.0
 40
1.0
 10
859.2984037555066
 20
336.3043011723951
 30
0.0
 10
859.3230282613435
 20
336.1743560134621
 30
0.0
 10
859.4871493409842
 20
336.0467375176397
 30
0.0
 10
859.934064455439
 20
335.8586578088382
 30
0.0
 10
860.1167308620892
 20
335.7965265666646
 30
0.0
 10
860.5508754756188
 20
335.6734117948747
 30
0.0
 10
860.8038634446998
 20
335.612170000066
 30
0.0
 10
861.6523778381411
 20
335.4338523394165
 30
0.0
 10
862.3387898524994
 20
335.3211637305979
 30
0.0
 10
863.5470653417428
 20
335.1612901569335
 30
0.0
 10
863.9798014690091
 20
335.1095358468904
 30
0.0
 10
864.907371964316
 20
335.0092108546435
 30
0.0
 10
865.3958005496091
 20
334.9613457143589
 30
0.0
 10
866.9272270596479
 20
334.8249714011692
 30
0.0
 10
868.0380851748664
 20
334.7433672376904
 30
0.0
 10
869.8410713945445
 20
334.635119469058
 30
0.0
 10
870.4682968479096
 20
334.6012772377965
 30
0.0
 10
871.7449593469606
 20
334.5397409645195
 30
0.0
 10
872.3961130982493
 20
334.5119058328603
 30
0.0
 10
874.3872182345763
 20
334.4370110580169
 30
0.0
 10
875.7644559612449
 20
334.3984802514917
 30
0.0
 10
878.6227259546754
 20
334.3451604854165
 30
0.0
 10
880.0709778141932
 20
334.3310194204735
 30
0.0
 10
881.5324247729837
 20
334.3294955072163
 30
0.0
  0
LINE
  5
F176
330
17
100
AcDbEntity
  8
1外形線
100
AcDbLine
 10
789.0386747246952
 20
333.2029928965515
 30
0.0
 11
690.7886747246916
 21
333.2029928965515
 31
0.0
  0
ARC
  5
F177
330
17
100
AcDbEntity
  8
1外形線
100
AcDbCircle
 10
789.0386747246952
 20
318.2029928965515
 30
0.0
 40
15.0
100
AcDbArc
 50
0.0
 51
90.0
  0
ARC
  5
F178
330
17
100
AcDbEntity
  8
1外形線
100
AcDbCircle
 10
810.9918861723112
 20
338.6494230773008
 30
0.0
 40
15.0
100
AcDbArc
 50
222.9647023449584
 51
270.0
  0
ARC
  5
F179
330
17
100
AcDbEntity
  8
1外形線
100
AcDbCircle
 10
690.7886747246916
 20
318.2029928965515
 30
0.0
 40
14.99999999999985
100
AcDbArc
 50
90.0
 51
180.0
  0
LINE
  5
F17A
330
17
100
AcDbEntity
  8
1外形線
100
AcDbLine
 10
675.7886747246916
 20
318.2029928974137
 30
0.0
 11
675.7886747246916
 21
244.2029897937721
 31
0.0
  0
ARC
  5
F17B
330
17
100
AcDbEntity
  8
1外形線
100
AcDbCircle
 10
690.7886747246916
 20
244.2029927177375
 30
0.0
 40
15.00000000000028
100
AcDbArc
 50
180.0000111687287
 51
270.0000000018239
  0
LINE
  5
F17C
330
17
100
AcDbEntity
  8
1外形線
100
AcDbLine
 10
690.7886747251682
 20
229.2029927177375
 30
0.0
 11
749.7886747246916
 21
229.2029927177357
 31
0.0
  0
ARC
  5
F17D
330
17
100
AcDbEntity
  8
1外形線
100
AcDbCircle
 10
749.7886747246916
 20
244.2029927177375
 30
0.0
 40
15.00000000000032
100
AcDbArc
 50
270.0000000002084
 51
318.1896893042351
  0
ARC
  5
F17E
330
17
100
AcDbEntity
  8
1外形線
100
AcDbCircle
 10
772.1493559657715
 20
224.2029943568653
 30
0.0
 40
15.0
100
AcDbArc
 50
90.00000000531526
 51
138.1896893042351
  0
LINE
  5
F17F
330
17
100
AcDbEntity
  8
1外形線
100
AcDbLine
 10
772.1493559657715
 20
239.2029943568652
 30
0.0
 11
821.7886747262422
 21
239.2029943568652
 31
0.0
  0
ARC
  5
F180
330
17
100
AcDbEntity
  8
1外形線
100
AcDbCircle
 10
789.0386747246952
 20
254.2029943568652
 30
0.0
 40
15.0
100
AcDbArc
 50
270.0
 51
0.0
  0
CIRCLE
  5
F181
330
17
100
AcDbEntity
  8
1外形線
100
AcDbCircle
 10
721.7886747246953
 20
275.2029945058714
 30
0.0
 40
21.00000000000001
  0
LINE
  5
F182
330
17
100
AcDbEntity
  8
1外形線
100
AcDbLine
 10
804.0386747246952
 20
254.262665210654
 30
0.0
 11
804.0386747246952
 21
318.1433220427609
 31
0.0
  0
CIRCLE
  5
F183
330
17
100
AcDbEntity
  8
1外形線
100
AcDbCircle
 10
921.7886747246952
 20
275.2029945058714
 30
0.0
 40
21.00000000000001
  0
LINE
  5
F184
330
17
100
AcDbEntity
  8
1外形線
100
AcDbLine
 10
804.0386747246952
 20
318.2029928965515
 30
0.0
 11
804.0386747246952
 21
318.1433220427609
 31
0.0
  0
LINE
  5
F185
330
17
100
AcDbEntity
  8
1外形線
100
AcDbLine
 10
804.0386747246952
 20
254.262665210654
 30
0.0
 11
804.0386747246952
 21
253.8162366392264
 31
0.0
  0
LINE
  5
F186
330
17
100
AcDbEntity
  8
1外形線
 48
3.0
100
AcDbLine
 10
821.7886747248872
 20
323.6494230773008
 30
0.0
 11
810.9918861723112
 21
323.6494230773008
 31
0.0
  0
LINE
  5
F187
330
17
100
AcDbEntity
  8
1外形線
100
AcDbLine
 10
854.5386747264343
 20
333.2029928965515
 30
0.0
 11
952.7886747264378
 21
333.2029928965515
 31
0.0
  0
ARC
  5
F188
330
17
100
AcDbEntity
  8
1外形線
100
AcDbCircle
 10
854.5386747264343
 20
318.2029928965515
 30
0.0
 40
15.0
100
AcDbArc
 50
90.0
 51
180.0
  0
ARC
  5
F189
330
17
100
AcDbEntity
  8
1外形線
100
AcDbCircle
 10
832.5854632788182
 20
338.6494230773008
 30
0.0
 40
15.0
100
AcDbArc
 50
270.0
 51
317.0352976550416
  0
ARC
  5
F18A
330
17
100
AcDbEntity
  8
1外形線
100
AcDbCircle
 10
952.7886747264378
 20
318.2029928965515
 30
0.0
 40
14.99999999999985
100
AcDbArc
 50
0.0
 51
90.0
  0
LINE
  5
F18B
330
17
100
AcDbEntity
  8
1外形線
100
AcDbLine
 10
967.7886747264379
 20
318.2029928974137
 30
0.0
 11
967.7886747264379
 21
244.2029897937721
 31
0.0
  0
ARC
  5
F18C
330
17
100
AcDbEntity
  8
1外形線
100
AcDbCircle
 10
952.7886747264378
 20
244.2029927177375
 30
0.0
 40
15.00000000000028
100
AcDbArc
 50
269.999999998124
 51
359.9999888312713
  0
LINE
  5
F18D
330
17
100
AcDbEntity
  8
1外形線
100
AcDbLine
 10
952.7886747259612
 20
229.2029927177375
 30
0.0
 11
893.7886747263869
 21
229.2029927177375
 31
0.0
  0
ARC
  5
F18E
330
17
100
AcDbEntity
  8
1外形線
100
AcDbCircle
 10
893.7886747264379
 20
244.2029927177375
 30
0.0
 40
15.00000000000032
100
AcDbArc
 50
221.8103107037408
 51
269.9999999997916
  0
ARC
  5
F18F
330
17
100
AcDbEntity
  8
1外形線
100
AcDbCircle
 10
871.427993485358
 20
224.2029943568653
 30
0.0
 40
15.0
100
AcDbArc
 50
41.81031068780248
 51
89.99999999468476
  0
LINE
  5
F190
330
17
100
AcDbEntity
  8
1外形線
100
AcDbLine
 10
871.4279934867587
 20
239.2029943568652
 30
0.0
 11
821.7886747248872
 21
239.2029943568652
 31
0.0
  0
ARC
  5
F191
330
17
100
AcDbEntity
  8
1外形線
100
AcDbCircle
 10
854.5386747264343
 20
254.2029943568652
 30
0.0
 40
15.0
100
AcDbArc
 50
180.0
 51
270.0
  0
LINE
  5
F192
330
17
100
AcDbEntity
  8
1外形線
100
AcDbLine
 10
839.5386747264343
 20
254.262665210654
 30
0.0
 11
839.5386747264343
 21
318.1433220427609
 31
0.0
  0
LINE
  5
F193
330
17
100
AcDbEntity
  8
1外形線
100
AcDbLine
 10
839.5386747264343
 20
318.2029928965515
 30
0.0
 11
839.5386747264343
 21
318.1433220427609
 31
0.0
  0
LINE
  5
F194
330
17
100
AcDbEntity
  8
1外形線
100
AcDbLine
 10
839.5386747264343
 20
254.262665210654
 30
0.0
 11
839.5386747264343
 21
253.8162366392264
 31
0.0
  0
LINE
  5
F195
330
17
100
AcDbEntity
  8
1外形線
 48
3.0
100
AcDbLine
 10
821.7886747262422
 20
323.6494230773008
 30
0.0
 11
832.5854632788182
 21
323.6494230773008
 31
0.0
  0
LINE
  5
F196
330
17
100
AcDbEntity
  8
1外形線
 48
3.0
100
AcDbLine
 10
807.6989218484008
 20
174.030545139851
 30
0.0
 11
835.878413772712
 21
174.030545139851
 31
0.0
  0
LINE
  5
F197
330
17
100
AcDbEntity
  8
1外形線
 48
3.0
100
AcDbLine
 10
1169.76814523886
 20
123.030545139851
 30
0.0
 11
1165.174912742888
 21
174.4752129106257
 31
0.0
  0
LINE
  5
F198
330
17
100
AcDbEntity
  8
1外形線
 48
3.0
100
AcDbLine
 10
1055.768145507081
 20
123.030545139851
 30
0.0
 11
1060.354338527193
 21
174.475836092952
 31
0.0
  0
LINE
  5
F199
330
17
100
AcDbEntity
  8
1外形線
 48
3.0
100
AcDbLine
 10
1160.194724903226
 20
179.0305452607392
 30
0.0
 11
1065.341608857614
 21
179.0305468683857
 31
0.0
  0
ARC
  5
F19A
330
17
100
AcDbEntity
  8
L0
100
AcDbCircle
 10
833.2886678105529
 20
133.030545139851
 30
0.0
 40
0.5
100
AcDbArc
 50
0.0
 51
90.0
  0
LINE
  5
F19B
330
17
100
AcDbEntity
  8
L0
100
AcDbLine
 10
833.2886678105529
 20
133.530545139851
 30
0.0
 11
810.2886678105528
 21
133.530545139851
 31
0.0
  0
ARC
  5
F19C
330
17
100
AcDbEntity
  8
L0
100
AcDbCircle
 10
810.2886678105528
 20
133.030545139851
 30
0.0
 40
0.5
100
AcDbArc
 50
90.0
 51
180.0
  0
LINE
  5
F19D
330
17
100
AcDbEntity
  8
L0
100
AcDbLine
 10
821.7886678105529
 20
123.030545139851
 30
0.0
 11
819.7886678105509
 21
123.030545139851
 31
0.0
  0
LINE
  5
F19E
330
17
100
AcDbEntity
  8
L0
100
AcDbLine
 10
819.7886678105509
 20
123.030545139851
 30
0.0
 11
778.6888109157912
 21
123.030545139851
 31
0.0
  0
LINE
  5
F19F
330
17
100
AcDbEntity
  8
L0
100
AcDbLine
 10
815.7886678105528
 20
125.530545139851
 30
0.0
 11
779.2308941546357
 21
125.5305451398501
 31
0.0
  0
LINE
  5
F1A0
330
17
100
AcDbEntity
  8
L0
100
AcDbLine
 10
864.8885247053144
 20
123.030545139851
 30
0.0
 11
821.7886678105529
 21
123.030545139851
 31
0.0
  0
LINE
  5
F1A1
330
17
100
AcDbEntity
  8
L0
100
AcDbLine
 10
826.7886678105528
 20
127.030545139851
 30
0.0
 11
816.7886678105528
 21
127.030545139851
 31
0.0
  0
LINE
  5
F1A2
330
17
100
AcDbEntity
  8
L0
100
AcDbLine
 10
864.3464414664736
 20
125.5305451398501
 30
0.0
 11
827.7886678105527
 21
125.530545139851
 31
0.0
  0
LINE
  5
F1A3
330
17
100
AcDbEntity
  8
L0
100
AcDbLine
 10
809.7886678105528
 20
125.530545139851
 30
0.0
 11
809.7886678105528
 21
132.530545139851
 31
0.0
  0
LINE
  5
F1A4
330
17
100
AcDbEntity
  8
L0
100
AcDbLine
 10
833.7886678105528
 20
133.030545139851
 30
0.0
 11
833.7886678105528
 21
132.530545139851
 31
0.0
  0
LINE
  5
F1A5
330
17
100
AcDbEntity
  8
L0
100
AcDbLine
 10
833.7886678105528
 20
132.530545139851
 30
0.0
 11
833.7886678105528
 21
125.530545139851
 31
0.0
  0
LINE
  5
F1A6
330
17
100
AcDbEntity
  8
L0
100
AcDbLine
 10
809.7886678105528
 20
132.530545139851
 30
0.0
 11
809.7886678105528
 21
133.030545139851
 31
0.0
  0
LINE
  5
F1A7
330
17
100
AcDbEntity
  8
L0
  6
中心線1
 48
0.2
100
AcDbLine
 10
815.7886678105528
 20
125.530545139851
 30
0.0
 11
815.7886678105528
 21
126.030545139851
 31
0.0
  0
ARC
  5
F1A8
330
17
100
AcDbEntity
  8
L0
 48
0.2
100
AcDbCircle
 10
816.7886678105528
 20
126.030545139851
 30
0.0
 40
1.0
100
AcDbArc
 50
90.0
 51
180.0
  0
LINE
  5
F1A9
330
17
100
AcDbEntity
  8
L0
  6
中心線1
 48
0.2
100
AcDbLine
 10
827.7886678105527
 20
125.530545139851
 30
0.0
 11
827.7886678105527
 21
126.030545139851
 31
0.0
  0
ARC
  5
F1AA
330
17
100
AcDbEntity
  8
L0
 48
0.2
100
AcDbCircle
 10
826.7886678105528
 20
126.030545139851
 30
0.0
 40
1.0
100
AcDbArc
 50
0.0
 51
90.0
  0
LINE
  5
F1AB
330
17
100
AcDbEntity
  8
L0
100
AcDbLine
 10
822.2886678105528
 20
127.030545139851
 30
0.0
 11
822.4386678105515
 21
127.0305451398492
 31
0.0
  0
LINE
  5
F1AC
330
17
100
AcDbEntity
  8
L0
100
AcDbLine
 10
820.1386678105514
 20
123.530545139851
 30
0.0
 11
820.1386678105514
 21
126.0305451398492
 31
0.0
  0
ARC
  5
F1AD
330
17
100
AcDbEntity
  8
L0
100
AcDbCircle
 10
821.1386678105514
 20
126.0305451398492
 30
0.0
 40
1.0
100
AcDbArc
 50
90.0
 51
180.0
  0
LINE
  5
F1AE
330
17
100
AcDbEntity
  8
L0
100
AcDbLine
 10
823.4386678105515
 20
126.0305451398492
 30
0.0
 11
823.4386678105515
 21
123.5305451398492
 31
0.0
  0
ARC
  5
F1AF
330
17
100
AcDbEntity
  8
L0
100
AcDbCircle
 10
822.4386678105515
 20
126.0305451398492
 30
0.0
 40
1.0
100
AcDbArc
 50
0.0
 51
90.0
  0
LINE
  5
F1B0
330
17
100
AcDbEntity
  8
L0
100
AcDbLine
 10
821.1386678105514
 20
127.0305451398492
 30
0.0
 11
821.2886678105519
 21
127.030545139851
 31
0.0
  0
LINE
  5
F1B1
330
17
100
AcDbEntity
  8
L0
 48
2.0
100
AcDbLine
 10
820.1386678105514
 20
123.530545139851
 30
0.0
 11
820.7886678105529
 21
123.530545139851
 31
0.0
  0
LINE
  5
F1B2
330
17
100
AcDbEntity
  8
L0
 48
2.0
100
AcDbLine
 10
822.7886678105528
 20
123.5305451398492
 30
0.0
 11
823.4386678105515
 21
123.5305451398492
 31
0.0
  0
LINE
  5
F1B3
330
17
100
AcDbEntity
  8
L0
 48
3.0
100
AcDbLine
 10
820.7886678105529
 20
123.530545139851
 30
0.0
 11
820.788667810552
 21
123.030545139851
 31
0.0
  0
LINE
  5
F1B4
330
17
100
AcDbEntity
  8
L0
 48
3.0
100
AcDbLine
 10
822.7886678105528
 20
123.5305451398492
 30
0.0
 11
822.7886678105528
 21
123.030545139851
 31
0.0
  0
LINE
  5
F1B5
330
17
100
AcDbEntity
  8
L0
100
AcDbLine
 10
821.6472464543127
 20
126.6719664960876
 30
0.0
 11
821.2886678105501
 21
127.030545139851
 31
0.0
  0
ARC
  5
F1B6
330
17
100
AcDbEntity
  8
L0
100
AcDbCircle
 10
821.7886678105511
 20
126.813387852326
 30
0.0
 40
0.2
100
AcDbArc
 50
225.0000000000086
 51
315.0000000000653
  0
LINE
  5
F1B7
330
17
100
AcDbEntity
  8
L0
100
AcDbLine
 10
822.2886678105501
 20
127.030545139851
 30
0.0
 11
821.9300891667884
 21
126.6719664960894
 31
0.0
  0
ENDSEC
  0
SECTION
  2
OBJECTS
  0
DICTIONARY
  5
C
330
0
100
AcDbDictionary
281
     1
  3
ACAD_CIP_PREVIOUS_PRODUCT_INFO
350
E724
  3
ACAD_COLOR
350
E702
  3
ACAD_DETAILVIEWSTYLE
350
E71C
  3
ACAD_GROUP
350
D
  3
ACAD_LAYOUT
350
E703
  3
ACAD_MATERIAL
350
E6D0
  3
ACAD_MLEADERSTYLE
350
E718
  3
ACAD_MLINESTYLE
350
1A
  3
ACAD_PLOTSETTINGS
350
E71E
  3
ACAD_PLOTSTYLENAME
350
E6CE
  3
ACAD_SCALELIST
350
E706
  3
ACAD_SECTIONVIEWSTYLE
350
E71A
  3
ACAD_TABLESTYLE
350
E704
  3
ACAD_VISUALSTYLE
350
E6E9
  3
ACDB_RECOMPOSE_DATA
350
F3DF
  3
ACDBVARIABLEDICTIONARY
350
51
  0
DICTIONARY
  5
E7BC
330
2
100
AcDbDictionary
280
     1
281
     1
  3
ACAD_LAYERSTATES
360
E7BD
  0
DICTIONARY
  5
E725
330
E
100
AcDbDictionary
280
     1
281
     1
  3
ADSK_XREC_LAYER_RECONCILED
360
E726
  0
DICTIONARY
  5
E727
330
40
100
AcDbDictionary
280
     1
281
     1
  3
ADSK_XREC_LAYER_RECONCILED
360
E728
  0
DICTIONARY
  5
E7B6
330
E7B5
100
AcDbDictionary
280
     1
281
     1
  0
DICTIONARY
  5
E74B
330
E74A
100
AcDbDictionary
280
     1
281
     1
  0
DICTIONARY
  5
E787
330
E786
100
AcDbDictionary
280
     1
281
     1
  0
XRECORD
  5
E724
102
{ACAD_REACTORS
330
C
102
}
330
C
100
AcDbXrecord
280
     1
300
ACDLT
300
2021
300

  0
DICTIONARY
  5
E702
102
{ACAD_REACTORS
330
C
102
}
330
C
100
AcDbDictionary
281
     1
  0
DICTIONARY
  5
E71C
102
{ACAD_REACTORS
330
C
102
}
330
C
100
AcDbDictionary
281
     1
  3
Imperial24
350
E7BF
  3
Metric50
350
E71D
  0
DICTIONARY
  5
D
102
{ACAD_REACTORS
330
C
102
}
330
C
100
AcDbDictionary
281
     1
  0
DICTIONARY
  5
E703
102
{ACAD_REACTORS
330
C
102
}
330
C
100
AcDbDictionary
281
     1
  3
Model
350
E71F
  3
レイアウト1
350
E720
  0
DICTIONARY
  5
E6D0
102
{ACAD_REACTORS
330
C
102
}
330
C
100
AcDbDictionary
281
     1
  3
ByBlock
350
E6D9
  3
ByLayer
350
E6D1
  3
Global
350
E6E1
  0
DICTIONARY
  5
E718
102
{ACAD_REACTORS
330
C
102
}
330
C
100
AcDbDictionary
281
     1
  3
Standard
350
E719
  0
DICTIONARY
  5
1A
102
{ACAD_REACTORS
330
C
102
}
330
C
100
AcDbDictionary
281
     1
  3
STANDARD
350
1B
  0
DICTIONARY
  5
E71E
102
{ACAD_REACTORS
330
C
102
}
330
C
100
AcDbDictionary
281
     1
  0
ACDBDICTIONARYWDFLT
  5
E6CE
102
{ACAD_REACTORS
330
C
102
}
330
C
100
AcDbDictionary
281
     1
  3
Normal
350
E6CF
100
AcDbDictionaryWithDefault
340
E6CF
  0
DICTIONARY
  5
E706
102
{ACAD_REACTORS
330
C
102
}
330
C
100
AcDbDictionary
281
     1
  3
A0
350
E707
  3
A1
350
E708
  3
A2
350
E709
  3
A3
350
E70A
  3
A4
350
E70B
  3
A5
350
E70C
  3
A6
350
E70D
  3
A7
350
E70E
  3
A8
350
E70F
  3
A9
350
E710
  3
B0
350
E711
  3
B1
350
E712
  3
B2
350
E713
  3
B3
350
E714
  3
B4
350
E715
  3
B5
350
E716
  3
B6
350
E717
  0
DICTIONARY
  5
E71A
102
{ACAD_REACTORS
330
C
102
}
330
C
100
AcDbDictionary
281
     1
  3
Imperial24
350
E7BE
  3
Metric50
350
E71B
  0
DICTIONARY
  5
E704
102
{ACAD_REACTORS
330
C
102
}
330
C
100
AcDbDictionary
281
     1
  3
Standard
350
E705
  0
DICTIONARY
  5
E6E9
102
{ACAD_REACTORS
330
C
102
}
330
C
100
AcDbDictionary
281
     1
  3
2dWireframe
350
E6EF
  3
Basic
350
E6EE
  3
Brighten
350
E6F5
  3
ColorChange
350
E6F9
  3
Conceptual
350
E6F2
  3
Dim
350
E6F4
  3
EdgeColorOff
350
E701
  3
Facepattern
350
E6F8
  3
Flat
350
E6EA
  3
FlatWithEdges
350
E6EB
  3
Gouraud
350
E6EC
  3
GouraudWithEdges
350
E6ED
  3
Hidden
350
E6F1
  3
JitterOff
350
E6FF
  3
Linepattern
350
E6F7
  3
OverhangOff
350
E700
  3
Realistic
350
E6F3
  3
Shaded
350
E6FE
  3
Shaded with edges
350
E6FD
  3
Shades of Gray
350
E6FA
  3
Sketchy
350
E6FB
  3
Thicken
350
E6F6
  3
Wireframe
350
E6F0
  3
X-Ray
350
E6FC
  0
XRECORD
  5
F3DF
102
{ACAD_REACTORS
330
C
102
}
330
C
100
AcDbXrecord
280
     1
 90
        1
330
E705
  0
DICTIONARY
  5
51
102
{ACAD_REACTORS
330
C
102
}
330
C
100
AcDbDictionary
281
     1
  3
CANNOSCALE
350
F3D9
  3
CMLEADERSTYLE
350
F3D5
  3
CTABLESTYLE
350
F3D4
  3
CVIEWDETAILSTYLE
350
F3D6
  3
CVIEWSECTIONSTYLE
350
F3D7
  3
DIMADEC
350
52
  3
LAYEREVAL
350
F3DB
  3
LAYERNOTIFY
350
F3DC
  3
LIGHTINGUNITS
350
F3DA
  3
MSLTSCALE
350
F3D8
  3
SORTENTS
350
D1FE
  0
DICTIONARY
  5
E7BD
102
{ACAD_REACTORS
330
E7BC
102
}
330
E7BC
100
AcDbDictionary
281
     1
  0
XRECORD
  5
E726
102
{ACAD_REACTORS
330
E725
102
}
330
E725
100
AcDbXrecord
280
     1
290
     1
  0
XRECORD
  5
E728
102
{ACAD_REACTORS
330
E727
102
}
330
E727
100
AcDbXrecord
280
     1
290
     1
  0
ACDBDETAILVIEWSTYLE
  5
E7BF
102
{ACAD_REACTORS
330
E71C
102
}
330
E71C
100
AcDbModelDocViewStyle
 70
     0
  3
Imperial24
290
     0
300
Imperial24
 90
        0
100
AcDbDetailViewStyle
 70
     0
 71
     0
 90
        3
 71
     1
340
F
 62
   256
 40
0.24
340
0
 62
   256
 40
0.24
300

 40
0.36
280
     3
 71
     2
340
13
 90
       25
 62
   256
 71
     3
340
F
 62
   256
 40
0.24
 90
        1
 40
0.75
 90
        1
300
%<\AcVar ViewType \f "%tc1">% %<\AcVar ViewDetailId>%\PSCALE %<\AcVar ViewScale \f "%sn">%
 71
     4
340
13
 90
       25
 62
   256
340
13
 90
       25
 62
   256
280
     0
  0
ACDBDETAILVIEWSTYLE
  5
E71D
102
{ACAD_REACTORS
330
E71C
102
}
330
E71C
100
AcDbModelDocViewStyle
 70
     0
  3
Metric50
290
     1
300
Metric50
 90
        0
100
AcDbDetailViewStyle
 70
     0
 71
     0
 90
        3
 71
     1
340
F
 62
   256
 40
5.0
340
0
 62
   256
 40
5.0
300

 40
0.0
280
     1
 71
     2
340
13
 90
       25
 62
   256
 71
     3
340
F
 62
   256
 40
5.0
 90
        0
 40
15.0
 90
        1
300
%<\AcVar ViewDetailId>% (%<\AcVar ViewScale \f "%sn">%)
 71
     4
340
13
 90
       25
 62
   256
340
13
 90
       25
 62
   256
280
     0
  0
LAYOUT
  5
E71F
102
{ACAD_REACTORS
330
E703
102
}
330
E703
100
AcDbPlotSettings
  1

  2
OneNote for Windows 10
  4

  6

 40
0.0
 41
0.0
 42
0.0
 43
0.0
 44
0.0
 45
0.0
 46
0.0
 47
0.0
 48
0.0
 49
0.0
140
0.0
141
0.0
142
1.0
143
1.0
 70
  1712
 72
     0
 73
     0
 74
     0
  7

 75
     0
147
1.0
 76
     0
 77
     2
 78
   300
148
0.0
149
0.0
100
AcDbLayout
  1
Model
 70
     1
 71
     0
 10
0.0
 20
0.0
 11
12.0
 21
9.0
 12
0.0
 22
0.0
 32
0.0
 14
0.0
 24
0.0
 34
0.0
 15
0.0
 25
0.0
 35
0.0
146
0.0
 13
0.0
 23
0.0
 33
0.0
 16
1.0
 26
0.0
 36
0.0
 17
0.0
 27
1.0
 37
0.0
 76
     0
330
17
331
E6CC
  0
LAYOUT
  5
E720
102
{ACAD_REACTORS
330
E703
102
}
330
E703
100
AcDbPlotSettings
  1

  2
OneNote for Windows 10
  4

  6

 40
0.0
 41
0.0
 42
0.0
 43
0.0
 44
0.0
 45
0.0
 46
0.0
 47
0.0
 48
0.0
 49
0.0
140
0.0
141
0.0
142
1.0
143
1.0
 70
   688
 72
     0
 73
     0
 74
     5
  7

 75
    16
147
1.0
 76
     0
 77
     2
 78
   300
148
0.0
149
0.0
100
AcDbLayout
  1
レイアウト1
 70
     0
 71
     1
 10
0.0
 20
0.0
 11
12.0
 21
9.0
 12
0.0
 22
0.0
 32
0.0
 14
1.000000000000000E+20
 24
1.000000000000000E+20
 34
1.000000000000000E+20
 15
-1.000000000000000E+20
 25
-1.000000000000000E+20
 35
-1.000000000000000E+20
146
0.0
 13
0.0
 23
0.0
 33
0.0
 16
1.0
 26
0.0
 36
0.0
 17
0.0
 27
1.0
 37
0.0
 76
     0
330
14
  0
MATERIAL
  5
E6D9
102
{ACAD_XDICTIONARY
360
E6DA
102
}
102
{ACAD_REACTORS
330
E6D0
102
}
330
E6D0
100
AcDbMaterial
  1
ByBlock
 72
     0
 43
0.0208333333333333
 43
0.0
 43
0.0
 43
0.0
 43
0.0
 43
0.0208333333333333
 43
0.0
 43
0.0
 43
0.0
 43
0.0
 43
1.0
 43
0.0
 43
0.0
 43
0.0
 43
0.0
 43
1.0
 77
     0
 47
0.0208333333333333
 47
0.0
 47
0.0
 47
0.0
 47
0.0
 47
0.0208333333333333
 47
0.0
 47
0.0
 47
0.0
 47
0.0
 47
1.0
 47
0.0
 47
0.0
 47
0.0
 47
0.0
 47
1.0
171
     0
 49
0.0208333333333333
 49
0.0
 49
0.0
 49
0.0
 49
0.0
 49
0.0208333333333333
 49
0.0
 49
0.0
 49
0.0
 49
0.0
 49
1.0
 49
0.0
 49
0.0
 49
0.0
 49
0.0
 49
1.0
175
     0
142
0.0208333333333333
142
0.0
142
0.0
142
0.0
142
0.0
142
0.0208333333333333
142
0.0
142
0.0
142
0.0
142
0.0
142
1.0
142
0.0
142
0.0
142
0.0
142
0.0
142
1.0
179
     0
144
0.0208333333333333
144
0.0
144
0.0
144
0.0
144
0.0
144
0.0208333333333333
144
0.0
144
0.0
144
0.0
144
0.0
144
1.0
144
0.0
144
0.0
144
0.0
144
0.0
144
1.0
147
0.0208333333333333
147
0.0
147
0.0
147
0.0
147
0.0
147
0.0208333333333333
147
0.0
147
0.0
147
0.0
147
0.0
147
1.0
147
0.0
147
0.0
147
0.0
147
0.0
147
1.0
  0
MATERIAL
  5
E6D1
102
{ACAD_XDICTIONARY
360
E6D2
102
}
102
{ACAD_REACTORS
330
E6D0
102
}
330
E6D0
100
AcDbMaterial
  1
ByLayer
 72
     0
 43
0.0208333333333333
 43
0.0
 43
0.0
 43
0.0
 43
0.0
 43
0.0208333333333333
 43
0.0
 43
0.0
 43
0.0
 43
0.0
 43
1.0
 43
0.0
 43
0.0
 43
0.0
 43
0.0
 43
1.0
 77
     0
 47
0.0208333333333333
 47
0.0
 47
0.0
 47
0.0
 47
0.0
 47
0.0208333333333333
 47
0.0
 47
0.0
 47
0.0
 47
0.0
 47
1.0
 47
0.0
 47
0.0
 47
0.0
 47
0.0
 47
1.0
171
     0
 49
0.0208333333333333
 49
0.0
 49
0.0
 49
0.0
 49
0.0
 49
0.0208333333333333
 49
0.0
 49
0.0
 49
0.0
 49
0.0
 49
1.0
 49
0.0
 49
0.0
 49
0.0
 49
0.0
 49
1.0
175
     0
142
0.0208333333333333
142
0.0
142
0.0
142
0.0
142
0.0
142
0.0208333333333333
142
0.0
142
0.0
142
0.0
142
0.0
142
1.0
142
0.0
142
0.0
142
0.0
142
0.0
142
1.0
179
     0
144
0.0208333333333333
144
0.0
144
0.0
144
0.0
144
0.0
144
0.0208333333333333
144
0.0
144
0.0
144
0.0
144
0.0
144
1.0
144
0.0
144
0.0
144
0.0
144
0.0
144
1.0
147
0.0208333333333333
147
0.0
147
0.0
147
0.0
147
0.0
147
0.0208333333333333
147
0.0
147
0.0
147
0.0
147
0.0
147
1.0
147
0.0
147
0.0
147
0.0
147
0.0
147
1.0
  0
MATERIAL
  5
E6E1
102
{ACAD_XDICTIONARY
360
E6E2
102
}
102
{ACAD_REACTORS
330
E6D0
102
}
330
E6D0
100
AcDbMaterial
  1
Global
 72
     0
 43
0.0208333333333333
 43
0.0
 43
0.0
 43
0.0
 43
0.0
 43
0.0208333333333333
 43
0.0
 43
0.0
 43
0.0
 43
0.0
 43
1.0
 43
0.0
 43
0.0
 43
0.0
 43
0.0
 43
1.0
 77
     0
 47
0.0208333333333333
 47
0.0
 47
0.0
 47
0.0
 47
0.0
 47
0.0208333333333333
 47
0.0
 47
0.0
 47
0.0
 47
0.0
 47
1.0
 47
0.0
 47
0.0
 47
0.0
 47
0.0
 47
1.0
171
     0
 49
0.0208333333333333
 49
0.0
 49
0.0
 49
0.0
 49
0.0
 49
0.0208333333333333
 49
0.0
 49
0.0
 49
0.0
 49
0.0
 49
1.0
 49
0.0
 49
0.0
 49
0.0
 49
0.0
 49
1.0
175
     0
142
0.0208333333333333
142
0.0
142
0.0
142
0.0
142
0.0
142
0.0208333333333333
142
0.0
142
0.0
142
0.0
142
0.0
142
1.0
142
0.0
142
0.0
142
0.0
142
0.0
142
1.0
179
     0
144
0.0208333333333333
144
0.0
144
0.0
144
0.0
144
0.0
144
0.0208333333333333
144
0.0
144
0.0
144
0.0
144
0.0
144
1.0
144
0.0
144
0.0
144
0.0
144
0.0
144
1.0
147
0.0208333333333333
147
0.0
147
0.0
147
0.0
147
0.0
147
0.0208333333333333
147
0.0
147
0.0
147
0.0
147
0.0
147
1.0
147
0.0
147
0.0
147
0.0
147
0.0
147
1.0
  0
MLEADERSTYLE
  5
E719
102
{ACAD_REACTORS
330
E718
102
}
330
E718
100
AcDbMLeaderStyle
179
     2
170
     2
171
     1
172
     0
 90
        2
 40
0.0
 41
0.0
173
     1
 91
-1056964608
340
11
 92
       -2
290
     1
 42
2.0
291
     1
 43
0.36
  3
Standard
 44
4.0
300

342
F
174
     1
178
     6
175
     1
176
     0
 93
-1056964608
 45
4.0
292
     0
297
     0
 46
4.0
 94
-1056964608
 47
1.0
 49
1.0
140
1.0
293
     1
141
0.0
294
     1
177
     0
142
1.0
295
     1
296
     0
143
0.125
271
     0
272
     9
273
     9
298
     1
  0
MLINESTYLE
  5
1B
102
{ACAD_REACTORS
330
1A
102
}
330
1A
100
AcDbMlineStyle
  2
STANDARD
 70
     0
  3

 62
   256
 51
90.0
 52
90.0
 71
     2
 49
0.5
 62
   256
  6
BYLAYER
 49
-0.5
 62
   256
  6
BYLAYER
  0
ACDBPLACEHOLDER
  5
E6CF
102
{ACAD_REACTORS
330
E6CE
102
}
330
E6CE
  0
SCALE
  5
E707
102
{ACAD_REACTORS
330
E706
102
}
330
E706
100
AcDbScale
 70
     0
300
1:1
140
1.0
141
1.0
290
     1
  0
SCALE
  5
E708
102
{ACAD_REACTORS
330
E706
102
}
330
E706
100
AcDbScale
 70
     0
300
1:2
140
1.0
141
2.0
290
     0
  0
SCALE
  5
E709
102
{ACAD_REACTORS
330
E706
102
}
330
E706
100
AcDbScale
 70
     0
300
1:4
140
1.0
141
4.0
290
     0
  0
SCALE
  5
E70A
102
{ACAD_REACTORS
330
E706
102
}
330
E706
100
AcDbScale
 70
     0
300
1:5
140
1.0
141
5.0
290
     0
  0
SCALE
  5
E70B
102
{ACAD_REACTORS
330
E706
102
}
330
E706
100
AcDbScale
 70
     0
300
1:8
140
1.0
141
8.0
290
     0
  0
SCALE
  5
E70C
102
{ACAD_REACTORS
330
E706
102
}
330
E706
100
AcDbScale
 70
     0
300
1:10
140
1.0
141
10.0
290
     0
  0
SCALE
  5
E70D
102
{ACAD_REACTORS
330
E706
102
}
330
E706
100
AcDbScale
 70
     0
300
1:16
140
1.0
141
16.0
290
     0
  0
SCALE
  5
E70E
102
{ACAD_REACTORS
330
E706
102
}
330
E706
100
AcDbScale
 70
     0
300
1:20
140
1.0
141
20.0
290
     0
  0
SCALE
  5
E70F
102
{ACAD_REACTORS
330
E706
102
}
330
E706
100
AcDbScale
 70
     0
300
1:30
140
1.0
141
30.0
290
     0
  0
SCALE
  5
E710
102
{ACAD_REACTORS
330
E706
102
}
330
E706
100
AcDbScale
 70
     0
300
1:40
140
1.0
141
40.0
290
     0
  0
SCALE
  5
E711
102
{ACAD_REACTORS
330
E706
102
}
330
E706
100
AcDbScale
 70
     0
300
1:50
140
1.0
141
50.0
290
     0
  0
SCALE
  5
E712
102
{ACAD_REACTORS
330
E706
102
}
330
E706
100
AcDbScale
 70
     0
300
1:100
140
1.0
141
100.0
290
     0
  0
SCALE
  5
E713
102
{ACAD_REACTORS
330
E706
102
}
330
E706
100
AcDbScale
 70
     0
300
2:1
140
2.0
141
1.0
290
     0
  0
SCALE
  5
E714
102
{ACAD_REACTORS
330
E706
102
}
330
E706
100
AcDbScale
 70
     0
300
4:1
140
4.0
141
1.0
290
     0
  0
SCALE
  5
E715
102
{ACAD_REACTORS
330
E706
102
}
330
E706
100
AcDbScale
 70
     0
300
8:1
140
8.0
141
1.0
290
     0
  0
SCALE
  5
E716
102
{ACAD_REACTORS
330
E706
102
}
330
E706
100
AcDbScale
 70
     0
300
10:1
140
10.0
141
1.0
290
     0
  0
SCALE
  5
E717
102
{ACAD_REACTORS
330
E706
102
}
330
E706
100
AcDbScale
 70
     0
300
100:1
140
100.0
141
1.0
290
     0
  0
ACDBSECTIONVIEWSTYLE
  5
E7BE
102
{ACAD_REACTORS
330
E71A
102
}
330
E71A
100
AcDbModelDocViewStyle
 70
     0
  3
Imperial24
290
     0
300
Imperial24
 90
        0
100
AcDbSectionViewStyle
 70
     0
 71
     0
 90
       78
 71
     1
340
F
 62
   256
 40
0.24
340
0
340
0
 62
   256
 40
0.24
300
I, O, Q, S, X, Z
 40
0.48
 90
        3
 40
0.18
 90
        1
 71
     2
340
13
 90
       25
 62
   256
340
13
 90
       50
 62
   256
 40
0.24
 40
0.0
 40
0.24
 71
     3
340
F
 62
   256
 40
0.24
 90
        1
 40
0.75
 90
        1
300
%<\AcVar ViewType \f "%tc1">% %<\AcVar ViewSectionStartId>%-%<\AcVar ViewSectionEndId>%\PSCALE %<\AcVar ViewScale \f "%sn">%
 71
     4
 62
   256
 62
   257
300
ANSI31
 40
1.0
 90
        0
290
     0
290
     0
 90
        6
 40
0.0
 40
1.570796326794896
 40
0.2617993877991494
 40
1.308996938995747
 40
-0.2617993877991494
 40
1.832595714594046
  0
ACDBSECTIONVIEWSTYLE
  5
E71B
102
{ACAD_REACTORS
330
E71A
102
}
330
E71A
100
AcDbModelDocViewStyle
 70
     0
  3
Metric50
290
     1
300
Metric50
 90
        0
100
AcDbSectionViewStyle
 70
     0
 71
     0
 90
      102
 71
     1
340
F
 62
   256
 40
5.0
340
0
340
0
 62
   256
 40
5.0
300
I, O, Q, S, X, Z
 40
10.0
 90
        0
 40
2.5
 90
        0
 71
     2
340
13
 90
       25
 62
   256
340
13
 90
       50
 62
   256
 40
5.0
 40
2.5
 40
5.0
 71
     3
340
F
 62
   256
 40
5.0
 90
        0
 40
15.0
 90
        1
300
%<\AcVar ViewSectionStartId>%-%<\AcVar ViewSectionEndId>% (%<\AcVar ViewScale \f "%sn">%)
 71
     4
 62
   256
 62
   257
300
ANSI31
 40
1.0
 90
        0
290
     0
290
     0
 90
        6
 40
0.0
 40
1.570796326794896
 40
0.2617993877991494
 40
1.308996938995747
 40
-0.2617993877991494
 40
1.832595714594046
  0
TABLESTYLE
  5
E705
102
{ACAD_XDICTIONARY
360
F3DD
102
}
102
{ACAD_REACTORS
330
E704
102
}
330
E704
100
AcDbTableStyle
280
     0
  3
Standard
 70
     0
 71
     0
 40
1.5
 41
1.5
280
     0
281
     0
  7
STANDARD
140
4.5
170
     2
 62
     0
 63
     7
283
     0
 90
      512
 91
        0
  1

274
    -2
284
     1
 64
     0
275
    -2
285
     1
 65
     0
276
    -2
286
     1
 66
     0
277
    -2
287
     1
 67
     0
278
    -2
288
     1
 68
     0
279
    -2
289
     1
 69
     0
  7
STANDARD
140
6.0
170
     5
 62
     0
 63
     7
283
     0
 90
      512
 91
        0
  1

274
    -2
284
     1
 64
     0
275
    -2
285
     1
 65
     0
276
    -2
286
     1
 66
     0
277
    -2
287
     1
 67
     0
278
    -2
288
     1
 68
     0
279
    -2
289
     1
 69
     0
  7
STANDARD
140
4.5
170
     5
 62
     0
 63
     7
283
     0
 90
      512
 91
        0
  1

274
    -2
284
     1
 64
     0
275
    -2
285
     1
 65
     0
276
    -2
286
     1
 66
     0
277
    -2
287
     1
 67
     0
278
    -2
288
     1
 68
     0
279
    -2
289
     1
 69
     0
  0
VISUALSTYLE
  5
E6EF
102
{ACAD_REACTORS
330
E6E9
102
}
330
E6E9
100
AcDbVisualStyle
  2
2dWireframe
 70
     4
177
     3
291
     0
 70
    58
 90
        0
176
     1
 90
        2
176
     1
 90
        0
176
     1
 90
        0
176
     1
 40
0.6
176
     1
 40
30.0
176
     1
 62
     7
420
 16777215
176
     1
 90
        1
176
     1
 90
        4
176
     1
 62
     7
176
     1
 62
   257
176
     1
 90
        1
176
     1
 90
        1
176
     1
 40
1.0
176
     1
 90
        0
176
     1
 62
   257
176
     1
 40
1.0
176
     1
 90
        1
176
     1
 90
        6
176
     1
 90
        2
176
     1
 62
     7
176
     1
 90
        5
176
     1
 90
        0
176
     1
 90
        0
176
     1
290
     0
176
     1
 90
        1
176
     1
 40
0.0
176
     1
 90
        0
176
     1
290
     1
176
     1
290
     1
176
     1
290
     0
176
     1
290
     0
176
     1
290
     0
176
     1
290
     0
176
     1
290
     0
176
     1
290
     0
176
     1
290
     0
176
     1
 90
       50
176
     1
 40
0.0
176
     1
 40
1.0
176
     1
 90
        0
176
     1
 62
    18
420
        0
176
     1
 90
       50
176
     1
 90
        3
176
     1
 62
     5
420
      255
176
     1
290
     0
176
     1
 90
       50
176
     1
 90
       50
176
     1
 90
       50
176
     1
290
     0
176
     1
 90
       50
176
     1
 62
   256
176
     0
 40
1.0
176
     0
 90
        2
176
     1
  1
strokes_ogs.tif
176
     1
290
     0
176
     1
 40
1.0
176
     1
 40
1.0
176
     1
  0
VISUALSTYLE
  5
E6EE
102
{ACAD_REACTORS
330
E6E9
102
}
330
E6E9
100
AcDbVisualStyle
  2
Basic
 70
     7
177
     3
291
     1
 70
    58
 90
        1
176
     1
 90
        0
176
     1
 90
        1
176
     1
 90
        0
176
     1
 40
0.6
176
     1
 40
30.0
176
     1
 62
     7
420
 16777215
176
     1
 90
        0
176
     1
 90
        4
176
     1
 62
     7
176
     1
 62
   257
176
     1
 90
        1
176
     1
 90
        1
176
     1
 40
1.0
176
     1
 90
        8
176
     1
 62
     7
176
     1
 40
1.0
176
     1
 90
        1
176
     1
 90
        6
176
     1
 90
        2
176
     1
 62
     7
176
     1
 90
        5
176
     1
 90
        0
176
     1
 90
        0
176
     1
290
     0
176
     1
 90
        1
176
     1
 40
0.0
176
     1
 90
        0
176
     1
290
     0
176
     1
290
     1
176
     1
290
     1
176
     1
290
     0
176
     1
290
     0
176
     1
290
     0
176
     1
290
     0
176
     1
290
     0
176
     1
290
     0
176
     1
 90
       50
176
     1
 40
0.0
176
     1
 40
1.0
176
     1
 90
        0
176
     1
 62
    18
420
        0
176
     1
 90
       50
176
     1
 90
        3
176
     1
 62
     5
420
      255
176
     1
290
     0
176
     1
 90
       50
176
     1
 90
       50
176
     1
 90
       50
176
     1
290
     0
176
     1
 90
       50
176
     1
 62
   256
176
     0
 40
1.0
176
     0
 90
        2
176
     1
  1
strokes_ogs.tif
176
     1
290
     0
176
     1
 40
1.0
176
     1
 40
1.0
176
     1
  0
VISUALSTYLE
  5
E6F5
102
{ACAD_REACTORS
330
E6E9
102
}
330
E6E9
100
AcDbVisualStyle
  2
Brighten
 70
    12
177
     3
291
     1
 70
    58
 90
        2
176
     1
 90
        2
176
     1
 90
        0
176
     1
 90
        0
176
     1
 40
0.6
176
     1
 40
30.0
176
     1
 62
     7
420
 16777215
176
     1
 90
        1
176
     1
 90
        4
176
     1
 62
     7
176
     1
 62
   257
176
     1
 90
        1
176
     1
 90
        1
176
     1
 40
1.0
176
     1
 90
        8
176
     1
 62
     7
176
     1
 40
1.0
176
     1
 90
        1
176
     1
 90
        6
176
     1
 90
        2
176
     1
 62
     7
176
     1
 90
        5
176
     1
 90
        0
176
     1
 90
        0
176
     1
290
     0
176
     1
 90
        1
176
     1
 40
50.0
176
     1
 90
        0
176
     1
290
     0
176
     1
290
     1
176
     1
290
     1
176
     1
290
     0
176
     1
290
     0
176
     1
290
     0
176
     1
290
     0
176
     1
290
     0
176
     1
290
     0
176
     1
 90
       50
176
     1
 40
0.0
176
     1
 40
1.0
176
     1
 90
        0
176
     1
 62
    18
420
        0
176
     1
 90
       50
176
     1
 90
        3
176
     1
 62
     5
420
      255
176
     1
290
     0
176
     1
 90
       50
176
     1
 90
       50
176
     1
 90
       50
176
     1
290
     0
176
     1
 90
       50
176
     1
 62
   256
176
     0
 40
1.0
176
     0
 90
        2
176
     1
  1
strokes_ogs.tif
176
     1
290
     0
176
     1
 40
1.0
176
     1
 40
1.0
176
     1
  0
VISUALSTYLE
  5
E6F9
102
{ACAD_REACTORS
330
E6E9
102
}
330
E6E9
100
AcDbVisualStyle
  2
ColorChange
 70
    16
177
     3
291
     1
 70
    58
 90
        2
176
     1
 90
        2
176
     1
 90
        3
176
     1
 90
        0
176
     1
 40
0.6
176
     1
 40
30.0
176
     1
 62
     8
420
  8421504
176
     1
 90
        1
176
     1
 90
        4
176
     1
 62
     7
176
     1
 62
   257
176
     1
 90
        1
176
     1
 90
        1
176
     1
 40
1.0
176
     1
 90
        8
176
     1
 62
     8
420
  8421504
176
     1
 40
1.0
176
     1
 90
        1
176
     1
 90
        6
176
     1
 90
        2
176
     1
 62
     7
176
     1
 90
        5
176
     1
 90
        0
176
     1
 90
        0
176
     1
290
     0
176
     1
 90
        1
176
     1
 40
0.0
176
     1
 90
        0
176
     1
290
     0
176
     1
290
     1
176
     1
290
     1
176
     1
290
     0
176
     1
290
     0
176
     1
290
     0
176
     1
290
     0
176
     1
290
     0
176
     1
290
     0
176
     1
 90
       50
176
     1
 40
0.0
176
     1
 40
1.0
176
     1
 90
        0
176
     1
 62
    18
420
        0
176
     1
 90
       50
176
     1
 90
        3
176
     1
 62
     5
420
      255
176
     1
290
     0
176
     1
 90
       50
176
     1
 90
       50
176
     1
 90
       50
176
     1
290
     0
176
     1
 90
       50
176
     1
 62
   256
176
     0
 40
1.0
176
     0
 90
        2
176
     1
  1
strokes_ogs.tif
176
     1
290
     0
176
     1
 40
1.0
176
     1
 40
1.0
176
     1
  0
VISUALSTYLE
  5
E6F2
102
{ACAD_REACTORS
330
E6E9
102
}
330
E6E9
100
AcDbVisualStyle
  2
Conceptual
 70
     9
177
     3
291
     0
 70
    58
 90
        3
176
     1
 90
        2
176
     1
 90
        0
176
     1
 90
        0
176
     1
 40
0.6
176
     1
 40
30.0
176
     1
 62
     7
420
 16777215
176
     1
 90
        2
176
     1
 90
        2
176
     1
 62
     7
176
     1
 62
   257
176
     1
 90
        1
176
     1
 90
        1
176
     1
 40
179.0
176
     1
 90
        8
176
     1
 62
     7
176
     1
 40
1.0
176
     1
 90
        1
176
     1
 90
        6
176
     1
 90
        2
176
     1
 62
     7
176
     1
 90
        3
176
     1
 90
        0
176
     1
 90
        0
176
     1
290
     0
176
     1
 90
        1
176
     1
 40
0.0
176
     1
 90
        0
176
     1
290
     0
176
     1
290
     1
176
     1
290
     1
176
     1
290
     0
176
     1
290
     0
176
     1
290
     0
176
     1
290
     0
176
     1
290
     0
176
     1
290
     0
176
     1
 90
       50
176
     1
 40
0.0
176
     1
 40
1.0
176
     1
 90
        0
176
     1
 62
    18
420
        0
176
     1
 90
       50
176
     1
 90
        3
176
     1
 62
     5
420
      255
176
     1
290
     0
176
     1
 90
       50
176
     1
 90
       50
176
     1
 90
       50
176
     1
290
     0
176
     1
 90
       50
176
     1
 62
   256
176
     0
 40
1.0
176
     0
 90
        2
176
     1
  1
strokes_ogs.tif
176
     1
290
     0
176
     1
 40
1.0
176
     1
 40
1.0
176
     1
  0
VISUALSTYLE
  5
E6F4
102
{ACAD_REACTORS
330
E6E9
102
}
330
E6E9
100
AcDbVisualStyle
  2
Dim
 70
    11
177
     3
291
     1
 70
    58
 90
        2
176
     1
 90
        2
176
     1
 90
        0
176
     1
 90
        0
176
     1
 40
0.6
176
     1
 40
30.0
176
     1
 62
     7
420
 16777215
176
     1
 90
        1
176
     1
 90
        4
176
     1
 62
     7
176
     1
 62
   257
176
     1
 90
        1
176
     1
 90
        1
176
     1
 40
1.0
176
     1
 90
        8
176
     1
 62
     7
176
     1
 40
1.0
176
     1
 90
        1
176
     1
 90
        6
176
     1
 90
        2
176
     1
 62
     7
176
     1
 90
        5
176
     1
 90
        0
176
     1
 90
        0
176
     1
290
     0
176
     1
 90
        1
176
     1
 40
-50.0
176
     1
 90
        0
176
     1
290
     0
176
     1
290
     1
176
     1
290
     1
176
     1
290
     0
176
     1
290
     0
176
     1
290
     0
176
     1
290
     0
176
     1
290
     0
176
     1
290
     0
176
     1
 90
       50
176
     1
 40
0.0
176
     1
 40
1.0
176
     1
 90
        0
176
     1
 62
    18
420
        0
176
     1
 90
       50
176
     1
 90
        3
176
     1
 62
     5
420
      255
176
     1
290
     0
176
     1
 90
       50
176
     1
 90
       50
176
     1
 90
       50
176
     1
290
     0
176
     1
 90
       50
176
     1
 62
   256
176
     0
 40
1.0
176
     0
 90
        2
176
     1
  1
strokes_ogs.tif
176
     1
290
     0
176
     1
 40
1.0
176
     1
 40
1.0
176
     1
  0
VISUALSTYLE
  5
E701
102
{ACAD_REACTORS
330
E6E9
102
}
330
E6E9
100
AcDbVisualStyle
  2
EdgeColorOff
 70
    22
177
     3
291
     1
 70
    58
 90
        2
176
     0
 90
        2
176
     0
 90
        0
176
     0
 90
        0
176
     0
 40
0.6
176
     0
 40
30.0
176
     0
 62
     7
420
 16777215
176
     0
 90
        1
176
     0
 90
        4
176
     0
 62
     7
176
     0
 62
   257
176
     0
 90
        1
176
     0
 90
        1
176
     0
 40
1.0
176
     0
 90
        8
176
     2
 62
     7
176
     0
 40
1.0
176
     0
 90
        1
176
     0
 90
        6
176
     0
 90
        2
176
     0
 62
     7
176
     0
 90
        5
176
     0
 90
        0
176
     0
 90
        0
176
     0
290
     0
176
     0
 90
        1
176
     0
 40
0.0
176
     0
 90
        0
176
     0
290
     0
176
     0
290
     1
176
     0
290
     1
176
     0
290
     0
176
     0
290
     0
176
     0
290
     0
176
     0
290
     0
176
     0
290
     0
176
     0
290
     0
176
     0
 90
       50
176
     0
 40
0.0
176
     0
 40
1.0
176
     0
 90
        0
176
     0
 62
    18
420
        0
176
     0
 90
       50
176
     0
 90
        3
176
     0
 62
     5
420
      255
176
     0
290
     0
176
     0
 90
       50
176
     0
 90
       50
176
     0
 90
       50
176
     0
290
     0
176
     0
 90
       50
176
     0
 62
   256
176
     0
 40
1.0
176
     0
 90
        2
176
     0
  1
strokes_ogs.tif
176
     0
290
     0
176
     0
 40
1.0
176
     0
 40
1.0
176
     0
  0
VISUALSTYLE
  5
E6F8
102
{ACAD_REACTORS
330
E6E9
102
}
330
E6E9
100
AcDbVisualStyle
  2
Facepattern
 70
    15
177
     3
291
     1
 70
    58
 90
        2
176
     1
 90
        2
176
     1
 90
        0
176
     1
 90
        0
176
     1
 40
0.6
176
     1
 40
30.0
176
     1
 62
     7
420
 16777215
176
     1
 90
        1
176
     1
 90
        4
176
     1
 62
     7
176
     1
 62
   257
176
     1
 90
        1
176
     1
 90
        1
176
     1
 40
1.0
176
     1
 90
        8
176
     1
 62
     7
176
     1
 40
1.0
176
     1
 90
        1
176
     1
 90
        6
176
     1
 90
        2
176
     1
 62
     7
176
     1
 90
        5
176
     1
 90
        0
176
     1
 90
        0
176
     1
290
     0
176
     1
 90
        1
176
     1
 40
0.0
176
     1
 90
        0
176
     1
290
     0
176
     1
290
     1
176
     1
290
     1
176
     1
290
     0
176
     1
290
     0
176
     1
290
     0
176
     1
290
     0
176
     1
290
     0
176
     1
290
     0
176
     1
 90
       50
176
     1
 40
0.0
176
     1
 40
1.0
176
     1
 90
        0
176
     1
 62
    18
420
        0
176
     1
 90
       50
176
     1
 90
        3
176
     1
 62
     5
420
      255
176
     1
290
     0
176
     1
 90
       50
176
     1
 90
       50
176
     1
 90
       50
176
     1
290
     0
176
     1
 90
       50
176
     1
 62
   256
176
     0
 40
1.0
176
     0
 90
        2
176
     1
  1
strokes_ogs.tif
176
     1
290
     0
176
     1
 40
1.0
176
     1
 40
1.0
176
     1
  0
VISUALSTYLE
  5
E6EA
102
{ACAD_REACTORS
330
E6E9
102
}
330
E6E9
100
AcDbVisualStyle
  2
Flat
 70
     0
177
     3
291
     1
 70
    58
 90
        2
176
     1
 90
        1
176
     1
 90
        1
176
     1
 90
        2
176
     1
 40
0.6
176
     1
 40
30.0
176
     1
 62
     7
420
 16777215
176
     1
 90
        0
176
     1
 90
        0
176
     1
 62
     7
176
     1
 62
   257
176
     1
 90
        1
176
     1
 90
        1
176
     1
 40
1.0
176
     1
 90
        8
176
     1
 62
     7
176
     1
 40
1.0
176
     1
 90
        1
176
     1
 90
        6
176
     1
 90
        2
176
     1
 62
     7
176
     1
 90
        5
176
     1
 90
        0
176
     1
 90
        0
176
     1
290
     0
176
     1
 90
       13
176
     1
 40
0.0
176
     1
 90
        0
176
     1
290
     0
176
     1
290
     1
176
     1
290
     1
176
     1
290
     0
176
     1
290
     0
176
     1
290
     0
176
     1
290
     0
176
     1
290
     0
176
     1
290
     0
176
     1
 90
       50
176
     1
 40
0.0
176
     1
 40
1.0
176
     1
 90
        0
176
     1
 62
    18
420
        0
176
     1
 90
       50
176
     1
 90
        3
176
     1
 62
     5
420
      255
176
     1
290
     0
176
     1
 90
       50
176
     1
 90
       50
176
     1
 90
       50
176
     1
290
     0
176
     1
 90
       50
176
     1
 62
   256
176
     0
 40
1.0
176
     0
 90
        2
176
     1
  1
strokes_ogs.tif
176
     1
290
     0
176
     1
 40
1.0
176
     1
 40
1.0
176
     1
  0
VISUALSTYLE
  5
E6EB
102
{ACAD_REACTORS
330
E6E9
102
}
330
E6E9
100
AcDbVisualStyle
  2
FlatWithEdges
 70
     1
177
     3
291
     1
 70
    58
 90
        2
176
     1
 90
        1
176
     1
 90
        1
176
     1
 90
        2
176
     1
 40
0.6
176
     1
 40
30.0
176
     1
 62
     7
420
 16777215
176
     1
 90
        1
176
     1
 90
        0
176
     1
 62
     7
176
     1
 62
   257
176
     1
 90
        1
176
     1
 90
        1
176
     1
 40
1.0
176
     1
 90
        0
176
     1
 62
   257
176
     1
 40
1.0
176
     1
 90
        1
176
     1
 90
        6
176
     1
 90
        2
176
     1
 62
     7
176
     1
 90
        5
176
     1
 90
        0
176
     1
 90
        0
176
     1
290
     0
176
     1
 90
       13
176
     1
 40
0.0
176
     1
 90
        0
176
     1
290
     0
176
     1
290
     1
176
     1
290
     1
176
     1
290
     0
176
     1
290
     0
176
     1
290
     0
176
     1
290
     0
176
     1
290
     0
176
     1
290
     0
176
     1
 90
       50
176
     1
 40
0.0
176
     1
 40
1.0
176
     1
 90
        0
176
     1
 62
    18
420
        0
176
     1
 90
       50
176
     1
 90
        3
176
     1
 62
     5
420
      255
176
     1
290
     0
176
     1
 90
       50
176
     1
 90
       50
176
     1
 90
       50
176
     1
290
     0
176
     1
 90
       50
176
     1
 62
   256
176
     0
 40
1.0
176
     0
 90
        2
176
     1
  1
strokes_ogs.tif
176
     1
290
     0
176
     1
 40
1.0
176
     1
 40
1.0
176
     1
  0
VISUALSTYLE
  5
E6EC
102
{ACAD_REACTORS
330
E6E9
102
}
330
E6E9
100
AcDbVisualStyle
  2
Gouraud
 70
     2
177
     3
291
     1
 70
    58
 90
        2
176
     1
 90
        2
176
     1
 90
        1
176
     1
 90
        2
176
     1
 40
0.6
176
     1
 40
30.0
176
     1
 62
     7
420
 16777215
176
     1
 90
        0
176
     1
 90
        0
176
     1
 62
     7
176
     1
 62
   257
176
     1
 90
        1
176
     1
 90
        1
176
     1
 40
1.0
176
     1
 90
        0
176
     1
 62
     7
176
     1
 40
1.0
176
     1
 90
        1
176
     1
 90
        6
176
     1
 90
        2
176
     1
 62
     7
176
     1
 90
        5
176
     1
 90
        0
176
     1
 90
        0
176
     1
290
     0
176
     1
 90
       13
176
     1
 40
0.0
176
     1
 90
        0
176
     1
290
     0
176
     1
290
     1
176
     1
290
     1
176
     1
290
     0
176
     1
290
     0
176
     1
290
     0
176
     1
290
     0
176
     1
290
     0
176
     1
290
     0
176
     1
 90
       50
176
     1
 40
0.0
176
     1
 40
1.0
176
     1
 90
        0
176
     1
 62
    18
420
        0
176
     1
 90
       50
176
     1
 90
        3
176
     1
 62
     5
420
      255
176
     1
290
     0
176
     1
 90
       50
176
     1
 90
       50
176
     1
 90
       50
176
     1
290
     0
176
     1
 90
       50
176
     1
 62
   256
176
     0
 40
1.0
176
     0
 90
        2
176
     1
  1
strokes_ogs.tif
176
     1
290
     0
176
     1
 40
1.0
176
     1
 40
1.0
176
     1
  0
VISUALSTYLE
  5
E6ED
102
{ACAD_REACTORS
330
E6E9
102
}
330
E6E9
100
AcDbVisualStyle
  2
GouraudWithEdges
 70
     3
177
     3
291
     1
 70
    58
 90
        2
176
     1
 90
        2
176
     1
 90
        1
176
     1
 90
        2
176
     1
 40
0.6
176
     1
 40
30.0
176
     1
 62
     7
420
 16777215
176
     1
 90
        1
176
     1
 90
        0
176
     1
 62
     7
176
     1
 62
   257
176
     1
 90
        1
176
     1
 90
        1
176
     1
 40
1.0
176
     1
 90
        0
176
     1
 62
   257
176
     1
 40
1.0
176
     1
 90
        1
176
     1
 90
        6
176
     1
 90
        2
176
     1
 62
     7
176
     1
 90
        5
176
     1
 90
        0
176
     1
 90
        0
176
     1
290
     0
176
     1
 90
       13
176
     1
 40
0.0
176
     1
 90
        0
176
     1
290
     0
176
     1
290
     1
176
     1
290
     1
176
     1
290
     0
176
     1
290
     0
176
     1
290
     0
176
     1
290
     0
176
     1
290
     0
176
     1
290
     0
176
     1
 90
       50
176
     1
 40
0.0
176
     1
 40
1.0
176
     1
 90
        0
176
     1
 62
    18
420
        0
176
     1
 90
       50
176
     1
 90
        3
176
     1
 62
     5
420
      255
176
     1
290
     0
176
     1
 90
       50
176
     1
 90
       50
176
     1
 90
       50
176
     1
290
     0
176
     1
 90
       50
176
     1
 62
   256
176
     0
 40
1.0
176
     0
 90
        2
176
     1
  1
strokes_ogs.tif
176
     1
290
     0
176
     1
 40
1.0
176
     1
 40
1.0
176
     1
  0
VISUALSTYLE
  5
E6F1
102
{ACAD_REACTORS
330
E6E9
102
}
330
E6E9
100
AcDbVisualStyle
  2
Hidden
 70
     6
177
     3
291
     0
 70
    58
 90
        1
176
     1
 90
        2
176
     1
 90
        2
176
     1
 90
        0
176
     1
 40
0.6
176
     1
 40
30.0
176
     1
 62
     7
420
 16777215
176
     1
 90
        2
176
     1
 90
        2
176
     1
 62
     7
176
     1
 62
   257
176
     1
 90
        2
176
     1
 90
        1
176
     1
 40
40.0
176
     1
 90
        0
176
     1
 62
   257
176
     1
 40
1.0
176
     1
 90
        1
176
     1
 90
        6
176
     1
 90
        2
176
     1
 62
     7
176
     1
 90
        3
176
     1
 90
        0
176
     1
 90
        0
176
     1
290
     0
176
     1
 90
        1
176
     1
 40
0.0
176
     1
 90
        0
176
     1
290
     0
176
     1
290
     1
176
     1
290
     1
176
     1
290
     0
176
     1
290
     0
176
     1
290
     0
176
     1
290
     0
176
     1
290
     0
176
     1
290
     0
176
     1
 90
       50
176
     1
 40
0.0
176
     1
 40
1.0
176
     1
 90
        0
176
     1
 62
    18
420
        0
176
     1
 90
       50
176
     1
 90
        3
176
     1
 62
     5
420
      255
176
     1
290
     0
176
     1
 90
       50
176
     1
 90
       50
176
     1
 90
       50
176
     1
290
     0
176
     1
 90
       50
176
     1
 62
   256
176
     0
 40
1.0
176
     0
 90
        2
176
     1
  1
strokes_ogs.tif
176
     1
290
     0
176
     1
 40
1.0
176
     1
 40
1.0
176
     1
  0
VISUALSTYLE
  5
E6FF
102
{ACAD_REACTORS
330
E6E9
102
}
330
E6E9
100
AcDbVisualStyle
  2
JitterOff
 70
    20
177
     3
291
     1
 70
    58
 90
        2
176
     0
 90
        2
176
     0
 90
        0
176
     0
 90
        0
176
     0
 40
0.6
176
     0
 40
30.0
176
     0
 62
     7
420
 16777215
176
     0
 90
        1
176
     0
 90
        4
176
     0
 62
     7
176
     0
 62
   257
176
     0
 90
        1
176
     0
 90
        1
176
     0
 40
1.0
176
     0
 90
       10
176
     2
 62
     7
176
     0
 40
1.0
176
     0
 90
        1
176
     0
 90
        6
176
     0
 90
        2
176
     0
 62
     7
176
     0
 90
        5
176
     0
 90
        0
176
     0
 90
        0
176
     0
290
     0
176
     0
 90
        1
176
     0
 40
0.0
176
     0
 90
        0
176
     0
290
     0
176
     0
290
     1
176
     0
290
     1
176
     0
290
     0
176
     0
290
     0
176
     0
290
     0
176
     0
290
     0
176
     0
290
     0
176
     0
290
     0
176
     0
 90
       50
176
     0
 40
0.0
176
     0
 40
1.0
176
     0
 90
        0
176
     0
 62
    18
420
        0
176
     0
 90
       50
176
     0
 90
        3
176
     0
 62
     5
420
      255
176
     0
290
     0
176
     0
 90
       50
176
     0
 90
       50
176
     0
 90
       50
176
     0
290
     0
176
     0
 90
       50
176
     0
 62
   256
176
     0
 40
1.0
176
     0
 90
        2
176
     0
  1
strokes_ogs.tif
176
     0
290
     0
176
     0
 40
1.0
176
     0
 40
1.0
176
     0
  0
VISUALSTYLE
  5
E6F7
102
{ACAD_REACTORS
330
E6E9
102
}
330
E6E9
100
AcDbVisualStyle
  2
Linepattern
 70
    14
177
     3
291
     1
 70
    58
 90
        2
176
     1
 90
        2
176
     1
 90
        0
176
     1
 90
        0
176
     1
 40
0.6
176
     1
 40
30.0
176
     1
 62
     7
420
 16777215
176
     1
 90
        1
176
     1
 90
        4
176
     1
 62
     7
176
     1
 62
   257
176
     1
 90
        7
176
     1
 90
        7
176
     1
 40
1.0
176
     1
 90
        8
176
     1
 62
     7
176
     1
 40
1.0
176
     1
 90
        1
176
     1
 90
        6
176
     1
 90
        2
176
     1
 62
     7
176
     1
 90
        5
176
     1
 90
        0
176
     1
 90
        0
176
     1
290
     0
176
     1
 90
        1
176
     1
 40
0.0
176
     1
 90
        0
176
     1
290
     0
176
     1
290
     1
176
     1
290
     1
176
     1
290
     0
176
     1
290
     0
176
     1
290
     0
176
     1
290
     0
176
     1
290
     0
176
     1
290
     0
176
     1
 90
       50
176
     1
 40
0.0
176
     1
 40
1.0
176
     1
 90
        0
176
     1
 62
    18
420
        0
176
     1
 90
       50
176
     1
 90
        3
176
     1
 62
     5
420
      255
176
     1
290
     0
176
     1
 90
       50
176
     1
 90
       50
176
     1
 90
       50
176
     1
290
     0
176
     1
 90
       50
176
     1
 62
   256
176
     0
 40
1.0
176
     0
 90
        2
176
     1
  1
strokes_ogs.tif
176
     1
290
     0
176
     1
 40
1.0
176
     1
 40
1.0
176
     1
  0
VISUALSTYLE
  5
E700
102
{ACAD_REACTORS
330
E6E9
102
}
330
E6E9
100
AcDbVisualStyle
  2
OverhangOff
 70
    21
177
     3
291
     1
 70
    58
 90
        2
176
     0
 90
        2
176
     0
 90
        0
176
     0
 90
        0
176
     0
 40
0.6
176
     0
 40
30.0
176
     0
 62
     7
420
 16777215
176
     0
 90
        1
176
     0
 90
        4
176
     0
 62
     7
176
     0
 62
   257
176
     0
 90
        1
176
     0
 90
        1
176
     0
 40
1.0
176
     0
 90
        9
176
     2
 62
     7
176
     0
 40
1.0
176
     0
 90
        1
176
     0
 90
        6
176
     0
 90
        2
176
     0
 62
     7
176
     0
 90
        5
176
     0
 90
        0
176
     0
 90
        0
176
     0
290
     0
176
     0
 90
        1
176
     0
 40
0.0
176
     0
 90
        0
176
     0
290
     0
176
     0
290
     1
176
     0
290
     1
176
     0
290
     0
176
     0
290
     0
176
     0
290
     0
176
     0
290
     0
176
     0
290
     0
176
     0
290
     0
176
     0
 90
       50
176
     0
 40
0.0
176
     0
 40
1.0
176
     0
 90
        0
176
     0
 62
    18
420
        0
176
     0
 90
       50
176
     0
 90
        3
176
     0
 62
     5
420
      255
176
     0
290
     0
176
     0
 90
       50
176
     0
 90
       50
176
     0
 90
       50
176
     0
290
     0
176
     0
 90
       50
176
     0
 62
   256
176
     0
 40
1.0
176
     0
 90
        2
176
     0
  1
strokes_ogs.tif
176
     0
290
     0
176
     0
 40
1.0
176
     0
 40
1.0
176
     0
  0
VISUALSTYLE
  5
E6F3
102
{ACAD_REACTORS
330
E6E9
102
}
330
E6E9
100
AcDbVisualStyle
  2
Realistic
 70
     8
177
     3
291
     0
 70
    58
 90
        2
176
     1
 90
        3
176
     1
 90
        0
176
     1
 90
        2
176
     1
 40
0.6
176
     1
 40
30.0
176
     1
 62
     7
420
 16777215
176
     1
 90
        0
176
     1
 90
        0
176
     1
 62
     7
176
     1
 62
   257
176
     1
 90
        1
176
     1
 90
        1
176
     1
 40
1.0
176
     1
 90
        8
176
     1
 62
   257
176
     1
 40
1.0
176
     1
 90
        1
176
     1
 90
        6
176
     1
 90
        2
176
     1
 62
     7
176
     1
 90
        3
176
     1
 90
        0
176
     1
 90
        0
176
     1
290
     0
176
     1
 90
       13
176
     1
 40
0.0
176
     1
 90
        0
176
     1
290
     0
176
     1
290
     1
176
     1
290
     1
176
     1
290
     0
176
     1
290
     0
176
     1
290
     0
176
     1
290
     0
176
     1
290
     0
176
     1
290
     0
176
     1
 90
       50
176
     1
 40
0.0
176
     1
 40
1.0
176
     1
 90
        0
176
     1
 62
    18
420
        0
176
     1
 90
       50
176
     1
 90
        3
176
     1
 62
     5
420
      255
176
     1
290
     0
176
     1
 90
       50
176
     1
 90
       50
176
     1
 90
       50
176
     1
290
     0
176
     1
 90
       50
176
     1
 62
   256
176
     0
 40
1.0
176
     0
 90
        2
176
     1
  1
strokes_ogs.tif
176
     1
290
     0
176
     1
 40
1.0
176
     1
 40
1.0
176
     1
  0
VISUALSTYLE
  5
E6FE
102
{ACAD_REACTORS
330
E6E9
102
}
330
E6E9
100
AcDbVisualStyle
  2
Shaded
 70
    27
177
     3
291
     0
 70
    58
 90
        2
176
     1
 90
        2
176
     1
 90
        1
176
     1
 90
        2
176
     1
 40
0.6
176
     1
 40
30.0
176
     1
 62
     7
420
 16777215
176
     1
 90
        0
176
     1
 90
        4
176
     1
 62
     7
176
     1
 62
   257
176
     1
 90
        1
176
     1
 90
        1
176
     1
 40
1.0
176
     1
 90
        8
176
     1
 62
   257
176
     1
 40
1.0
176
     1
 90
        1
176
     1
 90
        6
176
     1
 90
        2
176
     1
 62
     8
420
  7895160
176
     1
 90
        3
176
     1
 90
        0
176
     1
 90
        0
176
     1
290
     0
176
     1
 90
        5
176
     1
 40
0.0
176
     1
 90
        0
176
     1
290
     0
176
     1
290
     1
176
     1
290
     1
176
     1
290
     0
176
     1
290
     0
176
     1
290
     0
176
     1
290
     0
176
     1
290
     0
176
     1
290
     0
176
     1
 90
       50
176
     1
 40
0.0
176
     1
 40
1.0
176
     1
 90
        0
176
     1
 62
    18
420
        0
176
     1
 90
       50
176
     1
 90
        3
176
     1
 62
     5
420
      255
176
     1
290
     0
176
     1
 90
       50
176
     1
 90
       50
176
     1
 90
       50
176
     1
290
     0
176
     1
 90
       50
176
     1
 62
   256
176
     0
 40
1.0
176
     0
 90
        2
176
     1
  1
strokes_ogs.tif
176
     1
290
     0
176
     1
 40
1.0
176
     1
 40
1.0
176
     1
  0
VISUALSTYLE
  5
E6FD
102
{ACAD_REACTORS
330
E6E9
102
}
330
E6E9
100
AcDbVisualStyle
  2
Shaded with edges
 70
    26
177
     3
291
     0
 70
    58
 90
        2
176
     1
 90
        2
176
     1
 90
        1
176
     1
 90
        2
176
     1
 40
0.6
176
     1
 40
30.0
176
     1
 62
     7
420
 16777215
176
     1
 90
        1
176
     1
 90
        2
176
     1
 62
     7
176
     1
 62
   257
176
     1
 90
        2
176
     1
 90
        1
176
     1
 40
1.0
176
     1
 90
        8
176
     1
 62
   257
176
     1
 40
1.0
176
     1
 90
        1
176
     1
 90
        6
176
     1
 90
        2
176
     1
 62
     7
176
     1
 90
        3
176
     1
 90
        0
176
     1
 90
        0
176
     1
290
     0
176
     1
 90
        5
176
     1
 40
0.0
176
     1
 90
        0
176
     1
290
     0
176
     1
290
     1
176
     1
290
     1
176
     1
290
     0
176
     1
290
     0
176
     1
290
     0
176
     1
290
     0
176
     1
290
     0
176
     1
290
     0
176
     1
 90
       50
176
     1
 40
0.0
176
     1
 40
1.0
176
     1
 90
        0
176
     1
 62
    18
420
        0
176
     1
 90
       50
176
     1
 90
        3
176
     1
 62
     5
420
      255
176
     1
290
     0
176
     1
 90
       50
176
     1
 90
       50
176
     1
 90
       50
176
     1
290
     0
176
     1
 90
       50
176
     1
 62
   256
176
     0
 40
1.0
176
     0
 90
        2
176
     1
  1
strokes_ogs.tif
176
     1
290
     0
176
     1
 40
1.0
176
     1
 40
1.0
176
     1
  0
VISUALSTYLE
  5
E6FA
102
{ACAD_REACTORS
330
E6E9
102
}
330
E6E9
100
AcDbVisualStyle
  2
Shades of Gray
 70
    23
177
     3
291
     0
 70
    58
 90
        2
176
     1
 90
        2
176
     1
 90
        3
176
     1
 90
        0
176
     1
 40
0.6
176
     1
 40
30.0
176
     1
 62
     7
420
 16777215
176
     1
 90
        2
176
     1
 90
        2
176
     1
 62
     7
176
     1
 62
     7
176
     1
 90
        1
176
     1
 90
        1
176
     1
 40
40.0
176
     1
 90
        8
176
     1
 62
     7
176
     1
 40
1.0
176
     1
 90
        1
176
     1
 90
        6
176
     1
 90
        2
176
     1
 62
     7
176
     1
 90
        3
176
     1
 90
        0
176
     1
 90
        0
176
     1
290
     0
176
     1
 90
        1
176
     1
 40
0.0
176
     1
 90
        0
176
     1
290
     0
176
     1
290
     1
176
     1
290
     1
176
     1
290
     0
176
     1
290
     0
176
     1
290
     0
176
     1
290
     0
176
     1
290
     0
176
     1
290
     0
176
     1
 90
       50
176
     1
 40
0.0
176
     1
 40
1.0
176
     1
 90
        0
176
     1
 62
    18
420
        0
176
     1
 90
       50
176
     1
 90
        3
176
     1
 62
     5
420
      255
176
     1
290
     0
176
     1
 90
       50
176
     1
 90
       50
176
     1
 90
       50
176
     1
290
     0
176
     1
 90
       50
176
     1
 62
   256
176
     0
 40
1.0
176
     0
 90
        2
176
     1
  1
strokes_ogs.tif
176
     1
290
     0
176
     1
 40
1.0
176
     1
 40
1.0
176
     1
  0
VISUALSTYLE
  5
E6FB
102
{ACAD_REACTORS
330
E6E9
102
}
330
E6E9
100
AcDbVisualStyle
  2
Sketchy
 70
    24
177
     3
291
     0
 70
    58
 90
        1
176
     1
 90
        2
176
     1
 90
        2
176
     1
 90
        0
176
     1
 40
0.6
176
     1
 40
30.0
176
     1
 62
     7
420
 16777215
176
     1
 90
        2
176
     1
 90
        2
176
     1
 62
     7
176
     1
 62
     7
176
     1
 90
        1
176
     1
 90
        1
176
     1
 40
40.0
176
     1
 90
       11
176
     1
 62
     7
176
     1
 40
1.0
176
     1
 90
        1
176
     1
 90
        6
176
     1
 90
        2
176
     1
 62
     7
176
     1
 90
        6
176
     1
 90
        0
176
     1
 90
        0
176
     1
290
     0
176
     1
 90
        1
176
     1
 40
0.0
176
     1
 90
        0
176
     1
290
     0
176
     1
290
     1
176
     1
290
     1
176
     1
290
     0
176
     1
290
     0
176
     1
290
     0
176
     1
290
     0
176
     1
290
     0
176
     1
290
     0
176
     1
 90
       50
176
     1
 40
0.0
176
     1
 40
1.0
176
     1
 90
        0
176
     1
 62
    18
420
        0
176
     1
 90
       50
176
     1
 90
        3
176
     1
 62
     5
420
      255
176
     1
290
     0
176
     1
 90
       50
176
     1
 90
       50
176
     1
 90
       50
176
     1
290
     0
176
     1
 90
       50
176
     1
 62
   256
176
     0
 40
1.0
176
     0
 90
        2
176
     1
  1
strokes_ogs.tif
176
     1
290
     0
176
     1
 40
1.0
176
     1
 40
1.0
176
     1
  0
VISUALSTYLE
  5
E6F6
102
{ACAD_REACTORS
330
E6E9
102
}
330
E6E9
100
AcDbVisualStyle
  2
Thicken
 70
    13
177
     3
291
     1
 70
    58
 90
        2
176
     1
 90
        2
176
     1
 90
        0
176
     1
 90
        0
176
     1
 40
0.6
176
     1
 40
30.0
176
     1
 62
     7
420
 16777215
176
     1
 90
        1
176
     1
 90
        4
176
     1
 62
     7
176
     1
 62
   257
176
     1
 90
        1
176
     1
 90
        1
176
     1
 40
1.0
176
     1
 90
       12
176
     1
 62
     7
176
     1
 40
1.0
176
     1
 90
        1
176
     1
 90
        6
176
     1
 90
        2
176
     1
 62
     7
176
     1
 90
        5
176
     1
 90
        0
176
     1
 90
        0
176
     1
290
     0
176
     1
 90
        1
176
     1
 40
0.0
176
     1
 90
        0
176
     1
290
     0
176
     1
290
     1
176
     1
290
     1
176
     1
290
     0
176
     1
290
     0
176
     1
290
     0
176
     1
290
     0
176
     1
290
     0
176
     1
290
     0
176
     1
 90
       50
176
     1
 40
0.0
176
     1
 40
1.0
176
     1
 90
        0
176
     1
 62
    18
420
        0
176
     1
 90
       50
176
     1
 90
        3
176
     1
 62
     5
420
      255
176
     1
290
     0
176
     1
 90
       50
176
     1
 90
       50
176
     1
 90
       50
176
     1
290
     0
176
     1
 90
       50
176
     1
 62
   256
176
     0
 40
1.0
176
     0
 90
        2
176
     1
  1
strokes_ogs.tif
176
     1
290
     0
176
     1
 40
1.0
176
     1
 40
1.0
176
     1
  0
VISUALSTYLE
  5
E6F0
102
{ACAD_REACTORS
330
E6E9
102
}
330
E6E9
100
AcDbVisualStyle
  2
Wireframe
 70
     5
177
     3
291
     0
 70
    58
 90
        0
176
     1
 90
        2
176
     1
 90
        0
176
     1
 90
        0
176
     1
 40
0.6
176
     1
 40
30.0
176
     1
 62
     7
420
 16777215
176
     1
 90
        1
176
     1
 90
        4
176
     1
 62
     7
176
     1
 62
   257
176
     1
 90
        1
176
     1
 90
        1
176
     1
 40
1.0
176
     1
 90
        0
176
     1
 62
   257
176
     1
 40
1.0
176
     1
 90
        1
176
     1
 90
        6
176
     1
 90
        2
176
     1
 62
     7
176
     1
 90
        3
176
     1
 90
        0
176
     1
 90
        0
176
     1
290
     0
176
     1
 90
        1
176
     1
 40
0.0
176
     1
 90
        0
176
     1
290
     0
176
     1
290
     1
176
     1
290
     1
176
     1
290
     0
176
     1
290
     0
176
     1
290
     0
176
     1
290
     0
176
     1
290
     0
176
     1
290
     0
176
     1
 90
       50
176
     1
 40
0.0
176
     1
 40
1.0
176
     1
 90
        0
176
     1
 62
    18
420
        0
176
     1
 90
       50
176
     1
 90
        3
176
     1
 62
     5
420
      255
176
     1
290
     0
176
     1
 90
       50
176
     1
 90
       50
176
     1
 90
       50
176
     1
290
     0
176
     1
 90
       50
176
     1
 62
   256
176
     0
 40
1.0
176
     0
 90
        2
176
     1
  1
strokes_ogs.tif
176
     1
290
     0
176
     1
 40
1.0
176
     1
 40
1.0
176
     1
  0
VISUALSTYLE
  5
E6FC
102
{ACAD_REACTORS
330
E6E9
102
}
330
E6E9
100
AcDbVisualStyle
  2
X-Ray
 70
    25
177
     3
291
     0
 70
    58
 90
        2
176
     1
 90
        2
176
     1
 90
        1
176
     1
 90
        1
176
     1
 40
0.5
176
     1
 40
30.0
176
     1
 62
     7
420
 16777215
176
     1
 90
        1
176
     1
 90
        0
176
     1
 62
     7
176
     1
 62
   257
176
     1
 90
        1
176
     1
 90
        1
176
     1
 40
1.0
176
     1
 90
        8
176
     1
 62
     7
176
     1
 40
1.0
176
     1
 90
        1
176
     1
 90
        6
176
     1
 90
        2
176
     1
 62
     7
176
     1
 90
        3
176
     1
 90
        0
176
     1
 90
        0
176
     1
290
     0
176
     1
 90
       13
176
     1
 40
0.0
176
     1
 90
        0
176
     1
290
     0
176
     1
290
     1
176
     1
290
     1
176
     1
290
     0
176
     1
290
     0
176
     1
290
     0
176
     1
290
     0
176
     1
290
     0
176
     1
290
     0
176
     1
 90
       50
176
     1
 40
0.0
176
     1
 40
1.0
176
     1
 90
        0
176
     1
 62
    18
420
        0
176
     1
 90
       50
176
     1
 90
        3
176
     1
 62
     5
420
      255
176
     1
290
     0
176
     1
 90
       50
176
     1
 90
       50
176
     1
 90
       50
176
     1
290
     0
176
     1
 90
       50
176
     1
 62
   256
176
     0
 40
1.0
176
     0
 90
        2
176
     1
  1
strokes_ogs.tif
176
     1
290
     0
176
     1
 40
1.0
176
     1
 40
1.0
176
     1
  0
DICTIONARYVAR
  5
F3D9
102
{ACAD_REACTORS
330
51
102
}
330
51
100
DictionaryVariables
280
     0
  1
1:1
  0
DICTIONARYVAR
  5
F3D5
102
{ACAD_REACTORS
330
51
102
}
330
51
100
DictionaryVariables
280
     0
  1
STANDARD
  0
DICTIONARYVAR
  5
F3D4
102
{ACAD_REACTORS
330
51
102
}
330
51
100
DictionaryVariables
280
     0
  1
STANDARD
  0
DICTIONARYVAR
  5
F3D6
102
{ACAD_REACTORS
330
51
102
}
330
51
100
DictionaryVariables
280
     0
  1
Metric50
  0
DICTIONARYVAR
  5
F3D7
102
{ACAD_REACTORS
330
51
102
}
330
51
100
DictionaryVariables
280
     0
  1
Metric50
  0
DICTIONARYVAR
  5
52
102
{ACAD_REACTORS
330
51
102
}
330
51
100
DictionaryVariables
280
     0
  1
0
  0
DICTIONARYVAR
  5
F3DB
102
{ACAD_REACTORS
330
51
102
}
330
51
100
DictionaryVariables
280
     0
  1
1
  0
DICTIONARYVAR
  5
F3DC
102
{ACAD_REACTORS
330
51
102
}
330
51
100
DictionaryVariables
280
     0
  1
15
  0
DICTIONARYVAR
  5
F3DA
102
{ACAD_REACTORS
330
51
102
}
330
51
100
DictionaryVariables
280
     0
  1
0
  0
DICTIONARYVAR
  5
F3D8
102
{ACAD_REACTORS
330
51
102
}
330
51
100
DictionaryVariables
280
     0
  1
0
  0
DICTIONARYVAR
  5
D1FE
102
{ACAD_REACTORS
330
51
102
}
330
51
100
DictionaryVariables
280
     0
  1
96
  0
DICTIONARY
  5
E6DA
330
E6D9
100
AcDbDictionary
280
     1
281
     1
  3
BUMPTILE
360
E6DC
  3
DIFFUSETILE
360
E6DB
  3
OPACITYTILE
360
E6DF
  3
REFLECTIONTILE
360
E6DE
  3
REFRACTIONTILE
360
E6E0
  3
SPECULARTILE
360
E6DD
  0
DICTIONARY
  5
E6D2
330
E6D1
100
AcDbDictionary
280
     1
281
     1
  3
BUMPTILE
360
E6D4
  3
DIFFUSETILE
360
E6D3
  3
OPACITYTILE
360
E6D7
  3
REFLECTIONTILE
360
E6D6
  3
REFRACTIONTILE
360
E6D8
  3
SPECULARTILE
360
E6D5
  0
DICTIONARY
  5
E6E2
330
E6E1
100
AcDbDictionary
280
     1
281
     1
  3
BUMPTILE
360
E6E4
  3
DIFFUSETILE
360
E6E3
  3
OPACITYTILE
360
E6E7
  3
REFLECTIONTILE
360
E6E6
  3
REFRACTIONTILE
360
E6E8
  3
SPECULARTILE
360
E6E5
  0
DICTIONARY
  5
F3DD
330
E705
100
AcDbDictionary
280
     1
281
     1
  3
ACAD_ROUNDTRIP_2008_TABLESTYLE_CELLSTYLEMAP
360
F3DE
  0
XRECORD
  5
E6DC
102
{ACAD_REACTORS
330
E6DA
102
}
330
E6DA
100
AcDbXrecord
280
     1
270
     1
271
     1
  0
XRECORD
  5
E6DB
102
{ACAD_REACTORS
330
E6DA
102
}
330
E6DA
100
AcDbXrecord
280
     1
270
     1
271
     1
  0
XRECORD
  5
E6DF
102
{ACAD_REACTORS
330
E6DA
102
}
330
E6DA
100
AcDbXrecord
280
     1
270
     1
271
     1
  0
XRECORD
  5
E6DE
102
{ACAD_REACTORS
330
E6DA
102
}
330
E6DA
100
AcDbXrecord
280
     1
270
     1
271
     1
  0
XRECORD
  5
E6E0
102
{ACAD_REACTORS
330
E6DA
102
}
330
E6DA
100
AcDbXrecord
280
     1
270
     1
271
     1
  0
XRECORD
  5
E6DD
102
{ACAD_REACTORS
330
E6DA
102
}
330
E6DA
100
AcDbXrecord
280
     1
270
     1
271
     1
  0
XRECORD
  5
E6D4
102
{ACAD_REACTORS
330
E6D2
102
}
330
E6D2
100
AcDbXrecord
280
     1
270
     1
271
     1
  0
XRECORD
  5
E6D3
102
{ACAD_REACTORS
330
E6D2
102
}
330
E6D2
100
AcDbXrecord
280
     1
270
     1
271
     1
  0
XRECORD
  5
E6D7
102
{ACAD_REACTORS
330
E6D2
102
}
330
E6D2
100
AcDbXrecord
280
     1
270
     1
271
     1
  0
XRECORD
  5
E6D6
102
{ACAD_REACTORS
330
E6D2
102
}
330
E6D2
100
AcDbXrecord
280
     1
270
     1
271
     1
  0
XRECORD
  5
E6D8
102
{ACAD_REACTORS
330
E6D2
102
}
330
E6D2
100
AcDbXrecord
280
     1
270
     1
271
     1
  0
XRECORD
  5
E6D5
102
{ACAD_REACTORS
330
E6D2
102
}
330
E6D2
100
AcDbXrecord
280
     1
270
     1
271
     1
  0
XRECORD
  5
E6E4
102
{ACAD_REACTORS
330
E6E2
102
}
330
E6E2
100
AcDbXrecord
280
     1
270
     1
271
     1
  0
XRECORD
  5
E6E3
102
{ACAD_REACTORS
330
E6E2
102
}
330
E6E2
100
AcDbXrecord
280
     1
270
     1
271
     1
  0
XRECORD
  5
E6E7
102
{ACAD_REACTORS
330
E6E2
102
}
330
E6E2
100
AcDbXrecord
280
     1
270
     1
271
     1
  0
XRECORD
  5
E6E6
102
{ACAD_REACTORS
330
E6E2
102
}
330
E6E2
100
AcDbXrecord
280
     1
270
     1
271
     1
  0
XRECORD
  5
E6E8
102
{ACAD_REACTORS
330
E6E2
102
}
330
E6E2
100
AcDbXrecord
280
     1
270
     1
271
     1
  0
XRECORD
  5
E6E5
102
{ACAD_REACTORS
330
E6E2
102
}
330
E6E2
100
AcDbXrecord
280
     1
270
     1
271
     1
  0
CELLSTYLEMAP
  5
F3DE
102
{ACAD_REACTORS
330
F3DD
102
}
330
F3DD
100
AcDbCellStyleMap
 90
        3
300
CELLSTYLE
  1
TABLEFORMAT_BEGIN
 90
        5
170
     1
 91
        0
 92
    32768
 62
   257
 93
        1
300
CONTENTFORMAT
  1
CONTENTFORMAT_BEGIN
 90
        0
 91
        0
 92
      512
 93
        0
300

 40
0.0
140
1.0
 94
        5
 62
     0
340
F
144
6.0
309
CONTENTFORMAT_END
171
     1
301
MARGIN
  1
CELLMARGIN_BEGIN
 40
1.5
 40
1.5
 40
1.5
 40
1.5
 40
4.5
 40
4.5
309
CELLMARGIN_END
 94
        6
 95
        1
302
GRIDFORMAT
  1
GRIDFORMAT_BEGIN
 90
        0
 91
        1
 62
     0
 92
       -2
340
0
 93
        0
 40
1.125
309
GRIDFORMAT_END
 95
        2
302
GRIDFORMAT
  1
GRIDFORMAT_BEGIN
 90
        0
 91
        1
 62
     0
 92
       -2
340
0
 93
        0
 40
1.125
309
GRIDFORMAT_END
 95
        4
302
GRIDFORMAT
  1
GRIDFORMAT_BEGIN
 90
        0
 91
        1
 62
     0
 92
       -2
340
0
 93
        0
 40
1.125
309
GRIDFORMAT_END
 95
        8
302
GRIDFORMAT
  1
GRIDFORMAT_BEGIN
 90
        0
 91
        1
 62
     0
 92
       -2
340
0
 93
        0
 40
1.125
309
GRIDFORMAT_END
 95
       16
302
GRIDFORMAT
  1
GRIDFORMAT_BEGIN
 90
        0
 91
        1
 62
     0
 92
       -2
340
0
 93
        0
 40
1.125
309
GRIDFORMAT_END
 95
       32
302
GRIDFORMAT
  1
GRIDFORMAT_BEGIN
 90
        0
 91
        1
 62
     0
 92
       -2
340
0
 93
        0
 40
1.125
309
GRIDFORMAT_END
309
TABLEFORMAT_END
  1
CELLSTYLE_BEGIN
 90
        1
 91
        1
300
_TITLE
309
CELLSTYLE_END
300
CELLSTYLE
  1
TABLEFORMAT_BEGIN
 90
        5
170
     1
 91
        0
 92
        0
 62
   257
 93
        1
300
CONTENTFORMAT
  1
CONTENTFORMAT_BEGIN
 90
        0
 91
        0
 92
      512
 93
        0
300

 40
0.0
140
1.0
 94
        5
 62
     0
340
F
144
4.5
309
CONTENTFORMAT_END
171
     1
301
MARGIN
  1
CELLMARGIN_BEGIN
 40
1.5
 40
1.5
 40
1.5
 40
1.5
 40
4.5
 40
4.5
309
CELLMARGIN_END
 94
        6
 95
        1
302
GRIDFORMAT
  1
GRIDFORMAT_BEGIN
 90
        0
 91
        1
 62
     0
 92
       -2
340
0
 93
        0
 40
1.125
309
GRIDFORMAT_END
 95
        2
302
GRIDFORMAT
  1
GRIDFORMAT_BEGIN
 90
        0
 91
        1
 62
     0
 92
       -2
340
0
 93
        0
 40
1.125
309
GRIDFORMAT_END
 95
        4
302
GRIDFORMAT
  1
GRIDFORMAT_BEGIN
 90
        0
 91
        1
 62
     0
 92
       -2
340
0
 93
        0
 40
1.125
309
GRIDFORMAT_END
 95
        8
302
GRIDFORMAT
  1
GRIDFORMAT_BEGIN
 90
        0
 91
        1
 62
     0
 92
       -2
340
0
 93
        0
 40
1.125
309
GRIDFORMAT_END
 95
       16
302
GRIDFORMAT
  1
GRIDFORMAT_BEGIN
 90
        0
 91
        1
 62
     0
 92
       -2
340
0
 93
        0
 40
1.125
309
GRIDFORMAT_END
 95
       32
302
GRIDFORMAT
  1
GRIDFORMAT_BEGIN
 90
        0
 91
        1
 62
     0
 92
       -2
340
0
 93
        0
 40
1.125
309
GRIDFORMAT_END
309
TABLEFORMAT_END
  1
CELLSTYLE_BEGIN
 90
        2
 91
        1
300
_HEADER
309
CELLSTYLE_END
300
CELLSTYLE
  1
TABLEFORMAT_BEGIN
 90
        5
170
     1
 91
        0
 92
        0
 62
   257
 93
        1
300
CONTENTFORMAT
  1
CONTENTFORMAT_BEGIN
 90
        0
 91
        0
 92
      512
 93
        0
300

 40
0.0
140
1.0
 94
        2
 62
     0
340
F
144
4.5
309
CONTENTFORMAT_END
171
     1
301
MARGIN
  1
CELLMARGIN_BEGIN
 40
1.5
 40
1.5
 40
1.5
 40
1.5
 40
4.5
 40
4.5
309
CELLMARGIN_END
 94
        6
 95
        1
302
GRIDFORMAT
  1
GRIDFORMAT_BEGIN
 90
        0
 91
        1
 62
     0
 92
       -2
340
0
 93
        0
 40
1.125
309
GRIDFORMAT_END
 95
        2
302
GRIDFORMAT
  1
GRIDFORMAT_BEGIN
 90
        0
 91
        1
 62
     0
 92
       -2
340
0
 93
        0
 40
1.125
309
GRIDFORMAT_END
 95
        4
302
GRIDFORMAT
  1
GRIDFORMAT_BEGIN
 90
        0
 91
        1
 62
     0
 92
       -2
340
0
 93
        0
 40
1.125
309
GRIDFORMAT_END
 95
        8
302
GRIDFORMAT
  1
GRIDFORMAT_BEGIN
 90
        0
 91
        1
 62
     0
 92
       -2
340
0
 93
        0
 40
1.125
309
GRIDFORMAT_END
 95
       16
302
GRIDFORMAT
  1
GRIDFORMAT_BEGIN
 90
        0
 91
        1
 62
     0
 92
       -2
340
0
 93
        0
 40
1.125
309
GRIDFORMAT_END
 95
       32
302
GRIDFORMAT
  1
GRIDFORMAT_BEGIN
 90
        0
 91
        1
 62
     0
 92
       -2
340
0
 93
        0
 40
1.125
309
GRIDFORMAT_END
309
TABLEFORMAT_END
  1
CELLSTYLE_BEGIN
 90
        3
 91
        2
300
_DATA
309
CELLSTYLE_END
  0
ENDSEC
  0
SECTION
  2
ACDSDATA
 70
     2
 71
     8
  0
ACDSSCHEMA
 90
        0
  1
AcDb_Thumbnail_Schema
  2
AcDbDs::ID
280
    10
 91
        8
  2
Thumbnail_Data
280
    15
 91
        0
101
ACDSRECORD
 95
        0
 90
        1
  2
AcDbDs::TreatedAsObjectData
280
     1
291
     1
101
ACDSRECORD
 95
        0
 90
        2
  2
AcDbDs::Legacy
280
     1
291
     1
101
ACDSRECORD
  1
AcDbDs::ID
 90
        3
  2
AcDs:Indexable
280
     1
291
     1
101
ACDSRECORD
  1
AcDbDs::ID
 90
        4
  2
AcDbDs::HandleAttribute
280
     7
282
     1
  0
ACDSSCHEMA
 90
        1
  1
AcDbDs::TreatedAsObjectDataSchema
  2
AcDbDs::TreatedAsObjectData
280
     1
 91
        0
  0
ACDSSCHEMA
 90
        2
  1
AcDbDs::LegacySchema
  2
AcDbDs::Legacy
280
     1
 91
        0
  0
ACDSSCHEMA
 90
        3
  1
AcDbDs::IndexedPropertySchema
  2
AcDs:Indexable
280
     1
 91
        0
  0
ACDSSCHEMA
 90
        4
  1
AcDbDs::HandleAttributeSchema
  2
AcDbDs::HandleAttribute
280
     7
 91
        1
284
     1
  0
ACDSRECORD
 90
        0
  2
AcDbDs::ID
280
    10
320
E71F
  2
Thumbnail_Data
280
    15
 94
     1313
310
89504E470D0A1A0A0000000D4948445200000100000000670803000000D82A6C0200000300504C5445000000FFFFFF0000000000000000000000000000000000000000000000000000000000330000660000990000CC0000FF0033000033330033660033990033CC0033FF0066000066330066660066990066CC0066FF0099
310
000099330099660099990099CC0099FF00CC0000CC3300CC6600CC9900CCCC00CCFF00FF0000FF3300FF6600FF9900FFCC00FFFF3300003300333300663300993300CC3300FF3333003333333333663333993333CC3333FF3366003366333366663366993366CC3366FF3399003399333399663399993399CC3399FF33CC00
310
33CC3333CC6633CC9933CCCC33CCFF33FF0033FF3333FF6633FF9933FFCC33FFFF6600006600336600666600996600CC6600FF6633006633336633666633996633CC6633FF6666006666336666666666996666CC6666FF6699006699336699666699996699CC6699FF66CC0066CC3366CC6666CC9966CCCC66CCFF66FF0066
310
FF3366FF6666FF9966FFCC66FFFF9900009900339900669900999900CC9900FF9933009933339933669933999933CC9933FF9966009966339966669966999966CC9966FF9999009999339999669999999999CC9999FF99CC0099CC3399CC6699CC9999CCCC99CCFF99FF0099FF3399FF6699FF9999FFCC99FFFFCC0000CC00
310
33CC0066CC0099CC00CCCC00FFCC3300CC3333CC3366CC3399CC33CCCC33FFCC6600CC6633CC6666CC6699CC66CCCC66FFCC9900CC9933CC9966CC9999CC99CCCC99FFCCCC00CCCC33CCCC66CCCC99CCCCCCCCCCFFCCFF00CCFF33CCFF66CCFF99CCFFCCCCFFFFFF0000FF0033FF0066FF0099FF00CCFF00FFFF3300FF3333
310
FF3366FF3399FF33CCFF33FFFF6600FF6633FF6666FF6699FF66CCFF66FFFF9900FF9933FF9966FF9999FF99CCFF99FFFFCC00FFCC33FFCC66FFCC99FFCCCCFFCCFFFFFF00FFFF33FFFF66FFFF99FFFFCCFFFFFF0000000D0D0D1A1A1A2828283535354343435050505D5D5D6B6B6B787878868686939393A1A1A1AEAEAEBB
310
BBBBC9C9C9D6D6D6E4E4E4F1F1F1FFFFFF0000000000000000000000000000000000000000000000000000000000003AE5ACE9000001DC4944415478DAED9C598E84300C057D9C77FF138ED40364218E189A1EB59D7A7FC411C2859D1DCC1042E859E9930A0120E8BD010080071F724BD8C7B3364E047CA8D9220500000000
310
000000000804C09BCBDC9CE38407207B6F92170E804EB6B1C7CA0960F0667F8BBCF20500180000B01E80A6CD535F45E901A82D6BAAA8AC1FA405203BB97C5C155BEA0850ED5E17012A951237829A34825AAC17587D2024CF919C00DA589F4D8192CE054E6E5F31A40530AAB9008040F706000000F01F0FA9B7DC88370E38F7
310
FDB2D1CAA8D73DF49D673000EA9F78F37D50EC5ECA141880BC9E7F3A12F6AFE245803B4D988E9E2EDF301800F9F3A49C0026813EDB1AD1F53B02201E80AD095C04C0BD43B0131B43610000000000000000001007C074EDFFEF1B03F1D603FC659F5B07E50202782D0299733EB032A604501F8C1C0CF14BD16502F17687EB8F
310
875A47DBC2AC002A02D667BB5A404923604BF0D7D2EEEE6F5573B75AEE14B0120556AD8977B6CC6DC0D8D5D6963A05B6D77EDEE7396C991BC1A3A1B77E93A3B52F90025DB51552E0086F0D378354F7144923603F19393C23548C498FC99DBF1132EFCBA1256683EE96405A00DE9BBEFDD9182B420000000000000000000000
310
0000C0170358FD7F8208218410420821841042E89BF5039634C941A2871D3B0000000049454E44AE426082
  0
ENDSEC
  0
EOF
