  0
SECTION
  2
HEADER
  9
$ACADVER
  1
AC1032
  9
$ACADMAINTVER
 90
      174
  9
$DWGCODEPAGE
  3
ANSI_932
  9
$LASTSAVEDBY
  1
satoshi.ogura
  9
$REQUIREDVERSIONS
160
                 0
  9
$INSBASE
 10
268.4340021441085
 20
176.78614296069
 30
0.0
  9
$EXTMIN
 10
-53.69350172051236
 20
242.0904202370508
 30
0.0
  9
$EXTMAX
 10
875.8499362372415
 20
562.6730869020498
 30
0.0
  9
$LIMMIN
 10
0.0
 20
0.0
  9
$LIMMAX
 10
554.0
 20
395.0
  9
$ORTHOMODE
 70
     0
  9
$REGENMODE
 70
     1
  9
$FILLMODE
 70
     1
  9
$QTEXTMODE
 70
     0
  9
$MIRRTEXT
 70
     1
  9
$LTSCALE
 40
2.0
  9
$ATTMODE
 70
     1
  9
$TEXTSIZE
 40
10.0
  9
$TRACEWID
 40
0.2
  9
$TEXTSTYLE
  7
KANJI
  9
$CLAYER
  8
1外形線
  9
$CELTYPE
  6
BYLAYER
  9
$CECOLOR
 62
   256
  9
$CELTSCALE
 40
3.0
  9
$DISPSILH
 70
     0
  9
$DIMSCALE
 40
1.0
  9
$DIMASZ
 40
1.0
  9
$DIMEXO
 40
1.0
  9
$DIMDLI
 40
6.0
  9
$DIMRND
 40
0.0
  9
$DIMDLE
 40
0.0
  9
$DIMEXE
 40
1.0
  9
$DIMTP
 40
0.0
  9
$DIMTM
 40
0.0
  9
$DIMTXT
 40
2.5
  9
$DIMCEN
 40
0.0
  9
$DIMTSZ
 40
0.0
  9
$DIMTOL
 70
     0
  9
$DIMLIM
 70
     0
  9
$DIMTIH
 70
     0
  9
$DIMTOH
 70
     0
  9
$DIMSE1
 70
     0
  9
$DIMSE2
 70
     0
  9
$DIMTAD
 70
     1
  9
$DIMZIN
 70
     8
  9
$DIMBLK
  1

  9
$DIMASO
 70
     1
  9
$DIMSHO
 70
     1
  9
$DIMPOST
  1

  9
$DIMAPOST
  1

  9
$DIMALT
 70
     0
  9
$DIMALTD
 70
     2
  9
$DIMALTF
 40
25.4
  9
$DIMLFAC
 40
1.0
  9
$DIMTOFL
 70
     1
  9
$DIMTVP
 40
0.0
  9
$DIMTIX
 70
     0
  9
$DIMSOXD
 70
     0
  9
$DIMSAH
 70
     1
  9
$DIMBLK1
  1
1
  9
$DIMBLK2
  1
1
  9
$DIMSTYLE
  2
STANDARD
  9
$DIMCLRD
 70
     0
  9
$DIMCLRE
 70
     0
  9
$DIMCLRT
 70
     0
  9
$DIMTFAC
 40
1.0
  9
$DIMGAP
 40
0.5
  9
$DIMJUST
 70
     0
  9
$DIMSD1
 70
     0
  9
$DIMSD2
 70
     0
  9
$DIMTOLJ
 70
     1
  9
$DIMTZIN
 70
     8
  9
$DIMALTZ
 70
     8
  9
$DIMALTTZ
 70
     8
  9
$DIMUPT
 70
     0
  9
$DIMDEC
 70
     4
  9
$DIMTDEC
 70
     4
  9
$DIMALTU
 70
     2
  9
$DIMALTTD
 70
     2
  9
$DIMTXSTY
  7
KANJI
  9
$DIMAUNIT
 70
     0
  9
$DIMADEC
 70
     0
  9
$DIMALTRND
 40
0.0
  9
$DIMAZIN
 70
     0
  9
$DIMDSEP
 70
    46
  9
$DIMATFIT
 70
     3
  9
$DIMFRAC
 70
     0
  9
$DIMLDRBLK
  1

  9
$DIMLUNIT
 70
     2
  9
$DIMLWD
 70
    -2
  9
$DIMLWE
 70
    -2
  9
$DIMTMOVE
 70
     0
  9
$DIMFXL
 40
1.0
  9
$DIMFXLON
 70
     0
  9
$DIMJOGANG
 40
0.7853981633974483
  9
$DIMTFILL
 70
     0
  9
$DIMTFILLCLR
 70
     0
  9
$DIMARCSYM
 70
     0
  9
$DIMLTYPE
  6

  9
$DIMLTEX1
  6

  9
$DIMLTEX2
  6

  9
$DIMTXTDIRECTION
 70
     0
  9
$LUNITS
 70
     2
  9
$LUPREC
 70
     4
  9
$SKETCHINC
 40
0.1
  9
$FILLETRAD
 40
0.0
  9
$AUNITS
 70
     0
  9
$AUPREC
 70
     0
  9
$MENU
  1
tcad-s
  9
$ELEVATION
 40
0.0
  9
$PELEVATION
 40
0.0
  9
$THICKNESS
 40
0.0
  9
$LIMCHECK
 70
     0
  9
$CHAMFERA
 40
0.0
  9
$CHAMFERB
 40
0.0
  9
$CHAMFERC
 40
0.0
  9
$CHAMFERD
 40
0.0
  9
$SKPOLY
 70
     0
  9
$TDCREATE
 40
2452047.766435185
  9
$TDUCREATE
 40
2452047.391435185
  9
$TDUPDATE
 40
2459600.758217593
  9
$TDUUPDATE
 40
2459600.383217593
  9
$TDINDWG
 40
0.0349791204
  9
$TDUSRTIMER
 40
0.0349791204
  9
$USRTIMER
 70
     1
  9
$ANGBASE
 50
0.0
  9
$ANGDIR
 70
     0
  9
$PDMODE
 70
     0
  9
$PDSIZE
 40
2.399999999999999
  9
$PLINEWID
 40
0.0
  9
$SPLFRAME
 70
     0
  9
$SPLINETYPE
 70
     6
  9
$SPLINESEGS
 70
     8
  9
$HANDSEED
  5
E20F
  9
$SURFTAB1
 70
     6
  9
$SURFTAB2
 70
     6
  9
$SURFTYPE
 70
     6
  9
$SURFU
 70
     6
  9
$SURFV
 70
     6
  9
$UCSBASE
  2

  9
$UCSNAME
  2

  9
$UCSORG
 10
0.0
 20
0.0
 30
0.0
  9
$UCSXDIR
 10
1.0
 20
0.0
 30
0.0
  9
$UCSYDIR
 10
0.0
 20
1.0
 30
0.0
  9
$UCSORTHOREF
  2

  9
$UCSORTHOVIEW
 70
     0
  9
$UCSORGTOP
 10
0.0
 20
0.0
 30
0.0
  9
$UCSORGBOTTOM
 10
0.0
 20
0.0
 30
0.0
  9
$UCSORGLEFT
 10
0.0
 20
0.0
 30
0.0
  9
$UCSORGRIGHT
 10
0.0
 20
0.0
 30
0.0
  9
$UCSORGFRONT
 10
0.0
 20
0.0
 30
0.0
  9
$UCSORGBACK
 10
0.0
 20
0.0
 30
0.0
  9
$PUCSBASE
  2

  9
$PUCSNAME
  2

  9
$PUCSORG
 10
0.0
 20
0.0
 30
0.0
  9
$PUCSXDIR
 10
1.0
 20
0.0
 30
0.0
  9
$PUCSYDIR
 10
0.0
 20
1.0
 30
0.0
  9
$PUCSORTHOREF
  2

  9
$PUCSORTHOVIEW
 70
     0
  9
$PUCSORGTOP
 10
0.0
 20
0.0
 30
0.0
  9
$PUCSORGBOTTOM
 10
0.0
 20
0.0
 30
0.0
  9
$PUCSORGLEFT
 10
0.0
 20
0.0
 30
0.0
  9
$PUCSORGRIGHT
 10
0.0
 20
0.0
 30
0.0
  9
$PUCSORGFRONT
 10
0.0
 20
0.0
 30
0.0
  9
$PUCSORGBACK
 10
0.0
 20
0.0
 30
0.0
  9
$USERI1
 70
     0
  9
$USERI2
 70
     0
  9
$USERI3
 70
     0
  9
$USERI4
 70
     0
  9
$USERI5
 70
     0
  9
$USERR1
 40
0.0
  9
$USERR2
 40
0.0
  9
$USERR3
 40
0.0
  9
$USERR4
 40
0.0
  9
$USERR5
 40
0.0
  9
$WORLDVIEW
 70
     1
  9
$SHADEDGE
 70
     3
  9
$SHADEDIF
 70
    70
  9
$TILEMODE
 70
     1
  9
$MAXACTVP
 70
    16
  9
$PINSBASE
 10
0.0
 20
0.0
 30
0.0
  9
$PLIMCHECK
 70
     0
  9
$PEXTMIN
 10
1.000000000000000E+20
 20
1.000000000000000E+20
 30
1.000000000000000E+20
  9
$PEXTMAX
 10
-1.000000000000000E+20
 20
-1.000000000000000E+20
 30
-1.000000000000000E+20
  9
$PLIMMIN
 10
0.0
 20
0.0
  9
$PLIMMAX
 10
12.0
 20
9.0
  9
$UNITMODE
 70
     0
  9
$VISRETAIN
 70
     0
  9
$PLINEGEN
 70
     0
  9
$PSLTSCALE
 70
     0
  9
$TREEDEPTH
 70
  3020
  9
$CMLSTYLE
  2
STANDARD
  9
$CMLJUST
 70
     0
  9
$CMLSCALE
 40
1.0
  9
$PROXYGRAPHICS
 70
     1
  9
$MEASUREMENT
 70
     1
  9
$CELWEIGHT
370
    -1
  9
$ENDCAPS
280
     0
  9
$JOINSTYLE
280
     0
  9
$LWDISPLAY
290
     0
  9
$INSUNITS
 70
     0
  9
$HYPERLINKBASE
  1

  9
$STYLESHEET
  1

  9
$XEDIT
290
     1
  9
$CEPSNTYPE
380
     0
  9
$PSTYLEMODE
290
     1
  9
$FINGERPRINTGUID
  2
{ED906A1B-2747-094E-AB72-08A7FF776496}
  9
$VERSIONGUID
  2
{B8A717CF-00BC-CB4D-8CBB-5032D705397C}
  9
$EXTNAMES
290
     1
  9
$PSVPSCALE
 40
0.0
  9
$OLESTARTUP
290
     0
  9
$SORTENTS
280
    96
  9
$INDEXCTL
280
     0
  9
$HIDETEXT
280
     0
  9
$XCLIPFRAME
280
     2
  9
$HALOGAP
280
     0
  9
$OBSCOLOR
 70
   257
  9
$OBSLTYPE
280
     0
  9
$INTERSECTIONDISPLAY
280
     0
  9
$INTERSECTIONCOLOR
 70
   257
  9
$DIMASSOC
280
     1
  9
$PROJECTNAME
  1

  9
$CAMERADISPLAY
290
     0
  9
$LENSLENGTH
 40
50.0
  9
$CAMERAHEIGHT
 40
0.0
  9
$STEPSPERSEC
 40
2.0
  9
$STEPSIZE
 40
6.0
  9
$3DDWFPREC
 40
2.0
  9
$PSOLWIDTH
 40
0.25
  9
$PSOLHEIGHT
 40
4.0
  9
$LOFTANG1
 40
1.570796326794896
  9
$LOFTANG2
 40
1.570796326794896
  9
$LOFTMAG1
 40
0.0
  9
$LOFTMAG2
 40
0.0
  9
$LOFTPARAM
 70
     7
  9
$LOFTNORMALS
280
     1
  9
$LATITUDE
 40
37.795
  9
$LONGITUDE
 40
-122.394
  9
$NORTHDIRECTION
 40
0.0
  9
$TIMEZONE
 70
 -8000
  9
$LIGHTGLYPHDISPLAY
280
     1
  9
$TILEMODELIGHTSYNCH
280
     1
  9
$CMATERIAL
347
DC57
  9
$SOLIDHIST
280
     0
  9
$SHOWHIST
280
     1
  9
$DWFFRAME
280
     2
  9
$DGNFRAME
280
     0
  9
$REALWORLDSCALE
290
     1
  9
$INTERFERECOLOR
 62
     1
  9
$INTERFEREOBJVS
345
DC79
  9
$INTERFEREVPVS
346
DC76
  9
$CSHADOW
280
     0
  9
$SHADOWPLANELOCATION
 40
0.0
  0
ENDSEC
  0
SECTION
  2
CLASSES
  0
CLASS
  1
DICTIONARYVAR
  2
AcDbDictionaryVar
  3
ObjectDBX Classes
 90
        0
 91
       29
280
     0
281
     0
  0
CLASS
  1
ACDBDICTIONARYWDFLT
  2
AcDbDictionaryWithDefault
  3
ObjectDBX Classes
 90
        0
 91
        1
280
     0
281
     0
  0
CLASS
  1
MATERIAL
  2
AcDbMaterial
  3
ObjectDBX Classes
 90
     1153
 91
        3
280
     0
281
     0
  0
CLASS
  1
VISUALSTYLE
  2
AcDbVisualStyle
  3
ObjectDBX Classes
 90
     4095
 91
       24
280
     0
281
     0
  0
CLASS
  1
TABLESTYLE
  2
AcDbTableStyle
  3
ObjectDBX Classes
 90
     4095
 91
        1
280
     0
281
     0
  0
CLASS
  1
SCALE
  2
AcDbScale
  3
ObjectDBX Classes
 90
     1153
 91
       17
280
     0
281
     0
  0
CLASS
  1
MLEADERSTYLE
  2
AcDbMLeaderStyle
  3
ACDB_MLEADERSTYLE_CLASS
 90
     4095
 91
        1
280
     0
281
     0
  0
CLASS
  1
ACDBSECTIONVIEWSTYLE
  2
AcDbSectionViewStyle
  3
ObjectDBX Classes
 90
     1025
 91
        2
280
     0
281
     0
  0
CLASS
  1
ACDBDETAILVIEWSTYLE
  2
AcDbDetailViewStyle
  3
ObjectDBX Classes
 90
     1025
 91
        2
280
     0
281
     0
  0
CLASS
  1
SORTENTSTABLE
  2
AcDbSortentsTable
  3
ObjectDBX Classes
 90
        0
 91
        1
280
     0
281
     0
  0
CLASS
  1
CELLSTYLEMAP
  2
AcDbCellStyleMap
  3
ObjectDBX Classes
 90
     1152
 91
        1
280
     0
281
     0
  0
ENDSEC
  0
SECTION
  2
TABLES
  0
TABLE
  2
VPORT
  5
8
330
0
100
AcDbSymbolTable
 70
     1
  0
VPORT
  5
DC52
330
8
100
AcDbSymbolTableRecord
100
AcDbViewportTableRecord
  2
*ACTIVE
 70
     0
 10
0.0
 20
0.0
 11
1.0
 21
1.0
 12
456.9340275308975
 22
396.1828001234879
 13
0.0
 23
0.0
 14
1.0
 24
1.0
 15
0.0
 25
0.0
 16
0.0
 26
0.0
 36
1.0
 17
0.0
 27
0.0
 37
0.0
 40
501.5376766330994
 41
2.476129032258064
 42
50.0
 43
0.0
 44
0.0
 50
0.0
 51
0.0
 71
     0
 72
  1000
 73
     1
 74
     1
 75
     0
 76
     0
 77
     0
 78
     1
281
     0
 65
     1
110
0.0
120
0.0
130
0.0
111
1.0
121
0.0
131
0.0
112
0.0
122
1.0
132
0.0
 79
     0
146
0.0
348
DC75
 60
     3
 61
     5
292
     1
282
     1
141
0.0
142
0.0
 63
   250
421
  3355443
1001
ACAD_NAV_VCDISPLAY
1070
     3
  0
ENDTAB
  0
TABLE
  2
LTYPE
  5
5
330
0
100
AcDbSymbolTable
 70
     5
  0
LTYPE
  5
11
330
5
100
AcDbSymbolTableRecord
100
AcDbLinetypeTableRecord
  2
BYBLOCK
 70
     0
  3

 72
    65
 73
     0
 40
0.0
  0
LTYPE
  5
12
330
5
100
AcDbSymbolTableRecord
100
AcDbLinetypeTableRecord
  2
BYLAYER
 70
     0
  3

 72
    65
 73
     0
 40
0.0
  0
LTYPE
  5
13
330
5
100
AcDbSymbolTableRecord
100
AcDbLinetypeTableRecord
  2
CONTINUOUS
 70
     0
  3
Solid line
 72
    65
 73
     0
 40
0.0
  0
LTYPE
  5
DD41
330
5
100
AcDbSymbolTableRecord
100
AcDbLinetypeTableRecord
  2
CENTER
 70
     0
  3
____ _ ____ _ ____ _ ____ _ ____ _ ____ _ ____ 
 72
    65
 73
     4
 40
2.0
 49
1.25
 74
     0
 49
-0.25
 74
     0
 49
0.25
 74
     0
 49
-0.25
 74
     0
  0
LTYPE
  5
DD42
330
5
100
AcDbSymbolTableRecord
100
AcDbLinetypeTableRecord
  2
中心線1
 70
     0
  3
___ _ ___ _ ___
 72
    65
 73
     4
 40
18.0
 49
12.0
 74
     0
 49
-2.0
 74
     0
 49
2.0
 74
     0
 49
-2.0
 74
     0
  0
ENDTAB
  0
TABLE
  2
LAYER
  5
2
102
{ACAD_XDICTIONARY
360
DD4E
102
}
330
0
100
AcDbSymbolTable
 70
     7
  0
LAYER
  5
E
102
{ACAD_XDICTIONARY
360
E1E0
102
}
330
2
100
AcDbSymbolTableRecord
100
AcDbLayerTableRecord
  2
0
 70
     0
 62
     7
  6
CONTINUOUS
370
    -3
390
DC55
347
DC67
348
0
  0
LAYER
  5
40
102
{ACAD_XDICTIONARY
360
E1E2
102
}
330
2
100
AcDbSymbolTableRecord
100
AcDbLayerTableRecord
  2
1外形線
 70
     0
 62
     3
  6
CONTINUOUS
370
    -3
390
DC55
347
DC67
348
0
  0
LAYER
  5
DD43
102
{ACAD_XDICTIONARY
360
DD44
102
}
330
2
100
AcDbSymbolTableRecord
100
AcDbLayerTableRecord
  2
WAKU
 70
     0
 62
     7
  6
CONTINUOUS
370
    -3
390
DC55
347
DC67
348
0
  0
LAYER
  5
DD45
330
2
100
AcDbSymbolTableRecord
100
AcDbLayerTableRecord
  2
DEFPOINTS
 70
     0
 62
     7
  6
CONTINUOUS
290
     0
370
    -3
390
DC55
347
DC67
348
0
  0
LAYER
  5
DD46
102
{ACAD_XDICTIONARY
360
DD47
102
}
330
2
100
AcDbSymbolTableRecord
100
AcDbLayerTableRecord
  2
2寸法線
 70
     0
 62
     2
  6
CONTINUOUS
370
    -3
390
DC55
347
DC67
348
0
  0
LAYER
  5
DD48
102
{ACAD_XDICTIONARY
360
E1E6
102
}
330
2
100
AcDbSymbolTableRecord
100
AcDbLayerTableRecord
  2
L7中心
 70
     0
 62
     4
  6
CENTER
370
     9
390
DC55
347
DC67
348
0
1001
AcAecLayerStandard
1000

1000

1001
ACCMTRANSPARENCY
1071
        0
  0
LAYER
  5
DD49
102
{ACAD_XDICTIONARY
360
E1E8
102
}
330
2
100
AcDbSymbolTableRecord
100
AcDbLayerTableRecord
  2
L0
 70
     0
 62
     3
  6
CONTINUOUS
370
    30
390
DC55
347
DC67
348
0
1001
AcAecLayerStandard
1000

1000

1001
ACCMTRANSPARENCY
1071
        0
  0
ENDTAB
  0
TABLE
  2
STYLE
  5
3
330
0
100
AcDbSymbolTable
 70
     2
  0
STYLE
  5
F
330
3
100
AcDbSymbolTableRecord
100
AcDbTextStyleTableRecord
  2
STANDARD
 70
     0
 40
0.0
 41
1.0
 50
0.0
 71
     0
 42
0.2
  3
txt
  4

  0
STYLE
  5
3B
330
3
100
AcDbSymbolTableRecord
100
AcDbTextStyleTableRecord
  2
KANJI
 70
     0
 40
0.0
 41
1.0
 50
0.0
 71
     0
 42
10.0
  3
simplex
  4
bigfont
  0
ENDTAB
  0
TABLE
  2
VIEW
  5
6
330
0
100
AcDbSymbolTable
 70
     1
  0
ENDTAB
  0
TABLE
  2
UCS
  5
7
330
0
100
AcDbSymbolTable
 70
     0
  0
ENDTAB
  0
TABLE
  2
APPID
  5
9
330
0
100
AcDbSymbolTable
 70
     6
  0
APPID
  5
10
330
9
100
AcDbSymbolTableRecord
100
AcDbRegAppTableRecord
  2
ACAD
 70
     0
  0
APPID
  5
DCAB
330
9
100
AcDbSymbolTableRecord
100
AcDbRegAppTableRecord
  2
ACAD_EXEMPT_FROM_CAD_STANDARDS
 70
     0
  0
APPID
  5
DD4A
330
9
100
AcDbSymbolTableRecord
100
AcDbRegAppTableRecord
  2
ACAD_PSEXT
 70
     0
  0
APPID
  5
DD4B
330
9
100
AcDbSymbolTableRecord
100
AcDbRegAppTableRecord
  2
ACAD_NAV_VCDISPLAY
 70
     0
  0
APPID
  5
DD4C
330
9
100
AcDbSymbolTableRecord
100
AcDbRegAppTableRecord
  2
AcAecLayerStandard
 70
     0
  0
APPID
  5
DD4D
330
9
100
AcDbSymbolTableRecord
100
AcDbRegAppTableRecord
  2
ACCMTRANSPARENCY
 70
     0
  0
ENDTAB
  0
TABLE
  2
DIMSTYLE
  5
A
330
0
100
AcDbSymbolTable
 70
     2
100
AcDbDimStyleTable
 71
     0
  0
DIMSTYLE
105
E11
330
A
100
AcDbSymbolTableRecord
100
AcDbDimStyleTableRecord
  2
STANDARD
 70
     0
 41
1.0
 42
1.0
 43
6.0
 44
1.0
 73
     0
 74
     0
 77
     1
 78
     8
140
2.5
141
0.0
147
0.5
172
     1
173
     1
284
     8
285
     8
286
     8
340
3B
341
C7B3
343
C7B3
344
C7B3
  0
ENDTAB
  0
TABLE
  2
BLOCK_RECORD
  5
1
330
0
100
AcDbSymbolTable
 70
    28
  0
BLOCK_RECORD
  5
17
330
1
100
AcDbSymbolTableRecord
100
AcDbBlockTableRecord
  2
*MODEL_SPACE
340
DCA5
 70
     0
280
     1
281
     0
  0
BLOCK_RECORD
  5
14
330
1
100
AcDbSymbolTableRecord
100
AcDbBlockTableRecord
  2
*PAPER_SPACE
340
DCA6
 70
     0
280
     1
281
     0
  0
BLOCK_RECORD
  5
C7B3
330
1
100
AcDbSymbolTableRecord
100
AcDbBlockTableRecord
  2
1
340
0
102
{BLKREFS
331
E172
331
E173
331
E17B
331
E17C
331
E184
331
E185
331
E18C
331
E18D
331
E193
331
E194
331
E19C
331
E19D
331
E1A7
331
E1A8
331
E1B0
331
E1B1
331
E1B9
331
E1BA
331
E1C2
331
E1C3
331
E1CB
331
E1CC
331
E1D4
331
E1D5
102
}
 70
     0
280
     1
281
     0
  0
BLOCK_RECORD
  5
DCAD
330
1
100
AcDbSymbolTableRecord
100
AcDbBlockTableRecord
  2
Y2
340
0
102
{BLKREFS
331
DD3A
331
DD3B
331
DCC2
331
DCC3
331
DCCE
331
DCCF
331
DCDA
331
DCDB
331
DCE4
331
DCE5
331
DCF0
331
DCF1
331
DCFE
331
DCFF
331
DD0A
331
DD0B
331
DD16
331
DD17
331
DD22
331
DD23
331
DD2E
331
DD2F
331
DCB6
331
DCB7
102
}
 70
     0
280
     1
281
     0
  0
BLOCK_RECORD
  5
DCB1
330
1
100
AcDbSymbolTableRecord
100
AcDbBlockTableRecord
  2
*D2
340
0
 70
     0
280
     1
281
     0
  0
BLOCK_RECORD
  5
DCBD
330
1
100
AcDbSymbolTableRecord
100
AcDbBlockTableRecord
  2
*D3
340
0
 70
     0
280
     1
281
     0
  0
BLOCK_RECORD
  5
DCC9
330
1
100
AcDbSymbolTableRecord
100
AcDbBlockTableRecord
  2
*D4
340
0
 70
     0
280
     1
281
     0
  0
BLOCK_RECORD
  5
DCD5
330
1
100
AcDbSymbolTableRecord
100
AcDbBlockTableRecord
  2
*D5
340
0
 70
     0
280
     1
281
     0
  0
BLOCK_RECORD
  5
DCDF
330
1
100
AcDbSymbolTableRecord
100
AcDbBlockTableRecord
  2
*D6
340
0
 70
     0
280
     1
281
     0
  0
BLOCK_RECORD
  5
DCEB
330
1
100
AcDbSymbolTableRecord
100
AcDbBlockTableRecord
  2
*D7
340
0
 70
     0
280
     1
281
     0
  0
BLOCK_RECORD
  5
DCF7
330
1
100
AcDbSymbolTableRecord
100
AcDbBlockTableRecord
  2
*D8
340
0
 70
     0
280
     1
281
     0
  0
BLOCK_RECORD
  5
DD05
330
1
100
AcDbSymbolTableRecord
100
AcDbBlockTableRecord
  2
*D9
340
0
 70
     0
280
     1
281
     0
  0
BLOCK_RECORD
  5
DD11
330
1
100
AcDbSymbolTableRecord
100
AcDbBlockTableRecord
  2
*D10
340
0
 70
     0
280
     1
281
     0
  0
BLOCK_RECORD
  5
DD1D
330
1
100
AcDbSymbolTableRecord
100
AcDbBlockTableRecord
  2
*D11
340
0
 70
     0
280
     1
281
     0
  0
BLOCK_RECORD
  5
DD29
330
1
100
AcDbSymbolTableRecord
100
AcDbBlockTableRecord
  2
*D12
340
0
 70
     0
280
     1
281
     0
  0
BLOCK_RECORD
  5
DD35
330
1
100
AcDbSymbolTableRecord
100
AcDbBlockTableRecord
  2
*D13
340
0
 70
     0
280
     1
281
     0
  0
BLOCK_RECORD
  5
E0E0
330
1
100
AcDbSymbolTableRecord
100
AcDbBlockTableRecord
  2
*D15
340
0
 70
     0
280
     1
281
     0
  0
BLOCK_RECORD
  5
E0EC
330
1
100
AcDbSymbolTableRecord
100
AcDbBlockTableRecord
  2
*D16
340
0
 70
     0
280
     1
281
     0
  0
BLOCK_RECORD
  5
E0F8
330
1
100
AcDbSymbolTableRecord
100
AcDbBlockTableRecord
  2
*D17
340
0
 70
     0
280
     1
281
     0
  0
BLOCK_RECORD
  5
E104
330
1
100
AcDbSymbolTableRecord
100
AcDbBlockTableRecord
  2
*D18
340
0
 70
     0
280
     1
281
     0
  0
BLOCK_RECORD
  5
E10D
330
1
100
AcDbSymbolTableRecord
100
AcDbBlockTableRecord
  2
*D19
340
0
 70
     0
280
     1
281
     0
  0
BLOCK_RECORD
  5
E119
330
1
100
AcDbSymbolTableRecord
100
AcDbBlockTableRecord
  2
*D20
340
0
 70
     0
280
     1
281
     0
  0
BLOCK_RECORD
  5
E125
330
1
100
AcDbSymbolTableRecord
100
AcDbBlockTableRecord
  2
*D21
340
0
 70
     0
280
     1
281
     0
  0
BLOCK_RECORD
  5
E133
330
1
100
AcDbSymbolTableRecord
100
AcDbBlockTableRecord
  2
*D22
340
0
 70
     0
280
     1
281
     0
  0
BLOCK_RECORD
  5
E13F
330
1
100
AcDbSymbolTableRecord
100
AcDbBlockTableRecord
  2
*D23
340
0
 70
     0
280
     1
281
     0
  0
BLOCK_RECORD
  5
E14B
330
1
100
AcDbSymbolTableRecord
100
AcDbBlockTableRecord
  2
*D24
340
0
 70
     0
280
     1
281
     0
  0
BLOCK_RECORD
  5
E157
330
1
100
AcDbSymbolTableRecord
100
AcDbBlockTableRecord
  2
*D25
340
0
 70
     0
280
     1
281
     0
  0
BLOCK_RECORD
  5
E163
330
1
100
AcDbSymbolTableRecord
100
AcDbBlockTableRecord
  2
*D26
340
0
 70
     0
280
     1
281
     0
  0
ENDTAB
  0
ENDSEC
  0
SECTION
  2
BLOCKS
  0
BLOCK
  5
4F
330
17
100
AcDbEntity
  8
0
100
AcDbBlockBegin
  2
*MODEL_SPACE
 70
     0
 10
0.0
 20
0.0
 30
0.0
  3
*MODEL_SPACE
  1

  0
ENDBLK
  5
50
330
17
100
AcDbEntity
  8
0
100
AcDbBlockEnd
  0
BLOCK
  5
4D
330
14
100
AcDbEntity
 67
     1
  8
0
100
AcDbBlockBegin
  2
*PAPER_SPACE
 70
     0
 10
0.0
 20
0.0
 30
0.0
  3
*PAPER_SPACE
  1

  0
ENDBLK
  5
4E
330
14
100
AcDbEntity
 67
     1
  8
0
100
AcDbBlockEnd
  0
BLOCK
  5
C7B4
330
C7B3
100
AcDbEntity
  8
0
 48
2.0
100
AcDbBlockBegin
  2
1
 70
     0
 10
0.0
 20
0.0
 30
0.0
  3
1
  1

  0
SOLID
  5
C7B5
330
C7B3
100
AcDbEntity
  8
0
  6
ByBlock
 62
     0
100
AcDbTrace
 10
-1.811110924292052
 20
0.4852857095671653
 30
0.0
 11
-1.811110924292052
 21
-0.4852857095673642
 31
0.0
 12
0.0
 22
0.0
 32
0.0
 13
0.0
 23
0.0
 33
0.0
  0
ENDBLK
  5
C7B6
330
C7B3
100
AcDbEntity
  8
0
 48
2.0
100
AcDbBlockEnd
  0
BLOCK
  5
DCAE
330
DCAD
100
AcDbEntity
  8
0
 48
2.0
100
AcDbBlockBegin
  2
Y2
 70
     0
 10
0.0
 20
0.0
 30
0.0
  3
Y2
  1

  0
SOLID
  5
DCAF
330
DCAD
100
AcDbEntity
  8
0
  6
ByBlock
 62
     0
100
AcDbTrace
 10
-1.811110924292108
 20
0.485285709567151
 30
0.0
 11
-1.811110924292108
 21
-0.4852857095673784
 31
0.0
 12
-0.0000000000000568
 22
-0.0000000000000142
 32
0.0
 13
-0.0000000000000568
 23
-0.0000000000000142
 33
0.0
  0
ENDBLK
  5
DCB0
330
DCAD
100
AcDbEntity
  8
0
 48
2.0
100
AcDbBlockEnd
  0
BLOCK
  5
DCB2
330
DCB1
100
AcDbEntity
  8
0
 48
2.0
100
AcDbBlockBegin
  2
*D2
 70
     1
 10
0.0
 20
0.0
 30
0.0
  3
*D2
  1

  0
LINE
  5
DCB3
330
DCB1
100
AcDbEntity
  8
2寸法線
 62
     0
440
 16777216
 48
3.0
370
    -2
100
AcDbLine
 10
63.09840053614142
 20
282.4357166436716
 30
0.0
 11
63.09840053614142
 21
229.4584145159961
 31
0.0
  0
LINE
  5
DCB4
330
DCB1
100
AcDbEntity
  8
2寸法線
 62
     0
440
 16777216
 48
3.0
370
    -2
100
AcDbLine
 10
155.5984017282343
 20
282.4357166436716
 30
0.0
 11
155.5984017282343
 21
229.4584145159961
 31
0.0
  0
LINE
  5
DCB5
330
DCB1
100
AcDbEntity
  8
2寸法線
 62
     0
440
 16777216
 48
3.0
370
    -2
100
AcDbLine
 10
64.59840053614143
 20
230.4584145159961
 30
0.0
 11
154.0984017282343
 21
230.4584145159961
 31
0.0
  0
INSERT
  5
DCB6
330
DCB1
100
AcDbEntity
  8
2寸法線
 62
     0
440
 16777216
 48
3.0
370
    -2
100
AcDbBlockReference
  2
Y2
 10
63.09840053614142
 20
230.4584145159961
 30
0.0
 41
1.5
 42
1.5
 43
1.5
 50
180.0
  0
INSERT
  5
DCB7
330
DCB1
100
AcDbEntity
  8
2寸法線
 62
     0
440
 16777216
 48
3.0
370
    -2
100
AcDbBlockReference
  2
Y2
 10
155.5984017282343
 20
230.4584145159961
 30
0.0
 41
1.5
 42
1.5
 43
1.5
  0
MTEXT
  5
DCB8
330
DCB1
100
AcDbEntity
  8
2寸法線
 62
     1
440
 16777216
 48
3.0
100
AcDbMText
 10
109.3484011321878
 20
233.2084145159961
 30
0.0
 40
3.5
 41
0.0
 46
0.0
 71
     5
 72
     1
  1
\A1;92.5
  7
KANJI
 73
     1
 44
1.0
  0
POINT
  5
DCB9
330
DCB1
100
AcDbEntity
  8
DEFPOINTS
 62
     0
440
 16777216
 48
3.0
100
AcDbPoint
 10
63.09840053614142
 20
284.4357166436716
 30
0.0
  0
POINT
  5
DCBA
330
DCB1
100
AcDbEntity
  8
DEFPOINTS
 62
     0
440
 16777216
 48
3.0
100
AcDbPoint
 10
155.5984017282343
 20
284.4357166436716
 30
0.0
  0
POINT
  5
DCBB
330
DCB1
100
AcDbEntity
  8
DEFPOINTS
 62
     0
440
 16777216
 48
3.0
100
AcDbPoint
 10
155.5984017282343
 20
230.4584145159961
 30
0.0
  0
ENDBLK
  5
DCBC
330
DCB1
100
AcDbEntity
  8
0
 48
2.0
100
AcDbBlockEnd
  0
BLOCK
  5
DCBE
330
DCBD
100
AcDbEntity
  8
0
 48
2.0
100
AcDbBlockBegin
  2
*D3
 70
     1
 10
0.0
 20
0.0
 30
0.0
  3
*D3
  1

  0
LINE
  5
DCBF
330
DCBD
100
AcDbEntity
  8
2寸法線
 62
     0
440
 16777216
 48
3.0
370
    -2
100
AcDbLine
 10
155.5961051644997
 20
221.4262462406669
 30
0.0
 11
168.9969418154471
 21
221.4262462406669
 31
0.0
  0
LINE
  5
DCC0
330
DCBD
100
AcDbEntity
  8
2寸法線
 62
     0
440
 16777216
 48
3.0
370
    -2
100
AcDbLine
 10
153.3488718929009
 20
104.426247551969
 30
0.0
 11
168.9969418154471
 21
104.426247551969
 31
0.0
  0
LINE
  5
DCC1
330
DCBD
100
AcDbEntity
  8
2寸法線
 62
     0
440
 16777216
 48
3.0
370
    -2
100
AcDbLine
 10
167.9969418154471
 20
219.9262462406669
 30
0.0
 11
167.9969418154471
 21
105.926247551969
 31
0.0
  0
INSERT
  5
DCC2
330
DCBD
100
AcDbEntity
  8
2寸法線
 62
     0
440
 16777216
 48
3.0
370
    -2
100
AcDbBlockReference
  2
Y2
 10
167.9969418154471
 20
221.4262462406669
 30
0.0
 41
1.5
 42
1.5
 43
1.5
 50
90.0
  0
INSERT
  5
DCC3
330
DCBD
100
AcDbEntity
  8
2寸法線
 62
     0
440
 16777216
 48
3.0
370
    -2
100
AcDbBlockReference
  2
Y2
 10
167.9969418154471
 20
104.426247551969
 30
0.0
 41
1.5
 42
1.5
 43
1.5
 50
270.0
  0
MTEXT
  5
DCC4
330
DCBD
100
AcDbEntity
  8
2寸法線
 62
     1
440
 16777216
 48
3.0
100
AcDbMText
 10
165.2469418154471
 20
162.9262468963179
 30
0.0
 40
3.5
 41
0.0
 46
0.0
 71
     5
 72
     1
  1
\A1;117
  7
KANJI
 11
0.0000000000000001
 21
1.0
 31
0.0
 73
     1
 44
1.0
  0
POINT
  5
DCC5
330
DCBD
100
AcDbEntity
  8
DEFPOINTS
 62
     0
440
 16777216
 48
3.0
100
AcDbPoint
 10
153.5961051644997
 20
221.4262462406669
 30
0.0
  0
POINT
  5
DCC6
330
DCBD
100
AcDbEntity
  8
DEFPOINTS
 62
     0
440
 16777216
 48
3.0
100
AcDbPoint
 10
151.3488718929009
 20
104.426247551969
 30
0.0
  0
POINT
  5
DCC7
330
DCBD
100
AcDbEntity
  8
DEFPOINTS
 62
     0
440
 16777216
 48
3.0
100
AcDbPoint
 10
167.9969418154471
 20
104.426247551969
 30
0.0
  0
ENDBLK
  5
DCC8
330
DCBD
100
AcDbEntity
  8
0
 48
2.0
100
AcDbBlockEnd
  0
BLOCK
  5
DCCA
330
DCC9
100
AcDbEntity
  8
0
 48
2.0
100
AcDbBlockBegin
  2
*D4
 70
     1
 10
0.0
 20
0.0
 30
0.0
  3
*D4
  1

  0
LINE
  5
DCCB
330
DCC9
100
AcDbEntity
  8
2寸法線
 62
     0
440
 16777216
 48
3.0
370
    -2
100
AcDbLine
 10
199.1646379857927
 20
221.4262462406669
 30
0.0
 11
199.1646379857927
 21
231.5145360327933
 31
0.0
  0
LINE
  5
DCCC
330
DCC9
100
AcDbEntity
  8
2寸法線
 62
     0
440
 16777216
 48
3.0
370
    -2
100
AcDbLine
 10
245.2649733513265
 20
223.4262462406668
 30
0.0
 11
245.2649733513265
 21
231.5145360327933
 31
0.0
  0
LINE
  5
DCCD
330
DCC9
100
AcDbEntity
  8
2寸法線
 62
     0
440
 16777216
 48
3.0
370
    -2
100
AcDbLine
 10
200.6646379857928
 20
230.5145360327933
 30
0.0
 11
243.7649733513265
 21
230.5145360327933
 31
0.0
  0
INSERT
  5
DCCE
330
DCC9
100
AcDbEntity
  8
2寸法線
 62
     0
440
 16777216
 48
3.0
370
    -2
100
AcDbBlockReference
  2
Y2
 10
199.1646379857927
 20
230.5145360327933
 30
0.0
 41
1.5
 42
1.5
 43
1.5
 50
180.0
  0
INSERT
  5
DCCF
330
DCC9
100
AcDbEntity
  8
2寸法線
 62
     0
440
 16777216
 48
3.0
370
    -2
100
AcDbBlockReference
  2
Y2
 10
245.2649733513265
 20
230.5145360327933
 30
0.0
 41
1.5
 42
1.5
 43
1.5
  0
MTEXT
  5
DCD0
330
DCC9
100
AcDbEntity
  8
2寸法線
 62
     1
440
 16777216
 48
3.0
100
AcDbMText
 10
222.2148056685596
 20
233.2645360327934
 30
0.0
 40
3.5
 41
0.0
 46
0.0
 71
     5
 72
     1
  1
\A1;46
  7
KANJI
 73
     1
 44
1.0
  0
POINT
  5
DCD1
330
DCC9
100
AcDbEntity
  8
DEFPOINTS
 62
     0
440
 16777216
 48
3.0
100
AcDbPoint
 10
199.1646379857927
 20
219.4262462406669
 30
0.0
  0
POINT
  5
DCD2
330
DCC9
100
AcDbEntity
  8
DEFPOINTS
 62
     0
440
 16777216
 48
3.0
100
AcDbPoint
 10
245.2649733513265
 20
221.4262462406669
 30
0.0
  0
POINT
  5
DCD3
330
DCC9
100
AcDbEntity
  8
DEFPOINTS
 62
     0
440
 16777216
 48
3.0
100
AcDbPoint
 10
245.2649733513265
 20
230.5145360327933
 30
0.0
  0
ENDBLK
  5
DCD4
330
DCC9
100
AcDbEntity
  8
0
 48
2.0
100
AcDbBlockEnd
  0
BLOCK
  5
DCD6
330
DCD5
100
AcDbEntity
  8
0
 48
2.0
100
AcDbBlockBegin
  2
*D5
 70
     1
 10
0.0
 20
0.0
 30
0.0
  3
*D5
  1

  0
LINE
  5
DCD7
330
DCD5
100
AcDbEntity
  8
2寸法線
 62
     0
440
 16777216
 48
2.0
370
    -2
100
AcDbLine
 10
74.08382421460124
 20
259.9073823568697
 30
0.0
 11
104.1129780495297
 21
270.964050930468
 31
0.0
  0
MTEXT
  5
DCD8
102
{ACAD_XDICTIONARY
360
DCD9
102
}
330
DCD5
100
AcDbEntity
  8
2寸法線
 62
     1
440
 16777216
 48
2.0
100
AcDbMText
 10
88.33478830741999
 20
268.7325268572213
 30
0.0
 40
4.0
 41
0.0
 46
0.0
 71
     5
 72
     1
  1
\A1;∅35
  7
KANJI
 11
0.9384110573469232
 21
0.3455208929269391
 31
0.0
 73
     1
 44
1.0
  0
INSERT
  5
DCDA
330
DCD5
100
AcDbEntity
  8
2寸法線
 62
     0
440
 16777216
 48
2.0
370
    -2
100
AcDbBlockReference
  2
Y2
 10
72.67620762858086
 20
259.3891010174793
 30
0.0
 41
1.5
 42
1.5
 43
1.5
 50
200.2135962431923
  0
INSERT
  5
DCDB
330
DCD5
100
AcDbEntity
  8
2寸法線
 62
     0
440
 16777216
 48
2.0
370
    -2
100
AcDbBlockReference
  2
Y2
 10
105.5205946355501
 20
271.4823322698585
 30
0.0
 41
1.5
 42
1.5
 43
1.5
 50
20.21359624319232
  0
POINT
  5
DCDC
330
DCD5
100
AcDbEntity
  8
DEFPOINTS
 62
     0
440
 16777216
 48
2.0
100
AcDbPoint
 10
105.5205946355501
 20
271.4823322698585
 30
0.0
  0
POINT
  5
DCDD
330
DCD5
100
AcDbEntity
  8
DEFPOINTS
 62
     0
440
 16777216
 48
2.0
100
AcDbPoint
 10
72.67620762858086
 20
259.3891010174793
 30
0.0
  0
ENDBLK
  5
DCDE
330
DCD5
100
AcDbEntity
  8
0
 48
2.0
100
AcDbBlockEnd
  0
BLOCK
  5
DCE0
330
DCDF
100
AcDbEntity
  8
0
 48
2.0
100
AcDbBlockBegin
  2
*D6
 70
     1
 10
0.0
 20
0.0
 30
0.0
  3
*D6
  1

  0
LINE
  5
DCE1
330
DCDF
100
AcDbEntity
  8
2寸法線
 62
     0
440
 16777216
 48
3.0
370
    -2
100
AcDbLine
 10
290.7806575218904
 20
115.9262450634742
 30
0.0
 11
290.7806575218904
 21
92.95832582659386
 31
0.0
  0
LINE
  5
DCE2
330
DCDF
100
AcDbEntity
  8
2寸法線
 62
     0
440
 16777216
 48
3.0
370
    -2
100
AcDbLine
 10
366.780657521889
 20
115.9262450634742
 30
0.0
 11
366.780657521889
 21
92.95832582659386
 31
0.0
  0
LINE
  5
DCE3
330
DCDF
100
AcDbEntity
  8
2寸法線
 62
     0
440
 16777216
 48
3.0
370
    -2
100
AcDbLine
 10
292.2806575218904
 20
93.95832582659386
 30
0.0
 11
365.280657521889
 21
93.95832582659386
 31
0.0
  0
INSERT
  5
DCE4
330
DCDF
100
AcDbEntity
  8
2寸法線
 62
     0
440
 16777216
 48
3.0
370
    -2
100
AcDbBlockReference
  2
Y2
 10
290.7806575218904
 20
93.95832582659386
 30
0.0
 41
1.5
 42
1.5
 43
1.5
 50
180.0
  0
INSERT
  5
DCE5
330
DCDF
100
AcDbEntity
  8
2寸法線
 62
     0
440
 16777216
 48
3.0
370
    -2
100
AcDbBlockReference
  2
Y2
 10
366.780657521889
 20
93.95832582659386
 30
0.0
 41
1.5
 42
1.5
 43
1.5
  0
MTEXT
  5
DCE6
330
DCDF
100
AcDbEntity
  8
2寸法線
 62
     1
440
 16777216
 48
3.0
100
AcDbMText
 10
328.7806575218897
 20
96.70832582659386
 30
0.0
 40
3.5
 41
0.0
 46
0.0
 71
     5
 72
     1
  1
\A1;76
  7
KANJI
 73
     1
 44
1.0
  0
POINT
  5
DCE7
330
DCDF
100
AcDbEntity
  8
DEFPOINTS
 62
     0
440
 16777216
 48
3.0
100
AcDbPoint
 10
290.7806575218904
 20
117.9262450634742
 30
0.0
  0
POINT
  5
DCE8
330
DCDF
100
AcDbEntity
  8
DEFPOINTS
 62
     0
440
 16777216
 48
3.0
100
AcDbPoint
 10
366.780657521889
 20
117.9262450634742
 30
0.0
  0
POINT
  5
DCE9
330
DCDF
100
AcDbEntity
  8
DEFPOINTS
 62
     0
440
 16777216
 48
3.0
100
AcDbPoint
 10
366.780657521889
 20
93.95832582659386
 30
0.0
  0
ENDBLK
  5
DCEA
330
DCDF
100
AcDbEntity
  8
0
 48
2.0
100
AcDbBlockEnd
  0
BLOCK
  5
DCEC
330
DCEB
100
AcDbEntity
  8
0
 48
2.0
100
AcDbBlockBegin
  2
*D7
 70
     1
 10
0.0
 20
0.0
 30
0.0
  3
*D7
  1

  0
LINE
  5
DCED
330
DCEB
100
AcDbEntity
  8
2寸法線
 62
     0
440
 16777216
 48
3.0
370
    -2
100
AcDbLine
 10
364.780657521888
 20
189.9262241466299
 30
0.0
 11
355.2527919987471
 21
189.9262241466299
 31
0.0
  0
LINE
  5
DCEE
330
DCEB
100
AcDbEntity
  8
2寸法線
 62
     0
440
 16777216
 48
3.0
370
    -2
100
AcDbLine
 10
364.7806575218882
 20
180.9262241466299
 30
0.0
 11
355.2527919987471
 21
180.9262241466299
 31
0.0
  0
LINE
  5
DCEF
330
DCEB
100
AcDbEntity
  8
2寸法線
 62
     0
440
 16777216
 48
3.0
370
    -2
100
AcDbLine
 10
356.252791998747
 20
188.4262241466299
 30
0.0
 11
356.252791998747
 21
182.4262241466299
 31
0.0
  0
INSERT
  5
DCF0
330
DCEB
100
AcDbEntity
  8
2寸法線
 62
     0
440
 16777216
 48
3.0
370
    -2
100
AcDbBlockReference
  2
Y2
 10
356.252791998747
 20
189.9262241466299
 30
0.0
 41
1.5
 42
1.5
 43
1.5
 50
90.0
  0
INSERT
  5
DCF1
330
DCEB
100
AcDbEntity
  8
2寸法線
 62
     0
440
 16777216
 48
3.0
370
    -2
100
AcDbBlockReference
  2
Y2
 10
356.252791998747
 20
180.9262241466299
 30
0.0
 41
1.5
 42
1.5
 43
1.5
 50
270.0
  0
MTEXT
  5
DCF2
330
DCEB
100
AcDbEntity
  8
2寸法線
 62
     1
440
 16777216
 48
3.0
100
AcDbMText
 10
353.502791998747
 20
185.4262241466299
 30
0.0
 40
3.5
 41
0.0
 46
0.0
 71
     5
 72
     1
  1
\A1;9
  7
KANJI
 11
0.0000000000000001
 21
1.0
 31
0.0
 73
     1
 44
1.0
  0
POINT
  5
DCF3
330
DCEB
100
AcDbEntity
  8
DEFPOINTS
 62
     0
440
 16777216
 48
3.0
100
AcDbPoint
 10
366.780657521888
 20
189.9262241466299
 30
0.0
  0
POINT
  5
DCF4
330
DCEB
100
AcDbEntity
  8
DEFPOINTS
 62
     0
440
 16777216
 48
3.0
100
AcDbPoint
 10
366.7806575218882
 20
180.9262241466299
 30
0.0
  0
POINT
  5
DCF5
330
DCEB
100
AcDbEntity
  8
DEFPOINTS
 62
     0
440
 16777216
 48
3.0
100
AcDbPoint
 10
356.252791998747
 20
180.9262241466299
 30
0.0
  0
ENDBLK
  5
DCF6
330
DCEB
100
AcDbEntity
  8
0
 48
2.0
100
AcDbBlockEnd
  0
BLOCK
  5
DCF8
330
DCF7
100
AcDbEntity
  8
0
 48
2.0
100
AcDbBlockBegin
  2
*D8
 70
     1
 10
0.0
 20
0.0
 30
0.0
  3
*D8
  1

  0
LINE
  5
DCF9
330
DCF7
100
AcDbEntity
  8
2寸法線
 62
     0
440
 16777216
 48
3.0
370
    -2
100
AcDbLine
 10
368.8806575218887
 20
181.0262241466302
 30
0.0
 11
368.8806575218887
 21
173.2228828374113
 31
0.0
  0
LINE
  5
DCFA
330
DCF7
100
AcDbEntity
  8
2寸法線
 62
     0
440
 16777216
 48
3.0
370
    -2
100
AcDbLine
 10
364.6806575218882
 20
181.0262241466302
 30
0.0
 11
364.6806575218882
 21
173.2228828374113
 31
0.0
  0
LINE
  5
DCFB
330
DCF7
100
AcDbEntity
  8
2寸法線
 62
     0
440
 16777216
 48
3.0
370
    -2
100
AcDbLine
 10
370.3806575218887
 20
174.2228828374113
 30
0.0
 11
371.8806575218887
 21
174.2228828374113
 31
0.0
  0
LINE
  5
DCFC
330
DCF7
100
AcDbEntity
  8
2寸法線
 62
     0
440
 16777216
 48
3.0
370
    -2
100
AcDbLine
 10
363.1806575218882
 20
174.2228828374113
 30
0.0
 11
352.3473241885549
 21
174.2228828374113
 31
0.0
  0
LINE
  5
DCFD
330
DCF7
100
AcDbEntity
  8
2寸法線
 62
     0
440
 16777216
 48
3.0
370
    -2
100
AcDbLine
 10
368.8806575218887
 20
174.2228828374113
 30
0.0
 11
364.6806575218882
 21
174.2228828374113
 31
0.0
  0
INSERT
  5
DCFE
330
DCF7
100
AcDbEntity
  8
2寸法線
 62
     0
440
 16777216
 48
3.0
370
    -2
100
AcDbBlockReference
  2
Y2
 10
368.8806575218887
 20
174.2228828374113
 30
0.0
 41
1.5
 42
1.5
 43
1.5
 50
180.0
  0
INSERT
  5
DCFF
330
DCF7
100
AcDbEntity
  8
2寸法線
 62
     0
440
 16777216
 48
3.0
370
    -2
100
AcDbBlockReference
  2
Y2
 10
364.6806575218882
 20
174.2228828374113
 30
0.0
 41
1.5
 42
1.5
 43
1.5
  0
MTEXT
  5
DD00
330
DCF7
100
AcDbEntity
  8
2寸法線
 62
     1
440
 16777216
 48
3.0
100
AcDbMText
 10
357.0139908552215
 20
176.9728828374113
 30
0.0
 40
3.5
 41
0.0
 46
0.0
 71
     5
 72
     1
  1
\A1;4.2
  7
KANJI
 73
     1
 44
1.0
  0
POINT
  5
DD01
330
DCF7
100
AcDbEntity
  8
DEFPOINTS
 62
     0
440
 16777216
 48
3.0
100
AcDbPoint
 10
368.8806575218887
 20
183.0262241466303
 30
0.0
  0
POINT
  5
DD02
330
DCF7
100
AcDbEntity
  8
DEFPOINTS
 62
     0
440
 16777216
 48
3.0
100
AcDbPoint
 10
364.6806575218882
 20
183.0262241466303
 30
0.0
  0
POINT
  5
DD03
330
DCF7
100
AcDbEntity
  8
DEFPOINTS
 62
     0
440
 16777216
 48
3.0
100
AcDbPoint
 10
364.6806575218882
 20
174.2228828374113
 30
0.0
  0
ENDBLK
  5
DD04
330
DCF7
100
AcDbEntity
  8
0
 48
2.0
100
AcDbBlockEnd
  0
BLOCK
  5
DD06
330
DD05
100
AcDbEntity
  8
0
 48
2.0
100
AcDbBlockBegin
  2
*D9
 70
     1
 10
0.0
 20
0.0
 30
0.0
  3
*D9
  1

  0
LINE
  5
DD07
330
DD05
100
AcDbEntity
  8
2寸法線
 62
     0
440
 16777216
 48
3.0
370
    -2
100
AcDbLine
 10
351.0929798568938
 20
114.4262453540468
 30
0.0
 11
389.157681631041
 21
114.4262453540468
 31
0.0
  0
LINE
  5
DD08
330
DD05
100
AcDbEntity
  8
2寸法線
 62
     0
440
 16777216
 48
3.0
370
    -2
100
AcDbLine
 10
373.1523238354678
 20
104.4262441545038
 30
0.0
 11
389.157681631041
 21
104.4262441545038
 31
0.0
  0
LINE
  5
DD09
330
DD05
100
AcDbEntity
  8
2寸法線
 62
     0
440
 16777216
 48
3.0
370
    -2
100
AcDbLine
 10
388.157681631041
 20
112.9262453540468
 30
0.0
 11
388.157681631041
 21
105.9262441545038
 31
0.0
  0
INSERT
  5
DD0A
330
DD05
100
AcDbEntity
  8
2寸法線
 62
     0
440
 16777216
 48
3.0
370
    -2
100
AcDbBlockReference
  2
Y2
 10
388.157681631041
 20
114.4262453540468
 30
0.0
 41
1.5
 42
1.5
 43
1.5
 50
90.0
  0
INSERT
  5
DD0B
330
DD05
100
AcDbEntity
  8
2寸法線
 62
     0
440
 16777216
 48
3.0
370
    -2
100
AcDbBlockReference
  2
Y2
 10
388.157681631041
 20
104.4262441545038
 30
0.0
 41
1.5
 42
1.5
 43
1.5
 50
270.0
  0
MTEXT
  5
DD0C
330
DD05
100
AcDbEntity
  8
2寸法線
 62
     1
440
 16777216
 48
3.0
100
AcDbMText
 10
385.407681631041
 20
109.4262447542754
 30
0.0
 40
3.5
 41
0.0
 46
0.0
 71
     5
 72
     1
  1
\A1;10
  7
KANJI
 11
0.0000000000000001
 21
1.0
 31
0.0
 73
     1
 44
1.0
  0
POINT
  5
DD0D
330
DD05
100
AcDbEntity
  8
DEFPOINTS
 62
     0
440
 16777216
 48
3.0
100
AcDbPoint
 10
349.0929798568938
 20
114.4262453540468
 30
0.0
  0
POINT
  5
DD0E
330
DD05
100
AcDbEntity
  8
DEFPOINTS
 62
     0
440
 16777216
 48
3.0
100
AcDbPoint
 10
371.1523238354678
 20
104.4262441545038
 30
0.0
  0
POINT
  5
DD0F
330
DD05
100
AcDbEntity
  8
DEFPOINTS
 62
     0
440
 16777216
 48
3.0
100
AcDbPoint
 10
388.157681631041
 20
104.4262441545038
 30
0.0
  0
ENDBLK
  5
DD10
330
DD05
100
AcDbEntity
  8
0
 48
2.0
100
AcDbBlockEnd
  0
BLOCK
  5
DD12
330
DD11
100
AcDbEntity
  8
0
 48
2.0
100
AcDbBlockBegin
  2
*D10
 70
     1
 10
0.0
 20
0.0
 30
0.0
  3
*D10
  1

  0
LINE
  5
DD13
330
DD11
100
AcDbEntity
  8
2寸法線
 62
     0
440
 16777216
 48
3.0
370
    -2
100
AcDbLine
 10
373.7806575218891
 20
125.4262450634751
 30
0.0
 11
389.157681631041
 21
125.4262450634751
 31
0.0
  0
LINE
  5
DD14
330
DD11
100
AcDbEntity
  8
2寸法線
 62
     0
440
 16777216
 48
3.0
370
    -2
100
AcDbLine
 10
351.0929798568938
 20
114.4262453540468
 30
0.0
 11
389.157681631041
 21
114.4262453540468
 31
0.0
  0
LINE
  5
DD15
330
DD11
100
AcDbEntity
  8
2寸法線
 62
     0
440
 16777216
 48
3.0
370
    -2
100
AcDbLine
 10
388.157681631041
 20
123.9262450634751
 30
0.0
 11
388.157681631041
 21
115.9262453540468
 31
0.0
  0
INSERT
  5
DD16
330
DD11
100
AcDbEntity
  8
2寸法線
 62
     0
440
 16777216
 48
3.0
370
    -2
100
AcDbBlockReference
  2
Y2
 10
388.157681631041
 20
125.4262450634751
 30
0.0
 41
1.5
 42
1.5
 43
1.5
 50
90.0
  0
INSERT
  5
DD17
330
DD11
100
AcDbEntity
  8
2寸法線
 62
     0
440
 16777216
 48
3.0
370
    -2
100
AcDbBlockReference
  2
Y2
 10
388.157681631041
 20
114.4262453540468
 30
0.0
 41
1.5
 42
1.5
 43
1.5
 50
270.0
  0
MTEXT
  5
DD18
330
DD11
100
AcDbEntity
  8
2寸法線
 62
     1
440
 16777216
 48
3.0
100
AcDbMText
 10
385.407681631041
 20
119.926245208761
 30
0.0
 40
3.5
 41
0.0
 46
0.0
 71
     5
 72
     1
  1
\A1;11
  7
KANJI
 11
0.0000000000000001
 21
1.0
 31
0.0
 73
     1
 44
1.0
  0
POINT
  5
DD19
330
DD11
100
AcDbEntity
  8
DEFPOINTS
 62
     0
440
 16777216
 48
3.0
100
AcDbPoint
 10
371.7806575218891
 20
125.4262450634751
 30
0.0
  0
POINT
  5
DD1A
330
DD11
100
AcDbEntity
  8
DEFPOINTS
 62
     0
440
 16777216
 48
3.0
100
AcDbPoint
 10
349.0929798568938
 20
114.4262453540468
 30
0.0
  0
POINT
  5
DD1B
330
DD11
100
AcDbEntity
  8
DEFPOINTS
 62
     0
440
 16777216
 48
3.0
100
AcDbPoint
 10
388.157681631041
 20
114.4262453540468
 30
0.0
  0
ENDBLK
  5
DD1C
330
DD11
100
AcDbEntity
  8
0
 48
2.0
100
AcDbBlockEnd
  0
BLOCK
  5
DD1E
330
DD1D
100
AcDbEntity
  8
0
 48
2.0
100
AcDbBlockBegin
  2
*D11
 70
     1
 10
0.0
 20
0.0
 30
0.0
  3
*D11
  1

  0
LINE
  5
DD1F
330
DD1D
100
AcDbEntity
  8
2寸法線
 62
     0
440
 16777216
 48
3.0
370
    -2
100
AcDbLine
 10
373.7806575218891
 20
185.4262239082122
 30
0.0
 11
389.157681631041
 21
185.4262239082122
 31
0.0
  0
LINE
  5
DD20
330
DD1D
100
AcDbEntity
  8
2寸法線
 62
     0
440
 16777216
 48
3.0
370
    -2
100
AcDbLine
 10
373.7806575218891
 20
125.4262450634751
 30
0.0
 11
389.157681631041
 21
125.4262450634751
 31
0.0
  0
LINE
  5
DD21
330
DD1D
100
AcDbEntity
  8
2寸法線
 62
     0
440
 16777216
 48
3.0
370
    -2
100
AcDbLine
 10
388.1576816310411
 20
183.9262239082122
 30
0.0
 11
388.157681631041
 21
126.9262450634751
 31
0.0
  0
INSERT
  5
DD22
330
DD1D
100
AcDbEntity
  8
2寸法線
 62
     0
440
 16777216
 48
3.0
370
    -2
100
AcDbBlockReference
  2
Y2
 10
388.1576816310411
 20
185.4262239082122
 30
0.0
 41
1.5
 42
1.5
 43
1.5
 50
90.0
  0
INSERT
  5
DD23
330
DD1D
100
AcDbEntity
  8
2寸法線
 62
     0
440
 16777216
 48
3.0
370
    -2
100
AcDbBlockReference
  2
Y2
 10
388.157681631041
 20
125.4262450634751
 30
0.0
 41
1.5
 42
1.5
 43
1.5
 50
270.0
  0
MTEXT
  5
DD24
330
DD1D
100
AcDbEntity
  8
2寸法線
 62
     1
440
 16777216
 48
3.0
100
AcDbMText
 10
385.407681631041
 20
155.4262344858437
 30
0.0
 40
3.5
 41
0.0
 46
0.0
 71
     5
 72
     1
  1
\A1;60
  7
KANJI
 11
0.0000000000000001
 21
1.0
 31
0.0
 73
     1
 44
1.0
  0
POINT
  5
DD25
330
DD1D
100
AcDbEntity
  8
DEFPOINTS
 62
     0
440
 16777216
 48
3.0
100
AcDbPoint
 10
371.7806575218891
 20
185.4262239082122
 30
0.0
  0
POINT
  5
DD26
330
DD1D
100
AcDbEntity
  8
DEFPOINTS
 62
     0
440
 16777216
 48
3.0
100
AcDbPoint
 10
371.7806575218891
 20
125.4262450634751
 30
0.0
  0
POINT
  5
DD27
330
DD1D
100
AcDbEntity
  8
DEFPOINTS
 62
     0
440
 16777216
 48
3.0
100
AcDbPoint
 10
388.157681631041
 20
125.4262450634751
 30
0.0
  0
ENDBLK
  5
DD28
330
DD1D
100
AcDbEntity
  8
0
 48
2.0
100
AcDbBlockEnd
  0
BLOCK
  5
DD2A
330
DD29
100
AcDbEntity
  8
0
 48
2.0
100
AcDbBlockBegin
  2
*D12
 70
     1
 10
0.0
 20
0.0
 30
0.0
  3
*D12
  1

  0
LINE
  5
DD2B
330
DD29
100
AcDbEntity
  8
2寸法線
 62
     0
440
 16777216
 48
3.0
370
    -2
100
AcDbLine
 10
201.164637871767
 20
102.426247551969
 30
0.0
 11
201.164637871767
 21
92.95832582659386
 31
0.0
  0
LINE
  5
DD2C
330
DD29
100
AcDbEntity
  8
2寸法線
 62
     0
440
 16777216
 48
3.0
370
    -2
100
AcDbLine
 10
245.2649733513265
 20
102.4262462406668
 30
0.0
 11
245.2649733513265
 21
92.95832582659386
 31
0.0
  0
LINE
  5
DD2D
330
DD29
100
AcDbEntity
  8
2寸法線
 62
     0
440
 16777216
 48
3.0
370
    -2
100
AcDbLine
 10
202.664637871767
 20
93.95832582659386
 30
0.0
 11
243.7649733513265
 21
93.95832582659386
 31
0.0
  0
INSERT
  5
DD2E
330
DD29
100
AcDbEntity
  8
2寸法線
 62
     0
440
 16777216
 48
3.0
370
    -2
100
AcDbBlockReference
  2
Y2
 10
201.164637871767
 20
93.95832582659386
 30
0.0
 41
1.5
 42
1.5
 43
1.5
 50
180.0
  0
INSERT
  5
DD2F
330
DD29
100
AcDbEntity
  8
2寸法線
 62
     0
440
 16777216
 48
3.0
370
    -2
100
AcDbBlockReference
  2
Y2
 10
245.2649733513265
 20
93.95832582659386
 30
0.0
 41
1.5
 42
1.5
 43
1.5
  0
MTEXT
  5
DD30
330
DD29
100
AcDbEntity
  8
2寸法線
 62
     1
440
 16777216
 48
3.0
100
AcDbMText
 10
223.2148056115467
 20
96.70832582659386
 30
0.0
 40
3.5
 41
0.0
 46
0.0
 71
     5
 72
     1
  1
\A1;44
  7
KANJI
 73
     1
 44
1.0
  0
POINT
  5
DD31
330
DD29
100
AcDbEntity
  8
DEFPOINTS
 62
     0
440
 16777216
 48
3.0
100
AcDbPoint
 10
201.164637871767
 20
104.426247551969
 30
0.0
  0
POINT
  5
DD32
330
DD29
100
AcDbEntity
  8
DEFPOINTS
 62
     0
440
 16777216
 48
3.0
100
AcDbPoint
 10
245.2649733513265
 20
104.4262462406668
 30
0.0
  0
POINT
  5
DD33
330
DD29
100
AcDbEntity
  8
DEFPOINTS
 62
     0
440
 16777216
 48
3.0
100
AcDbPoint
 10
245.2649733513265
 20
93.95832582659386
 30
0.0
  0
ENDBLK
  5
DD34
330
DD29
100
AcDbEntity
  8
0
 48
2.0
100
AcDbBlockEnd
  0
BLOCK
  5
DD36
330
DD35
100
AcDbEntity
  8
0
 48
2.0
100
AcDbBlockBegin
  2
*D13
 70
     1
 10
0.0
 20
0.0
 30
0.0
  3
*D13
  1

  0
LINE
  5
DD37
330
DD35
100
AcDbEntity
  8
2寸法線
 62
     0
440
 16777216
 48
3.0
370
    -2
100
AcDbLine
 10
66.09656377885269
 20
47.24732963082533
 30
0.0
 11
66.09656377885269
 21
96.52202030312947
 31
0.0
  0
LINE
  5
DD38
330
DD35
100
AcDbEntity
  8
2寸法線
 62
     0
440
 16777216
 48
3.0
370
    -2
100
AcDbLine
 10
152.5956481047583
 20
47.24732963082533
 30
0.0
 11
152.5956481047583
 21
96.52202030312947
 31
0.0
  0
LINE
  5
DD39
330
DD35
100
AcDbEntity
  8
2寸法線
 62
     0
440
 16777216
 48
3.0
370
    -2
100
AcDbLine
 10
67.5965637788527
 20
95.52202030312946
 30
0.0
 11
151.0956481047583
 21
95.52202030312946
 31
0.0
  0
INSERT
  5
DD3A
330
DD35
100
AcDbEntity
  8
2寸法線
 62
     0
440
 16777216
 48
3.0
370
    -2
100
AcDbBlockReference
  2
Y2
 10
66.09656377885269
 20
95.52202030312946
 30
0.0
 41
1.5
 42
1.5
 43
1.5
 50
180.0
  0
INSERT
  5
DD3B
330
DD35
100
AcDbEntity
  8
2寸法線
 62
     0
440
 16777216
 48
3.0
370
    -2
100
AcDbBlockReference
  2
Y2
 10
152.5956481047583
 20
95.52202030312946
 30
0.0
 41
1.5
 42
1.5
 43
1.5
  0
MTEXT
  5
DD3C
330
DD35
100
AcDbEntity
  8
2寸法線
 62
     1
440
 16777216
 48
3.0
100
AcDbMText
 10
109.3461059418055
 20
98.27202030312946
 30
0.0
 40
3.5
 41
0.0
 46
0.0
 71
     5
 72
     1
  1
\A1;87
  7
KANJI
 73
     1
 44
1.0
  0
POINT
  5
DD3D
330
DD35
100
AcDbEntity
  8
DEFPOINTS
 62
     0
440
 16777216
 48
3.0
100
AcDbPoint
 10
66.09656377885269
 20
45.24732963082533
 30
0.0
  0
POINT
  5
DD3E
330
DD35
100
AcDbEntity
  8
DEFPOINTS
 62
     0
440
 16777216
 48
3.0
100
AcDbPoint
 10
152.5956481047583
 20
45.24732963082533
 30
0.0
  0
POINT
  5
DD3F
330
DD35
100
AcDbEntity
  8
DEFPOINTS
 62
     0
440
 16777216
 48
3.0
100
AcDbPoint
 10
152.5956481047583
 20
95.52202030312946
 30
0.0
  0
ENDBLK
  5
DD40
330
DD35
100
AcDbEntity
  8
0
 48
2.0
100
AcDbBlockEnd
  0
BLOCK
  5
E0E1
330
E0E0
100
AcDbEntity
  8
0
 48
3.0
100
AcDbBlockBegin
  2
*D15
 70
     1
 10
0.0
 20
0.0
 30
0.0
  3
*D15
  1

  0
LINE
  5
E16F
330
E0E0
100
AcDbEntity
  8
2寸法線
 62
     0
440
 16777216
 48
3.0
370
    -2
100
AcDbLine
 10
549.7906551423413
 20
533.5089780930947
 30
0.0
 11
549.7906551423413
 21
480.5316759654191
 31
0.0
  0
LINE
  5
E170
330
E0E0
100
AcDbEntity
  8
2寸法線
 62
     0
440
 16777216
 48
3.0
370
    -2
100
AcDbLine
 10
642.2906563344342
 20
533.5089780930947
 30
0.0
 11
642.2906563344342
 21
480.5316759654191
 31
0.0
  0
LINE
  5
E171
330
E0E0
100
AcDbEntity
  8
2寸法線
 62
     0
440
 16777216
 48
3.0
370
    -2
100
AcDbLine
 10
551.2906551423412
 20
481.5316759654191
 30
0.0
 11
640.7906563344341
 21
481.5316759654191
 31
0.0
  0
INSERT
  5
E172
330
E0E0
100
AcDbEntity
  8
2寸法線
 62
     0
440
 16777216
 48
3.0
370
    -2
100
AcDbBlockReference
  2
1
 10
549.7906551423413
 20
481.5316759654191
 30
0.0
 41
1.5
 42
1.5
 43
1.5
 50
180.0
  0
INSERT
  5
E173
330
E0E0
100
AcDbEntity
  8
2寸法線
 62
     0
440
 16777216
 48
3.0
370
    -2
100
AcDbBlockReference
  2
1
 10
642.2906563344342
 20
481.5316759654191
 30
0.0
 41
1.5
 42
1.5
 43
1.5
  0
MTEXT
  5
E174
330
E0E0
100
AcDbEntity
  8
2寸法線
 62
     1
440
 16777216
 48
3.0
100
AcDbMText
 10
596.0406557383877
 20
484.2816759654191
 30
0.0
 40
3.5
 41
0.0
 46
0.0
 71
     5
 72
     1
  1
\A1;92.5
  7
KANJI
 73
     1
 44
1.0
  0
POINT
  5
E175
330
E0E0
100
AcDbEntity
  8
DEFPOINTS
 62
     0
440
 16777216
 48
3.0
100
AcDbPoint
 10
549.7906551423413
 20
535.5089780930947
 30
0.0
  0
POINT
  5
E176
330
E0E0
100
AcDbEntity
  8
DEFPOINTS
 62
     0
440
 16777216
 48
3.0
100
AcDbPoint
 10
642.2906563344342
 20
535.5089780930947
 30
0.0
  0
POINT
  5
E177
330
E0E0
100
AcDbEntity
  8
DEFPOINTS
 62
     0
440
 16777216
 48
3.0
100
AcDbPoint
 10
642.2906563344342
 20
481.5316759654191
 30
0.0
  0
ENDBLK
  5
E0E2
330
E0E0
100
AcDbEntity
  8
0
 48
3.0
100
AcDbBlockEnd
  0
BLOCK
  5
E0ED
330
E0EC
100
AcDbEntity
  8
0
 48
3.0
100
AcDbBlockBegin
  2
*D16
 70
     1
 10
0.0
 20
0.0
 30
0.0
  3
*D16
  1

  0
LINE
  5
E178
330
E0EC
100
AcDbEntity
  8
2寸法線
 62
     0
440
 16777216
 48
3.0
370
    -2
100
AcDbLine
 10
642.2883597706998
 20
472.4995076900901
 30
0.0
 11
655.6891964216472
 21
472.4995076900901
 31
0.0
  0
LINE
  5
E179
330
E0EC
100
AcDbEntity
  8
2寸法線
 62
     0
440
 16777216
 48
3.0
370
    -2
100
AcDbLine
 10
640.0411264991009
 20
355.4995090013922
 30
0.0
 11
655.6891964216472
 21
355.4995090013922
 31
0.0
  0
LINE
  5
E17A
330
E0EC
100
AcDbEntity
  8
2寸法線
 62
     0
440
 16777216
 48
3.0
370
    -2
100
AcDbLine
 10
654.6891964216472
 20
470.9995076900901
 30
0.0
 11
654.6891964216472
 21
356.9995090013923
 31
0.0
  0
INSERT
  5
E17B
330
E0EC
100
AcDbEntity
  8
2寸法線
 62
     0
440
 16777216
 48
3.0
370
    -2
100
AcDbBlockReference
  2
1
 10
654.6891964216472
 20
472.4995076900901
 30
0.0
 41
1.5
 42
1.5
 43
1.5
 50
90.0
  0
INSERT
  5
E17C
330
E0EC
100
AcDbEntity
  8
2寸法線
 62
     0
440
 16777216
 48
3.0
370
    -2
100
AcDbBlockReference
  2
1
 10
654.6891964216472
 20
355.4995090013922
 30
0.0
 41
1.5
 42
1.5
 43
1.5
 50
270.0
  0
MTEXT
  5
E17D
330
E0EC
100
AcDbEntity
  8
2寸法線
 62
     1
440
 16777216
 48
3.0
100
AcDbMText
 10
651.9391964216472
 20
413.9995083457408
 30
0.0
 40
3.5
 41
0.0
 46
0.0
 71
     5
 72
     1
  1
\A1;117
  7
KANJI
 11
0.0000000000000001
 21
1.0
 31
0.0
 73
     1
 44
1.0
  0
POINT
  5
E17E
330
E0EC
100
AcDbEntity
  8
DEFPOINTS
 62
     0
440
 16777216
 48
3.0
100
AcDbPoint
 10
640.2883597706997
 20
472.4995076900901
 30
0.0
  0
POINT
  5
E17F
330
E0EC
100
AcDbEntity
  8
DEFPOINTS
 62
     0
440
 16777216
 48
3.0
100
AcDbPoint
 10
638.041126499101
 20
355.4995090013922
 30
0.0
  0
POINT
  5
E180
330
E0EC
100
AcDbEntity
  8
DEFPOINTS
 62
     0
440
 16777216
 48
3.0
100
AcDbPoint
 10
654.6891964216472
 20
355.4995090013922
 30
0.0
  0
ENDBLK
  5
E0EE
330
E0EC
100
AcDbEntity
  8
0
 48
3.0
100
AcDbBlockEnd
  0
BLOCK
  5
E0F9
330
E0F8
100
AcDbEntity
  8
0
 48
3.0
100
AcDbBlockBegin
  2
*D17
 70
     1
 10
0.0
 20
0.0
 30
0.0
  3
*D17
  1

  0
LINE
  5
E181
330
E0F8
100
AcDbEntity
  8
2寸法線
 62
     0
440
 16777216
 48
3.0
370
    -2
100
AcDbLine
 10
685.8568925919926
 20
472.4995076900898
 30
0.0
 11
685.8568925919926
 21
482.5877974822163
 31
0.0
  0
LINE
  5
E182
330
E0F8
100
AcDbEntity
  8
2寸法線
 62
     0
440
 16777216
 48
3.0
370
    -2
100
AcDbLine
 10
731.9572279575263
 20
474.4995076900899
 30
0.0
 11
731.9572279575263
 21
482.5877974822163
 31
0.0
  0
LINE
  5
E183
330
E0F8
100
AcDbEntity
  8
2寸法線
 62
     0
440
 16777216
 48
3.0
370
    -2
100
AcDbLine
 10
687.3568925919926
 20
481.5877974822163
 30
0.0
 11
730.4572279575263
 21
481.5877974822163
 31
0.0
  0
INSERT
  5
E184
330
E0F8
100
AcDbEntity
  8
2寸法線
 62
     0
440
 16777216
 48
3.0
370
    -2
100
AcDbBlockReference
  2
1
 10
685.8568925919926
 20
481.5877974822163
 30
0.0
 41
1.5
 42
1.5
 43
1.5
 50
180.0
  0
INSERT
  5
E185
330
E0F8
100
AcDbEntity
  8
2寸法線
 62
     0
440
 16777216
 48
3.0
370
    -2
100
AcDbBlockReference
  2
1
 10
731.9572279575263
 20
481.5877974822163
 30
0.0
 41
1.5
 42
1.5
 43
1.5
  0
MTEXT
  5
E186
330
E0F8
100
AcDbEntity
  8
2寸法線
 62
     1
440
 16777216
 48
3.0
100
AcDbMText
 10
708.9070602747595
 20
484.3377974822163
 30
0.0
 40
3.5
 41
0.0
 46
0.0
 71
     5
 72
     1
  1
\A1;46
  7
KANJI
 73
     1
 44
1.0
  0
POINT
  5
E187
330
E0F8
100
AcDbEntity
  8
DEFPOINTS
 62
     0
440
 16777216
 48
3.0
100
AcDbPoint
 10
685.8568925919926
 20
470.4995076900899
 30
0.0
  0
POINT
  5
E188
330
E0F8
100
AcDbEntity
  8
DEFPOINTS
 62
     0
440
 16777216
 48
3.0
100
AcDbPoint
 10
731.9572279575263
 20
472.4995076900898
 30
0.0
  0
POINT
  5
E189
330
E0F8
100
AcDbEntity
  8
DEFPOINTS
 62
     0
440
 16777216
 48
3.0
100
AcDbPoint
 10
731.9572279575263
 20
481.5877974822163
 30
0.0
  0
ENDBLK
  5
E0FA
330
E0F8
100
AcDbEntity
  8
0
 48
3.0
100
AcDbBlockEnd
  0
BLOCK
  5
E105
330
E104
100
AcDbEntity
  8
0
 48
3.0
100
AcDbBlockBegin
  2
*D18
 70
     1
 10
0.0
 20
0.0
 30
0.0
  3
*D18
  1

  0
LINE
  5
E18A
330
E104
100
AcDbEntity
  8
2寸法線
 62
     0
440
 16777216
 48
2.0
370
    -2
100
AcDbLine
 10
560.776078820801
 20
510.9806438062927
 30
0.0
 11
590.8052326557294
 21
522.0373123798911
 31
0.0
  0
MTEXT
  5
E18B
330
E104
100
AcDbEntity
  8
2寸法線
 62
     1
440
 16777216
 48
2.0
100
AcDbMText
 10
575.0270429136198
 20
519.8057883066443
 30
0.0
 40
4.0
 41
0.0
 46
0.0
 71
     5
 72
     1
  1
\A1;∅35
  7
KANJI
 11
0.9384110573469232
 21
0.3455208929269391
 31
0.0
 73
     1
 44
1.0
  0
INSERT
  5
E18C
330
E104
100
AcDbEntity
  8
2寸法線
 62
     0
440
 16777216
 48
2.0
370
    -2
100
AcDbBlockReference
  2
1
 10
559.3684622347807
 20
510.4623624669023
 30
0.0
 41
1.5
 42
1.5
 43
1.5
 50
200.2135962431923
  0
INSERT
  5
E18D
330
E104
100
AcDbEntity
  8
2寸法線
 62
     0
440
 16777216
 48
2.0
370
    -2
100
AcDbBlockReference
  2
1
 10
592.2128492417498
 20
522.5555937192814
 30
0.0
 41
1.5
 42
1.5
 43
1.5
 50
20.21359624319232
  0
POINT
  5
E18E
330
E104
100
AcDbEntity
  8
DEFPOINTS
 62
     0
440
 16777216
 48
2.0
100
AcDbPoint
 10
592.2128492417498
 20
522.5555937192814
 30
0.0
  0
POINT
  5
E18F
330
E104
100
AcDbEntity
  8
DEFPOINTS
 62
     0
440
 16777216
 48
2.0
100
AcDbPoint
 10
559.3684622347807
 20
510.4623624669023
 30
0.0
  0
ENDBLK
  5
E106
330
E104
100
AcDbEntity
  8
0
 48
3.0
100
AcDbBlockEnd
  0
BLOCK
  5
E10E
330
E10D
100
AcDbEntity
  8
0
 48
3.0
100
AcDbBlockBegin
  2
*D19
 70
     1
 10
0.0
 20
0.0
 30
0.0
  3
*D19
  1

  0
LINE
  5
E190
330
E10D
100
AcDbEntity
  8
2寸法線
 62
     0
440
 16777216
 48
3.0
370
    -2
100
AcDbLine
 10
777.4729121280902
 20
366.9995065128972
 30
0.0
 11
777.4729121280902
 21
344.0315872760169
 31
0.0
  0
LINE
  5
E191
330
E10D
100
AcDbEntity
  8
2寸法線
 62
     0
440
 16777216
 48
3.0
370
    -2
100
AcDbLine
 10
853.4729121280888
 20
366.9995065128972
 30
0.0
 11
853.4729121280888
 21
344.0315872760169
 31
0.0
  0
LINE
  5
E192
330
E10D
100
AcDbEntity
  8
2寸法線
 62
     0
440
 16777216
 48
3.0
370
    -2
100
AcDbLine
 10
778.9729121280902
 20
345.0315872760169
 30
0.0
 11
851.9729121280889
 21
345.0315872760169
 31
0.0
  0
INSERT
  5
E193
330
E10D
100
AcDbEntity
  8
2寸法線
 62
     0
440
 16777216
 48
3.0
370
    -2
100
AcDbBlockReference
  2
1
 10
777.4729121280902
 20
345.0315872760169
 30
0.0
 41
1.5
 42
1.5
 43
1.5
 50
180.0
  0
INSERT
  5
E194
330
E10D
100
AcDbEntity
  8
2寸法線
 62
     0
440
 16777216
 48
3.0
370
    -2
100
AcDbBlockReference
  2
1
 10
853.4729121280888
 20
345.0315872760169
 30
0.0
 41
1.5
 42
1.5
 43
1.5
  0
MTEXT
  5
E195
330
E10D
100
AcDbEntity
  8
2寸法線
 62
     1
440
 16777216
 48
3.0
100
AcDbMText
 10
815.4729121280896
 20
347.7815872760169
 30
0.0
 40
3.5
 41
0.0
 46
0.0
 71
     5
 72
     1
  1
\A1;76
  7
KANJI
 73
     1
 44
1.0
  0
POINT
  5
E196
330
E10D
100
AcDbEntity
  8
DEFPOINTS
 62
     0
440
 16777216
 48
3.0
100
AcDbPoint
 10
777.4729121280902
 20
368.9995065128973
 30
0.0
  0
POINT
  5
E197
330
E10D
100
AcDbEntity
  8
DEFPOINTS
 62
     0
440
 16777216
 48
3.0
100
AcDbPoint
 10
853.4729121280888
 20
368.9995065128973
 30
0.0
  0
POINT
  5
E198
330
E10D
100
AcDbEntity
  8
DEFPOINTS
 62
     0
440
 16777216
 48
3.0
100
AcDbPoint
 10
853.4729121280888
 20
345.0315872760169
 30
0.0
  0
ENDBLK
  5
E10F
330
E10D
100
AcDbEntity
  8
0
 48
3.0
100
AcDbBlockEnd
  0
BLOCK
  5
E11A
330
E119
100
AcDbEntity
  8
0
 48
3.0
100
AcDbBlockBegin
  2
*D20
 70
     1
 10
0.0
 20
0.0
 30
0.0
  3
*D20
  1

  0
LINE
  5
E199
330
E119
100
AcDbEntity
  8
2寸法線
 62
     0
440
 16777216
 48
3.0
370
    -2
100
AcDbLine
 10
851.4729121280883
 20
440.9994855960531
 30
0.0
 11
841.9450466049468
 21
440.9994855960531
 31
0.0
  0
LINE
  5
E19A
330
E119
100
AcDbEntity
  8
2寸法線
 62
     0
440
 16777216
 48
3.0
370
    -2
100
AcDbLine
 10
851.4729121280884
 20
431.9994855960532
 30
0.0
 11
841.9450466049468
 21
431.9994855960532
 31
0.0
  0
LINE
  5
E19B
330
E119
100
AcDbEntity
  8
2寸法線
 62
     0
440
 16777216
 48
3.0
370
    -2
100
AcDbLine
 10
842.945046604947
 20
439.4994855960532
 30
0.0
 11
842.945046604947
 21
433.4994855960531
 31
0.0
  0
INSERT
  5
E19C
330
E119
100
AcDbEntity
  8
2寸法線
 62
     0
440
 16777216
 48
3.0
370
    -2
100
AcDbBlockReference
  2
1
 10
842.945046604947
 20
440.9994855960531
 30
0.0
 41
1.5
 42
1.5
 43
1.5
 50
90.0
  0
INSERT
  5
E19D
330
E119
100
AcDbEntity
  8
2寸法線
 62
     0
440
 16777216
 48
3.0
370
    -2
100
AcDbBlockReference
  2
1
 10
842.945046604947
 20
431.9994855960532
 30
0.0
 41
1.5
 42
1.5
 43
1.5
 50
270.0
  0
MTEXT
  5
E19E
330
E119
100
AcDbEntity
  8
2寸法線
 62
     1
440
 16777216
 48
3.0
100
AcDbMText
 10
840.1950466049468
 20
436.499485596053
 30
0.0
 40
3.5
 41
0.0
 46
0.0
 71
     5
 72
     1
  1
\A1;9
  7
KANJI
 11
0.0000000000000001
 21
1.0
 31
0.0
 73
     1
 44
1.0
  0
POINT
  5
E19F
330
E119
100
AcDbEntity
  8
DEFPOINTS
 62
     0
440
 16777216
 48
3.0
100
AcDbPoint
 10
853.4729121280882
 20
440.9994855960531
 30
0.0
  0
POINT
  5
E1A0
330
E119
100
AcDbEntity
  8
DEFPOINTS
 62
     0
440
 16777216
 48
3.0
100
AcDbPoint
 10
853.4729121280886
 20
431.9994855960532
 30
0.0
  0
POINT
  5
E1A1
330
E119
100
AcDbEntity
  8
DEFPOINTS
 62
     0
440
 16777216
 48
3.0
100
AcDbPoint
 10
842.945046604947
 20
431.9994855960532
 30
0.0
  0
ENDBLK
  5
E11B
330
E119
100
AcDbEntity
  8
0
 48
3.0
100
AcDbBlockEnd
  0
BLOCK
  5
E126
330
E125
100
AcDbEntity
  8
0
 48
3.0
100
AcDbBlockBegin
  2
*D21
 70
     1
 10
0.0
 20
0.0
 30
0.0
  3
*D21
  1

  0
LINE
  5
E1A2
330
E125
100
AcDbEntity
  8
2寸法線
 62
     0
440
 16777216
 48
3.0
370
    -2
100
AcDbLine
 10
855.5729121280885
 20
432.0994855960533
 30
0.0
 11
855.5729121280885
 21
424.2961442868343
 31
0.0
  0
LINE
  5
E1A3
330
E125
100
AcDbEntity
  8
2寸法線
 62
     0
440
 16777216
 48
3.0
370
    -2
100
AcDbLine
 10
851.372912128088
 20
432.0994855960533
 30
0.0
 11
851.372912128088
 21
424.2961442868343
 31
0.0
  0
LINE
  5
E1A4
330
E125
100
AcDbEntity
  8
2寸法線
 62
     0
440
 16777216
 48
3.0
370
    -2
100
AcDbLine
 10
857.0729121280885
 20
425.2961442868344
 30
0.0
 11
858.5729121280886
 21
425.2961442868344
 31
0.0
  0
LINE
  5
E1A5
330
E125
100
AcDbEntity
  8
2寸法線
 62
     0
440
 16777216
 48
3.0
370
    -2
100
AcDbLine
 10
849.8729121280881
 20
425.2961442868344
 30
0.0
 11
839.0395787947545
 21
425.2961442868344
 31
0.0
  0
LINE
  5
E1A6
330
E125
100
AcDbEntity
  8
2寸法線
 62
     0
440
 16777216
 48
3.0
370
    -2
100
AcDbLine
 10
855.5729121280885
 20
425.2961442868344
 30
0.0
 11
851.372912128088
 21
425.2961442868344
 31
0.0
  0
INSERT
  5
E1A7
330
E125
100
AcDbEntity
  8
2寸法線
 62
     0
440
 16777216
 48
3.0
370
    -2
100
AcDbBlockReference
  2
1
 10
855.5729121280885
 20
425.2961442868344
 30
0.0
 41
1.5
 42
1.5
 43
1.5
 50
180.0
  0
INSERT
  5
E1A8
330
E125
100
AcDbEntity
  8
2寸法線
 62
     0
440
 16777216
 48
3.0
370
    -2
100
AcDbBlockReference
  2
1
 10
851.372912128088
 20
425.2961442868344
 30
0.0
 41
1.5
 42
1.5
 43
1.5
  0
MTEXT
  5
E1A9
330
E125
100
AcDbEntity
  8
2寸法線
 62
     1
440
 16777216
 48
3.0
100
AcDbMText
 10
843.7062454614213
 20
428.0461442868344
 30
0.0
 40
3.5
 41
0.0
 46
0.0
 71
     5
 72
     1
  1
\A1;4.2
  7
KANJI
 73
     1
 44
1.0
  0
POINT
  5
E1AA
330
E125
100
AcDbEntity
  8
DEFPOINTS
 62
     0
440
 16777216
 48
3.0
100
AcDbPoint
 10
855.5729121280885
 20
434.0994855960533
 30
0.0
  0
POINT
  5
E1AB
330
E125
100
AcDbEntity
  8
DEFPOINTS
 62
     0
440
 16777216
 48
3.0
100
AcDbPoint
 10
851.372912128088
 20
434.0994855960533
 30
0.0
  0
POINT
  5
E1AC
330
E125
100
AcDbEntity
  8
DEFPOINTS
 62
     0
440
 16777216
 48
3.0
100
AcDbPoint
 10
851.372912128088
 20
425.2961442868344
 30
0.0
  0
ENDBLK
  5
E127
330
E125
100
AcDbEntity
  8
0
 48
3.0
100
AcDbBlockEnd
  0
BLOCK
  5
E134
330
E133
100
AcDbEntity
  8
0
 48
3.0
100
AcDbBlockBegin
  2
*D22
 70
     1
 10
0.0
 20
0.0
 30
0.0
  3
*D22
  1

  0
LINE
  5
E1AD
330
E133
100
AcDbEntity
  8
2寸法線
 62
     0
440
 16777216
 48
3.0
370
    -2
100
AcDbLine
 10
837.7852344630941
 20
365.49950680347
 30
0.0
 11
875.8499362372415
 21
365.49950680347
 31
0.0
  0
LINE
  5
E1AE
330
E133
100
AcDbEntity
  8
2寸法線
 62
     0
440
 16777216
 48
3.0
370
    -2
100
AcDbLine
 10
859.844578441668
 20
355.499505603927
 30
0.0
 11
875.8499362372415
 21
355.499505603927
 31
0.0
  0
LINE
  5
E1AF
330
E133
100
AcDbEntity
  8
2寸法線
 62
     0
440
 16777216
 48
3.0
370
    -2
100
AcDbLine
 10
874.8499362372413
 20
363.99950680347
 30
0.0
 11
874.8499362372413
 21
356.999505603927
 31
0.0
  0
INSERT
  5
E1B0
330
E133
100
AcDbEntity
  8
2寸法線
 62
     0
440
 16777216
 48
3.0
370
    -2
100
AcDbBlockReference
  2
1
 10
874.8499362372413
 20
365.49950680347
 30
0.0
 41
1.5
 42
1.5
 43
1.5
 50
90.0
  0
INSERT
  5
E1B1
330
E133
100
AcDbEntity
  8
2寸法線
 62
     0
440
 16777216
 48
3.0
370
    -2
100
AcDbBlockReference
  2
1
 10
874.8499362372413
 20
355.499505603927
 30
0.0
 41
1.5
 42
1.5
 43
1.5
 50
270.0
  0
MTEXT
  5
E1B2
330
E133
100
AcDbEntity
  8
2寸法線
 62
     1
440
 16777216
 48
3.0
100
AcDbMText
 10
872.0999362372413
 20
360.4995062036982
 30
0.0
 40
3.5
 41
0.0
 46
0.0
 71
     5
 72
     1
  1
\A1;10
  7
KANJI
 11
0.0000000000000001
 21
1.0
 31
0.0
 73
     1
 44
1.0
  0
POINT
  5
E1B3
330
E133
100
AcDbEntity
  8
DEFPOINTS
 62
     0
440
 16777216
 48
3.0
100
AcDbPoint
 10
835.7852344630941
 20
365.49950680347
 30
0.0
  0
POINT
  5
E1B4
330
E133
100
AcDbEntity
  8
DEFPOINTS
 62
     0
440
 16777216
 48
3.0
100
AcDbPoint
 10
857.8445784416681
 20
355.499505603927
 30
0.0
  0
POINT
  5
E1B5
330
E133
100
AcDbEntity
  8
DEFPOINTS
 62
     0
440
 16777216
 48
3.0
100
AcDbPoint
 10
874.8499362372413
 20
355.499505603927
 30
0.0
  0
ENDBLK
  5
E135
330
E133
100
AcDbEntity
  8
0
 48
3.0
100
AcDbBlockEnd
  0
BLOCK
  5
E140
330
E13F
100
AcDbEntity
  8
0
 48
3.0
100
AcDbBlockBegin
  2
*D23
 70
     1
 10
0.0
 20
0.0
 30
0.0
  3
*D23
  1

  0
LINE
  5
E1B6
330
E13F
100
AcDbEntity
  8
2寸法線
 62
     0
440
 16777216
 48
3.0
370
    -2
100
AcDbLine
 10
860.4729121280895
 20
376.4995065128983
 30
0.0
 11
875.8499362372415
 21
376.4995065128983
 31
0.0
  0
LINE
  5
E1B7
330
E13F
100
AcDbEntity
  8
2寸法線
 62
     0
440
 16777216
 48
3.0
370
    -2
100
AcDbLine
 10
837.7852344630941
 20
365.49950680347
 30
0.0
 11
875.8499362372415
 21
365.49950680347
 31
0.0
  0
LINE
  5
E1B8
330
E13F
100
AcDbEntity
  8
2寸法線
 62
     0
440
 16777216
 48
3.0
370
    -2
100
AcDbLine
 10
874.8499362372413
 20
374.9995065128983
 30
0.0
 11
874.8499362372413
 21
366.99950680347
 31
0.0
  0
INSERT
  5
E1B9
330
E13F
100
AcDbEntity
  8
2寸法線
 62
     0
440
 16777216
 48
3.0
370
    -2
100
AcDbBlockReference
  2
1
 10
874.8499362372413
 20
376.4995065128983
 30
0.0
 41
1.5
 42
1.5
 43
1.5
 50
90.0
  0
INSERT
  5
E1BA
330
E13F
100
AcDbEntity
  8
2寸法線
 62
     0
440
 16777216
 48
3.0
370
    -2
100
AcDbBlockReference
  2
1
 10
874.8499362372413
 20
365.49950680347
 30
0.0
 41
1.5
 42
1.5
 43
1.5
 50
270.0
  0
MTEXT
  5
E1BB
330
E13F
100
AcDbEntity
  8
2寸法線
 62
     1
440
 16777216
 48
3.0
100
AcDbMText
 10
872.0999362372413
 20
370.9995066581839
 30
0.0
 40
3.5
 41
0.0
 46
0.0
 71
     5
 72
     1
  1
\A1;11
  7
KANJI
 11
0.0000000000000001
 21
1.0
 31
0.0
 73
     1
 44
1.0
  0
POINT
  5
E1BC
330
E13F
100
AcDbEntity
  8
DEFPOINTS
 62
     0
440
 16777216
 48
3.0
100
AcDbPoint
 10
858.4729121280894
 20
376.4995065128983
 30
0.0
  0
POINT
  5
E1BD
330
E13F
100
AcDbEntity
  8
DEFPOINTS
 62
     0
440
 16777216
 48
3.0
100
AcDbPoint
 10
835.7852344630941
 20
365.49950680347
 30
0.0
  0
POINT
  5
E1BE
330
E13F
100
AcDbEntity
  8
DEFPOINTS
 62
     0
440
 16777216
 48
3.0
100
AcDbPoint
 10
874.8499362372413
 20
365.49950680347
 30
0.0
  0
ENDBLK
  5
E141
330
E13F
100
AcDbEntity
  8
0
 48
3.0
100
AcDbBlockEnd
  0
BLOCK
  5
E14C
330
E14B
100
AcDbEntity
  8
0
 48
3.0
100
AcDbBlockBegin
  2
*D24
 70
     1
 10
0.0
 20
0.0
 30
0.0
  3
*D24
  1

  0
LINE
  5
E1BF
330
E14B
100
AcDbEntity
  8
2寸法線
 62
     0
440
 16777216
 48
3.0
370
    -2
100
AcDbLine
 10
860.4729121280895
 20
436.4994853576355
 30
0.0
 11
875.8499362372415
 21
436.4994853576355
 31
0.0
  0
LINE
  5
E1C0
330
E14B
100
AcDbEntity
  8
2寸法線
 62
     0
440
 16777216
 48
3.0
370
    -2
100
AcDbLine
 10
860.4729121280895
 20
376.4995065128983
 30
0.0
 11
875.8499362372415
 21
376.4995065128983
 31
0.0
  0
LINE
  5
E1C1
330
E14B
100
AcDbEntity
  8
2寸法線
 62
     0
440
 16777216
 48
3.0
370
    -2
100
AcDbLine
 10
874.8499362372413
 20
434.9994853576355
 30
0.0
 11
874.8499362372413
 21
377.9995065128983
 31
0.0
  0
INSERT
  5
E1C2
330
E14B
100
AcDbEntity
  8
2寸法線
 62
     0
440
 16777216
 48
3.0
370
    -2
100
AcDbBlockReference
  2
1
 10
874.8499362372413
 20
436.4994853576355
 30
0.0
 41
1.5
 42
1.5
 43
1.5
 50
90.0
  0
INSERT
  5
E1C3
330
E14B
100
AcDbEntity
  8
2寸法線
 62
     0
440
 16777216
 48
3.0
370
    -2
100
AcDbBlockReference
  2
1
 10
874.8499362372413
 20
376.4995065128983
 30
0.0
 41
1.5
 42
1.5
 43
1.5
 50
270.0
  0
MTEXT
  5
E1C4
330
E14B
100
AcDbEntity
  8
2寸法線
 62
     1
440
 16777216
 48
3.0
100
AcDbMText
 10
872.0999362372413
 20
406.4994959352665
 30
0.0
 40
3.5
 41
0.0
 46
0.0
 71
     5
 72
     1
  1
\A1;60
  7
KANJI
 11
0.0000000000000001
 21
1.0
 31
0.0
 73
     1
 44
1.0
  0
POINT
  5
E1C5
330
E14B
100
AcDbEntity
  8
DEFPOINTS
 62
     0
440
 16777216
 48
3.0
100
AcDbPoint
 10
858.4729121280894
 20
436.4994853576355
 30
0.0
  0
POINT
  5
E1C6
330
E14B
100
AcDbEntity
  8
DEFPOINTS
 62
     0
440
 16777216
 48
3.0
100
AcDbPoint
 10
858.4729121280894
 20
376.4995065128983
 30
0.0
  0
POINT
  5
E1C7
330
E14B
100
AcDbEntity
  8
DEFPOINTS
 62
     0
440
 16777216
 48
3.0
100
AcDbPoint
 10
874.8499362372413
 20
376.4995065128983
 30
0.0
  0
ENDBLK
  5
E14D
330
E14B
100
AcDbEntity
  8
0
 48
3.0
100
AcDbBlockEnd
  0
BLOCK
  5
E158
330
E157
100
AcDbEntity
  8
0
 48
3.0
100
AcDbBlockBegin
  2
*D25
 70
     1
 10
0.0
 20
0.0
 30
0.0
  3
*D25
  1

  0
LINE
  5
E1C8
330
E157
100
AcDbEntity
  8
2寸法線
 62
     0
440
 16777216
 48
3.0
370
    -2
100
AcDbLine
 10
687.8568924779669
 20
353.4995090013921
 30
0.0
 11
687.8568924779669
 21
344.0315872760169
 31
0.0
  0
LINE
  5
E1C9
330
E157
100
AcDbEntity
  8
2寸法線
 62
     0
440
 16777216
 48
3.0
370
    -2
100
AcDbLine
 10
731.9572279575263
 20
353.4995076900899
 30
0.0
 11
731.9572279575263
 21
344.0315872760169
 31
0.0
  0
LINE
  5
E1CA
330
E157
100
AcDbEntity
  8
2寸法線
 62
     0
440
 16777216
 48
3.0
370
    -2
100
AcDbLine
 10
689.3568924779668
 20
345.0315872760169
 30
0.0
 11
730.4572279575263
 21
345.0315872760169
 31
0.0
  0
INSERT
  5
E1CB
330
E157
100
AcDbEntity
  8
2寸法線
 62
     0
440
 16777216
 48
3.0
370
    -2
100
AcDbBlockReference
  2
1
 10
687.8568924779669
 20
345.0315872760169
 30
0.0
 41
1.5
 42
1.5
 43
1.5
 50
180.0
  0
INSERT
  5
E1CC
330
E157
100
AcDbEntity
  8
2寸法線
 62
     0
440
 16777216
 48
3.0
370
    -2
100
AcDbBlockReference
  2
1
 10
731.9572279575263
 20
345.0315872760169
 30
0.0
 41
1.5
 42
1.5
 43
1.5
  0
MTEXT
  5
E1CD
330
E157
100
AcDbEntity
  8
2寸法線
 62
     1
440
 16777216
 48
3.0
100
AcDbMText
 10
709.9070602177467
 20
347.7815872760169
 30
0.0
 40
3.5
 41
0.0
 46
0.0
 71
     5
 72
     1
  1
\A1;44
  7
KANJI
 73
     1
 44
1.0
  0
POINT
  5
E1CE
330
E157
100
AcDbEntity
  8
DEFPOINTS
 62
     0
440
 16777216
 48
3.0
100
AcDbPoint
 10
687.8568924779669
 20
355.4995090013921
 30
0.0
  0
POINT
  5
E1CF
330
E157
100
AcDbEntity
  8
DEFPOINTS
 62
     0
440
 16777216
 48
3.0
100
AcDbPoint
 10
731.9572279575263
 20
355.4995076900899
 30
0.0
  0
POINT
  5
E1D0
330
E157
100
AcDbEntity
  8
DEFPOINTS
 62
     0
440
 16777216
 48
3.0
100
AcDbPoint
 10
731.9572279575263
 20
345.0315872760169
 30
0.0
  0
ENDBLK
  5
E159
330
E157
100
AcDbEntity
  8
0
 48
3.0
100
AcDbBlockEnd
  0
BLOCK
  5
E164
330
E163
100
AcDbEntity
  8
0
 48
3.0
100
AcDbBlockBegin
  2
*D26
 70
     1
 10
0.0
 20
0.0
 30
0.0
  3
*D26
  1

  0
LINE
  5
E1D1
330
E163
100
AcDbEntity
  8
2寸法線
 62
     0
440
 16777216
 48
3.0
370
    -2
100
AcDbLine
 10
552.7888183850525
 20
298.3205910802484
 30
0.0
 11
552.7888183850525
 21
347.5952817525525
 31
0.0
  0
LINE
  5
E1D2
330
E163
100
AcDbEntity
  8
2寸法線
 62
     0
440
 16777216
 48
3.0
370
    -2
100
AcDbLine
 10
639.2879027109581
 20
298.3205910802484
 30
0.0
 11
639.2879027109581
 21
347.5952817525525
 31
0.0
  0
LINE
  5
E1D3
330
E163
100
AcDbEntity
  8
2寸法線
 62
     0
440
 16777216
 48
3.0
370
    -2
100
AcDbLine
 10
554.2888183850525
 20
346.5952817525525
 30
0.0
 11
637.7879027109582
 21
346.5952817525525
 31
0.0
  0
INSERT
  5
E1D4
330
E163
100
AcDbEntity
  8
2寸法線
 62
     0
440
 16777216
 48
3.0
370
    -2
100
AcDbBlockReference
  2
1
 10
552.7888183850525
 20
346.5952817525525
 30
0.0
 41
1.5
 42
1.5
 43
1.5
 50
180.0
  0
INSERT
  5
E1D5
330
E163
100
AcDbEntity
  8
2寸法線
 62
     0
440
 16777216
 48
3.0
370
    -2
100
AcDbBlockReference
  2
1
 10
639.2879027109581
 20
346.5952817525525
 30
0.0
 41
1.5
 42
1.5
 43
1.5
  0
MTEXT
  5
E1D6
330
E163
100
AcDbEntity
  8
2寸法線
 62
     1
440
 16777216
 48
3.0
100
AcDbMText
 10
596.0383605480053
 20
349.3452817525525
 30
0.0
 40
3.5
 41
0.0
 46
0.0
 71
     5
 72
     1
  1
\A1;87
  7
KANJI
 73
     1
 44
1.0
  0
POINT
  5
E1D7
330
E163
100
AcDbEntity
  8
DEFPOINTS
 62
     0
440
 16777216
 48
3.0
100
AcDbPoint
 10
552.7888183850525
 20
296.3205910802484
 30
0.0
  0
POINT
  5
E1D8
330
E163
100
AcDbEntity
  8
DEFPOINTS
 62
     0
440
 16777216
 48
3.0
100
AcDbPoint
 10
639.2879027109581
 20
296.3205910802484
 30
0.0
  0
POINT
  5
E1D9
330
E163
100
AcDbEntity
  8
DEFPOINTS
 62
     0
440
 16777216
 48
3.0
100
AcDbPoint
 10
639.2879027109581
 20
346.5952817525525
 30
0.0
  0
ENDBLK
  5
E165
330
E163
100
AcDbEntity
  8
0
 48
3.0
100
AcDbBlockEnd
  0
ENDSEC
  0
SECTION
  2
ENTITIES
  0
LINE
  5
DF24
330
17
100
AcDbEntity
  8
L0
100
AcDbLine
 10
567.0353403595812
 20
422.1682807791437
 30
0.0
 11
567.0353403595812
 21
417.3683244486553
 31
0.0
  0
ARC
  5
DF25
330
17
100
AcDbEntity
  8
L0
100
AcDbCircle
 10
569.1353411582834
 20
422.1682799387179
 30
0.0
 40
2.100000000000079
100
AcDbArc
 50
0.0
 51
180.0
  0
LINE
  5
DF26
330
17
100
AcDbEntity
  8
L0
100
AcDbLine
 10
571.2353406754858
 20
417.3683244486553
 30
0.0
 11
571.2353406754858
 21
422.1682807791437
 31
0.0
  0
ARC
  5
DF27
330
17
100
AcDbEntity
  8
L0
100
AcDbCircle
 10
569.1353411582834
 20
417.3683246036269
 30
0.0
 40
2.100000000000079
100
AcDbArc
 50
180.0
 51
0.0
  0
LINE
  5
DF2E
330
17
100
AcDbEntity
  8
L0
100
AcDbLine
 10
562.885646363867
 20
455.7683022711728
 30
0.0
 11
562.885646363867
 21
363.7664693628374
 31
0.0
  0
LINE
  5
DF34
330
17
100
AcDbEntity
  8
L0
100
AcDbLine
 10
607.1353411582834
 20
455.7683022711728
 30
0.0
 11
562.885646363867
 21
455.7683022711728
 31
0.0
  0
ARC
  5
DF35
330
17
100
AcDbEntity
  8
L0
100
AcDbCircle
 10
353.1581017993094
 20
500.2777726741758
 30
0.0
 40
0.5000000000000036
100
AcDbArc
 50
270.0
 51
358.4082458234373
  0
ARC
  5
DF36
330
17
100
AcDbEntity
  8
L0
100
AcDbCircle
 10
348.6442102301735
 20
500.2777726741758
 30
0.0
 40
0.500000000000013
100
AcDbArc
 50
181.5917541765627
 51
270.0
  0
ARC
  5
DF37
330
17
100
AcDbEntity
  8
L0
100
AcDbCircle
 10
312.6581017992803
 20
500.2777726741758
 30
0.0
 40
0.500000000000013
100
AcDbArc
 50
270.0
 51
358.4082458234373
  0
ARC
  5
DF38
330
17
100
AcDbEntity
  8
L0
100
AcDbCircle
 10
307.2967094942051
 20
510.442775670778
 30
0.0
 40
0.500000367095216
100
AcDbArc
 50
180.9999999998715
 51
183.0357558704453
  0
ARC
  5
DF39
330
17
100
AcDbEntity
  8
L0
100
AcDbCircle
 10
394.5056025354961
 20
510.442775670778
 30
0.0
 40
0.5000003670951678
100
AcDbArc
 50
356.9642438699943
 51
359.0000000001285
  0
LINE
  5
DF3A
330
17
100
AcDbEntity
  8
L0
100
AcDbLine
 10
394.8277787334232
 20
500.2690459432349
 30
0.0
 11
395.0049013859539
 21
510.4162962006673
 31
0.0
  0
LINE
  5
DF3B
330
17
100
AcDbEntity
  8
L0
100
AcDbLine
 10
389.1442113584785
 20
499.7777732851252
 30
0.0
 11
394.3278559512405
 21
499.7777732851252
 31
0.0
  0
LINE
  5
DF3C
330
17
100
AcDbEntity
  8
L0
100
AcDbLine
 10
306.974533296278
 20
500.2690459432349
 30
0.0
 11
306.7974106437473
 21
510.4162962006673
 31
0.0
  0
LINE
  5
DF3D
330
17
100
AcDbEntity
  8
L0
100
AcDbLine
 10
353.1581017217545
 20
499.7777732851252
 30
0.0
 11
348.6442103079467
 21
499.7777732851252
 31
0.0
  0
LINE
  5
DF3F
330
17
100
AcDbEntity
  8
L0
100
AcDbLine
 10
306.7967847949772
 20
510.4340490715847
 30
0.0
 11
306.783802158287
 21
511.1777725460276
 31
0.0
  0
LINE
  5
DF40
330
17
100
AcDbEntity
  8
L0
100
AcDbLine
 10
395.1511674589424
 20
518.7777726741776
 30
0.0
 11
306.6511445707588
 21
518.7777726741776
 31
0.0
  0
ARC
  5
DF41
330
17
100
AcDbEntity
  8
L0
100
AcDbCircle
 10
307.4744555360489
 20
500.2777726741758
 30
0.0
 40
0.5000000000000107
100
AcDbArc
 50
180.9999999997151
 51
270.0
  0
LINE
  5
DF42
330
17
100
AcDbEntity
  8
L0
100
AcDbLine
 10
395.005527234724
 20
510.4340490715847
 30
0.0
 11
395.0185098714142
 21
511.1777725460276
 31
0.0
  0
ARC
  5
DF44
330
17
100
AcDbEntity
  8
L0
100
AcDbCircle
 10
394.3278564934744
 20
500.2777726741758
 30
0.0
 40
0.5000000000000036
100
AcDbArc
 50
270.0
 51
358.9999999997116
  0
LINE
  5
DF45
330
17
100
AcDbEntity
  8
L0
100
AcDbLine
 10
312.6581006712227
 20
499.7777732851252
 30
0.0
 11
307.4744560784607
 21
499.7777732851252
 31
0.0
  0
ARC
  5
DF46
330
17
100
AcDbEntity
  8
L0
100
AcDbCircle
 10
330.6511560147273
 20
499.7777726741758
 30
0.0
 40
17.5
100
AcDbArc
 50
145.1500954207672
 51
178.4082458234372
  0
ARC
  5
DF47
330
17
100
AcDbEntity
  8
L0
100
AcDbCircle
 10
371.1511560147556
 20
499.7777726741758
 30
0.0
 40
17.50000000007742
100
AcDbArc
 50
1.591754176562755
 51
34.84990457890542
  0
ARC
  5
DF48
330
17
100
AcDbEntity
  8
L0
100
AcDbCircle
 10
330.6511560147273
 20
499.7777726741758
 30
0.0
 40
17.50000000000195
100
AcDbArc
 50
55.15009542070039
 51
124.8499045789736
  0
ARC
  5
DF49
330
17
100
AcDbEntity
  8
L0
100
AcDbCircle
 10
330.6511560147273
 20
499.7777726741758
 30
0.0
 40
17.50000000010094
100
AcDbArc
 50
1.591754176562755
 51
34.84990457884368
  0
ARC
  5
DF4A
330
17
100
AcDbEntity
  8
L0
100
AcDbCircle
 10
371.1511560147556
 20
499.7777726741758
 30
0.0
 40
17.5
100
AcDbArc
 50
145.1500954208352
 51
178.4082458234372
  0
ARC
  5
DF4B
330
17
100
AcDbEntity
  8
L0
100
AcDbCircle
 10
371.1511560147556
 20
499.7777726741758
 30
0.0
 40
17.50000000005415
100
AcDbArc
 50
55.15009542108783
 51
124.8499045791561
  0
ARC
  5
DF4C
330
17
100
AcDbEntity
  8
L0
100
AcDbCircle
 10
389.1442102302022
 20
500.2777726741758
 30
0.0
 40
0.5000000000000036
100
AcDbArc
 50
181.5917541765627
 51
270.0
  0
SPLINE
  5
DF4D
330
17
100
AcDbEntity
  8
L0
100
AcDbSpline
210
0.0
220
0.0
230
1.0
 70
     8
 71
     3
 72
     8
 73
     4
 74
     0
 42
0.000000001
 43
0.0000000001
 40
0.0000010228345566
 40
0.0000010228345566
 40
0.0000010228345566
 40
0.0000010228345566
 40
0.0000052263484679
 40
0.0000052263484679
 40
0.0000052263484679
 40
0.0000052263484679
 10
384.499561817347
 20
509.7777811698522
 30
0.0
 10
384.5009359093528
 20
509.7777755057311
 30
0.0
 10
384.5023099310602
 20
509.7777726741758
 30
0.0
 10
384.5036838653177
 20
509.7777726741758
 30
0.0
  0
SPLINE
  5
DF4E
330
17
100
AcDbEntity
  8
L0
100
AcDbSpline
210
0.0
220
0.0
230
1.0
 70
     8
 71
     3
 72
     8
 73
     4
 74
     0
 42
0.000000001
 43
0.0000000001
 40
0.0000002039647927
 40
0.0000002039647927
 40
0.0000002039647927
 40
0.0000002039647927
 40
0.0000044074787281
 40
0.0000044074787281
 40
0.0000044074787281
 40
0.0000044074787281
 10
381.1511560147555
 20
513.130300524738
 30
0.0
 10
381.1511560147555
 20
513.1289265904731
 30
0.0
 10
381.1511588463099
 20
513.1275525687576
 30
0.0
 10
381.1511645104311
 20
513.1261784767445
 30
0.0
  0
SPLINE
  5
DF4F
330
17
100
AcDbEntity
  8
L0
100
AcDbSpline
210
0.0
220
0.0
230
1.0
 70
    24
 71
     3
 72
    11
 73
     7
 74
     0
 42
0.000000001
 43
0.0000000001
 40
0.0017735077326757
 40
0.0017735077326757
 40
0.0017735077326757
 40
0.0017735077326757
 40
0.0019176326016602
 40
0.0019176326016602
 40
0.0019176326016602
 40
0.002802901959946
 40
0.002802901959946
 40
0.002802901959946
 40
0.002802901959946
 10
385.5125626311951
 20
509.7777726741758
 30
0.0
 10
385.4655009424064
 20
509.7777726741758
 30
0.0
 10
385.4184362002757
 20
509.7777726741758
 30
0.0
 10
385.3713683567521
 20
509.7777726741758
 30
0.0
 10
385.0822617393223
 20
509.7777726741758
 30
0.0
 10
384.793037484987
 20
509.7777726741758
 30
0.0
 10
384.5036838653177
 20
509.7777726741758
 30
0.0
  0
SPLINE
  5
DF50
330
17
100
AcDbEntity
  8
L0
100
AcDbSpline
210
0.0
220
0.0
230
1.0
 70
    24
 71
     3
 72
    11
 73
     7
 74
     0
 42
0.000000001
 43
0.0000000001
 40
0.0017735077327337
 40
0.0017735077327337
 40
0.0017735077327337
 40
0.0017735077327337
 40
0.0019176326016803
 40
0.0019176326016803
 40
0.0019176326016803
 40
0.0028029019599753
 40
0.0028029019599753
 40
0.0028029019599753
 40
0.0028029019599753
 10
381.1511560147555
 20
514.1391792905876
 30
0.0
 10
381.1511560147555
 20
514.0921176018107
 30
0.0
 10
381.1511560147555
 20
514.0450528596927
 30
0.0
 10
381.1511560147555
 20
513.9979850161815
 30
0.0
 10
381.1511560147555
 20
513.708878398749
 30
0.0
 10
381.1511560147555
 20
513.4196541444104
 30
0.0
 10
381.1511560147555
 20
513.130300524738
 30
0.0
  0
SPLINE
  5
DF51
330
17
100
AcDbEntity
  8
L0
100
AcDbSpline
210
0.0
220
0.0
230
1.0
 70
     8
 71
     3
 72
     8
 73
     4
 74
     0
 42
0.000000001
 43
0.0000000001
 40
0.0000010228345567
 40
0.0000010228345567
 40
0.0000010228345567
 40
0.0000010228345567
 40
0.000005226348638
 40
0.000005226348638
 40
0.000005226348638
 40
0.000005226348638
 10
361.1511475190787
 20
513.1261784766008
 30
0.0
 10
361.1511531832007
 20
513.1275525686621
 30
0.0
 10
361.1511560147556
 20
513.1289265904249
 30
0.0
 10
361.1511560147556
 20
513.130300524738
 30
0.0
  0
SPLINE
  5
DF52
330
17
100
AcDbEntity
  8
L0
100
AcDbSpline
210
0.0
220
0.0
230
1.0
 70
     8
 71
     3
 72
     8
 73
     4
 74
     0
 42
0.000000001
 43
0.0000000001
 40
0.0000002039647927
 40
0.0000002039647927
 40
0.0000002039647927
 40
0.0000002039647927
 40
0.0000044074788991
 40
0.0000044074788991
 40
0.0000044074788991
 40
0.0000044074788991
 10
357.7986281641934
 20
509.7777726741758
 30
0.0
 10
357.8000020985146
 20
509.7777726741758
 30
0.0
 10
357.8013761202851
 20
509.7777755057311
 30
0.0
 10
357.802750212355
 20
509.7777811698531
 30
0.0
  0
SPLINE
  5
DF53
330
17
100
AcDbEntity
  8
L0
100
AcDbSpline
210
0.0
220
0.0
230
1.0
 70
    24
 71
     3
 72
     8
 73
     4
 74
     0
 42
0.000000001
 43
0.0000000001
 40
0.0
 40
0.0
 40
0.0
 40
0.0
 40
1.0
 40
1.0
 40
1.0
 40
1.0
 10
356.7897493984515
 20
509.7777726741758
 30
0.0
 10
357.1258788228484
 20
509.7777726741758
 30
0.0
 10
357.4621655581418
 20
509.7777726741758
 30
0.0
 10
357.7986281641934
 20
509.7777726741758
 30
0.0
  0
SPLINE
  5
DF54
330
17
100
AcDbEntity
  8
L0
100
AcDbSpline
210
0.0
220
0.0
230
1.0
 70
    24
 71
     3
 72
    11
 73
     7
 74
     0
 42
0.000000001
 43
0.0000000001
 40
0.0017735077328633
 40
0.0017735077328633
 40
0.0017735077328633
 40
0.0017735077328633
 40
0.00191763260168
 40
0.00191763260168
 40
0.00191763260168
 40
0.0028029019599691
 40
0.0028029019599691
 40
0.0028029019599691
 40
0.0028029019599691
 10
361.1511560147556
 20
514.1391792904548
 30
0.0
 10
361.1511560147556
 20
514.0921176017207
 30
0.0
 10
361.1511560147556
 20
514.0450528596445
 30
0.0
 10
361.1511560147556
 20
513.9979850161759
 30
0.0
 10
361.1511560147556
 20
513.7088783987453
 30
0.0
 10
361.1511560147556
 20
513.4196541444087
 30
0.0
 10
361.1511560147556
 20
513.130300524738
 30
0.0
  0
SPLINE
  5
DF55
330
17
100
AcDbEntity
  8
L0
100
AcDbSpline
210
0.0
220
0.0
230
1.0
 70
     8
 71
     3
 72
     8
 73
     4
 74
     0
 42
0.000000001
 43
0.0000000001
 40
0.0000010228345566
 40
0.0000010228345566
 40
0.0000010228345566
 40
0.0000010228345566
 40
0.0000052263484936
 40
0.0000052263484936
 40
0.0000052263484936
 40
0.0000052263484936
 10
343.9995618173489
 20
509.7777811698494
 30
0.0
 10
344.0009359093628
 20
509.7777755057284
 30
0.0
 10
344.0023099310784
 20
509.777772674174
 30
0.0
 10
344.0036838653445
 20
509.777772674174
 30
0.0
  0
SPLINE
  5
DF56
330
17
100
AcDbEntity
  8
L0
100
AcDbSpline
210
0.0
220
0.0
230
1.0
 70
     8
 71
     3
 72
     8
 73
     4
 74
     0
 42
0.000000001
 43
0.0000000001
 40
0.0000002039647927
 40
0.0000002039647927
 40
0.0000002039647927
 40
0.0000002039647927
 40
0.0000044074787562
 40
0.0000044074787562
 40
0.0000044074787562
 40
0.0000044074787562
 10
340.6511560147878
 20
513.1303005247416
 30
0.0
 10
340.6511560147878
 20
513.1289265904667
 30
0.0
 10
340.6511588463422
 20
513.1275525687422
 30
0.0
 10
340.6511645104638
 20
513.12617847672
 30
0.0
  0
SPLINE
  5
DF57
330
17
100
AcDbEntity
  8
L0
100
AcDbSpline
210
0.0
220
0.0
230
1.0
 70
    24
 71
     3
 72
    11
 73
     7
 74
     0
 42
0.000000001
 43
0.0000000001
 40
0.001773507732654
 40
0.001773507732654
 40
0.001773507732654
 40
0.001773507732654
 40
0.0019176326016292
 40
0.0019176326016292
 40
0.0019176326016292
 40
0.0028029019598985
 40
0.0028029019598985
 40
0.0028029019598985
 40
0.0028029019598985
 10
345.0125626311969
 20
509.777772674174
 30
0.0
 10
344.9655009424109
 20
509.777772674174
 30
0.0
 10
344.9184362002834
 20
509.777772674174
 30
0.0
 10
344.871368356763
 20
509.777772674174
 30
0.0
 10
344.5822617393383
 20
509.777772674174
 30
0.0
 10
344.2930374850084
 20
509.777772674174
 30
0.0
 10
344.0036838653445
 20
509.777772674174
 30
0.0
  0
SPLINE
  5
DF58
330
17
100
AcDbEntity
  8
L0
100
AcDbSpline
210
0.0
220
0.0
230
1.0
 70
    24
 71
     3
 72
    11
 73
     7
 74
     0
 42
0.000000001
 43
0.0000000001
 40
0.0017735077328047
 40
0.0017735077328047
 40
0.0017735077328047
 40
0.0017735077328047
 40
0.0019176326016569
 40
0.0019176326016569
 40
0.0019176326016569
 40
0.0028029019599389
 40
0.0028029019599389
 40
0.0028029019599389
 40
0.0028029019599389
 10
340.6511560147878
 20
514.1391792904857
 30
0.0
 10
340.6511560147878
 20
514.0921176017398
 30
0.0
 10
340.6511560147878
 20
514.0450528596527
 30
0.0
 10
340.6511560147878
 20
513.9979850161723
 30
0.0
 10
340.6511560147878
 20
513.7088783987435
 30
0.0
 10
340.6511560147878
 20
513.4196541444095
 30
0.0
 10
340.6511560147878
 20
513.1303005247416
 30
0.0
  0
SPLINE
  5
DF59
330
17
100
AcDbEntity
  8
L0
100
AcDbSpline
210
0.0
220
0.0
230
1.0
 70
     8
 71
     3
 72
     8
 73
     4
 74
     0
 42
0.000000001
 43
0.0000000001
 40
0.0000010228345567
 40
0.0000010228345567
 40
0.0000010228345567
 40
0.0000010228345567
 40
0.0000052263486099
 40
0.0000052263486099
 40
0.0000052263486099
 40
0.0000052263486099
 10
320.6511475191114
 20
513.1261784766254
 30
0.0
 10
320.651153183233
 20
513.1275525686776
 30
0.0
 10
320.6511560147878
 20
513.1289265904313
 30
0.0
 10
320.6511560147878
 20
513.1303005247352
 30
0.0
  0
SPLINE
  5
DF5A
330
17
100
AcDbEntity
  8
L0
100
AcDbSpline
210
0.0
220
0.0
230
1.0
 70
     8
 71
     3
 72
     8
 73
     4
 74
     0
 42
0.000000001
 43
0.0000000001
 40
0.0000002039647927
 40
0.0000002039647927
 40
0.0000002039647927
 40
0.0000002039647927
 40
0.0000044074788737
 40
0.0000044074788737
 40
0.0000044074788737
 40
0.0000044074788737
 10
317.2986281642202
 20
509.7777726741785
 30
0.0
 10
317.3000020985333
 20
509.7777726741785
 30
0.0
 10
317.3013761202956
 20
509.7777755057339
 30
0.0
 10
317.3027502123568
 20
509.7777811698549
 30
0.0
  0
SPLINE
  5
DF5B
330
17
100
AcDbEntity
  8
L0
100
AcDbSpline
210
0.0
220
0.0
230
1.0
 70
    24
 71
     3
 72
    11
 73
     7
 74
     0
 42
0.000000001
 43
0.0000000001
 40
0.0017735077328775
 40
0.0017735077328775
 40
0.0017735077328775
 40
0.0017735077328775
 40
0.0019176326017062
 40
0.0019176326017062
 40
0.0019176326017062
 40
0.0028029019600096
 40
0.0028029019600096
 40
0.0028029019600096
 40
0.0028029019600096
 10
320.6511560147878
 20
514.1391792904776
 30
0.0
 10
320.6511560147878
 20
514.0921176017398
 30
0.0
 10
320.6511560147878
 20
514.04505285966
 30
0.0
 10
320.6511560147878
 20
513.9979850161869
 30
0.0
 10
320.6511560147878
 20
513.7088783987517
 30
0.0
 10
320.6511560147878
 20
513.4196541444104
 30
0.0
 10
320.6511560147878
 20
513.1303005247352
 30
0.0
  0
SPLINE
  5
DF5C
330
17
100
AcDbEntity
  8
L0
100
AcDbSpline
210
0.0
220
0.0
230
1.0
 70
    24
 71
     3
 72
     8
 73
     4
 74
     0
 42
0.000000001
 43
0.0000000001
 40
0.0
 40
0.0
 40
0.0
 40
0.0
 40
1.0
 40
1.0
 40
1.0
 40
1.0
 10
316.2897493985038
 20
509.7777726741785
 30
0.0
 10
316.6258788228924
 20
509.7777726741785
 30
0.0
 10
316.9621655581773
 20
509.7777726741785
 30
0.0
 10
317.2986281642202
 20
509.7777726741785
 30
0.0
  0
SPLINE
  5
DF5D
330
17
100
AcDbEntity
  8
L0
100
AcDbSpline
210
0.0
220
0.0
230
1.0
 70
     8
 71
     3
 72
    10
 73
     6
 74
     0
 42
0.000000001
 43
0.0000000001
 40
0.0
 40
0.0
 40
0.0
 40
0.0
 40
0.5
 40
0.5
 40
1.0
 40
1.0
 40
1.0
 40
1.0
 10
361.1511475190787
 20
513.1261784766008
 30
0.0
 10
361.1504585994476
 20
512.9590494776801
 30
0.0
 10
361.1089510410839
 20
512.8091368583279
 30
0.0
 10
360.9802817210516
 20
512.5531801072854
 30
0.0
 10
360.8917828103399
 20
512.4448044635025
 30
0.0
 10
360.786994165067
 20
512.3584781056085
 30
0.0
  0
ARC
  5
DF5E
330
17
100
AcDbEntity
  8
L0
100
AcDbCircle
 10
371.1511560148506
 20
499.7777726741776
 30
0.0
 40
16.29999999999824
100
AcDbArc
 50
129.482176262871
 51
140.5178237376214
  0
SPLINE
  5
DF5F
330
17
100
AcDbEntity
  8
L0
100
AcDbSpline
210
0.0
220
0.0
230
1.0
 70
     8
 71
     3
 72
    14
 73
    10
 74
     0
 42
0.000000001
 43
0.0000000001
 40
0.0
 40
0.0
 40
0.0
 40
0.0
 40
0.25
 40
0.25
 40
0.5
 40
0.5
 40
0.75
 40
0.75
 40
1.0
 40
1.0
 40
1.0
 40
1.0
 10
358.5704505833332
 20
510.1419345238662
 30
0.0
 10
358.5275649048126
 20
510.0898770496085
 30
0.0
 10
358.4786679314821
 20
510.0414163044368
 30
0.0
 10
358.3721150201354
 20
509.955709650794
 30
0.0
 10
358.3138818057405
 20
509.9176872451578
 30
0.0
 10
358.1847254454438
 20
509.8524823685163
 30
0.0
 10
358.1155887407931
 20
509.8262203492029
 30
0.0
 10
357.9663452003756
 20
509.7889416319583
 30
0.0
 10
357.8863304288398
 20
509.7781256944569
 30
0.0
 10
357.802750212355
 20
509.7777811698531
 30
0.0
  0
SPLINE
  5
DF60
330
17
100
AcDbEntity
  8
L0
100
AcDbSpline
210
0.0
220
0.0
230
1.0
 70
     8
 71
     3
 72
    10
 73
     6
 74
     0
 42
0.000000001
 43
0.0000000001
 40
0.0
 40
0.0
 40
0.0
 40
0.0
 40
0.5
 40
0.5
 40
1.0
 40
1.0
 40
1.0
 40
1.0
 10
320.6511475191114
 20
513.1261784766254
 30
0.0
 10
320.6504585994849
 20
512.9590494776983
 30
0.0
 10
320.6089510411216
 20
512.8091368583406
 30
0.0
 10
320.4802817210943
 20
512.5531801072972
 30
0.0
 10
320.3917828424046
 20
512.4448044899016
 30
0.0
 10
320.2869941650911
 20
512.3584781056131
 30
0.0
  0
ARC
  5
DF61
330
17
100
AcDbEntity
  8
L0
100
AcDbCircle
 10
330.6511560148506
 20
499.7777726741776
 30
0.0
 40
16.29999999999825
100
AcDbArc
 50
129.4821762628115
 51
140.5178237375567
  0
SPLINE
  5
DF62
330
17
100
AcDbEntity
  8
L0
100
AcDbSpline
210
0.0
220
0.0
230
1.0
 70
     8
 71
     3
 72
    14
 73
    10
 74
     0
 42
0.000000001
 43
0.0000000001
 40
0.0
 40
0.0
 40
0.0
 40
0.0
 40
0.25
 40
0.25
 40
0.5
 40
0.5
 40
0.75
 40
0.75
 40
1.0
 40
1.0
 40
1.0
 40
1.0
 10
318.0704505833519
 20
510.1419345238744
 30
0.0
 10
318.0275648938173
 20
510.0898770362461
 30
0.0
 10
317.9786679314712
 20
510.0414163043931
 30
0.0
 10
317.8721150199308
 20
509.9557096506257
 30
0.0
 10
317.8138818053503
 20
509.9176872448794
 30
0.0
 10
317.6847254443392
 20
509.8524823680179
 30
0.0
 10
317.6155887405343
 20
509.8262203490965
 30
0.0
 10
317.4663451997681
 20
509.7889416318401
 30
0.0
 10
317.3863304287666
 20
509.7781256944569
 30
0.0
 10
317.3027502123568
 20
509.7777811698549
 30
0.0
  0
SPLINE
  5
DF63
330
17
100
AcDbEntity
  8
L0
100
AcDbSpline
210
0.0
220
0.0
230
1.0
 70
     8
 71
     3
 72
    10
 73
     6
 74
     0
 42
0.000000001
 43
0.0000000001
 40
0.0
 40
0.0
 40
0.0
 40
0.0
 40
0.5
 40
0.5
 40
1.0
 40
1.0
 40
1.0
 40
1.0
 10
343.9995618173489
 20
509.7777811698494
 30
0.0
 10
343.8324328183962
 20
509.7784700894569
 30
0.0
 10
343.6825201990187
 20
509.8199776478175
 30
0.0
 10
343.426563447967
 20
509.9486469678247
 30
0.0
 10
343.3181879355261
 20
510.0371457191556
 30
0.0
 10
343.2318614462574
 20
510.1419345238999
 30
0.0
  0
ARC
  5
DF64
330
17
100
AcDbEntity
  8
L0
100
AcDbCircle
 10
330.6511560148506
 20
499.7777726741776
 30
0.0
 40
16.29999999999828
100
AcDbArc
 50
39.48217626277259
 51
50.51782373756807
  0
SPLINE
  5
DF65
330
17
100
AcDbEntity
  8
L0
100
AcDbSpline
210
0.0
220
0.0
230
1.0
 70
     8
 71
     3
 72
    14
 73
    10
 74
     0
 42
0.000000001
 43
0.0000000001
 40
0.0
 40
0.0
 40
0.0
 40
0.0
 40
0.25
 40
0.25
 40
0.5
 40
0.5
 40
0.75
 40
0.75
 40
1.0
 40
1.0
 40
1.0
 40
1.0
 10
341.0153178645128
 20
512.3584781056449
 30
0.0
 10
340.9632603128175
 20
512.4013638479598
 30
0.0
 10
340.9147996447873
 20
512.4502607576675
 30
0.0
 10
340.8290929904174
 20
512.5568136701365
 30
0.0
 10
340.791070584145
 20
512.6150468856056
 30
0.0
 10
340.725865706228
 20
512.7442032500418
 30
0.0
 10
340.6996036891856
 20
512.8133399497908
 30
0.0
 10
340.66232497187
 20
512.9625834922324
 30
0.0
 10
340.6515090350549
 20
513.0425982606709
 30
0.0
 10
340.6511645104638
 20
513.12617847672
 30
0.0
  0
SPLINE
  5
DF66
330
17
100
AcDbEntity
  8
L0
100
AcDbSpline
210
0.0
220
0.0
230
1.0
 70
     8
 71
     3
 72
    10
 73
     6
 74
     0
 42
0.000000001
 43
0.0000000001
 40
0.0
 40
0.0
 40
0.0
 40
0.0
 40
0.5
 40
0.5
 40
1.0
 40
1.0
 40
1.0
 40
1.0
 10
384.499561817347
 20
509.7777811698522
 30
0.0
 10
384.3324328183894
 20
509.7784700894551
 30
0.0
 10
384.1825201990073
 20
509.8199776478147
 30
0.0
 10
383.9265634479539
 20
509.9486469678184
 30
0.0
 10
383.818187957509
 20
510.0371456924555
 30
0.0
 10
383.7318614462388
 20
510.141934523908
 30
0.0
  0
ARC
  5
DF67
330
17
100
AcDbEntity
  8
L0
100
AcDbCircle
 10
371.1511560148506
 20
499.7777726741776
 30
0.0
 40
16.29999999999822
100
AcDbArc
 50
39.4821762627812
 51
50.51782373765081
  0
SPLINE
  5
DF68
330
17
100
AcDbEntity
  8
L0
100
AcDbSpline
210
0.0
220
0.0
230
1.0
 70
     8
 71
     3
 72
    14
 73
    10
 74
     0
 42
0.000000001
 43
0.0000000001
 40
0.0
 40
0.0
 40
0.0
 40
0.0
 40
0.25
 40
0.25
 40
0.5
 40
0.5
 40
0.75
 40
0.75
 40
1.0
 40
1.0
 40
1.0
 40
1.0
 10
381.5153178644887
 20
512.3584781056495
 30
0.0
 10
381.4632602967581
 20
512.4013638611739
 30
0.0
 10
381.4147996447018
 20
512.4502607577085
 30
0.0
 10
381.3290929901809
 20
512.5568136704093
 30
0.0
 10
381.2910705837767
 20
512.6150468861012
 30
0.0
 10
381.225865705595
 20
512.7442032513942
 30
0.0
 10
381.1996036890232
 20
512.8133399501282
 30
0.0
 10
381.1623249716927
 20
512.9625834929881
 30
0.0
 10
381.1515090350194
 20
513.0425982607855
 30
0.0
 10
381.1511645104311
 20
513.1261784767445
 30
0.0
  0
LINE
  5
DF69
330
17
100
AcDbEntity
  8
L0
100
AcDbLine
 10
357.3988608161956
 20
270.6043521518272
 30
0.0
 11
392.1487097184229
 21
270.6043521518272
 31
0.0
  0
LINE
  5
DF6A
330
17
100
AcDbEntity
  8
L0
100
AcDbLine
 10
350.8988608161951
 20
268.6043520568323
 30
0.0
 11
392.1487097184229
 21
268.6043520568323
 31
0.0
  0
LINE
  5
DF6C
330
17
100
AcDbEntity
  8
L0
100
AcDbLine
 10
392.1487097184229
 20
270.6043521518272
 30
0.0
 11
392.6487070064116
 21
270.6043521518272
 31
0.0
  0
LINE
  5
DF6D
330
17
100
AcDbEntity
  8
L0
100
AcDbLine
 10
392.6487070064116
 20
268.6043520568323
 30
0.0
 11
392.1487097184229
 21
268.6043520568323
 31
0.0
  0
LINE
  5
DF6E
330
17
100
AcDbEntity
  8
L0
100
AcDbLine
 10
309.6490119139719
 20
270.6043521518272
 30
0.0
 11
344.398860816196
 21
270.6043521518272
 31
0.0
  0
ARC
  5
DF6F
330
17
100
AcDbEntity
  8
1外形線
100
AcDbCircle
 10
344.398860816196
 20
271.1043521518273
 30
0.0
 40
0.5
100
AcDbArc
 50
270.0
 51
0.0
  0
LINE
  5
DF70
330
17
100
AcDbEntity
  8
L0
100
AcDbLine
 10
309.6490119139719
 20
268.6043520568323
 30
0.0
 11
350.8988608161951
 21
268.6043520568323
 31
0.0
  0
LINE
  5
DF72
330
17
100
AcDbEntity
  8
L0
100
AcDbLine
 10
309.1490146259832
 20
270.6043521518272
 30
0.0
 11
309.6490119139719
 21
270.6043521518272
 31
0.0
  0
LINE
  5
DF73
330
17
100
AcDbEntity
  8
L0
100
AcDbLine
 10
309.6490119139719
 20
268.6043520568323
 30
0.0
 11
309.1490146259832
 21
268.6043520568323
 31
0.0
  0
LINE
  5
DF74
330
17
100
AcDbEntity
  8
L0
100
AcDbLine
 10
392.6487070064116
 20
270.6043521518272
 30
0.0
 11
393.1136452977261
 21
270.6043521518272
 31
0.0
  0
LINE
  5
DF75
330
17
100
AcDbEntity
  8
L0
100
AcDbLine
 10
392.6487070064116
 20
268.6043520568323
 30
0.0
 11
395.1485556106138
 21
268.6043520568323
 31
0.0
  0
LINE
  5
DF76
330
17
100
AcDbEntity
  8
L0
100
AcDbLine
 10
308.6840763512104
 20
270.6043521518272
 30
0.0
 11
309.1490146259832
 21
270.6043521518272
 31
0.0
  0
LINE
  5
DF77
330
17
100
AcDbEntity
  8
L0
100
AcDbLine
 10
306.649166021781
 20
268.6043520568323
 30
0.0
 11
309.1490146259832
 21
268.6043520568323
 31
0.0
  0
ARC
  5
DF78
330
17
100
AcDbEntity
  8
L0
100
AcDbCircle
 10
388.6488696397412
 20
271.1043520568324
 30
0.0
 40
0.5000000000000214
100
AcDbArc
 50
270.0
 51
0.0
  0
ARC
  5
DF79
330
17
100
AcDbEntity
  8
L0
100
AcDbCircle
 10
313.1488519926536
 20
271.1043520568324
 30
0.0
 40
0.5000000000000142
100
AcDbArc
 50
180.0000168955885
 51
270.0
  0
LINE
  5
DF7A
330
17
100
AcDbEntity
  8
L0
100
AcDbLine
 10
312.6488485951161
 20
277.604353296822
 30
0.0
 11
312.6488520543146
 21
271.104352000953
 31
0.0
  0
LINE
  5
DF7B
330
17
100
AcDbEntity
  8
L0
100
AcDbLine
 10
395.1488722602892
 20
268.6043520568323
 30
0.0
 11
395.1485556106138
 21
268.6043520568323
 31
0.0
  0
ARC
  5
DF7C
330
17
100
AcDbEntity
  8
L0
100
AcDbCircle
 10
392.6404013314289
 20
277.604352310595
 30
0.0
 40
1.000000681984207
100
AcDbArc
 50
70.45118083620244
 51
90.0
  0
LINE
  5
DF7D
330
17
100
AcDbEntity
  8
L0
100
AcDbLine
 10
390.1488730372782
 20
278.6043527646375
 30
0.0
 11
392.640399609046
 21
278.6043527646375
 31
0.0
  0
LINE
  5
DF7E
330
17
100
AcDbEntity
  8
L0
100
AcDbLine
 10
389.1488695780802
 20
271.104352000953
 30
0.0
 11
389.1488730372787
 21
277.604353296822
 31
0.0
  0
ARC
  5
DF7F
330
17
100
AcDbEntity
  8
L0
100
AcDbCircle
 10
390.1488730372782
 20
277.6043527646375
 30
0.0
 40
1.0
100
AcDbArc
 50
90.0
 51
179.9999695080766
  0
LINE
  5
DF80
330
17
100
AcDbEntity
  8
L0
100
AcDbLine
 10
309.1573220233488
 20
278.6043527646375
 30
0.0
 11
311.6488485951165
 21
278.6043527646375
 31
0.0
  0
ARC
  5
DF81
330
17
100
AcDbEntity
  8
L0
100
AcDbCircle
 10
311.6488485951165
 20
277.6043527646375
 30
0.0
 40
1.0
100
AcDbArc
 50
0.0000304919233819
 51
90.0
  0
ARC
  5
DF82
330
17
100
AcDbEntity
  8
L0
100
AcDbCircle
 10
309.1573203009659
 20
277.604352310595
 30
0.0
 40
1.000000681984203
100
AcDbArc
 50
90.0
 51
109.5488181517864
  0
LINE
  5
DF83
330
17
100
AcDbEntity
  8
L0
100
AcDbLine
 10
306.649166021781
 20
268.6043520568323
 30
0.0
 11
306.6488493721056
 21
268.6043520568323
 31
0.0
  0
LINE
  5
DF84
330
17
100
AcDbEntity
  8
L0
100
AcDbLine
 10
651.385035952699
 20
455.7683022711728
 30
0.0
 11
651.385035952699
 21
363.7664686479259
 31
0.0
  0
LINE
  5
DF85
330
17
100
AcDbEntity
  8
L0
100
AcDbLine
 10
607.1353411582825
 20
455.7683022711728
 30
0.0
 11
651.385035952699
 21
455.7683022711728
 31
0.0
  0
LINE
  5
DF88
330
17
100
AcDbEntity
  8
L0
100
AcDbLine
 10
648.6283045001441
 20
349.7683014963125
 30
0.0
 11
628.3853411583343
 21
349.7683014963125
 31
0.0
  0
LINE
  5
DF89
330
17
100
AcDbEntity
  8
L0
100
AcDbLine
 10
626.3853411583344
 20
349.7683014963125
 30
0.0
 11
609.1353411582867
 21
349.7683014963125
 31
0.0
  0
ARC
  5
DF8A
330
17
100
AcDbEntity
  8
L0
100
AcDbCircle
 10
648.6283045001441
 20
350.2683014963125
 30
0.0
 40
0.5
100
AcDbArc
 50
270.0
 51
350.5371033795668
  0
ARC
  5
DF8B
330
17
100
AcDbEntity
  8
L0
100
AcDbCircle
 10
565.6423778164229
 20
350.2683014963125
 30
0.0
 40
0.5
100
AcDbArc
 50
189.4628966204333
 51
270.0
  0
LINE
  5
DF8C
330
17
100
AcDbEntity
  8
L0
100
AcDbLine
 10
605.1353411582867
 20
349.7683014963125
 30
0.0
 11
587.9181140011627
 21
349.7683014963125
 31
0.0
  0
LINE
  5
DF8D
330
17
100
AcDbEntity
  8
L0
100
AcDbLine
 10
585.9181140011627
 20
349.7683014963125
 30
0.0
 11
565.6423778164229
 21
349.7683014963125
 31
0.0
  0
LINE
  5
DF8E
330
17
100
AcDbEntity
  8
1外形線
  6
Continuous
370
    15
100
AcDbLine
 10
608.7853410391252
 20
339.7683014963125
 30
0.0
 11
608.7853410391252
 21
348.7683014963125
 31
0.0
  0
ARC
  5
DF8F
330
17
100
AcDbEntity
  8
1外形線
  6
Continuous
370
    15
100
AcDbCircle
 10
609.7853410391252
 20
348.7683014963125
 30
0.0
 40
1.0
100
AcDbArc
 50
90.0
 51
180.0
  0
LINE
  5
DF90
330
17
100
AcDbEntity
  8
1外形線
  6
Continuous
370
    15
100
AcDbLine
 10
605.485341039125
 20
348.7683014963125
 30
0.0
 11
605.485341039125
 21
339.7683014963125
 31
0.0
  0
ARC
  5
DF91
330
17
100
AcDbEntity
  8
1外形線
  6
Continuous
370
    15
100
AcDbCircle
 10
604.485341039125
 20
348.7683014963125
 30
0.0
 40
1.0
100
AcDbArc
 50
0.0
 51
90.0
  0
LINE
  5
DF92
330
17
100
AcDbEntity
  8
1外形線
  6
Continuous
370
    15
100
AcDbLine
 10
606.6353410391251
 20
338.7683014963124
 30
0.0
 11
606.6353410391251
 21
338.7683014963124
 31
0.0
  0
ARC
  5
DF93
330
17
100
AcDbEntity
  8
1外形線
  6
Continuous
370
    15
100
AcDbCircle
 10
606.4853410391251
 20
339.7683014963125
 30
0.0
 40
1.0
100
AcDbArc
 50
180.0
 51
270.0
  0
LINE
  5
DF94
330
17
100
AcDbEntity
  8
1外形線
  6
Continuous
370
    15
100
AcDbLine
 10
607.7853410391252
 20
338.7683014963124
 30
0.0
 11
606.4853410391251
 21
338.7683014963124
 31
0.0
  0
ARC
  5
DF95
330
17
100
AcDbEntity
  8
1外形線
  6
Continuous
370
    15
100
AcDbCircle
 10
607.7853410391252
 20
339.7683014963125
 30
0.0
 40
1.0
100
AcDbArc
 50
270.0
 51
0.0
  0
ARC
  5
DF96
330
17
100
AcDbEntity
  8
L0
 48
3.0
100
AcDbCircle
 10
627.3853411583344
 20
349.7683014963125
 30
0.0
 40
1.0
100
AcDbArc
 50
180.0
 51
0.0
  0
ARC
  5
DF97
330
17
100
AcDbEntity
  8
L0
 48
3.0
100
AcDbCircle
 10
586.9181140011627
 20
349.7683014963125
 30
0.0
 40
1.0
100
AcDbArc
 50
180.0
 51
0.0
  0
LINE
  5
DF98
330
17
100
AcDbEntity
  8
L0
100
AcDbLine
 10
651.385035952699
 20
363.7664686479259
 30
0.0
 11
649.1215007571116
 21
350.1860970581731
 31
0.0
  0
LINE
  5
DF99
330
17
100
AcDbEntity
  8
L0
100
AcDbLine
 10
562.8853410092209
 20
363.7683020923589
 30
0.0
 11
565.149181797772
 21
350.1860970581731
 31
0.0
  0
ARC
  5
DF9A
330
17
100
AcDbEntity
  8
1外形線
370
    15
100
AcDbCircle
 10
609.1353411582867
 20
348.7683014963125
 30
0.0
 40
1.0
100
AcDbArc
 50
90.0
 51
180.0
  0
LINE
  5
DF9B
330
17
100
AcDbEntity
  8
1外形線
 48
3.0
100
AcDbLine
 10
606.1353411582866
 20
348.7683014963125
 30
0.0
 11
606.1353411582862
 21
338.8315517520303
 31
0.0
  0
ARC
  5
DF9C
330
17
100
AcDbEntity
  8
1外形線
 48
3.0
100
AcDbCircle
 10
605.1353411582867
 20
348.7683014963125
 30
0.0
 40
1.0
100
AcDbArc
 50
0.0
 51
90.0
  0
LINE
  5
DF9D
330
17
100
AcDbEntity
  8
1外形線
 48
3.0
100
AcDbLine
 10
608.1353411582871
 20
338.8315518410757
 30
0.0
 11
608.1353411582867
 21
348.7683014963125
 31
0.0
  0
LINE
  5
DF9E
330
17
100
AcDbEntity
  8
1外形線
  6
Continuous
370
    15
100
AcDbLine
 10
349.2488608161973
 20
269.1043520568319
 30
0.0
 11
349.2488608161973
 21
271.6043520568314
 31
0.0
  0
LINE
  5
DF9F
330
17
100
AcDbEntity
  8
1外形線
  6
Continuous
370
    15
100
AcDbLine
 10
352.5488608161975
 20
271.6043520568314
 30
0.0
 11
352.5488608161975
 21
269.1043520568314
 31
0.0
  0
LINE
  5
DFA0
330
17
100
AcDbEntity
  8
1外形線
  6
Continuous
370
    15
100
AcDbLine
 10
351.3988608161978
 20
272.6043520568319
 30
0.0
 11
351.5488608161966
 21
272.6043520568314
 31
0.0
  0
LINE
  5
DFA1
330
17
100
AcDbEntity
  8
1外形線
  6
Continuous
370
    15
100
AcDbLine
 10
349.2488608161964
 20
269.1043520568319
 30
0.0
 11
349.2488608161964
 21
271.6043520568314
 31
0.0
  0
ARC
  5
DFA2
330
17
100
AcDbEntity
  8
1外形線
  6
Continuous
370
    15
100
AcDbCircle
 10
350.2488608161964
 20
271.6043520568314
 30
0.0
 40
1.0
100
AcDbArc
 50
90.0
 51
180.0
  0
LINE
  5
DFA3
330
17
100
AcDbEntity
  8
1外形線
  6
Continuous
370
    15
100
AcDbLine
 10
352.5488608161966
 20
271.6043520568314
 30
0.0
 11
352.5488608161966
 21
269.1043520568314
 31
0.0
  0
ARC
  5
DFA4
330
17
100
AcDbEntity
  8
1外形線
  6
Continuous
370
    15
100
AcDbCircle
 10
351.5488608161966
 20
271.6043520568314
 30
0.0
 40
1.0
100
AcDbArc
 50
0.0
 51
90.0
  0
LINE
  5
DFA5
330
17
100
AcDbEntity
  8
1外形線
  6
Continuous
370
    15
100
AcDbLine
 10
350.2488608161964
 20
272.6043520568314
 30
0.0
 11
350.3988608161969
 21
272.6043520568319
 31
0.0
  0
LINE
  5
DFA6
330
17
100
AcDbEntity
  8
1外形線
 48
2.0
100
AcDbLine
 10
349.2488608161964
 20
269.1043520568319
 30
0.0
 11
349.5988608161972
 21
269.1043520568319
 31
0.0
  0
ARC
  5
DFA7
330
17
100
AcDbEntity
  8
1外形線
 48
2.0
100
AcDbCircle
 10
349.5988608161972
 20
268.8043520568322
 30
0.0
 40
0.3
100
AcDbArc
 50
359.9999999999479
 51
90.0
  0
LINE
  5
DFA8
330
17
100
AcDbEntity
  8
1外形線
 48
2.0
100
AcDbLine
 10
352.1988608161971
 20
269.1043520568314
 30
0.0
 11
352.5488608161966
 21
269.1043520568314
 31
0.0
  0
ARC
  5
DFA9
330
17
100
AcDbEntity
  8
1外形線
 48
2.0
100
AcDbCircle
 10
352.1988608161971
 20
268.8043520568317
 30
0.0
 40
0.3
100
AcDbArc
 50
90.0
 51
180.0
  0
LINE
  5
DFAA
330
17
100
AcDbEntity
  8
1外形線
  6
CENTER
 48
3.0
100
AcDbLine
 10
349.8988608161969
 20
268.8043520568317
 30
0.0
 11
349.8988608161969
 21
268.6043520568323
 31
0.0
  0
LINE
  5
DFAB
330
17
100
AcDbEntity
  8
1外形線
  6
CENTER
 48
3.0
100
AcDbLine
 10
351.8988608161974
 20
268.8043520568317
 30
0.0
 11
351.8988608161974
 21
268.6043520568323
 31
0.0
  0
LINE
  5
DFAC
330
17
100
AcDbEntity
  8
1外形線
100
AcDbLine
 10
350.7574394599576
 20
272.2457734130699
 30
0.0
 11
350.3988608161951
 21
272.6043520568333
 31
0.0
  0
ARC
  5
DFAD
330
17
100
AcDbEntity
  8
1外形線
100
AcDbCircle
 10
350.8988608161956
 20
272.3871947693074
 30
0.0
 40
0.2
100
AcDbArc
 50
225.000000000048
 51
315.0000000001361
  0
LINE
  5
DFAE
330
17
100
AcDbEntity
  8
1外形線
100
AcDbLine
 10
351.3988608161951
 20
272.6043520568333
 30
0.0
 11
351.0402821724335
 21
272.2457734130703
 31
0.0
  0
LINE
  5
DFAF
330
17
100
AcDbEntity
  8
1外形線
  6
中心線1
 48
0.3
100
AcDbLine
 10
356.8988608161955
 20
271.6043520568337
 30
0.0
 11
356.8988608161955
 21
271.1043521518273
 31
0.0
  0
ARC
  5
DFB0
330
17
100
AcDbEntity
  8
1外形線
 48
0.3
100
AcDbCircle
 10
357.3988608161956
 20
271.1043521518273
 30
0.0
 40
0.5
100
AcDbArc
 50
180.0
 51
270.0
  0
LINE
  5
DFB1
330
17
100
AcDbEntity
  8
1外形線
  6
中心線1
 48
0.3
100
AcDbLine
 10
344.898860816196
 20
271.6043520568332
 30
0.0
 11
344.898860816196
 21
271.1043521518273
 31
0.0
  0
ARC
  5
DFB2
330
17
100
AcDbEntity
  8
1外形線
 48
0.3
100
AcDbCircle
 10
345.898860816196
 20
271.6043520568332
 30
0.0
 40
1.0
100
AcDbArc
 50
90.0
 51
180.0
  0
LINE
  5
DFBA
330
17
100
AcDbEntity
  8
L0
100
AcDbLine
 10
643.0353403595798
 20
422.1682807791437
 30
0.0
 11
643.0353403595798
 21
417.3683244486553
 31
0.0
  0
ARC
  5
DFBB
330
17
100
AcDbEntity
  8
L0
100
AcDbCircle
 10
645.1353411582821
 20
422.1682799387179
 30
0.0
 40
2.100000000000079
100
AcDbArc
 50
0.0
 51
180.0
  0
LINE
  5
DFBC
330
17
100
AcDbEntity
  8
L0
100
AcDbLine
 10
647.2353406754844
 20
417.3683244486553
 30
0.0
 11
647.2353406754844
 21
422.1682807791437
 31
0.0
  0
ARC
  5
DFBD
330
17
100
AcDbEntity
  8
L0
100
AcDbCircle
 10
645.1353411582821
 20
417.3683246036269
 30
0.0
 40
2.100000000000079
100
AcDbArc
 50
180.0
 51
0.0
  0
LINE
  5
DFBE
330
17
100
AcDbEntity
  8
L0
100
AcDbLine
 10
567.0353403595812
 20
362.1683019344066
 30
0.0
 11
567.0353403595812
 21
357.3683456039182
 31
0.0
  0
ARC
  5
DFBF
330
17
100
AcDbEntity
  8
L0
100
AcDbCircle
 10
569.1353411582834
 20
362.1683010939808
 30
0.0
 40
2.100000000000079
100
AcDbArc
 50
0.0
 51
180.0
  0
LINE
  5
DFC0
330
17
100
AcDbEntity
  8
L0
100
AcDbLine
 10
571.2353406754858
 20
357.3683456039182
 30
0.0
 11
571.2353406754858
 21
362.1683019344066
 31
0.0
  0
ARC
  5
DFC1
330
17
100
AcDbEntity
  8
L0
100
AcDbCircle
 10
569.1353411582834
 20
357.3683457588902
 30
0.0
 40
2.100000000000079
100
AcDbArc
 50
180.0
 51
0.0
  0
LINE
  5
DFC2
330
17
100
AcDbEntity
  8
L0
100
AcDbLine
 10
643.0353403595798
 20
362.1683019344066
 30
0.0
 11
643.0353403595798
 21
357.3683456039182
 31
0.0
  0
ARC
  5
DFC3
330
17
100
AcDbEntity
  8
L0
100
AcDbCircle
 10
645.1353411582821
 20
362.1683010939808
 30
0.0
 40
2.100000000000079
100
AcDbArc
 50
0.0
 51
180.0
  0
LINE
  5
DFC4
330
17
100
AcDbEntity
  8
L0
100
AcDbLine
 10
647.2353406754844
 20
357.3683456039182
 30
0.0
 11
647.2353406754844
 21
362.1683019344066
 31
0.0
  0
ARC
  5
DFC5
330
17
100
AcDbEntity
  8
L0
100
AcDbCircle
 10
645.1353411582821
 20
357.3683457588902
 30
0.0
 40
2.100000000000079
100
AcDbArc
 50
180.0
 51
0.0
  0
LINE
  5
DFC6
330
17
100
AcDbEntity
  8
1外形線
 48
3.0
370
     0
100
AcDbLine
 10
345.898860816196
 20
272.6043520568333
 30
0.0
 11
350.3988608161947
 21
272.6043520568337
 31
0.0
  0
LINE
  5
DFC7
330
17
100
AcDbEntity
  8
1外形線
 48
3.0
370
     0
100
AcDbLine
 10
351.3988608161951
 20
272.6043520568337
 30
0.0
 11
355.8988608161956
 21
272.6043520568337
 31
0.0
  0
ARC
  5
DFC8
330
17
100
AcDbEntity
  8
1外形線
 48
3.0
370
     0
100
AcDbCircle
 10
355.8988608161956
 20
271.6043520568337
 30
0.0
 40
1.0
100
AcDbArc
 50
0.0
 51
90.0
  0
ARC
  5
DFCB
330
17
100
AcDbEntity
  8
L0
 48
3.0
100
AcDbCircle
 10
330.6511560148361
 20
499.7777735943438
 30
0.0
 40
17.50000030173669
100
AcDbArc
 50
36.50698602994668
 51
53.51307348717643
  0
ARC
  5
DFCC
330
17
100
AcDbEntity
  8
L0
 48
3.0
100
AcDbCircle
 10
330.6511560148651
 20
499.7777735943438
 30
0.0
 40
17.50000030173669
100
AcDbArc
 50
126.4869265129112
 51
143.4930139701186
  0
ARC
  5
DFCD
330
17
100
AcDbEntity
  8
L0
 48
3.0
100
AcDbCircle
 10
371.1465628873952
 20
499.7777735943438
 30
0.0
 40
17.50000030173669
100
AcDbArc
 50
126.486926512769
 51
143.4930139700533
  0
ARC
  5
DFCE
330
17
100
AcDbEntity
  8
L0
 48
3.0
100
AcDbCircle
 10
371.1465628873662
 20
499.7777735943438
 30
0.0
 40
17.50000030173669
100
AcDbArc
 50
36.50698602988138
 51
53.5130734870888
  0
ARC
  5
DFD3
330
17
100
AcDbEntity
  8
L0
100
AcDbCircle
 10
389.1442102303113
 20
499.2777726741767
 30
0.0
 40
0.5
100
AcDbArc
 50
90.0
 51
178.4082458234372
  0
LINE
  5
DFD4
330
17
100
AcDbEntity
  8
L0
100
AcDbLine
 10
389.1442113584785
 20
499.7777732851252
 30
0.0
 11
394.3278559512405
 21
499.7777732851252
 31
0.0
  0
ARC
  5
DFD5
330
17
100
AcDbEntity
  8
L0
100
AcDbCircle
 10
394.32785649365
 20
500.2777726741767
 30
0.0
 40
0.500000000000026
100
AcDbArc
 50
270.0
 51
359.0000000002328
  0
LINE
  5
DFD6
330
17
100
AcDbEntity
  8
L0
100
AcDbLine
 10
394.8277787334232
 20
500.2690459432349
 30
0.0
 11
395.150850809267
 21
518.7777726741776
 31
0.0
  0
LINE
  5
DFD7
330
17
100
AcDbEntity
  8
L0
100
AcDbLine
 10
396.1510018474369
 20
518.7777726741776
 30
0.0
 11
395.150850809267
 21
518.7777726741776
 31
0.0
  0
LINE
  5
DFD8
330
17
100
AcDbEntity
  8
L0
100
AcDbLine
 10
306.6514612204342
 20
518.7777726741776
 30
0.0
 11
305.6513101822643
 21
518.7777726741776
 31
0.0
  0
LINE
  5
DFD9
330
17
100
AcDbEntity
  8
L0
100
AcDbLine
 10
306.6514612204342
 20
518.7777726741776
 30
0.0
 11
306.974533296278
 21
500.2690459432349
 31
0.0
  0
ARC
  5
DFDA
330
17
100
AcDbEntity
  8
L0
100
AcDbCircle
 10
307.4744555361358
 20
500.2777726741767
 30
0.0
 40
0.5
100
AcDbArc
 50
180.9999999999757
 51
270.0
  0
LINE
  5
DFDB
330
17
100
AcDbEntity
  8
L0
100
AcDbLine
 10
312.6581006712227
 20
499.7777732851252
 30
0.0
 11
307.4744560784607
 21
499.7777732851252
 31
0.0
  0
ARC
  5
DFDC
330
17
100
AcDbEntity
  8
L0
100
AcDbCircle
 10
312.6581017993895
 20
499.2777726741767
 30
0.0
 40
0.5000000000000135
100
AcDbArc
 50
1.591754176562755
 51
90.0
  0
ARC
  5
DFDD
330
17
100
AcDbEntity
  8
L0
100
AcDbCircle
 10
330.6511560148361
 20
499.7777726741767
 30
0.0
 40
17.49999999999994
100
AcDbArc
 50
181.5917541765627
 51
214.8499045790995
  0
ARC
  5
DFDE
330
17
100
AcDbEntity
  8
L0
100
AcDbCircle
 10
330.6511560148361
 20
499.7777726741767
 30
0.0
 40
17.50000000000667
100
AcDbArc
 50
235.1500954210263
 51
304.849904579258
  0
ARC
  5
DFDF
330
17
100
AcDbEntity
  8
L0
100
AcDbCircle
 10
330.6511560148361
 20
499.7777726741767
 30
0.0
 40
17.50000000000005
100
AcDbArc
 50
325.1500954209622
 51
358.4082458234373
  0
ARC
  5
DFE0
330
17
100
AcDbEntity
  8
L0
100
AcDbCircle
 10
348.6442102302826
 20
499.2777726741767
 30
0.0
 40
0.5000000000000135
100
AcDbArc
 50
90.0
 51
178.4082458234372
  0
LINE
  5
DFE1
330
17
100
AcDbEntity
  8
L0
100
AcDbLine
 10
353.1581017217545
 20
499.7777732851252
 30
0.0
 11
348.6442103079467
 21
499.7777732851252
 31
0.0
  0
ARC
  5
DFE2
330
17
100
AcDbEntity
  8
L0
100
AcDbCircle
 10
353.1581017994181
 20
499.2777726741767
 30
0.0
 40
0.5
100
AcDbArc
 50
1.591754176562755
 51
90.0
  0
ARC
  5
DFE3
330
17
100
AcDbEntity
  8
L0
100
AcDbCircle
 10
371.1511560148647
 20
499.7777726741767
 30
0.0
 40
17.50000000001029
100
AcDbArc
 50
181.5917541765627
 51
214.8499045790377
  0
ARC
  5
DFE4
330
17
100
AcDbEntity
  8
L0
100
AcDbCircle
 10
371.1511560148647
 20
499.7777726741767
 30
0.0
 40
17.49999999999022
100
AcDbArc
 50
235.1500954209053
 51
304.8499045790671
  0
ARC
  5
DFE5
330
17
100
AcDbEntity
  8
L0
100
AcDbCircle
 10
371.1511560148647
 20
499.7777726741767
 30
0.0
 40
17.5
100
AcDbArc
 50
325.1500954208352
 51
358.4082458234373
  0
SPLINE
  5
DFE6
330
17
100
AcDbEntity
  8
L0
100
AcDbSpline
210
0.0
220
0.0
230
1.0
 70
     8
 71
     3
 72
     8
 73
     4
 74
     0
 42
0.000000001
 43
0.0000000001
 40
0.0000002039647927
 40
0.0000002039647927
 40
0.0000002039647927
 40
0.0000002039647927
 40
0.0000044074787886
 40
0.0000044074787886
 40
0.0000044074787886
 40
0.0000044074787886
 10
357.7986281643021
 20
489.7777726741767
 30
0.0
 10
357.8000020985874
 20
489.7777726741767
 30
0.0
 10
357.8013761203219
 20
489.7777698426214
 30
0.0
 10
357.8027502123555
 20
489.7777641785003
 30
0.0
  0
SPLINE
  5
DFE7
330
17
100
AcDbEntity
  8
L0
100
AcDbSpline
210
0.0
220
0.0
230
1.0
 70
     8
 71
     3
 72
     8
 73
     4
 74
     0
 42
0.000000001
 43
0.0000000001
 40
0.0000010228345567
 40
0.0000010228345567
 40
0.0000010228345567
 40
0.0000010228345567
 40
0.000005226348556
 40
0.000005226348556
 40
0.000005226348556
 40
0.000005226348556
 10
361.1511475191883
 20
486.4293668716706
 30
0.0
 10
361.1511531833098
 20
486.4279927796367
 30
0.0
 10
361.1511560148642
 20
486.4266187579003
 30
0.0
 10
361.1511560148642
 20
486.4252448236145
 30
0.0
  0
SPLINE
  5
DFE8
330
17
100
AcDbEntity
  8
L0
100
AcDbSpline
210
0.0
220
0.0
230
1.0
 70
    24
 71
     3
 72
     8
 73
     4
 74
     0
 42
0.000000001
 43
0.0000000001
 40
0.0
 40
0.0
 40
0.0
 40
0.0
 40
1.0
 40
1.0
 40
1.0
 40
1.0
 10
361.1511560148642
 20
486.4252448236145
 30
0.0
 10
361.1511560148642
 20
486.088782217558
 30
0.0
 10
361.1511560148642
 20
485.752495482259
 30
0.0
 10
361.1511560148642
 20
485.4163660578567
 30
0.0
  0
SPLINE
  5
DFE9
330
17
100
AcDbEntity
  8
L0
100
AcDbSpline
210
0.0
220
0.0
230
1.0
 70
    24
 71
     3
 72
     8
 73
     4
 74
     0
 42
0.000000001
 43
0.0000000001
 40
0.0
 40
0.0
 40
0.0
 40
0.0
 40
1.0
 40
1.0
 40
1.0
 40
1.0
 10
357.7986281643021
 20
489.7777726741767
 30
0.0
 10
357.4621655582332
 20
489.7777726741767
 30
0.0
 10
357.125878822922
 20
489.7777726741767
 30
0.0
 10
356.789749398507
 20
489.7777726741767
 30
0.0
  0
SPLINE
  5
DFEA
330
17
100
AcDbEntity
  8
L0
100
AcDbSpline
210
0.0
220
0.0
230
1.0
 70
     8
 71
     3
 72
     8
 73
     4
 74
     0
 42
0.000000001
 43
0.0000000001
 40
0.0000002039647927
 40
0.0000002039647927
 40
0.0000002039647927
 40
0.0000002039647927
 40
0.0000044074788414
 40
0.0000044074788414
 40
0.0000044074788414
 40
0.0000044074788414
 10
340.651156014897
 20
486.4252448236109
 30
0.0
 10
340.651156014897
 20
486.4266187579139
 30
0.0
 10
340.6511588464514
 20
486.4279927796657
 30
0.0
 10
340.6511645105734
 20
486.4293668717161
 30
0.0
  0
SPLINE
  5
DFEB
330
17
100
AcDbEntity
  8
L0
100
AcDbSpline
210
0.0
220
0.0
230
1.0
 70
     8
 71
     3
 72
     8
 73
     4
 74
     0
 42
0.000000001
 43
0.0000000001
 40
0.0000010228345567
 40
0.0000010228345567
 40
0.0000010228345567
 40
0.0000010228345567
 40
0.0000052263486066
 40
0.0000052263486066
 40
0.0000052263486066
 40
0.0000052263486066
 10
343.9995618173471
 20
489.7777641785021
 30
0.0
 10
344.0009359093983
 20
489.7777698426241
 30
0.0
 10
344.0023099311507
 20
489.7777726741794
 30
0.0
 10
344.0036838654533
 20
489.7777726741785
 30
0.0
  0
SPLINE
  5
DFEC
330
17
100
AcDbEntity
  8
L0
100
AcDbSpline
210
0.0
220
0.0
230
1.0
 70
    24
 71
     3
 72
    11
 73
     7
 74
     0
 42
0.000000001
 43
0.0000000001
 40
0.0010323726656326
 40
0.0010323726656326
 40
0.0010323726656326
 40
0.0010323726656326
 40
0.0019176390479725
 40
0.0019176390479725
 40
0.0019176390479725
 40
0.0020617634323335
 40
0.0020617634323335
 40
0.0020617634323335
 40
0.0020617634323335
 10
344.0036838654533
 20
489.7777726741794
 30
0.0
 10
344.2930374851158
 20
489.7777726741794
 30
0.0
 10
344.5822617394442
 20
489.7777726741794
 30
0.0
 10
344.8713683568672
 20
489.7777726741794
 30
0.0
 10
344.9184362003475
 20
489.7777726741794
 30
0.0
 10
344.9655009424346
 20
489.7777726741794
 30
0.0
 10
345.0125626311801
 20
489.7777726741794
 30
0.0
  0
SPLINE
  5
DFED
330
17
100
AcDbEntity
  8
L0
100
AcDbSpline
210
0.0
220
0.0
230
1.0
 70
    24
 71
     3
 72
     8
 73
     4
 74
     0
 42
0.000000001
 43
0.0000000001
 40
0.0
 40
0.0
 40
0.0
 40
0.0
 40
1.0
 40
1.0
 40
1.0
 40
1.0
 10
340.651156014897
 20
486.4252448236109
 30
0.0
 10
340.651156014897
 20
486.0887822175588
 30
0.0
 10
340.651156014897
 20
485.7524954822635
 30
0.0
 10
340.651156014897
 20
485.4163660578658
 30
0.0
  0
SPLINE
  5
DFEE
330
17
100
AcDbEntity
  8
L0
100
AcDbSpline
210
0.0
220
0.0
230
1.0
 70
     8
 71
     3
 72
     8
 73
     4
 74
     0
 42
0.000000001
 43
0.0000000001
 40
0.0000002039647927
 40
0.0000002039647927
 40
0.0000002039647927
 40
0.0000002039647927
 40
0.0000044074788133
 40
0.0000044074788133
 40
0.0000044074788133
 40
0.0000044074788133
 10
381.1511560148642
 20
486.4252448236145
 30
0.0
 10
381.1511560148642
 20
486.4266187579075
 30
0.0
 10
381.1511588464191
 20
486.4279927796503
 30
0.0
 10
381.1511645105406
 20
486.4293668716916
 30
0.0
  0
SPLINE
  5
DFEF
330
17
100
AcDbEntity
  8
L0
100
AcDbSpline
210
0.0
220
0.0
230
1.0
 70
     8
 71
     3
 72
     8
 73
     4
 74
     0
 42
0.000000001
 43
0.0000000001
 40
0.0000010228345567
 40
0.0000010228345567
 40
0.0000010228345567
 40
0.0000010228345567
 40
0.000005226348581
 40
0.000005226348581
 40
0.000005226348581
 40
0.000005226348581
 10
384.4995618173452
 20
489.7777641785003
 30
0.0
 10
384.5009359093879
 20
489.7777698426214
 30
0.0
 10
384.502309931132
 20
489.7777726741767
 30
0.0
 10
384.5036838654264
 20
489.7777726741767
 30
0.0
  0
SPLINE
  5
DFF0
330
17
100
AcDbEntity
  8
L0
100
AcDbSpline
210
0.0
220
0.0
230
1.0
 70
    24
 71
     3
 72
    11
 73
     7
 74
     0
 42
0.000000001
 43
0.0000000001
 40
0.001032372665647
 40
0.001032372665647
 40
0.001032372665647
 40
0.001032372665647
 40
0.0019176390480034
 40
0.0019176390480034
 40
0.0019176390480034
 40
0.0020617634323666
 40
0.0020617634323666
 40
0.0020617634323666
 40
0.0020617634323666
 10
384.5036838654264
 20
489.7777726741767
 30
0.0
 10
384.7930374850944
 20
489.7777726741767
 30
0.0
 10
385.0822617394283
 20
489.7777726741767
 30
0.0
 10
385.3713683568567
 20
489.7777726741767
 30
0.0
 10
385.4184362003375
 20
489.7777726741767
 30
0.0
 10
385.4655009424255
 20
489.7777726741767
 30
0.0
 10
385.5125626311719
 20
489.7777726741767
 30
0.0
  0
SPLINE
  5
DFF1
330
17
100
AcDbEntity
  8
L0
100
AcDbSpline
210
0.0
220
0.0
230
1.0
 70
    24
 71
     3
 72
     8
 73
     4
 74
     0
 42
0.000000001
 43
0.0000000001
 40
0.0
 40
0.0
 40
0.0
 40
0.0
 40
1.0
 40
1.0
 40
1.0
 40
1.0
 10
381.1511560148642
 20
486.4252448236145
 30
0.0
 10
381.1511560148642
 20
486.0887822175534
 30
0.0
 10
381.1511560148642
 20
485.7524954822499
 30
0.0
 10
381.1511560148642
 20
485.416366057843
 30
0.0
  0
SPLINE
  5
DFF2
330
17
100
AcDbEntity
  8
L0
100
AcDbSpline
210
0.0
220
0.0
230
1.0
 70
     8
 71
     3
 72
     8
 73
     4
 74
     0
 42
0.000000001
 43
0.0000000001
 40
0.0000002039647927
 40
0.0000002039647927
 40
0.0000002039647927
 40
0.0000002039647927
 40
0.000004407478763
 40
0.000004407478763
 40
0.000004407478763
 40
0.000004407478763
 10
317.2986281643289
 20
489.777772674174
 30
0.0
 10
317.300002098606
 20
489.777772674174
 30
0.0
 10
317.3013761203324
 20
489.7777698426195
 30
0.0
 10
317.3027502123573
 20
489.7777641784975
 30
0.0
  0
SPLINE
  5
DFF3
330
17
100
AcDbEntity
  8
L0
100
AcDbSpline
210
0.0
220
0.0
230
1.0
 70
     8
 71
     3
 72
     8
 73
     4
 74
     0
 42
0.000000001
 43
0.0000000001
 40
0.0000010228345567
 40
0.0000010228345567
 40
0.0000010228345567
 40
0.0000010228345567
 40
0.0000052263485279
 40
0.0000052263485279
 40
0.0000052263485279
 40
0.0000052263485279
 10
320.6511475192205
 20
486.4293668716461
 30
0.0
 10
320.6511531833421
 20
486.4279927796212
 30
0.0
 10
320.651156014897
 20
486.4266187578948
 30
0.0
 10
320.651156014897
 20
486.4252448236173
 30
0.0
  0
SPLINE
  5
DFF4
330
17
100
AcDbEntity
  8
L0
100
AcDbSpline
210
0.0
220
0.0
230
1.0
 70
    24
 71
     3
 72
     8
 73
     4
 74
     0
 42
0.000000001
 43
0.0000000001
 40
0.0
 40
0.0
 40
0.0
 40
0.0
 40
1.0
 40
1.0
 40
1.0
 40
1.0
 10
320.651156014897
 20
486.4252448236173
 30
0.0
 10
320.651156014897
 20
486.0887822175562
 30
0.0
 10
320.651156014897
 20
485.7524954822517
 30
0.0
 10
320.651156014897
 20
485.416366057844
 30
0.0
  0
SPLINE
  5
DFF5
330
17
100
AcDbEntity
  8
L0
100
AcDbSpline
210
0.0
220
0.0
230
1.0
 70
    24
 71
     3
 72
     8
 73
     4
 74
     0
 42
0.000000001
 43
0.0000000001
 40
0.0
 40
0.0
 40
0.0
 40
0.0
 40
1.0
 40
1.0
 40
1.0
 40
1.0
 10
317.2986281643289
 20
489.777772674174
 30
0.0
 10
316.9621655582519
 20
489.777772674174
 30
0.0
 10
316.625878822932
 20
489.777772674174
 30
0.0
 10
316.2897493985088
 20
489.777772674174
 30
0.0
  0
LINE
  5
DFF6
330
17
100
AcDbEntity
  8
L0
100
AcDbLine
 10
396.1510018474369
 20
518.7777726741776
 30
0.0
 11
397.151156610897
 21
518.7777726741776
 31
0.0
  0
LINE
  5
DFF7
330
17
100
AcDbEntity
  8
L0
100
AcDbLine
 10
397.151156610897
 20
518.7777726741776
 30
0.0
 11
396.7772058597416
 21
497.3541832664039
 31
0.0
  0
LINE
  5
DFF8
330
17
100
AcDbEntity
  8
L0
100
AcDbLine
 10
305.0251070356026
 20
497.3541336738433
 30
0.0
 11
304.6511554188041
 21
518.7777726741776
 31
0.0
  0
LINE
  5
DFF9
330
17
100
AcDbEntity
  8
L0
100
AcDbLine
 10
304.6511554188041
 20
518.7777726741776
 30
0.0
 11
305.6513101822643
 21
518.7777726741776
 31
0.0
  0
SPLINE
  5
DFFA
330
17
100
AcDbEntity
  8
L0
100
AcDbSpline
210
0.0
220
0.0
230
1.0
 70
     8
 71
     3
 72
    10
 73
     6
 74
     0
 42
0.000000001
 43
0.0000000001
 40
0.0
 40
0.0
 40
0.0
 40
0.0
 40
0.5
 40
0.5
 40
1.0
 40
1.0
 40
1.0
 40
1.0
 10
340.6511645105734
 20
486.4293668717161
 30
0.0
 10
340.651853430199
 20
486.5964958706451
 30
0.0
 10
340.6933609885623
 20
486.7464084900027
 30
0.0
 10
340.8220303085891
 20
487.0023652410471
 30
0.0
 10
340.910529181328
 20
487.1107408535388
 30
0.0
 10
341.0153178645956
 20
487.1970672427321
 30
0.0
  0
ARC
  5
DFFB
330
17
100
AcDbEntity
  8
L0
100
AcDbCircle
 10
330.6511560148506
 20
499.7777726741767
 30
0.0
 40
16.29999999999802
100
AcDbArc
 50
309.4821762626914
 51
320.5178237374936
  0
SPLINE
  5
DFFC
330
17
100
AcDbEntity
  8
L0
100
AcDbSpline
210
0.0
220
0.0
230
1.0
 70
     8
 71
     3
 72
    14
 73
    10
 74
     0
 42
0.000000001
 43
0.0000000001
 40
0.0
 40
0.0
 40
0.0
 40
0.0
 40
0.25
 40
0.25
 40
0.5
 40
0.5
 40
0.75
 40
0.75
 40
1.0
 40
1.0
 40
1.0
 40
1.0
 10
343.2318614463311
 20
489.4136108244772
 30
0.0
 10
343.2747471491757
 20
489.4656683282607
 30
0.0
 10
343.3236440982478
 20
489.5141290440194
 30
0.0
 10
343.4301970100223
 20
489.5998356979387
 30
0.0
 10
343.488430224827
 20
489.6378581038177
 30
0.0
 10
343.6175865867017
 20
489.7030629809449
 30
0.0
 10
343.6867232894842
 20
489.7293249993924
 30
0.0
 10
343.835966830673
 20
489.7666037166643
 30
0.0
 10
343.9159816010283
 20
489.7774196539037
 30
0.0
 10
343.9995618173471
 20
489.7777641785021
 30
0.0
  0
SPLINE
  5
DFFD
330
17
100
AcDbEntity
  8
L0
100
AcDbSpline
210
0.0
220
0.0
230
1.0
 70
     8
 71
     3
 72
    10
 73
     6
 74
     0
 42
0.000000001
 43
0.0000000001
 40
0.0
 40
0.0
 40
0.0
 40
0.0
 40
0.5
 40
0.5
 40
1.0
 40
1.0
 40
1.0
 40
1.0
 10
381.1511645105406
 20
486.4293668716916
 30
0.0
 10
381.1518534301617
 20
486.5964958706269
 30
0.0
 10
381.1933609885246
 20
486.74640848999
 30
0.0
 10
381.3220303085468
 20
487.0023652410361
 30
0.0
 10
381.4105291492733
 20
487.1107408271462
 30
0.0
 10
381.5153178645715
 20
487.1970672427266
 30
0.0
  0
ARC
  5
DFFE
330
17
100
AcDbEntity
  8
L0
100
AcDbCircle
 10
371.1511560148506
 20
499.7777726741767
 30
0.0
 40
16.29999999999801
100
AcDbArc
 50
309.4821762626494
 51
320.5178237374243
  0
SPLINE
  5
DFFF
330
17
100
AcDbEntity
  8
L0
100
AcDbSpline
210
0.0
220
0.0
230
1.0
 70
     8
 71
     3
 72
    14
 73
    10
 74
     0
 42
0.000000001
 43
0.0000000001
 40
0.0
 40
0.0
 40
0.0
 40
0.0
 40
0.25
 40
0.25
 40
0.5
 40
0.5
 40
0.75
 40
0.75
 40
1.0
 40
1.0
 40
1.0
 40
1.0
 10
383.731861446312
 20
489.4136108244691
 30
0.0
 10
383.7747471601706
 20
489.4656683416221
 30
0.0
 10
383.8236440982587
 20
489.5141290440622
 30
0.0
 10
383.9301970102274
 20
489.5998356981078
 30
0.0
 10
383.9884302252171
 20
489.637858104096
 30
0.0
 10
384.1175865878067
 20
489.7030629814432
 30
0.0
 10
384.186723289743
 20
489.7293249994988
 30
0.0
 10
384.335966831281
 20
489.7666037167826
 30
0.0
 10
384.415981601102
 20
489.7774196539037
 30
0.0
 10
384.4995618173452
 20
489.7777641785003
 30
0.0
  0
SPLINE
  5
E000
330
17
100
AcDbEntity
  8
L0
100
AcDbSpline
210
0.0
220
0.0
230
1.0
 70
     8
 71
     3
 72
    10
 73
     6
 74
     0
 42
0.000000001
 43
0.0000000001
 40
0.0
 40
0.0
 40
0.0
 40
0.0
 40
0.5
 40
0.5
 40
1.0
 40
1.0
 40
1.0
 40
1.0
 10
357.8027502123555
 20
489.7777641785003
 30
0.0
 10
357.9698792112958
 20
489.7770752588828
 30
0.0
 10
358.1197918306634
 20
489.7355677005214
 30
0.0
 10
358.3757485817109
 20
489.6068983805032
 30
0.0
 10
358.4841241454587
 20
489.5183995669128
 30
0.0
 10
358.5704505834073
 20
489.4136108244627
 30
0.0
  0
ARC
  5
E001
330
17
100
AcDbEntity
  8
L0
100
AcDbCircle
 10
371.1511560148506
 20
499.7777726741767
 30
0.0
 40
16.299999999998
100
AcDbArc
 50
219.4821762626377
 51
230.5178237374565
  0
SPLINE
  5
E002
330
17
100
AcDbEntity
  8
L0
100
AcDbSpline
210
0.0
220
0.0
230
1.0
 70
     8
 71
     3
 72
    14
 73
    10
 74
     0
 42
0.000000001
 43
0.0000000001
 40
0.0
 40
0.0
 40
0.0
 40
0.0
 40
0.25
 40
0.25
 40
0.5
 40
0.5
 40
0.75
 40
0.75
 40
1.0
 40
1.0
 40
1.0
 40
1.0
 10
360.7869941651506
 20
487.1970672427212
 30
0.0
 10
360.8390516958925
 20
487.1541815176685
 30
0.0
 10
360.8875123847956
 20
487.105284590744
 30
0.0
 10
360.9732190389686
 20
486.9987316785788
 30
0.0
 10
361.0112414450687
 20
486.9404984634
 30
0.0
 10
361.0764463226401
 20
486.8113421000851
 30
0.0
 10
361.1027083402973
 20
486.7422053990082
 30
0.0
 10
361.1399870575933
 20
486.5929618571151
 30
0.0
 10
361.1508029945935
 20
486.512947087838
 30
0.0
 10
361.1511475191878
 20
486.4293668716706
 30
0.0
  0
SPLINE
  5
E003
330
17
100
AcDbEntity
  8
L0
100
AcDbSpline
210
0.0
220
0.0
230
1.0
 70
     8
 71
     3
 72
    10
 73
     6
 74
     0
 42
0.000000001
 43
0.0000000001
 40
0.0
 40
0.0
 40
0.0
 40
0.0
 40
0.5
 40
0.5
 40
1.0
 40
1.0
 40
1.0
 40
1.0
 10
317.3027502123573
 20
489.7777641784975
 30
0.0
 10
317.4698792113027
 20
489.7770752588846
 30
0.0
 10
317.6197918306748
 20
489.7355677005241
 30
0.0
 10
317.8757485817241
 20
489.6068983805105
 30
0.0
 10
317.9841241234767
 20
489.518399593611
 30
0.0
 10
318.0704505834265
 20
489.4136108244554
 30
0.0
  0
ARC
  5
E004
330
17
100
AcDbEntity
  8
L0
100
AcDbCircle
 10
330.6511560148506
 20
499.7777726741767
 30
0.0
 40
16.29999999999794
100
AcDbArc
 50
219.4821762627069
 51
230.5178237375173
  0
SPLINE
  5
E005
330
17
100
AcDbEntity
  8
L0
100
AcDbSpline
210
0.0
220
0.0
230
1.0
 70
     8
 71
     3
 72
    14
 73
    10
 74
     0
 42
0.000000001
 43
0.0000000001
 40
0.0
 40
0.0
 40
0.0
 40
0.0
 40
0.25
 40
0.25
 40
0.5
 40
0.5
 40
0.75
 40
0.75
 40
1.0
 40
1.0
 40
1.0
 40
1.0
 10
320.2869941651747
 20
487.1970672427157
 30
0.0
 10
320.3390517119538
 20
487.1541815044517
 30
0.0
 10
320.3875123848811
 20
487.1052845907041
 30
0.0
 10
320.4732190392051
 20
486.998731678306
 30
0.0
 10
320.511241445437
 20
486.9404984629052
 30
0.0
 10
320.5764463232731
 20
486.8113420987326
 30
0.0
 10
320.6027083404597
 20
486.7422053986717
 30
0.0
 10
320.6399870577702
 20
486.5929618563584
 30
0.0
 10
320.650802994629
 20
486.5129470877234
 30
0.0
 10
320.6511475192205
 20
486.4293668716461
 30
0.0
  0
LINE
  5
E006
330
17
100
AcDbEntity
  8
L0
100
AcDbLine
 10
307.5354438685053
 20
339.6389566014712
 30
0.0
 11
304.8420412340769
 21
360.2873237822507
 31
0.0
  0
LINE
  5
E007
330
17
100
AcDbEntity
  8
L0
100
AcDbLine
 10
306.6488588550695
 20
455.7683022711728
 30
0.0
 11
330.5159559348234
 21
455.7683022711728
 31
0.0
  0
ARC
  5
E008
330
17
100
AcDbEntity
  8
L0
100
AcDbCircle
 10
306.6488588550695
 20
453.7683022711728
 30
0.0
 40
2.0
100
AcDbArc
 50
90.0
 51
180.0
  0
LINE
  5
E009
330
17
100
AcDbEntity
  8
L0
100
AcDbLine
 10
330.5159559348234
 20
455.7683022711728
 30
0.0
 11
350.898859451116
 21
455.7683022711728
 31
0.0
  0
SPLINE
  5
E00A
330
17
100
AcDbEntity
  8
L0
100
AcDbSpline
210
0.0
220
0.0
230
1.0
 70
     8
 71
     3
 72
     8
 73
     4
 74
     0
 42
0.000000001
 43
0.0000000001
 40
0.0
 40
0.0
 40
0.0
 40
0.0
 40
1.0
 40
1.0
 40
1.0
 40
1.0
 10
304.8420406792433
 20
360.2873213871724
 30
0.0
 10
304.7132533585872
 20
361.2746407133966
 30
0.0
 10
304.648859451116
 20
362.2661421142327
 30
0.0
 10
304.648859451116
 20
363.2618256217827
 30
0.0
  0
LINE
  5
E00B
330
17
100
AcDbEntity
  8
L0
100
AcDbLine
 10
304.6488588550695
 20
363.2618265245412
 30
0.0
 11
304.6488588550695
 21
453.7683022711728
 31
0.0
  0
LINE
  5
E00C
330
17
100
AcDbEntity
  8
L0
100
AcDbLine
 10
452.9847033449617
 20
363.0701949269862
 30
0.0
 11
452.9847033449617
 21
453.7683022711728
 31
0.0
  0
ARC
  5
E00D
330
17
100
AcDbEntity
  8
L0
100
AcDbCircle
 10
482.9847033449617
 20
363.0701949269862
 30
0.0
 40
30.0
100
AcDbArc
 50
180.0
 51
184.9697404461806
  0
ARC
  5
E00E
330
17
100
AcDbEntity
  8
L0
100
AcDbCircle
 10
454.9847033449617
 20
453.7683022711728
 30
0.0
 40
2.0
100
AcDbArc
 50
90.0
 51
180.0
  0
SPLINE
  5
E00F
330
17
100
AcDbEntity
  8
L0
100
AcDbSpline
210
0.0
220
0.0
230
1.0
 70
    24
 71
     3
 72
     8
 73
     4
 74
     0
 42
0.000000001
 43
0.0000000001
 40
0.0
 40
0.0
 40
0.0
 40
0.0
 40
1.0
 40
1.0
 40
1.0
 40
1.0
 10
499.0850387104955
 20
360.2873213871724
 30
0.0
 10
499.0850387104955
 20
361.2746407133966
 30
0.0
 10
499.0850387104955
 20
362.2661421142327
 30
0.0
 10
499.0850387104955
 20
363.2618256217827
 30
0.0
  0
LINE
  5
E010
330
17
100
AcDbEntity
  8
L0
100
AcDbLine
 10
499.0850387104955
 20
339.6389784310315
 30
0.0
 11
499.0850387104955
 21
360.2873237822507
 31
0.0
  0
LINE
  5
E011
330
17
100
AcDbEntity
  8
L0
100
AcDbLine
 10
499.0850387104955
 20
363.2618265245412
 30
0.0
 11
499.0850387104955
 21
455.7683022711728
 31
0.0
  0
LINE
  5
E012
330
17
100
AcDbEntity
  8
L0
100
AcDbLine
 10
499.0850387104955
 20
455.7683022711728
 30
0.0
 11
454.9847033449622
 21
455.7683022711728
 31
0.0
  0
LINE
  5
E013
330
17
100
AcDbEntity
  8
L0
100
AcDbLine
 10
455.9015203120387
 20
338.768303582475
 30
0.0
 11
499.0850387104955
 21
338.768303582475
 31
0.0
  0
SPLINE
  5
E014
330
17
100
AcDbEntity
  8
L0
100
AcDbSpline
210
0.0
220
0.0
230
1.0
 70
    24
 71
     3
 72
    12
 73
     8
 74
     0
 42
0.000000001
 43
0.0000000001
 40
0.0
 40
0.0
 40
0.0
 40
0.0
 40
0.25
 40
0.25
 40
0.5
 40
0.5
 40
1.0
 40
1.0
 40
1.0
 40
1.0
 10
499.0850387104955
 20
338.7683022711728
 30
0.0
 10
499.0850387104955
 20
338.7683022711728
 30
0.0
 10
499.0850387104955
 20
338.7899288491638
 30
0.0
 10
499.0850387104955
 20
338.8750423618565
 30
0.0
 10
499.0850387104955
 20
338.9373504564435
 30
0.0
 10
499.0850387104955
 20
339.1755620895062
 30
0.0
 10
499.0850387104955
 20
339.3986378597353
 30
0.0
 10
499.0850387104955
 20
339.6389760001027
 30
0.0
  0
SPLINE
  5
E015
330
17
100
AcDbEntity
  8
L0
100
AcDbSpline
210
0.0
220
0.0
230
1.0
 70
     8
 71
     3
 72
     8
 73
     4
 74
     0
 42
0.000000001
 43
0.0000000001
 40
0.0
 40
0.0
 40
0.0
 40
0.0
 40
1.0
 40
1.0
 40
1.0
 40
1.0
 10
653.3853410391251
 20
363.2618235356201
 30
0.0
 10
653.3853410391251
 20
362.2661400280701
 30
0.0
 10
653.3209471316544
 20
361.274638627234
 30
0.0
 10
653.1921598109983
 20
360.2873193010098
 30
0.0
  0
LINE
  5
E016
330
17
100
AcDbEntity
  8
L0
100
AcDbLine
 10
653.3853416351716
 20
363.2618244383786
 30
0.0
 11
653.3853416351716
 21
453.7683001850102
 31
0.0
  0
LINE
  5
E017
330
17
100
AcDbEntity
  8
L0
100
AcDbLine
 10
651.3853416351715
 20
455.7683001850103
 30
0.0
 11
651.3850358335416
 21
455.7683001850103
 31
0.0
  0
LINE
  5
E018
330
17
100
AcDbEntity
  8
L0
100
AcDbLine
 10
651.3850358335416
 20
361.8981744740461
 30
0.0
 11
651.3850358335416
 21
455.7683001850103
 31
0.0
  0
LWPOLYLINE
  5
E019
330
17
100
AcDbEntity
  8
L0
100
AcDbPolyline
 90
        4
 70
   128
 43
0.0
 10
651.3850358335416
 20
361.8981744740461
 10
650.7855509428422
 20
357.3023583386396
 10
649.9017705230157
 20
350.5270313117955
 10
649.385035505716
 20
346.5656172130559
  0
LINE
  5
E01A
330
17
100
AcDbEntity
  8
L0
100
AcDbLine
 10
649.385035505716
 20
346.5656172130559
 30
0.0
 11
649.385035505716
 21
338.7683014963124
 31
0.0
  0
SPLINE
  5
E01B
330
17
100
AcDbEntity
  8
L0
100
AcDbSpline
210
0.0
220
0.0
230
1.0
 70
     8
 71
     3
 72
    12
 73
     8
 74
     0
 42
0.000000001
 43
0.0000000001
 40
0.0
 40
0.0
 40
0.0
 40
0.0
 40
0.249999999999998
 40
0.249999999999998
 40
0.499999999999996
 40
0.499999999999996
 40
1.0
 40
1.0
 40
1.0
 40
1.0
 10
650.4987606160733
 20
339.6389739139402
 30
0.0
 10
650.4830856615921
 20
339.5188053645986
 30
0.0
 10
650.4463210519688
 20
339.4042431880346
 30
0.0
 10
650.3326622836643
 20
339.191168892098
 30
0.0
 10
650.257433613854
 20
339.096348124425
 30
0.0
 10
649.9860765703019
 20
338.858073581164
 30
0.0
 10
649.7493795651142
 20
338.7683001850103
 30
0.0
 10
649.5070074718609
 20
338.7683001850103
 30
0.0
  0
LINE
  5
E01C
330
17
100
AcDbEntity
  8
L0
100
AcDbLine
 10
653.1921592561642
 20
360.2873216960881
 30
0.0
 11
650.4985368129108
 21
339.6372694002487
 31
0.0
  0
LINE
  5
E01D
330
17
100
AcDbEntity
  8
L0
100
AcDbLine
 10
649.5070089606683
 20
338.7683014963124
 30
0.0
 11
649.385035505716
 21
338.7683014963124
 31
0.0
  0
LINE
  5
E01E
330
17
100
AcDbEntity
  8
L0
100
AcDbLine
 10
649.385035505716
 20
338.7683014963124
 30
0.0
 11
649.0160604028146
 21
338.7683014963124
 31
0.0
  0
LINE
  5
E01F
330
17
100
AcDbEntity
  8
L0
100
AcDbLine
 10
564.8856465725343
 20
346.5656172130559
 30
0.0
 11
564.8856465725343
 21
338.7683014963124
 31
0.0
  0
LINE
  5
E020
330
17
100
AcDbEntity
  8
L0
100
AcDbLine
 10
565.2546216754357
 20
338.7683014963124
 30
0.0
 11
564.8856465725343
 21
338.7683014963124
 31
0.0
  0
LWPOLYLINE
  5
E021
330
17
100
AcDbEntity
  8
L0
100
AcDbPolyline
 90
        3
 70
   128
 43
0.0
 10
564.8856465725343
 20
346.5656172130559
 10
564.2576334087292
 20
351.3801302407239
 10
562.8856462447087
 20
361.8981744740461
  0
LINE
  5
E022
330
17
100
AcDbEntity
  8
L0
100
AcDbLine
 10
562.8856462447087
 20
361.8981744740461
 30
0.0
 11
562.8856462447087
 21
455.7683001850103
 31
0.0
  0
LINE
  5
E023
330
17
100
AcDbEntity
  8
L0
100
AcDbLine
 10
562.8856462447087
 20
455.7683001850103
 30
0.0
 11
562.8853404430786
 21
455.7683001850103
 31
0.0
  0
LINE
  5
E024
330
17
100
AcDbEntity
  8
L0
100
AcDbLine
 10
560.8853404430787
 20
363.2618244383786
 30
0.0
 11
560.8853404430787
 21
453.7683001850102
 31
0.0
  0
SPLINE
  5
E025
330
17
100
AcDbEntity
  8
L0
100
AcDbSpline
210
0.0
220
0.0
230
1.0
 70
     8
 71
     3
 72
     8
 73
     4
 74
     0
 42
0.000000001
 43
0.0000000001
 40
0.0
 40
0.0
 40
0.0
 40
0.0
 40
1.0
 40
1.0
 40
1.0
 40
1.0
 10
561.0785222672524
 20
360.2873193010098
 30
0.0
 10
560.9497349465963
 20
361.274638627234
 30
0.0
 10
560.8853410391251
 20
362.2661400280701
 30
0.0
 10
560.8853410391251
 20
363.2618235356201
 30
0.0
  0
LINE
  5
E026
330
17
100
AcDbEntity
  8
L0
100
AcDbLine
 10
563.7719229016364
 20
339.6389741017049
 30
0.0
 11
561.078522822086
 21
360.2873216960881
 31
0.0
  0
SPLINE
  5
E027
330
17
100
AcDbEntity
  8
L0
100
AcDbSpline
210
0.0
220
0.0
230
1.0
 70
     8
 71
     3
 72
    12
 73
     8
 74
     0
 42
0.000000001
 43
0.0000000001
 40
0.0
 40
0.0
 40
0.0
 40
0.0
 40
0.25
 40
0.25
 40
0.5
 40
0.5
 40
1.0
 40
1.0
 40
1.0
 40
1.0
 10
564.7636746063893
 20
338.7683001850103
 30
0.0
 10
564.6424880232874
 20
338.7683001850103
 30
0.0
 10
564.5241347708173
 20
338.7899267630012
 30
0.0
 10
564.2981328188646
 20
338.8750402756939
 30
0.0
 10
564.1943713960785
 20
338.9373483702809
 30
0.0
 10
563.9229441213368
 20
339.1755600033437
 30
0.0
 10
563.8032715070179
 20
339.3986357735728
 30
0.0
 10
563.7719214621774
 20
339.6389739139402
 30
0.0
  0
LINE
  5
E028
330
17
100
AcDbEntity
  8
L0
100
AcDbLine
 10
564.8856465725343
 20
338.7683014963124
 30
0.0
 11
564.763673117582
 21
338.7683014963124
 31
0.0
  0
SPLINE
  5
E029
330
17
100
AcDbEntity
  8
L0
100
AcDbSpline
210
0.0
220
0.0
230
1.0
 70
     8
 71
     3
 72
    12
 73
     8
 74
     0
 42
0.000000001
 43
0.0000000001
 40
0.0
 40
0.0
 40
0.0
 40
0.0
 40
0.2499999999999999
 40
0.2499999999999999
 40
0.5
 40
0.5
 40
1.0
 40
1.0
 40
1.0
 40
1.0
 10
651.0172239476445
 20
361.8755021447139
 30
0.0
 10
651.047874608685
 20
361.8973799219127
 30
0.0
 10
651.0785256657367
 20
361.8981627082714
 30
0.0
 10
651.1398278088972
 20
361.8981804968887
 30
0.0
 10
651.1704788808077
 20
361.8981717807171
 30
0.0
 10
651.2624320960493
 20
361.8981717807162
 30
0.0
 10
651.3237342395435
 20
361.8981717807162
 30
0.0
 10
651.3850363830377
 20
361.8981717807153
 30
0.0
  0
ARC
  5
E096
330
17
100
AcDbEntity
  8
L0
100
AcDbCircle
 10
651.3853416351715
 20
453.7683001850102
 30
0.0
 40
2.0
100
AcDbArc
 50
0.0
 51
90.0
  0
ARC
  5
E097
330
17
100
AcDbEntity
  8
L0
100
AcDbCircle
 10
562.8853404430786
 20
453.7683001850102
 30
0.0
 40
2.0
100
AcDbArc
 50
90.0
 51
180.0
  0
LINE
  5
E098
330
17
100
AcDbEntity
  8
L0
100
AcDbLine
 10
587.2753565220277
 20
338.7683014963124
 30
0.0
 11
565.2546216754357
 21
338.7683014963124
 31
0.0
  0
LINE
  5
E099
330
17
100
AcDbEntity
  8
L0
100
AcDbLine
 10
649.5086119545653
 20
338.7683014963124
 30
0.0
 11
626.9953255562226
 21
338.7683014963124
 31
0.0
  0
LINE
  5
E09A
330
17
100
AcDbEntity
  8
L0
100
AcDbLine
 10
626.9953255562226
 20
338.7683014963124
 30
0.0
 11
587.2753565220277
 21
338.7683014963124
 31
0.0
  0
LINE
  5
E09B
330
17
100
AcDbEntity
  8
L0
100
AcDbLine
 10
396.9556790415073
 20
268.6043520568323
 30
0.0
 11
394.2622792545582
 21
268.6043520568323
 31
0.0
  0
LINE
  5
E09C
330
17
100
AcDbEntity
  8
L0
100
AcDbLine
 10
307.5354423943783
 20
268.6043520568323
 30
0.0
 11
304.8420426074291
 21
268.6043520568323
 31
0.0
  0
LINE
  5
E09D
330
17
100
AcDbEntity
  8
L0
100
AcDbLine
 10
393.2705287460113
 20
268.6043520568323
 30
0.0
 11
393.1485552910591
 21
268.6043520568323
 31
0.0
  0
LINE
  5
E09E
330
17
100
AcDbEntity
  8
L0
100
AcDbLine
 10
393.1485552910591
 20
268.6043520568323
 30
0.0
 11
392.7795801881576
 21
289.7430052159739
 31
0.0
  0
ARC
  5
E0A0
330
17
100
AcDbEntity
  8
L0
100
AcDbCircle
 10
370.5329683860774
 20
289.3546892713516
 30
0.0
 40
22.25000000000015
100
AcDbArc
 50
0.999999999897539
 51
89.41833791738087
  0
ARC
  5
E0A2
330
17
100
AcDbEntity
  8
L0
100
AcDbCircle
 10
350.898860816195
 20
-1644.608147943085
 30
0.0
 40
1956.312500000085
100
AcDbArc
 50
89.41833791738087
 51
90.58166208212405
  0
ARC
  5
E0A4
330
17
100
AcDbEntity
  8
L0
100
AcDbCircle
 10
350.898860816195
 20
-1644.608147943085
 30
0.0
 40
1959.312500000085
100
AcDbArc
 50
89.38151112333677
 51
90.6184889565007
  0
ARC
  5
E0A5
330
17
100
AcDbEntity
  8
L0
100
AcDbCircle
 10
331.2647532629018
 20
289.3546892715203
 30
0.0
 40
22.24999999999992
100
AcDbArc
 50
90.58166208212405
 51
178.9999999999982
  0
LINE
  5
E0A7
330
17
100
AcDbEntity
  8
L0
100
AcDbLine
 10
309.0181414607788
 20
289.7430052159739
 30
0.0
 11
308.6491663578773
 21
268.6043520568323
 31
0.0
  0
LINE
  5
E0A9
330
17
100
AcDbEntity
  8
L0
100
AcDbLine
 10
308.6491663578773
 20
268.6043520568323
 30
0.0
 11
308.5271929029251
 21
268.6043520568323
 31
0.0
  0
SPLINE
  5
E0AA
330
17
100
AcDbEntity
  8
L0
100
AcDbSpline
210
0.0
220
0.0
230
1.0
 70
    24
 71
     3
 72
    12
 73
     8
 74
     0
 42
0.000000001
 43
0.0000000001
 40
0.0
 40
0.0
 40
0.0
 40
0.0
 40
0.249999999999998
 40
0.249999999999998
 40
0.499999999999996
 40
0.499999999999996
 40
1.0
 40
1.0
 40
1.0
 40
1.0
 10
394.2622804014164
 20
268.6043520568323
 30
0.0
 10
394.2466054469352
 20
268.6043520568323
 30
0.0
 10
394.2098408373114
 20
268.6043520568323
 30
0.0
 10
394.0961820690069
 20
268.6043520568323
 30
0.0
 10
394.0209533991966
 20
268.6043520568323
 30
0.0
 10
393.7495963556445
 20
268.6043520568323
 30
0.0
 10
393.5128993504569
 20
268.6043520568323
 30
0.0
 10
393.270527257204
 20
268.6043520568323
 30
0.0
  0
SPLINE
  5
E0AB
330
17
100
AcDbEntity
  8
L0
100
AcDbSpline
210
0.0
220
0.0
230
1.0
 70
    24
 71
     3
 72
    12
 73
     8
 74
     0
 42
0.000000001
 43
0.0000000001
 40
0.0
 40
0.0
 40
0.0
 40
0.0
 40
0.25
 40
0.25
 40
0.5
 40
0.5
 40
1.0
 40
1.0
 40
1.0
 40
1.0
 10
308.5271943917324
 20
268.6043520568323
 30
0.0
 10
308.4060078086305
 20
268.6043520568323
 30
0.0
 10
308.28765455616
 20
268.6043520568323
 30
0.0
 10
308.0616526042078
 20
268.6043520568323
 30
0.0
 10
307.9578911814211
 20
268.6043520568323
 30
0.0
 10
307.6864639066799
 20
268.6043520568323
 30
0.0
 10
307.566791292361
 20
268.6043520568323
 30
0.0
 10
307.53544124752
 20
268.6043520568323
 30
0.0
  0
SPLINE
  5
E0AC
330
17
100
AcDbEntity
  8
L0
100
AcDbSpline
210
0.0
220
0.0
230
1.0
 70
     8
 71
     3
 72
    32
 73
    28
 74
     0
 42
0.000000001
 43
0.0000000001
 40
-0.000320941763982
 40
-0.000320941763982
 40
-0.000320941763982
 40
-0.000320941763982
 40
-0.0000000300670811
 40
-0.0000000300670811
 40
-0.0000000300670811
 40
0.0
 40
0.0
 40
0.0
 40
0.0001855454522272
 40
0.0001855454522272
 40
0.0001855454522272
 40
0.000666283437789
 40
0.000666283437789
 40
0.000666283437789
 40
0.0019111463826301
 40
0.0019111463826301
 40
0.0019111463826301
 40
0.0037605371071325
 40
0.0037605371071325
 40
0.0037605371071325
 40
0.0065019393524751
 40
0.0065019393524751
 40
0.0065019393524751
 40
0.0105534889644541
 40
0.0105534889644541
 40
0.0105534889644541
 40
0.021106641462711
 40
0.021106641462711
 40
0.021106641462711
 40
0.021106641462711
 10
396.7749001581416
 20
290.028388737378
 30
0.0
 10
396.7767669275396
 20
289.9215452436447
 30
0.0
 10
396.7786336969376
 20
289.8146499464615
 30
0.0
 10
396.7805004663361
 20
289.7077028458225
 30
0.0
 10
396.7805006412388
 20
289.7076928256606
 30
0.0
 10
396.7805008161414
 20
289.7076828054983
 30
0.0
 10
396.7805009910441
 20
289.7076727853364
 30
0.0
 10
396.7815803234768
 20
289.6458378716543
 30
0.0
 10
396.7826596608253
 20
289.5840026763604
 30
0.0
 10
396.7837390024762
 20
289.5221672345838
 30
0.0
 10
396.786535515838
 20
289.3619550913263
 30
0.0
 10
396.7893320597369
 20
289.2017411986221
 30
0.0
 10
396.7921286246516
 20
289.0415261019161
 30
0.0
 10
396.7993702693271
 20
288.6266525562255
 30
0.0
 10
396.806612074524
 20
288.2117698142456
 30
0.0
 10
396.8138539226908
 20
287.7968846105391
 30
0.0
 10
396.8246125376264
 20
287.1805239735209
 30
0.0
 10
396.8353712944814
 20
286.5641552059269
 30
0.0
 10
396.8461300328259
 20
285.9477874988256
 30
0.0
 10
396.8620780206194
 20
285.0341278898154
 30
0.0
 10
396.8780260257405
 20
284.1204672881154
 30
0.0
 10
396.8939740227193
 20
283.2068071528843
 30
0.0
 10
396.9175437496684
 20
281.8564983999954
 30
0.0
 10
396.941113476617
 20
280.5061896471066
 30
0.0
 10
396.9646832035661
 20
279.1558808942182
 30
0.0
 10
397.026075743867
 20
275.6387046150894
 30
0.0
 10
397.0874682841674
 20
272.1215283359611
 30
0.0
 10
397.1488608244682
 20
268.6043520568323
 30
0.0
  0
SPLINE
  5
E0AD
330
17
100
AcDbEntity
  8
L0
100
AcDbSpline
210
0.0
220
0.0
230
1.0
 70
    24
 71
     3
 72
     8
 73
     4
 74
     0
 42
0.000000001
 43
0.0000000001
 40
0.0
 40
0.0
 40
0.0
 40
0.0
 40
1.0
 40
1.0
 40
1.0
 40
1.0
 10
397.1488608244682
 20
268.6043520568323
 30
0.0
 10
397.1488608244682
 20
268.6043520568323
 30
0.0
 10
397.0844669169975
 20
268.6043520568323
 30
0.0
 10
396.9556795963409
 20
268.6043520568323
 30
0.0
  0
SPLINE
  5
E0AE
330
17
100
AcDbEntity
  8
L0
100
AcDbSpline
210
0.0
220
0.0
230
1.0
 70
    24
 71
     3
 72
    18
 73
    14
 74
     0
 42
0.000000001
 43
0.0000000001
 40
0.0
 40
0.0
 40
0.0
 40
0.0
 40
0.5
 40
0.5
 40
0.75
 40
0.75
 40
1.0
 40
1.0
 40
1.0
 40
1.001887995827128
 40
1.001887995827128
 40
1.001887995827128
 40
1.015176079911219
 40
1.015176079911219
 40
1.015176079911219
 40
1.015176079911219
 10
304.6488608244682
 20
268.6043520568323
 30
0.0
 10
304.7102542783893
 20
272.1215806763166
 30
0.0
 10
304.7716477323107
 20
275.6388092958009
 30
0.0
 10
304.8637379131925
 20
280.9146522250276
 30
0.0
 10
304.8944346402306
 20
282.6732665392174
 30
0.0
 10
304.9558280939942
 20
286.1904951496726
 30
0.0
 10
304.986524809755
 20
287.9491088177865
 30
0.0
 10
305.0172211822861
 20
289.7077028222725
 30
0.0
 10
305.017453000779
 20
289.7209836948409
 30
0.0
 10
305.0176848192524
 20
289.734264566288
 30
0.0
 10
305.0179166377258
 20
289.7475454377349
 30
0.0
 10
305.019548221505
 20
289.8410188098487
 30
0.0
 10
305.0211798052838
 20
289.9344921819625
 30
0.0
 10
305.0228113890627
 20
290.0279655540762
 30
0.0
  0
SPLINE
  5
E0AF
330
17
100
AcDbEntity
  8
L0
100
AcDbSpline
210
0.0
220
0.0
230
1.0
 70
    24
 71
     3
 72
     8
 73
     4
 74
     0
 42
0.000000001
 43
0.0000000001
 40
0.0
 40
0.0
 40
0.0
 40
0.0
 40
1.0
 40
1.0
 40
1.0
 40
1.0
 10
304.8420420525951
 20
268.6043520568323
 30
0.0
 10
304.7132547319389
 20
268.6043520568323
 30
0.0
 10
304.6488608244682
 20
268.6043520568323
 30
0.0
 10
304.6488608244682
 20
268.6043520568323
 30
0.0
  0
ARC
  5
E0B0
330
17
100
AcDbEntity
  8
L0
100
AcDbCircle
 10
350.8988594511163
 20
2431.990272674095
 30
0.0
 40
1959.312500000085
100
AcDbArc
 50
269.3815790863026
 51
270.6185569991224
  0
ARC
  5
E0B1
330
17
100
AcDbEntity
  8
L0
100
AcDbCircle
 10
330.0212994021527
 20
497.7904445428382
 30
0.0
 40
25.0
100
AcDbArc
 50
181.0000016229869
 51
269.3815790863026
  0
ARC
  5
E0B2
330
17
100
AcDbEntity
  8
L0
100
AcDbCircle
 10
371.7810134931911
 20
497.7904941353983
 30
0.0
 40
25.0
100
AcDbArc
 50
270.6185569991224
 51
358.9999983770131
  0
LINE
  5
E0B3
330
17
100
AcDbEntity
  8
L0
 48
3.0
100
AcDbLine
 10
453.0974856863034
 20
360.4713065830995
 30
0.0
 11
454.9052797234175
 21
339.6816739710123
 31
0.0
  0
ARC
  5
E0B4
330
17
100
AcDbEntity
  8
L0
 48
3.0
100
AcDbCircle
 10
455.9015203120387
 20
339.768303582475
 30
0.0
 40
1.0
100
AcDbArc
 50
184.9697404461806
 51
270.0
  0
ARC
  5
E0B5
330
17
100
AcDbEntity
  8
L0
 48
3.0
100
AcDbCircle
 10
455.9015203120387
 20
339.768303582475
 30
0.0
 40
1.0
100
AcDbArc
 50
184.9697404461806
 51
184.9697404461806
  0
ARC
  5
E0B6
330
17
100
AcDbEntity
  8
L0
100
AcDbCircle
 10
330.0190037679723
 20
289.5916553932206
 30
0.0
 40
25.0
100
AcDbArc
 50
90.6184889565007
 51
179.0000000001806
  0
ARC
  5
E0B7
330
17
100
AcDbEntity
  8
L0
100
AcDbCircle
 10
371.7787151689746
 20
289.5916554223231
 30
0.0
 40
25.0
100
AcDbArc
 50
1.000969945678326
 51
89.38151112341493
  0
ARC
  5
E0B8
330
17
100
AcDbEntity
  8
L0
 48
3.0
100
AcDbCircle
 10
330.6511560148361
 20
499.7777729759065
 30
0.0
 40
17.50000030173669
100
AcDbArc
 50
306.4869265127918
 51
323.4930139700533
  0
ARC
  5
E0B9
330
17
100
AcDbEntity
  8
L0
 48
3.0
100
AcDbCircle
 10
330.6511560148651
 20
499.7777729759065
 30
0.0
 40
17.50000030173669
100
AcDbArc
 50
216.5069860298752
 51
233.5130734870868
  0
ARC
  5
E0BA
330
17
100
AcDbEntity
  8
L0
 48
3.0
100
AcDbCircle
 10
371.1465628873952
 20
499.7777729759065
 30
0.0
 40
17.50000030173669
100
AcDbArc
 50
216.5069860299467
 51
233.5130734872264
  0
ARC
  5
E0BB
330
17
100
AcDbEntity
  8
L0
 48
3.0
100
AcDbCircle
 10
371.1465628873662
 20
499.7777729759065
 30
0.0
 40
17.50000030173669
100
AcDbArc
 50
306.4869265129132
 51
323.4930139701186
  0
LINE
  5
E0BC
330
17
100
AcDbEntity
  8
L0
100
AcDbLine
 10
394.2622750337267
 20
339.6389566014707
 30
0.0
 11
396.9556776681551
 21
360.2873237822507
 31
0.0
  0
LINE
  5
E0BD
330
17
100
AcDbEntity
  8
L0
100
AcDbLine
 10
395.1488600471624
 20
455.7683022711728
 30
0.0
 11
371.2817629674086
 21
455.7683022711728
 31
0.0
  0
ARC
  5
E0BE
330
17
100
AcDbEntity
  8
L0
100
AcDbCircle
 10
395.1488600471624
 20
453.7683022711728
 30
0.0
 40
2.0
100
AcDbArc
 50
0.0
 51
90.0
  0
LINE
  5
E0BF
330
17
100
AcDbEntity
  8
L0
100
AcDbLine
 10
371.2817629674086
 20
455.7683022711728
 30
0.0
 11
350.898859451116
 21
455.7683022711728
 31
0.0
  0
SPLINE
  5
E0C0
330
17
100
AcDbEntity
  8
L0
100
AcDbSpline
210
0.0
220
0.0
230
1.0
 70
     8
 71
     3
 72
     8
 73
     4
 74
     0
 42
0.000000001
 43
0.0000000001
 40
0.0
 40
0.0
 40
0.0
 40
0.0
 40
1.0
 40
1.0
 40
1.0
 40
1.0
 10
396.9556782229887
 20
360.2873213871724
 30
0.0
 10
397.0844655436448
 20
361.2746407133966
 30
0.0
 10
397.148859451116
 20
362.2661421142327
 30
0.0
 10
397.148859451116
 20
363.2618256217827
 30
0.0
  0
LINE
  5
E0C1
330
17
100
AcDbEntity
  8
L0
100
AcDbLine
 10
397.1488600471624
 20
363.2618265245412
 30
0.0
 11
397.1488600471624
 21
453.7683022711728
 31
0.0
  0
ARC
  5
E0D6
330
17
100
AcDbEntity
  8
L0
100
AcDbCircle
 10
393.2706754685146
 20
339.7683022711719
 30
0.0
 40
1.0
100
AcDbArc
 50
269.9999999999804
 51
352.5682172815198
  0
ARC
  5
E0D7
330
17
100
AcDbEntity
  8
L0
100
AcDbCircle
 10
308.5270434337186
 20
339.7683022711751
 30
0.0
 40
1.0
100
AcDbArc
 50
187.4317827185852
 51
269.9999999999414
  0
LINE
  5
E0D8
330
17
100
AcDbEntity
  8
L0
 48
2.0
100
AcDbLine
 10
308.5270434337186
 20
338.7683022711751
 30
0.0
 11
393.2706754685142
 21
338.768302271172
 31
0.0
  0
ENDSEC
  0
SECTION
  2
OBJECTS
  0
DICTIONARY
  5
C
330
0
100
AcDbDictionary
281
     1
  3
ACAD_CIP_PREVIOUS_PRODUCT_INFO
350
DCAA
  3
ACAD_COLOR
350
DC88
  3
ACAD_DETAILVIEWSTYLE
350
DCA2
  3
ACAD_GROUP
350
D
  3
ACAD_LAYOUT
350
DC89
  3
ACAD_MATERIAL
350
DC56
  3
ACAD_MLEADERSTYLE
350
DC9E
  3
ACAD_MLINESTYLE
350
1A
  3
ACAD_PLOTSETTINGS
350
DCA4
  3
ACAD_PLOTSTYLENAME
350
DC54
  3
ACAD_SCALELIST
350
DC8C
  3
ACAD_SECTIONVIEWSTYLE
350
DCA0
  3
ACAD_TABLESTYLE
350
DC8A
  3
ACAD_VISUALSTYLE
350
DC6F
  3
ACDB_RECOMPOSE_DATA
350
E20E
  3
ACDBVARIABLEDICTIONARY
350
51
  0
DICTIONARY
  5
DD4E
330
2
100
AcDbDictionary
280
     1
281
     1
  3
ACAD_LAYERSTATES
360
DD4F
  0
DICTIONARY
  5
E1E0
330
E
100
AcDbDictionary
280
     1
281
     1
  3
ADSK_XREC_LAYER_RECONCILED
360
E1E1
  0
DICTIONARY
  5
E1E2
330
40
100
AcDbDictionary
280
     1
281
     1
  3
ADSK_XREC_LAYER_RECONCILED
360
E1E3
  0
DICTIONARY
  5
DD44
330
DD43
100
AcDbDictionary
280
     1
281
     1
  3
ADSK_XREC_LAYER_RECONCILED
360
E1E4
  0
DICTIONARY
  5
DD47
330
DD46
100
AcDbDictionary
280
     1
281
     1
  3
ADSK_XREC_LAYER_RECONCILED
360
E1E5
  0
DICTIONARY
  5
E1E6
330
DD48
100
AcDbDictionary
280
     1
281
     1
  3
ADSK_XREC_LAYER_RECONCILED
360
E1E7
  0
DICTIONARY
  5
E1E8
330
DD49
100
AcDbDictionary
280
     1
281
     1
  3
ADSK_XREC_LAYER_RECONCILED
360
E1E9
  0
DICTIONARY
  5
DCD9
330
DCD8
100
AcDbDictionary
280
     1
281
     1
  0
XRECORD
  5
DCAA
102
{ACAD_REACTORS
330
C
102
}
330
C
100
AcDbXrecord
280
     1
300
ACDLT
300
2021
300

  0
DICTIONARY
  5
DC88
102
{ACAD_REACTORS
330
C
102
}
330
C
100
AcDbDictionary
281
     1
  0
DICTIONARY
  5
DCA2
102
{ACAD_REACTORS
330
C
102
}
330
C
100
AcDbDictionary
281
     1
  3
Imperial24
350
DD51
  3
Metric50
350
DCA3
  0
DICTIONARY
  5
D
102
{ACAD_REACTORS
330
C
102
}
330
C
100
AcDbDictionary
281
     1
  0
DICTIONARY
  5
DC89
102
{ACAD_REACTORS
330
C
102
}
330
C
100
AcDbDictionary
281
     1
  3
Model
350
DCA5
  3
レイアウト1
350
DCA6
  0
DICTIONARY
  5
DC56
102
{ACAD_REACTORS
330
C
102
}
330
C
100
AcDbDictionary
281
     1
  3
ByBlock
350
DC5F
  3
ByLayer
350
DC57
  3
Global
350
DC67
  0
DICTIONARY
  5
DC9E
102
{ACAD_REACTORS
330
C
102
}
330
C
100
AcDbDictionary
281
     1
  3
Standard
350
DC9F
  0
DICTIONARY
  5
1A
102
{ACAD_REACTORS
330
C
102
}
330
C
100
AcDbDictionary
281
     1
  3
STANDARD
350
1B
  0
DICTIONARY
  5
DCA4
102
{ACAD_REACTORS
330
C
102
}
330
C
100
AcDbDictionary
281
     1
  0
ACDBDICTIONARYWDFLT
  5
DC54
102
{ACAD_REACTORS
330
C
102
}
330
C
100
AcDbDictionary
281
     1
  3
Normal
350
DC55
100
AcDbDictionaryWithDefault
340
DC55
  0
DICTIONARY
  5
DC8C
102
{ACAD_REACTORS
330
C
102
}
330
C
100
AcDbDictionary
281
     1
  3
A0
350
DC8D
  3
A1
350
DC8E
  3
A2
350
DC8F
  3
A3
350
DC90
  3
A4
350
DC91
  3
A5
350
DC92
  3
A6
350
DC93
  3
A7
350
DC94
  3
A8
350
DC95
  3
A9
350
DC96
  3
B0
350
DC97
  3
B1
350
DC98
  3
B2
350
DC99
  3
B3
350
DC9A
  3
B4
350
DC9B
  3
B5
350
DC9C
  3
B6
350
DC9D
  0
DICTIONARY
  5
DCA0
102
{ACAD_REACTORS
330
C
102
}
330
C
100
AcDbDictionary
281
     1
  3
Imperial24
350
DD50
  3
Metric50
350
DCA1
  0
DICTIONARY
  5
DC8A
102
{ACAD_REACTORS
330
C
102
}
330
C
100
AcDbDictionary
281
     1
  3
Standard
350
DC8B
  0
DICTIONARY
  5
DC6F
102
{ACAD_REACTORS
330
C
102
}
330
C
100
AcDbDictionary
281
     1
  3
2dWireframe
350
DC75
  3
Basic
350
DC74
  3
Brighten
350
DC7B
  3
ColorChange
350
DC7F
  3
Conceptual
350
DC78
  3
Dim
350
DC7A
  3
EdgeColorOff
350
DC87
  3
Facepattern
350
DC7E
  3
Flat
350
DC70
  3
FlatWithEdges
350
DC71
  3
Gouraud
350
DC72
  3
GouraudWithEdges
350
DC73
  3
Hidden
350
DC77
  3
JitterOff
350
DC85
  3
Linepattern
350
DC7D
  3
OverhangOff
350
DC86
  3
Realistic
350
DC79
  3
Shaded
350
DC84
  3
Shaded with edges
350
DC83
  3
Shades of Gray
350
DC80
  3
Sketchy
350
DC81
  3
Thicken
350
DC7C
  3
Wireframe
350
DC76
  3
X-Ray
350
DC82
  0
XRECORD
  5
E20E
102
{ACAD_REACTORS
330
C
102
}
330
C
100
AcDbXrecord
280
     1
 90
        1
330
DC8B
  0
DICTIONARY
  5
51
102
{ACAD_REACTORS
330
C
102
}
330
C
100
AcDbDictionary
281
     1
  3
CANNOSCALE
350
E208
  3
CMLEADERSTYLE
350
E204
  3
CTABLESTYLE
350
E203
  3
CVIEWDETAILSTYLE
350
E205
  3
CVIEWSECTIONSTYLE
350
E206
  3
DIMADEC
350
52
  3
LAYEREVAL
350
E20A
  3
LAYERNOTIFY
350
E20B
  3
LIGHTINGUNITS
350
E209
  3
MSLTSCALE
350
E207
  3
SORTENTS
350
D1FE
  0
DICTIONARY
  5
DD4F
102
{ACAD_REACTORS
330
DD4E
102
}
330
DD4E
100
AcDbDictionary
281
     1
  0
XRECORD
  5
E1E1
102
{ACAD_REACTORS
330
E1E0
102
}
330
E1E0
100
AcDbXrecord
280
     1
290
     1
  0
XRECORD
  5
E1E3
102
{ACAD_REACTORS
330
E1E2
102
}
330
E1E2
100
AcDbXrecord
280
     1
290
     1
  0
XRECORD
  5
E1E4
102
{ACAD_REACTORS
330
DD44
102
}
330
DD44
100
AcDbXrecord
280
     1
290
     1
  0
XRECORD
  5
E1E5
102
{ACAD_REACTORS
330
DD47
102
}
330
DD47
100
AcDbXrecord
280
     1
290
     1
  0
XRECORD
  5
E1E7
102
{ACAD_REACTORS
330
E1E6
102
}
330
E1E6
100
AcDbXrecord
280
     1
290
     1
  0
XRECORD
  5
E1E9
102
{ACAD_REACTORS
330
E1E8
102
}
330
E1E8
100
AcDbXrecord
280
     1
290
     1
  0
ACDBDETAILVIEWSTYLE
  5
DD51
102
{ACAD_REACTORS
330
DCA2
102
}
330
DCA2
100
AcDbModelDocViewStyle
 70
     0
  3
Imperial24
290
     0
300
Imperial24
 90
        0
100
AcDbDetailViewStyle
 70
     0
 71
     0
 90
        3
 71
     1
340
F
 62
   256
 40
0.24
340
0
 62
   256
 40
0.24
300

 40
0.36
280
     3
 71
     2
340
13
 90
       25
 62
   256
 71
     3
340
F
 62
   256
 40
0.24
 90
        1
 40
0.75
 90
        1
300
%<\AcVar ViewType \f "%tc1">% %<\AcVar ViewDetailId>%\PSCALE %<\AcVar ViewScale \f "%sn">%
 71
     4
340
13
 90
       25
 62
   256
340
13
 90
       25
 62
   256
280
     0
  0
ACDBDETAILVIEWSTYLE
  5
DCA3
102
{ACAD_REACTORS
330
DCA2
102
}
330
DCA2
100
AcDbModelDocViewStyle
 70
     0
  3
Metric50
290
     1
300
Metric50
 90
        0
100
AcDbDetailViewStyle
 70
     0
 71
     0
 90
        3
 71
     1
340
F
 62
   256
 40
5.0
340
0
 62
   256
 40
5.0
300

 40
0.0
280
     1
 71
     2
340
13
 90
       25
 62
   256
 71
     3
340
F
 62
   256
 40
5.0
 90
        0
 40
15.0
 90
        1
300
%<\AcVar ViewDetailId>% (%<\AcVar ViewScale \f "%sn">%)
 71
     4
340
13
 90
       25
 62
   256
340
13
 90
       25
 62
   256
280
     0
  0
LAYOUT
  5
DCA5
102
{ACAD_REACTORS
330
DC89
102
}
330
DC89
100
AcDbPlotSettings
  1

  2
OneNote for Windows 10
  4

  6

 40
0.0
 41
0.0
 42
0.0
 43
0.0
 44
0.0
 45
0.0
 46
0.0
 47
0.0
 48
0.0
 49
0.0
140
0.0
141
0.0
142
1.0
143
1.0
 70
  1712
 72
     0
 73
     0
 74
     0
  7

 75
     0
147
1.0
 76
     0
 77
     2
 78
   300
148
0.0
149
0.0
100
AcDbLayout
  1
Model
 70
     1
 71
     0
 10
0.0
 20
0.0
 11
12.0
 21
9.0
 12
0.0
 22
0.0
 32
0.0
 14
0.0
 24
0.0
 34
0.0
 15
0.0
 25
0.0
 35
0.0
146
0.0
 13
0.0
 23
0.0
 33
0.0
 16
1.0
 26
0.0
 36
0.0
 17
0.0
 27
1.0
 37
0.0
 76
     0
330
17
331
DC52
  0
LAYOUT
  5
DCA6
102
{ACAD_REACTORS
330
DC89
102
}
330
DC89
100
AcDbPlotSettings
  1

  2
OneNote for Windows 10
  4

  6

 40
0.0
 41
0.0
 42
0.0
 43
0.0
 44
0.0
 45
0.0
 46
0.0
 47
0.0
 48
0.0
 49
0.0
140
0.0
141
0.0
142
1.0
143
1.0
 70
   688
 72
     0
 73
     0
 74
     5
  7

 75
    16
147
1.0
 76
     0
 77
     2
 78
   300
148
0.0
149
0.0
100
AcDbLayout
  1
レイアウト1
 70
     0
 71
     1
 10
0.0
 20
0.0
 11
12.0
 21
9.0
 12
0.0
 22
0.0
 32
0.0
 14
1.000000000000000E+20
 24
1.000000000000000E+20
 34
1.000000000000000E+20
 15
-1.000000000000000E+20
 25
-1.000000000000000E+20
 35
-1.000000000000000E+20
146
0.0
 13
0.0
 23
0.0
 33
0.0
 16
1.0
 26
0.0
 36
0.0
 17
0.0
 27
1.0
 37
0.0
 76
     0
330
14
  0
MATERIAL
  5
DC5F
102
{ACAD_XDICTIONARY
360
DC60
102
}
102
{ACAD_REACTORS
330
DC56
102
}
330
DC56
100
AcDbMaterial
  1
ByBlock
 72
     0
 43
0.0208333333333333
 43
0.0
 43
0.0
 43
0.0
 43
0.0
 43
0.0208333333333333
 43
0.0
 43
0.0
 43
0.0
 43
0.0
 43
1.0
 43
0.0
 43
0.0
 43
0.0
 43
0.0
 43
1.0
 77
     0
 47
0.0208333333333333
 47
0.0
 47
0.0
 47
0.0
 47
0.0
 47
0.0208333333333333
 47
0.0
 47
0.0
 47
0.0
 47
0.0
 47
1.0
 47
0.0
 47
0.0
 47
0.0
 47
0.0
 47
1.0
171
     0
 49
0.0208333333333333
 49
0.0
 49
0.0
 49
0.0
 49
0.0
 49
0.0208333333333333
 49
0.0
 49
0.0
 49
0.0
 49
0.0
 49
1.0
 49
0.0
 49
0.0
 49
0.0
 49
0.0
 49
1.0
175
     0
142
0.0208333333333333
142
0.0
142
0.0
142
0.0
142
0.0
142
0.0208333333333333
142
0.0
142
0.0
142
0.0
142
0.0
142
1.0
142
0.0
142
0.0
142
0.0
142
0.0
142
1.0
179
     0
144
0.0208333333333333
144
0.0
144
0.0
144
0.0
144
0.0
144
0.0208333333333333
144
0.0
144
0.0
144
0.0
144
0.0
144
1.0
144
0.0
144
0.0
144
0.0
144
0.0
144
1.0
147
0.0208333333333333
147
0.0
147
0.0
147
0.0
147
0.0
147
0.0208333333333333
147
0.0
147
0.0
147
0.0
147
0.0
147
1.0
147
0.0
147
0.0
147
0.0
147
0.0
147
1.0
  0
MATERIAL
  5
DC57
102
{ACAD_XDICTIONARY
360
DC58
102
}
102
{ACAD_REACTORS
330
DC56
102
}
330
DC56
100
AcDbMaterial
  1
ByLayer
 72
     0
 43
0.0208333333333333
 43
0.0
 43
0.0
 43
0.0
 43
0.0
 43
0.0208333333333333
 43
0.0
 43
0.0
 43
0.0
 43
0.0
 43
1.0
 43
0.0
 43
0.0
 43
0.0
 43
0.0
 43
1.0
 77
     0
 47
0.0208333333333333
 47
0.0
 47
0.0
 47
0.0
 47
0.0
 47
0.0208333333333333
 47
0.0
 47
0.0
 47
0.0
 47
0.0
 47
1.0
 47
0.0
 47
0.0
 47
0.0
 47
0.0
 47
1.0
171
     0
 49
0.0208333333333333
 49
0.0
 49
0.0
 49
0.0
 49
0.0
 49
0.0208333333333333
 49
0.0
 49
0.0
 49
0.0
 49
0.0
 49
1.0
 49
0.0
 49
0.0
 49
0.0
 49
0.0
 49
1.0
175
     0
142
0.0208333333333333
142
0.0
142
0.0
142
0.0
142
0.0
142
0.0208333333333333
142
0.0
142
0.0
142
0.0
142
0.0
142
1.0
142
0.0
142
0.0
142
0.0
142
0.0
142
1.0
179
     0
144
0.0208333333333333
144
0.0
144
0.0
144
0.0
144
0.0
144
0.0208333333333333
144
0.0
144
0.0
144
0.0
144
0.0
144
1.0
144
0.0
144
0.0
144
0.0
144
0.0
144
1.0
147
0.0208333333333333
147
0.0
147
0.0
147
0.0
147
0.0
147
0.0208333333333333
147
0.0
147
0.0
147
0.0
147
0.0
147
1.0
147
0.0
147
0.0
147
0.0
147
0.0
147
1.0
  0
MATERIAL
  5
DC67
102
{ACAD_XDICTIONARY
360
DC68
102
}
102
{ACAD_REACTORS
330
DC56
102
}
330
DC56
100
AcDbMaterial
  1
Global
 72
     0
 43
0.0208333333333333
 43
0.0
 43
0.0
 43
0.0
 43
0.0
 43
0.0208333333333333
 43
0.0
 43
0.0
 43
0.0
 43
0.0
 43
1.0
 43
0.0
 43
0.0
 43
0.0
 43
0.0
 43
1.0
 77
     0
 47
0.0208333333333333
 47
0.0
 47
0.0
 47
0.0
 47
0.0
 47
0.0208333333333333
 47
0.0
 47
0.0
 47
0.0
 47
0.0
 47
1.0
 47
0.0
 47
0.0
 47
0.0
 47
0.0
 47
1.0
171
     0
 49
0.0208333333333333
 49
0.0
 49
0.0
 49
0.0
 49
0.0
 49
0.0208333333333333
 49
0.0
 49
0.0
 49
0.0
 49
0.0
 49
1.0
 49
0.0
 49
0.0
 49
0.0
 49
0.0
 49
1.0
175
     0
142
0.0208333333333333
142
0.0
142
0.0
142
0.0
142
0.0
142
0.0208333333333333
142
0.0
142
0.0
142
0.0
142
0.0
142
1.0
142
0.0
142
0.0
142
0.0
142
0.0
142
1.0
179
     0
144
0.0208333333333333
144
0.0
144
0.0
144
0.0
144
0.0
144
0.0208333333333333
144
0.0
144
0.0
144
0.0
144
0.0
144
1.0
144
0.0
144
0.0
144
0.0
144
0.0
144
1.0
147
0.0208333333333333
147
0.0
147
0.0
147
0.0
147
0.0
147
0.0208333333333333
147
0.0
147
0.0
147
0.0
147
0.0
147
1.0
147
0.0
147
0.0
147
0.0
147
0.0
147
1.0
  0
MLEADERSTYLE
  5
DC9F
102
{ACAD_REACTORS
330
DC9E
102
}
330
DC9E
100
AcDbMLeaderStyle
179
     2
170
     2
171
     1
172
     0
 90
        2
 40
0.0
 41
0.0
173
     1
 91
-1056964608
340
11
 92
       -2
290
     1
 42
2.0
291
     1
 43
0.36
  3
Standard
 44
4.0
300

342
F
174
     1
178
     6
175
     1
176
     0
 93
-1056964608
 45
4.0
292
     0
297
     0
 46
4.0
 94
-1056964608
 47
1.0
 49
1.0
140
1.0
293
     1
141
0.0
294
     1
177
     0
142
1.0
295
     1
296
     0
143
0.125
271
     0
272
     9
273
     9
298
     1
  0
MLINESTYLE
  5
1B
102
{ACAD_REACTORS
330
1A
102
}
330
1A
100
AcDbMlineStyle
  2
STANDARD
 70
     0
  3

 62
   256
 51
90.0
 52
90.0
 71
     2
 49
0.5
 62
   256
  6
BYLAYER
 49
-0.5
 62
   256
  6
BYLAYER
  0
ACDBPLACEHOLDER
  5
DC55
102
{ACAD_REACTORS
330
DC54
102
}
330
DC54
  0
SCALE
  5
DC8D
102
{ACAD_REACTORS
330
DC8C
102
}
330
DC8C
100
AcDbScale
 70
     0
300
1:1
140
1.0
141
1.0
290
     1
  0
SCALE
  5
DC8E
102
{ACAD_REACTORS
330
DC8C
102
}
330
DC8C
100
AcDbScale
 70
     0
300
1:2
140
1.0
141
2.0
290
     0
  0
SCALE
  5
DC8F
102
{ACAD_REACTORS
330
DC8C
102
}
330
DC8C
100
AcDbScale
 70
     0
300
1:4
140
1.0
141
4.0
290
     0
  0
SCALE
  5
DC90
102
{ACAD_REACTORS
330
DC8C
102
}
330
DC8C
100
AcDbScale
 70
     0
300
1:5
140
1.0
141
5.0
290
     0
  0
SCALE
  5
DC91
102
{ACAD_REACTORS
330
DC8C
102
}
330
DC8C
100
AcDbScale
 70
     0
300
1:8
140
1.0
141
8.0
290
     0
  0
SCALE
  5
DC92
102
{ACAD_REACTORS
330
DC8C
102
}
330
DC8C
100
AcDbScale
 70
     0
300
1:10
140
1.0
141
10.0
290
     0
  0
SCALE
  5
DC93
102
{ACAD_REACTORS
330
DC8C
102
}
330
DC8C
100
AcDbScale
 70
     0
300
1:16
140
1.0
141
16.0
290
     0
  0
SCALE
  5
DC94
102
{ACAD_REACTORS
330
DC8C
102
}
330
DC8C
100
AcDbScale
 70
     0
300
1:20
140
1.0
141
20.0
290
     0
  0
SCALE
  5
DC95
102
{ACAD_REACTORS
330
DC8C
102
}
330
DC8C
100
AcDbScale
 70
     0
300
1:30
140
1.0
141
30.0
290
     0
  0
SCALE
  5
DC96
102
{ACAD_REACTORS
330
DC8C
102
}
330
DC8C
100
AcDbScale
 70
     0
300
1:40
140
1.0
141
40.0
290
     0
  0
SCALE
  5
DC97
102
{ACAD_REACTORS
330
DC8C
102
}
330
DC8C
100
AcDbScale
 70
     0
300
1:50
140
1.0
141
50.0
290
     0
  0
SCALE
  5
DC98
102
{ACAD_REACTORS
330
DC8C
102
}
330
DC8C
100
AcDbScale
 70
     0
300
1:100
140
1.0
141
100.0
290
     0
  0
SCALE
  5
DC99
102
{ACAD_REACTORS
330
DC8C
102
}
330
DC8C
100
AcDbScale
 70
     0
300
2:1
140
2.0
141
1.0
290
     0
  0
SCALE
  5
DC9A
102
{ACAD_REACTORS
330
DC8C
102
}
330
DC8C
100
AcDbScale
 70
     0
300
4:1
140
4.0
141
1.0
290
     0
  0
SCALE
  5
DC9B
102
{ACAD_REACTORS
330
DC8C
102
}
330
DC8C
100
AcDbScale
 70
     0
300
8:1
140
8.0
141
1.0
290
     0
  0
SCALE
  5
DC9C
102
{ACAD_REACTORS
330
DC8C
102
}
330
DC8C
100
AcDbScale
 70
     0
300
10:1
140
10.0
141
1.0
290
     0
  0
SCALE
  5
DC9D
102
{ACAD_REACTORS
330
DC8C
102
}
330
DC8C
100
AcDbScale
 70
     0
300
100:1
140
100.0
141
1.0
290
     0
  0
ACDBSECTIONVIEWSTYLE
  5
DD50
102
{ACAD_REACTORS
330
DCA0
102
}
330
DCA0
100
AcDbModelDocViewStyle
 70
     0
  3
Imperial24
290
     0
300
Imperial24
 90
        0
100
AcDbSectionViewStyle
 70
     0
 71
     0
 90
       78
 71
     1
340
F
 62
   256
 40
0.24
340
0
340
0
 62
   256
 40
0.24
300
I, O, Q, S, X, Z
 40
0.48
 90
        3
 40
0.18
 90
        1
 71
     2
340
13
 90
       25
 62
   256
340
13
 90
       50
 62
   256
 40
0.24
 40
0.0
 40
0.24
 71
     3
340
F
 62
   256
 40
0.24
 90
        1
 40
0.75
 90
        1
300
%<\AcVar ViewType \f "%tc1">% %<\AcVar ViewSectionStartId>%-%<\AcVar ViewSectionEndId>%\PSCALE %<\AcVar ViewScale \f "%sn">%
 71
     4
 62
   256
 62
   257
300
ANSI31
 40
1.0
 90
        0
290
     0
290
     0
 90
        6
 40
0.0
 40
1.570796326794896
 40
0.2617993877991494
 40
1.308996938995747
 40
-0.2617993877991494
 40
1.832595714594046
  0
ACDBSECTIONVIEWSTYLE
  5
DCA1
102
{ACAD_REACTORS
330
DCA0
102
}
330
DCA0
100
AcDbModelDocViewStyle
 70
     0
  3
Metric50
290
     1
300
Metric50
 90
        0
100
AcDbSectionViewStyle
 70
     0
 71
     0
 90
      102
 71
     1
340
F
 62
   256
 40
5.0
340
0
340
0
 62
   256
 40
5.0
300
I, O, Q, S, X, Z
 40
10.0
 90
        0
 40
2.5
 90
        0
 71
     2
340
13
 90
       25
 62
   256
340
13
 90
       50
 62
   256
 40
5.0
 40
2.5
 40
5.0
 71
     3
340
F
 62
   256
 40
5.0
 90
        0
 40
15.0
 90
        1
300
%<\AcVar ViewSectionStartId>%-%<\AcVar ViewSectionEndId>% (%<\AcVar ViewScale \f "%sn">%)
 71
     4
 62
   256
 62
   257
300
ANSI31
 40
1.0
 90
        0
290
     0
290
     0
 90
        6
 40
0.0
 40
1.570796326794896
 40
0.2617993877991494
 40
1.308996938995747
 40
-0.2617993877991494
 40
1.832595714594046
  0
TABLESTYLE
  5
DC8B
102
{ACAD_XDICTIONARY
360
E20C
102
}
102
{ACAD_REACTORS
330
DC8A
102
}
330
DC8A
100
AcDbTableStyle
280
     0
  3
Standard
 70
     0
 71
     0
 40
1.5
 41
1.5
280
     0
281
     0
  7
STANDARD
140
4.5
170
     2
 62
     0
 63
     7
283
     0
 90
      512
 91
        0
  1

274
    -2
284
     1
 64
     0
275
    -2
285
     1
 65
     0
276
    -2
286
     1
 66
     0
277
    -2
287
     1
 67
     0
278
    -2
288
     1
 68
     0
279
    -2
289
     1
 69
     0
  7
STANDARD
140
6.0
170
     5
 62
     0
 63
     7
283
     0
 90
      512
 91
        0
  1

274
    -2
284
     1
 64
     0
275
    -2
285
     1
 65
     0
276
    -2
286
     1
 66
     0
277
    -2
287
     1
 67
     0
278
    -2
288
     1
 68
     0
279
    -2
289
     1
 69
     0
  7
STANDARD
140
4.5
170
     5
 62
     0
 63
     7
283
     0
 90
      512
 91
        0
  1

274
    -2
284
     1
 64
     0
275
    -2
285
     1
 65
     0
276
    -2
286
     1
 66
     0
277
    -2
287
     1
 67
     0
278
    -2
288
     1
 68
     0
279
    -2
289
     1
 69
     0
  0
VISUALSTYLE
  5
DC75
102
{ACAD_REACTORS
330
DC6F
102
}
330
DC6F
100
AcDbVisualStyle
  2
2dWireframe
 70
     4
177
     3
291
     0
 70
    58
 90
        0
176
     1
 90
        2
176
     1
 90
        0
176
     1
 90
        0
176
     1
 40
0.6
176
     1
 40
30.0
176
     1
 62
     7
420
 16777215
176
     1
 90
        1
176
     1
 90
        4
176
     1
 62
     7
176
     1
 62
   257
176
     1
 90
        1
176
     1
 90
        1
176
     1
 40
1.0
176
     1
 90
        0
176
     1
 62
   257
176
     1
 40
1.0
176
     1
 90
        1
176
     1
 90
        6
176
     1
 90
        2
176
     1
 62
     7
176
     1
 90
        5
176
     1
 90
        0
176
     1
 90
        0
176
     1
290
     0
176
     1
 90
        1
176
     1
 40
0.0
176
     1
 90
        0
176
     1
290
     1
176
     1
290
     1
176
     1
290
     0
176
     1
290
     0
176
     1
290
     0
176
     1
290
     0
176
     1
290
     0
176
     1
290
     0
176
     1
290
     0
176
     1
 90
       50
176
     1
 40
0.0
176
     1
 40
1.0
176
     1
 90
        0
176
     1
 62
    18
420
        0
176
     1
 90
       50
176
     1
 90
        3
176
     1
 62
     5
420
      255
176
     1
290
     0
176
     1
 90
       50
176
     1
 90
       50
176
     1
 90
       50
176
     1
290
     0
176
     1
 90
       50
176
     1
 62
   256
176
     0
 40
1.0
176
     0
 90
        2
176
     1
  1
strokes_ogs.tif
176
     1
290
     0
176
     1
 40
1.0
176
     1
 40
1.0
176
     1
  0
VISUALSTYLE
  5
DC74
102
{ACAD_REACTORS
330
DC6F
102
}
330
DC6F
100
AcDbVisualStyle
  2
Basic
 70
     7
177
     3
291
     1
 70
    58
 90
        1
176
     1
 90
        0
176
     1
 90
        1
176
     1
 90
        0
176
     1
 40
0.6
176
     1
 40
30.0
176
     1
 62
     7
420
 16777215
176
     1
 90
        0
176
     1
 90
        4
176
     1
 62
     7
176
     1
 62
   257
176
     1
 90
        1
176
     1
 90
        1
176
     1
 40
1.0
176
     1
 90
        8
176
     1
 62
     7
176
     1
 40
1.0
176
     1
 90
        1
176
     1
 90
        6
176
     1
 90
        2
176
     1
 62
     7
176
     1
 90
        5
176
     1
 90
        0
176
     1
 90
        0
176
     1
290
     0
176
     1
 90
        1
176
     1
 40
0.0
176
     1
 90
        0
176
     1
290
     0
176
     1
290
     1
176
     1
290
     1
176
     1
290
     0
176
     1
290
     0
176
     1
290
     0
176
     1
290
     0
176
     1
290
     0
176
     1
290
     0
176
     1
 90
       50
176
     1
 40
0.0
176
     1
 40
1.0
176
     1
 90
        0
176
     1
 62
    18
420
        0
176
     1
 90
       50
176
     1
 90
        3
176
     1
 62
     5
420
      255
176
     1
290
     0
176
     1
 90
       50
176
     1
 90
       50
176
     1
 90
       50
176
     1
290
     0
176
     1
 90
       50
176
     1
 62
   256
176
     0
 40
1.0
176
     0
 90
        2
176
     1
  1
strokes_ogs.tif
176
     1
290
     0
176
     1
 40
1.0
176
     1
 40
1.0
176
     1
  0
VISUALSTYLE
  5
DC7B
102
{ACAD_REACTORS
330
DC6F
102
}
330
DC6F
100
AcDbVisualStyle
  2
Brighten
 70
    12
177
     3
291
     1
 70
    58
 90
        2
176
     1
 90
        2
176
     1
 90
        0
176
     1
 90
        0
176
     1
 40
0.6
176
     1
 40
30.0
176
     1
 62
     7
420
 16777215
176
     1
 90
        1
176
     1
 90
        4
176
     1
 62
     7
176
     1
 62
   257
176
     1
 90
        1
176
     1
 90
        1
176
     1
 40
1.0
176
     1
 90
        8
176
     1
 62
     7
176
     1
 40
1.0
176
     1
 90
        1
176
     1
 90
        6
176
     1
 90
        2
176
     1
 62
     7
176
     1
 90
        5
176
     1
 90
        0
176
     1
 90
        0
176
     1
290
     0
176
     1
 90
        1
176
     1
 40
50.0
176
     1
 90
        0
176
     1
290
     0
176
     1
290
     1
176
     1
290
     1
176
     1
290
     0
176
     1
290
     0
176
     1
290
     0
176
     1
290
     0
176
     1
290
     0
176
     1
290
     0
176
     1
 90
       50
176
     1
 40
0.0
176
     1
 40
1.0
176
     1
 90
        0
176
     1
 62
    18
420
        0
176
     1
 90
       50
176
     1
 90
        3
176
     1
 62
     5
420
      255
176
     1
290
     0
176
     1
 90
       50
176
     1
 90
       50
176
     1
 90
       50
176
     1
290
     0
176
     1
 90
       50
176
     1
 62
   256
176
     0
 40
1.0
176
     0
 90
        2
176
     1
  1
strokes_ogs.tif
176
     1
290
     0
176
     1
 40
1.0
176
     1
 40
1.0
176
     1
  0
VISUALSTYLE
  5
DC7F
102
{ACAD_REACTORS
330
DC6F
102
}
330
DC6F
100
AcDbVisualStyle
  2
ColorChange
 70
    16
177
     3
291
     1
 70
    58
 90
        2
176
     1
 90
        2
176
     1
 90
        3
176
     1
 90
        0
176
     1
 40
0.6
176
     1
 40
30.0
176
     1
 62
     8
420
  8421504
176
     1
 90
        1
176
     1
 90
        4
176
     1
 62
     7
176
     1
 62
   257
176
     1
 90
        1
176
     1
 90
        1
176
     1
 40
1.0
176
     1
 90
        8
176
     1
 62
     8
420
  8421504
176
     1
 40
1.0
176
     1
 90
        1
176
     1
 90
        6
176
     1
 90
        2
176
     1
 62
     7
176
     1
 90
        5
176
     1
 90
        0
176
     1
 90
        0
176
     1
290
     0
176
     1
 90
        1
176
     1
 40
0.0
176
     1
 90
        0
176
     1
290
     0
176
     1
290
     1
176
     1
290
     1
176
     1
290
     0
176
     1
290
     0
176
     1
290
     0
176
     1
290
     0
176
     1
290
     0
176
     1
290
     0
176
     1
 90
       50
176
     1
 40
0.0
176
     1
 40
1.0
176
     1
 90
        0
176
     1
 62
    18
420
        0
176
     1
 90
       50
176
     1
 90
        3
176
     1
 62
     5
420
      255
176
     1
290
     0
176
     1
 90
       50
176
     1
 90
       50
176
     1
 90
       50
176
     1
290
     0
176
     1
 90
       50
176
     1
 62
   256
176
     0
 40
1.0
176
     0
 90
        2
176
     1
  1
strokes_ogs.tif
176
     1
290
     0
176
     1
 40
1.0
176
     1
 40
1.0
176
     1
  0
VISUALSTYLE
  5
DC78
102
{ACAD_REACTORS
330
DC6F
102
}
330
DC6F
100
AcDbVisualStyle
  2
Conceptual
 70
     9
177
     3
291
     0
 70
    58
 90
        3
176
     1
 90
        2
176
     1
 90
        0
176
     1
 90
        0
176
     1
 40
0.6
176
     1
 40
30.0
176
     1
 62
     7
420
 16777215
176
     1
 90
        2
176
     1
 90
        2
176
     1
 62
     7
176
     1
 62
   257
176
     1
 90
        1
176
     1
 90
        1
176
     1
 40
179.0
176
     1
 90
        8
176
     1
 62
     7
176
     1
 40
1.0
176
     1
 90
        1
176
     1
 90
        6
176
     1
 90
        2
176
     1
 62
     7
176
     1
 90
        3
176
     1
 90
        0
176
     1
 90
        0
176
     1
290
     0
176
     1
 90
        1
176
     1
 40
0.0
176
     1
 90
        0
176
     1
290
     0
176
     1
290
     1
176
     1
290
     1
176
     1
290
     0
176
     1
290
     0
176
     1
290
     0
176
     1
290
     0
176
     1
290
     0
176
     1
290
     0
176
     1
 90
       50
176
     1
 40
0.0
176
     1
 40
1.0
176
     1
 90
        0
176
     1
 62
    18
420
        0
176
     1
 90
       50
176
     1
 90
        3
176
     1
 62
     5
420
      255
176
     1
290
     0
176
     1
 90
       50
176
     1
 90
       50
176
     1
 90
       50
176
     1
290
     0
176
     1
 90
       50
176
     1
 62
   256
176
     0
 40
1.0
176
     0
 90
        2
176
     1
  1
strokes_ogs.tif
176
     1
290
     0
176
     1
 40
1.0
176
     1
 40
1.0
176
     1
  0
VISUALSTYLE
  5
DC7A
102
{ACAD_REACTORS
330
DC6F
102
}
330
DC6F
100
AcDbVisualStyle
  2
Dim
 70
    11
177
     3
291
     1
 70
    58
 90
        2
176
     1
 90
        2
176
     1
 90
        0
176
     1
 90
        0
176
     1
 40
0.6
176
     1
 40
30.0
176
     1
 62
     7
420
 16777215
176
     1
 90
        1
176
     1
 90
        4
176
     1
 62
     7
176
     1
 62
   257
176
     1
 90
        1
176
     1
 90
        1
176
     1
 40
1.0
176
     1
 90
        8
176
     1
 62
     7
176
     1
 40
1.0
176
     1
 90
        1
176
     1
 90
        6
176
     1
 90
        2
176
     1
 62
     7
176
     1
 90
        5
176
     1
 90
        0
176
     1
 90
        0
176
     1
290
     0
176
     1
 90
        1
176
     1
 40
-50.0
176
     1
 90
        0
176
     1
290
     0
176
     1
290
     1
176
     1
290
     1
176
     1
290
     0
176
     1
290
     0
176
     1
290
     0
176
     1
290
     0
176
     1
290
     0
176
     1
290
     0
176
     1
 90
       50
176
     1
 40
0.0
176
     1
 40
1.0
176
     1
 90
        0
176
     1
 62
    18
420
        0
176
     1
 90
       50
176
     1
 90
        3
176
     1
 62
     5
420
      255
176
     1
290
     0
176
     1
 90
       50
176
     1
 90
       50
176
     1
 90
       50
176
     1
290
     0
176
     1
 90
       50
176
     1
 62
   256
176
     0
 40
1.0
176
     0
 90
        2
176
     1
  1
strokes_ogs.tif
176
     1
290
     0
176
     1
 40
1.0
176
     1
 40
1.0
176
     1
  0
VISUALSTYLE
  5
DC87
102
{ACAD_REACTORS
330
DC6F
102
}
330
DC6F
100
AcDbVisualStyle
  2
EdgeColorOff
 70
    22
177
     3
291
     1
 70
    58
 90
        2
176
     0
 90
        2
176
     0
 90
        0
176
     0
 90
        0
176
     0
 40
0.6
176
     0
 40
30.0
176
     0
 62
     7
420
 16777215
176
     0
 90
        1
176
     0
 90
        4
176
     0
 62
     7
176
     0
 62
   257
176
     0
 90
        1
176
     0
 90
        1
176
     0
 40
1.0
176
     0
 90
        8
176
     2
 62
     7
176
     0
 40
1.0
176
     0
 90
        1
176
     0
 90
        6
176
     0
 90
        2
176
     0
 62
     7
176
     0
 90
        5
176
     0
 90
        0
176
     0
 90
        0
176
     0
290
     0
176
     0
 90
        1
176
     0
 40
0.0
176
     0
 90
        0
176
     0
290
     0
176
     0
290
     1
176
     0
290
     1
176
     0
290
     0
176
     0
290
     0
176
     0
290
     0
176
     0
290
     0
176
     0
290
     0
176
     0
290
     0
176
     0
 90
       50
176
     0
 40
0.0
176
     0
 40
1.0
176
     0
 90
        0
176
     0
 62
    18
420
        0
176
     0
 90
       50
176
     0
 90
        3
176
     0
 62
     5
420
      255
176
     0
290
     0
176
     0
 90
       50
176
     0
 90
       50
176
     0
 90
       50
176
     0
290
     0
176
     0
 90
       50
176
     0
 62
   256
176
     0
 40
1.0
176
     0
 90
        2
176
     0
  1
strokes_ogs.tif
176
     0
290
     0
176
     0
 40
1.0
176
     0
 40
1.0
176
     0
  0
VISUALSTYLE
  5
DC7E
102
{ACAD_REACTORS
330
DC6F
102
}
330
DC6F
100
AcDbVisualStyle
  2
Facepattern
 70
    15
177
     3
291
     1
 70
    58
 90
        2
176
     1
 90
        2
176
     1
 90
        0
176
     1
 90
        0
176
     1
 40
0.6
176
     1
 40
30.0
176
     1
 62
     7
420
 16777215
176
     1
 90
        1
176
     1
 90
        4
176
     1
 62
     7
176
     1
 62
   257
176
     1
 90
        1
176
     1
 90
        1
176
     1
 40
1.0
176
     1
 90
        8
176
     1
 62
     7
176
     1
 40
1.0
176
     1
 90
        1
176
     1
 90
        6
176
     1
 90
        2
176
     1
 62
     7
176
     1
 90
        5
176
     1
 90
        0
176
     1
 90
        0
176
     1
290
     0
176
     1
 90
        1
176
     1
 40
0.0
176
     1
 90
        0
176
     1
290
     0
176
     1
290
     1
176
     1
290
     1
176
     1
290
     0
176
     1
290
     0
176
     1
290
     0
176
     1
290
     0
176
     1
290
     0
176
     1
290
     0
176
     1
 90
       50
176
     1
 40
0.0
176
     1
 40
1.0
176
     1
 90
        0
176
     1
 62
    18
420
        0
176
     1
 90
       50
176
     1
 90
        3
176
     1
 62
     5
420
      255
176
     1
290
     0
176
     1
 90
       50
176
     1
 90
       50
176
     1
 90
       50
176
     1
290
     0
176
     1
 90
       50
176
     1
 62
   256
176
     0
 40
1.0
176
     0
 90
        2
176
     1
  1
strokes_ogs.tif
176
     1
290
     0
176
     1
 40
1.0
176
     1
 40
1.0
176
     1
  0
VISUALSTYLE
  5
DC70
102
{ACAD_REACTORS
330
DC6F
102
}
330
DC6F
100
AcDbVisualStyle
  2
Flat
 70
     0
177
     3
291
     1
 70
    58
 90
        2
176
     1
 90
        1
176
     1
 90
        1
176
     1
 90
        2
176
     1
 40
0.6
176
     1
 40
30.0
176
     1
 62
     7
420
 16777215
176
     1
 90
        0
176
     1
 90
        0
176
     1
 62
     7
176
     1
 62
   257
176
     1
 90
        1
176
     1
 90
        1
176
     1
 40
1.0
176
     1
 90
        8
176
     1
 62
     7
176
     1
 40
1.0
176
     1
 90
        1
176
     1
 90
        6
176
     1
 90
        2
176
     1
 62
     7
176
     1
 90
        5
176
     1
 90
        0
176
     1
 90
        0
176
     1
290
     0
176
     1
 90
       13
176
     1
 40
0.0
176
     1
 90
        0
176
     1
290
     0
176
     1
290
     1
176
     1
290
     1
176
     1
290
     0
176
     1
290
     0
176
     1
290
     0
176
     1
290
     0
176
     1
290
     0
176
     1
290
     0
176
     1
 90
       50
176
     1
 40
0.0
176
     1
 40
1.0
176
     1
 90
        0
176
     1
 62
    18
420
        0
176
     1
 90
       50
176
     1
 90
        3
176
     1
 62
     5
420
      255
176
     1
290
     0
176
     1
 90
       50
176
     1
 90
       50
176
     1
 90
       50
176
     1
290
     0
176
     1
 90
       50
176
     1
 62
   256
176
     0
 40
1.0
176
     0
 90
        2
176
     1
  1
strokes_ogs.tif
176
     1
290
     0
176
     1
 40
1.0
176
     1
 40
1.0
176
     1
  0
VISUALSTYLE
  5
DC71
102
{ACAD_REACTORS
330
DC6F
102
}
330
DC6F
100
AcDbVisualStyle
  2
FlatWithEdges
 70
     1
177
     3
291
     1
 70
    58
 90
        2
176
     1
 90
        1
176
     1
 90
        1
176
     1
 90
        2
176
     1
 40
0.6
176
     1
 40
30.0
176
     1
 62
     7
420
 16777215
176
     1
 90
        1
176
     1
 90
        0
176
     1
 62
     7
176
     1
 62
   257
176
     1
 90
        1
176
     1
 90
        1
176
     1
 40
1.0
176
     1
 90
        0
176
     1
 62
   257
176
     1
 40
1.0
176
     1
 90
        1
176
     1
 90
        6
176
     1
 90
        2
176
     1
 62
     7
176
     1
 90
        5
176
     1
 90
        0
176
     1
 90
        0
176
     1
290
     0
176
     1
 90
       13
176
     1
 40
0.0
176
     1
 90
        0
176
     1
290
     0
176
     1
290
     1
176
     1
290
     1
176
     1
290
     0
176
     1
290
     0
176
     1
290
     0
176
     1
290
     0
176
     1
290
     0
176
     1
290
     0
176
     1
 90
       50
176
     1
 40
0.0
176
     1
 40
1.0
176
     1
 90
        0
176
     1
 62
    18
420
        0
176
     1
 90
       50
176
     1
 90
        3
176
     1
 62
     5
420
      255
176
     1
290
     0
176
     1
 90
       50
176
     1
 90
       50
176
     1
 90
       50
176
     1
290
     0
176
     1
 90
       50
176
     1
 62
   256
176
     0
 40
1.0
176
     0
 90
        2
176
     1
  1
strokes_ogs.tif
176
     1
290
     0
176
     1
 40
1.0
176
     1
 40
1.0
176
     1
  0
VISUALSTYLE
  5
DC72
102
{ACAD_REACTORS
330
DC6F
102
}
330
DC6F
100
AcDbVisualStyle
  2
Gouraud
 70
     2
177
     3
291
     1
 70
    58
 90
        2
176
     1
 90
        2
176
     1
 90
        1
176
     1
 90
        2
176
     1
 40
0.6
176
     1
 40
30.0
176
     1
 62
     7
420
 16777215
176
     1
 90
        0
176
     1
 90
        0
176
     1
 62
     7
176
     1
 62
   257
176
     1
 90
        1
176
     1
 90
        1
176
     1
 40
1.0
176
     1
 90
        0
176
     1
 62
     7
176
     1
 40
1.0
176
     1
 90
        1
176
     1
 90
        6
176
     1
 90
        2
176
     1
 62
     7
176
     1
 90
        5
176
     1
 90
        0
176
     1
 90
        0
176
     1
290
     0
176
     1
 90
       13
176
     1
 40
0.0
176
     1
 90
        0
176
     1
290
     0
176
     1
290
     1
176
     1
290
     1
176
     1
290
     0
176
     1
290
     0
176
     1
290
     0
176
     1
290
     0
176
     1
290
     0
176
     1
290
     0
176
     1
 90
       50
176
     1
 40
0.0
176
     1
 40
1.0
176
     1
 90
        0
176
     1
 62
    18
420
        0
176
     1
 90
       50
176
     1
 90
        3
176
     1
 62
     5
420
      255
176
     1
290
     0
176
     1
 90
       50
176
     1
 90
       50
176
     1
 90
       50
176
     1
290
     0
176
     1
 90
       50
176
     1
 62
   256
176
     0
 40
1.0
176
     0
 90
        2
176
     1
  1
strokes_ogs.tif
176
     1
290
     0
176
     1
 40
1.0
176
     1
 40
1.0
176
     1
  0
VISUALSTYLE
  5
DC73
102
{ACAD_REACTORS
330
DC6F
102
}
330
DC6F
100
AcDbVisualStyle
  2
GouraudWithEdges
 70
     3
177
     3
291
     1
 70
    58
 90
        2
176
     1
 90
        2
176
     1
 90
        1
176
     1
 90
        2
176
     1
 40
0.6
176
     1
 40
30.0
176
     1
 62
     7
420
 16777215
176
     1
 90
        1
176
     1
 90
        0
176
     1
 62
     7
176
     1
 62
   257
176
     1
 90
        1
176
     1
 90
        1
176
     1
 40
1.0
176
     1
 90
        0
176
     1
 62
   257
176
     1
 40
1.0
176
     1
 90
        1
176
     1
 90
        6
176
     1
 90
        2
176
     1
 62
     7
176
     1
 90
        5
176
     1
 90
        0
176
     1
 90
        0
176
     1
290
     0
176
     1
 90
       13
176
     1
 40
0.0
176
     1
 90
        0
176
     1
290
     0
176
     1
290
     1
176
     1
290
     1
176
     1
290
     0
176
     1
290
     0
176
     1
290
     0
176
     1
290
     0
176
     1
290
     0
176
     1
290
     0
176
     1
 90
       50
176
     1
 40
0.0
176
     1
 40
1.0
176
     1
 90
        0
176
     1
 62
    18
420
        0
176
     1
 90
       50
176
     1
 90
        3
176
     1
 62
     5
420
      255
176
     1
290
     0
176
     1
 90
       50
176
     1
 90
       50
176
     1
 90
       50
176
     1
290
     0
176
     1
 90
       50
176
     1
 62
   256
176
     0
 40
1.0
176
     0
 90
        2
176
     1
  1
strokes_ogs.tif
176
     1
290
     0
176
     1
 40
1.0
176
     1
 40
1.0
176
     1
  0
VISUALSTYLE
  5
DC77
102
{ACAD_REACTORS
330
DC6F
102
}
330
DC6F
100
AcDbVisualStyle
  2
Hidden
 70
     6
177
     3
291
     0
 70
    58
 90
        1
176
     1
 90
        2
176
     1
 90
        2
176
     1
 90
        0
176
     1
 40
0.6
176
     1
 40
30.0
176
     1
 62
     7
420
 16777215
176
     1
 90
        2
176
     1
 90
        2
176
     1
 62
     7
176
     1
 62
   257
176
     1
 90
        2
176
     1
 90
        1
176
     1
 40
40.0
176
     1
 90
        0
176
     1
 62
   257
176
     1
 40
1.0
176
     1
 90
        1
176
     1
 90
        6
176
     1
 90
        2
176
     1
 62
     7
176
     1
 90
        3
176
     1
 90
        0
176
     1
 90
        0
176
     1
290
     0
176
     1
 90
        1
176
     1
 40
0.0
176
     1
 90
        0
176
     1
290
     0
176
     1
290
     1
176
     1
290
     1
176
     1
290
     0
176
     1
290
     0
176
     1
290
     0
176
     1
290
     0
176
     1
290
     0
176
     1
290
     0
176
     1
 90
       50
176
     1
 40
0.0
176
     1
 40
1.0
176
     1
 90
        0
176
     1
 62
    18
420
        0
176
     1
 90
       50
176
     1
 90
        3
176
     1
 62
     5
420
      255
176
     1
290
     0
176
     1
 90
       50
176
     1
 90
       50
176
     1
 90
       50
176
     1
290
     0
176
     1
 90
       50
176
     1
 62
   256
176
     0
 40
1.0
176
     0
 90
        2
176
     1
  1
strokes_ogs.tif
176
     1
290
     0
176
     1
 40
1.0
176
     1
 40
1.0
176
     1
  0
VISUALSTYLE
  5
DC85
102
{ACAD_REACTORS
330
DC6F
102
}
330
DC6F
100
AcDbVisualStyle
  2
JitterOff
 70
    20
177
     3
291
     1
 70
    58
 90
        2
176
     0
 90
        2
176
     0
 90
        0
176
     0
 90
        0
176
     0
 40
0.6
176
     0
 40
30.0
176
     0
 62
     7
420
 16777215
176
     0
 90
        1
176
     0
 90
        4
176
     0
 62
     7
176
     0
 62
   257
176
     0
 90
        1
176
     0
 90
        1
176
     0
 40
1.0
176
     0
 90
       10
176
     2
 62
     7
176
     0
 40
1.0
176
     0
 90
        1
176
     0
 90
        6
176
     0
 90
        2
176
     0
 62
     7
176
     0
 90
        5
176
     0
 90
        0
176
     0
 90
        0
176
     0
290
     0
176
     0
 90
        1
176
     0
 40
0.0
176
     0
 90
        0
176
     0
290
     0
176
     0
290
     1
176
     0
290
     1
176
     0
290
     0
176
     0
290
     0
176
     0
290
     0
176
     0
290
     0
176
     0
290
     0
176
     0
290
     0
176
     0
 90
       50
176
     0
 40
0.0
176
     0
 40
1.0
176
     0
 90
        0
176
     0
 62
    18
420
        0
176
     0
 90
       50
176
     0
 90
        3
176
     0
 62
     5
420
      255
176
     0
290
     0
176
     0
 90
       50
176
     0
 90
       50
176
     0
 90
       50
176
     0
290
     0
176
     0
 90
       50
176
     0
 62
   256
176
     0
 40
1.0
176
     0
 90
        2
176
     0
  1
strokes_ogs.tif
176
     0
290
     0
176
     0
 40
1.0
176
     0
 40
1.0
176
     0
  0
VISUALSTYLE
  5
DC7D
102
{ACAD_REACTORS
330
DC6F
102
}
330
DC6F
100
AcDbVisualStyle
  2
Linepattern
 70
    14
177
     3
291
     1
 70
    58
 90
        2
176
     1
 90
        2
176
     1
 90
        0
176
     1
 90
        0
176
     1
 40
0.6
176
     1
 40
30.0
176
     1
 62
     7
420
 16777215
176
     1
 90
        1
176
     1
 90
        4
176
     1
 62
     7
176
     1
 62
   257
176
     1
 90
        7
176
     1
 90
        7
176
     1
 40
1.0
176
     1
 90
        8
176
     1
 62
     7
176
     1
 40
1.0
176
     1
 90
        1
176
     1
 90
        6
176
     1
 90
        2
176
     1
 62
     7
176
     1
 90
        5
176
     1
 90
        0
176
     1
 90
        0
176
     1
290
     0
176
     1
 90
        1
176
     1
 40
0.0
176
     1
 90
        0
176
     1
290
     0
176
     1
290
     1
176
     1
290
     1
176
     1
290
     0
176
     1
290
     0
176
     1
290
     0
176
     1
290
     0
176
     1
290
     0
176
     1
290
     0
176
     1
 90
       50
176
     1
 40
0.0
176
     1
 40
1.0
176
     1
 90
        0
176
     1
 62
    18
420
        0
176
     1
 90
       50
176
     1
 90
        3
176
     1
 62
     5
420
      255
176
     1
290
     0
176
     1
 90
       50
176
     1
 90
       50
176
     1
 90
       50
176
     1
290
     0
176
     1
 90
       50
176
     1
 62
   256
176
     0
 40
1.0
176
     0
 90
        2
176
     1
  1
strokes_ogs.tif
176
     1
290
     0
176
     1
 40
1.0
176
     1
 40
1.0
176
     1
  0
VISUALSTYLE
  5
DC86
102
{ACAD_REACTORS
330
DC6F
102
}
330
DC6F
100
AcDbVisualStyle
  2
OverhangOff
 70
    21
177
     3
291
     1
 70
    58
 90
        2
176
     0
 90
        2
176
     0
 90
        0
176
     0
 90
        0
176
     0
 40
0.6
176
     0
 40
30.0
176
     0
 62
     7
420
 16777215
176
     0
 90
        1
176
     0
 90
        4
176
     0
 62
     7
176
     0
 62
   257
176
     0
 90
        1
176
     0
 90
        1
176
     0
 40
1.0
176
     0
 90
        9
176
     2
 62
     7
176
     0
 40
1.0
176
     0
 90
        1
176
     0
 90
        6
176
     0
 90
        2
176
     0
 62
     7
176
     0
 90
        5
176
     0
 90
        0
176
     0
 90
        0
176
     0
290
     0
176
     0
 90
        1
176
     0
 40
0.0
176
     0
 90
        0
176
     0
290
     0
176
     0
290
     1
176
     0
290
     1
176
     0
290
     0
176
     0
290
     0
176
     0
290
     0
176
     0
290
     0
176
     0
290
     0
176
     0
290
     0
176
     0
 90
       50
176
     0
 40
0.0
176
     0
 40
1.0
176
     0
 90
        0
176
     0
 62
    18
420
        0
176
     0
 90
       50
176
     0
 90
        3
176
     0
 62
     5
420
      255
176
     0
290
     0
176
     0
 90
       50
176
     0
 90
       50
176
     0
 90
       50
176
     0
290
     0
176
     0
 90
       50
176
     0
 62
   256
176
     0
 40
1.0
176
     0
 90
        2
176
     0
  1
strokes_ogs.tif
176
     0
290
     0
176
     0
 40
1.0
176
     0
 40
1.0
176
     0
  0
VISUALSTYLE
  5
DC79
102
{ACAD_REACTORS
330
DC6F
102
}
330
DC6F
100
AcDbVisualStyle
  2
Realistic
 70
     8
177
     3
291
     0
 70
    58
 90
        2
176
     1
 90
        3
176
     1
 90
        0
176
     1
 90
        2
176
     1
 40
0.6
176
     1
 40
30.0
176
     1
 62
     7
420
 16777215
176
     1
 90
        0
176
     1
 90
        0
176
     1
 62
     7
176
     1
 62
   257
176
     1
 90
        1
176
     1
 90
        1
176
     1
 40
1.0
176
     1
 90
        8
176
     1
 62
   257
176
     1
 40
1.0
176
     1
 90
        1
176
     1
 90
        6
176
     1
 90
        2
176
     1
 62
     7
176
     1
 90
        3
176
     1
 90
        0
176
     1
 90
        0
176
     1
290
     0
176
     1
 90
       13
176
     1
 40
0.0
176
     1
 90
        0
176
     1
290
     0
176
     1
290
     1
176
     1
290
     1
176
     1
290
     0
176
     1
290
     0
176
     1
290
     0
176
     1
290
     0
176
     1
290
     0
176
     1
290
     0
176
     1
 90
       50
176
     1
 40
0.0
176
     1
 40
1.0
176
     1
 90
        0
176
     1
 62
    18
420
        0
176
     1
 90
       50
176
     1
 90
        3
176
     1
 62
     5
420
      255
176
     1
290
     0
176
     1
 90
       50
176
     1
 90
       50
176
     1
 90
       50
176
     1
290
     0
176
     1
 90
       50
176
     1
 62
   256
176
     0
 40
1.0
176
     0
 90
        2
176
     1
  1
strokes_ogs.tif
176
     1
290
     0
176
     1
 40
1.0
176
     1
 40
1.0
176
     1
  0
VISUALSTYLE
  5
DC84
102
{ACAD_REACTORS
330
DC6F
102
}
330
DC6F
100
AcDbVisualStyle
  2
Shaded
 70
    27
177
     3
291
     0
 70
    58
 90
        2
176
     1
 90
        2
176
     1
 90
        1
176
     1
 90
        2
176
     1
 40
0.6
176
     1
 40
30.0
176
     1
 62
     7
420
 16777215
176
     1
 90
        0
176
     1
 90
        4
176
     1
 62
     7
176
     1
 62
   257
176
     1
 90
        1
176
     1
 90
        1
176
     1
 40
1.0
176
     1
 90
        8
176
     1
 62
   257
176
     1
 40
1.0
176
     1
 90
        1
176
     1
 90
        6
176
     1
 90
        2
176
     1
 62
     8
420
  7895160
176
     1
 90
        3
176
     1
 90
        0
176
     1
 90
        0
176
     1
290
     0
176
     1
 90
        5
176
     1
 40
0.0
176
     1
 90
        0
176
     1
290
     0
176
     1
290
     1
176
     1
290
     1
176
     1
290
     0
176
     1
290
     0
176
     1
290
     0
176
     1
290
     0
176
     1
290
     0
176
     1
290
     0
176
     1
 90
       50
176
     1
 40
0.0
176
     1
 40
1.0
176
     1
 90
        0
176
     1
 62
    18
420
        0
176
     1
 90
       50
176
     1
 90
        3
176
     1
 62
     5
420
      255
176
     1
290
     0
176
     1
 90
       50
176
     1
 90
       50
176
     1
 90
       50
176
     1
290
     0
176
     1
 90
       50
176
     1
 62
   256
176
     0
 40
1.0
176
     0
 90
        2
176
     1
  1
strokes_ogs.tif
176
     1
290
     0
176
     1
 40
1.0
176
     1
 40
1.0
176
     1
  0
VISUALSTYLE
  5
DC83
102
{ACAD_REACTORS
330
DC6F
102
}
330
DC6F
100
AcDbVisualStyle
  2
Shaded with edges
 70
    26
177
     3
291
     0
 70
    58
 90
        2
176
     1
 90
        2
176
     1
 90
        1
176
     1
 90
        2
176
     1
 40
0.6
176
     1
 40
30.0
176
     1
 62
     7
420
 16777215
176
     1
 90
        1
176
     1
 90
        2
176
     1
 62
     7
176
     1
 62
   257
176
     1
 90
        2
176
     1
 90
        1
176
     1
 40
1.0
176
     1
 90
        8
176
     1
 62
   257
176
     1
 40
1.0
176
     1
 90
        1
176
     1
 90
        6
176
     1
 90
        2
176
     1
 62
     7
176
     1
 90
        3
176
     1
 90
        0
176
     1
 90
        0
176
     1
290
     0
176
     1
 90
        5
176
     1
 40
0.0
176
     1
 90
        0
176
     1
290
     0
176
     1
290
     1
176
     1
290
     1
176
     1
290
     0
176
     1
290
     0
176
     1
290
     0
176
     1
290
     0
176
     1
290
     0
176
     1
290
     0
176
     1
 90
       50
176
     1
 40
0.0
176
     1
 40
1.0
176
     1
 90
        0
176
     1
 62
    18
420
        0
176
     1
 90
       50
176
     1
 90
        3
176
     1
 62
     5
420
      255
176
     1
290
     0
176
     1
 90
       50
176
     1
 90
       50
176
     1
 90
       50
176
     1
290
     0
176
     1
 90
       50
176
     1
 62
   256
176
     0
 40
1.0
176
     0
 90
        2
176
     1
  1
strokes_ogs.tif
176
     1
290
     0
176
     1
 40
1.0
176
     1
 40
1.0
176
     1
  0
VISUALSTYLE
  5
DC80
102
{ACAD_REACTORS
330
DC6F
102
}
330
DC6F
100
AcDbVisualStyle
  2
Shades of Gray
 70
    23
177
     3
291
     0
 70
    58
 90
        2
176
     1
 90
        2
176
     1
 90
        3
176
     1
 90
        0
176
     1
 40
0.6
176
     1
 40
30.0
176
     1
 62
     7
420
 16777215
176
     1
 90
        2
176
     1
 90
        2
176
     1
 62
     7
176
     1
 62
     7
176
     1
 90
        1
176
     1
 90
        1
176
     1
 40
40.0
176
     1
 90
        8
176
     1
 62
     7
176
     1
 40
1.0
176
     1
 90
        1
176
     1
 90
        6
176
     1
 90
        2
176
     1
 62
     7
176
     1
 90
        3
176
     1
 90
        0
176
     1
 90
        0
176
     1
290
     0
176
     1
 90
        1
176
     1
 40
0.0
176
     1
 90
        0
176
     1
290
     0
176
     1
290
     1
176
     1
290
     1
176
     1
290
     0
176
     1
290
     0
176
     1
290
     0
176
     1
290
     0
176
     1
290
     0
176
     1
290
     0
176
     1
 90
       50
176
     1
 40
0.0
176
     1
 40
1.0
176
     1
 90
        0
176
     1
 62
    18
420
        0
176
     1
 90
       50
176
     1
 90
        3
176
     1
 62
     5
420
      255
176
     1
290
     0
176
     1
 90
       50
176
     1
 90
       50
176
     1
 90
       50
176
     1
290
     0
176
     1
 90
       50
176
     1
 62
   256
176
     0
 40
1.0
176
     0
 90
        2
176
     1
  1
strokes_ogs.tif
176
     1
290
     0
176
     1
 40
1.0
176
     1
 40
1.0
176
     1
  0
VISUALSTYLE
  5
DC81
102
{ACAD_REACTORS
330
DC6F
102
}
330
DC6F
100
AcDbVisualStyle
  2
Sketchy
 70
    24
177
     3
291
     0
 70
    58
 90
        1
176
     1
 90
        2
176
     1
 90
        2
176
     1
 90
        0
176
     1
 40
0.6
176
     1
 40
30.0
176
     1
 62
     7
420
 16777215
176
     1
 90
        2
176
     1
 90
        2
176
     1
 62
     7
176
     1
 62
     7
176
     1
 90
        1
176
     1
 90
        1
176
     1
 40
40.0
176
     1
 90
       11
176
     1
 62
     7
176
     1
 40
1.0
176
     1
 90
        1
176
     1
 90
        6
176
     1
 90
        2
176
     1
 62
     7
176
     1
 90
        6
176
     1
 90
        0
176
     1
 90
        0
176
     1
290
     0
176
     1
 90
        1
176
     1
 40
0.0
176
     1
 90
        0
176
     1
290
     0
176
     1
290
     1
176
     1
290
     1
176
     1
290
     0
176
     1
290
     0
176
     1
290
     0
176
     1
290
     0
176
     1
290
     0
176
     1
290
     0
176
     1
 90
       50
176
     1
 40
0.0
176
     1
 40
1.0
176
     1
 90
        0
176
     1
 62
    18
420
        0
176
     1
 90
       50
176
     1
 90
        3
176
     1
 62
     5
420
      255
176
     1
290
     0
176
     1
 90
       50
176
     1
 90
       50
176
     1
 90
       50
176
     1
290
     0
176
     1
 90
       50
176
     1
 62
   256
176
     0
 40
1.0
176
     0
 90
        2
176
     1
  1
strokes_ogs.tif
176
     1
290
     0
176
     1
 40
1.0
176
     1
 40
1.0
176
     1
  0
VISUALSTYLE
  5
DC7C
102
{ACAD_REACTORS
330
DC6F
102
}
330
DC6F
100
AcDbVisualStyle
  2
Thicken
 70
    13
177
     3
291
     1
 70
    58
 90
        2
176
     1
 90
        2
176
     1
 90
        0
176
     1
 90
        0
176
     1
 40
0.6
176
     1
 40
30.0
176
     1
 62
     7
420
 16777215
176
     1
 90
        1
176
     1
 90
        4
176
     1
 62
     7
176
     1
 62
   257
176
     1
 90
        1
176
     1
 90
        1
176
     1
 40
1.0
176
     1
 90
       12
176
     1
 62
     7
176
     1
 40
1.0
176
     1
 90
        1
176
     1
 90
        6
176
     1
 90
        2
176
     1
 62
     7
176
     1
 90
        5
176
     1
 90
        0
176
     1
 90
        0
176
     1
290
     0
176
     1
 90
        1
176
     1
 40
0.0
176
     1
 90
        0
176
     1
290
     0
176
     1
290
     1
176
     1
290
     1
176
     1
290
     0
176
     1
290
     0
176
     1
290
     0
176
     1
290
     0
176
     1
290
     0
176
     1
290
     0
176
     1
 90
       50
176
     1
 40
0.0
176
     1
 40
1.0
176
     1
 90
        0
176
     1
 62
    18
420
        0
176
     1
 90
       50
176
     1
 90
        3
176
     1
 62
     5
420
      255
176
     1
290
     0
176
     1
 90
       50
176
     1
 90
       50
176
     1
 90
       50
176
     1
290
     0
176
     1
 90
       50
176
     1
 62
   256
176
     0
 40
1.0
176
     0
 90
        2
176
     1
  1
strokes_ogs.tif
176
     1
290
     0
176
     1
 40
1.0
176
     1
 40
1.0
176
     1
  0
VISUALSTYLE
  5
DC76
102
{ACAD_REACTORS
330
DC6F
102
}
330
DC6F
100
AcDbVisualStyle
  2
Wireframe
 70
     5
177
     3
291
     0
 70
    58
 90
        0
176
     1
 90
        2
176
     1
 90
        0
176
     1
 90
        0
176
     1
 40
0.6
176
     1
 40
30.0
176
     1
 62
     7
420
 16777215
176
     1
 90
        1
176
     1
 90
        4
176
     1
 62
     7
176
     1
 62
   257
176
     1
 90
        1
176
     1
 90
        1
176
     1
 40
1.0
176
     1
 90
        0
176
     1
 62
   257
176
     1
 40
1.0
176
     1
 90
        1
176
     1
 90
        6
176
     1
 90
        2
176
     1
 62
     7
176
     1
 90
        3
176
     1
 90
        0
176
     1
 90
        0
176
     1
290
     0
176
     1
 90
        1
176
     1
 40
0.0
176
     1
 90
        0
176
     1
290
     0
176
     1
290
     1
176
     1
290
     1
176
     1
290
     0
176
     1
290
     0
176
     1
290
     0
176
     1
290
     0
176
     1
290
     0
176
     1
290
     0
176
     1
 90
       50
176
     1
 40
0.0
176
     1
 40
1.0
176
     1
 90
        0
176
     1
 62
    18
420
        0
176
     1
 90
       50
176
     1
 90
        3
176
     1
 62
     5
420
      255
176
     1
290
     0
176
     1
 90
       50
176
     1
 90
       50
176
     1
 90
       50
176
     1
290
     0
176
     1
 90
       50
176
     1
 62
   256
176
     0
 40
1.0
176
     0
 90
        2
176
     1
  1
strokes_ogs.tif
176
     1
290
     0
176
     1
 40
1.0
176
     1
 40
1.0
176
     1
  0
VISUALSTYLE
  5
DC82
102
{ACAD_REACTORS
330
DC6F
102
}
330
DC6F
100
AcDbVisualStyle
  2
X-Ray
 70
    25
177
     3
291
     0
 70
    58
 90
        2
176
     1
 90
        2
176
     1
 90
        1
176
     1
 90
        1
176
     1
 40
0.5
176
     1
 40
30.0
176
     1
 62
     7
420
 16777215
176
     1
 90
        1
176
     1
 90
        0
176
     1
 62
     7
176
     1
 62
   257
176
     1
 90
        1
176
     1
 90
        1
176
     1
 40
1.0
176
     1
 90
        8
176
     1
 62
     7
176
     1
 40
1.0
176
     1
 90
        1
176
     1
 90
        6
176
     1
 90
        2
176
     1
 62
     7
176
     1
 90
        3
176
     1
 90
        0
176
     1
 90
        0
176
     1
290
     0
176
     1
 90
       13
176
     1
 40
0.0
176
     1
 90
        0
176
     1
290
     0
176
     1
290
     1
176
     1
290
     1
176
     1
290
     0
176
     1
290
     0
176
     1
290
     0
176
     1
290
     0
176
     1
290
     0
176
     1
290
     0
176
     1
 90
       50
176
     1
 40
0.0
176
     1
 40
1.0
176
     1
 90
        0
176
     1
 62
    18
420
        0
176
     1
 90
       50
176
     1
 90
        3
176
     1
 62
     5
420
      255
176
     1
290
     0
176
     1
 90
       50
176
     1
 90
       50
176
     1
 90
       50
176
     1
290
     0
176
     1
 90
       50
176
     1
 62
   256
176
     0
 40
1.0
176
     0
 90
        2
176
     1
  1
strokes_ogs.tif
176
     1
290
     0
176
     1
 40
1.0
176
     1
 40
1.0
176
     1
  0
DICTIONARYVAR
  5
E208
102
{ACAD_REACTORS
330
51
102
}
330
51
100
DictionaryVariables
280
     0
  1
1:1
  0
DICTIONARYVAR
  5
E204
102
{ACAD_REACTORS
330
51
102
}
330
51
100
DictionaryVariables
280
     0
  1
STANDARD
  0
DICTIONARYVAR
  5
E203
102
{ACAD_REACTORS
330
51
102
}
330
51
100
DictionaryVariables
280
     0
  1
STANDARD
  0
DICTIONARYVAR
  5
E205
102
{ACAD_REACTORS
330
51
102
}
330
51
100
DictionaryVariables
280
     0
  1
Metric50
  0
DICTIONARYVAR
  5
E206
102
{ACAD_REACTORS
330
51
102
}
330
51
100
DictionaryVariables
280
     0
  1
Metric50
  0
DICTIONARYVAR
  5
52
102
{ACAD_REACTORS
330
51
102
}
330
51
100
DictionaryVariables
280
     0
  1
0
  0
DICTIONARYVAR
  5
E20A
102
{ACAD_REACTORS
330
51
102
}
330
51
100
DictionaryVariables
280
     0
  1
1
  0
DICTIONARYVAR
  5
E20B
102
{ACAD_REACTORS
330
51
102
}
330
51
100
DictionaryVariables
280
     0
  1
15
  0
DICTIONARYVAR
  5
E209
102
{ACAD_REACTORS
330
51
102
}
330
51
100
DictionaryVariables
280
     0
  1
0
  0
DICTIONARYVAR
  5
E207
102
{ACAD_REACTORS
330
51
102
}
330
51
100
DictionaryVariables
280
     0
  1
0
  0
DICTIONARYVAR
  5
D1FE
102
{ACAD_REACTORS
330
51
102
}
330
51
100
DictionaryVariables
280
     0
  1
96
  0
DICTIONARY
  5
DC60
330
DC5F
100
AcDbDictionary
280
     1
281
     1
  3
BUMPTILE
360
DC62
  3
DIFFUSETILE
360
DC61
  3
OPACITYTILE
360
DC65
  3
REFLECTIONTILE
360
DC64
  3
REFRACTIONTILE
360
DC66
  3
SPECULARTILE
360
DC63
  0
DICTIONARY
  5
DC58
330
DC57
100
AcDbDictionary
280
     1
281
     1
  3
BUMPTILE
360
DC5A
  3
DIFFUSETILE
360
DC59
  3
OPACITYTILE
360
DC5D
  3
REFLECTIONTILE
360
DC5C
  3
REFRACTIONTILE
360
DC5E
  3
SPECULARTILE
360
DC5B
  0
DICTIONARY
  5
DC68
330
DC67
100
AcDbDictionary
280
     1
281
     1
  3
BUMPTILE
360
DC6A
  3
DIFFUSETILE
360
DC69
  3
OPACITYTILE
360
DC6D
  3
REFLECTIONTILE
360
DC6C
  3
REFRACTIONTILE
360
DC6E
  3
SPECULARTILE
360
DC6B
  0
DICTIONARY
  5
E20C
330
DC8B
100
AcDbDictionary
280
     1
281
     1
  3
ACAD_ROUNDTRIP_2008_TABLESTYLE_CELLSTYLEMAP
360
E20D
  0
XRECORD
  5
DC62
102
{ACAD_REACTORS
330
DC60
102
}
330
DC60
100
AcDbXrecord
280
     1
270
     1
271
     1
  0
XRECORD
  5
DC61
102
{ACAD_REACTORS
330
DC60
102
}
330
DC60
100
AcDbXrecord
280
     1
270
     1
271
     1
  0
XRECORD
  5
DC65
102
{ACAD_REACTORS
330
DC60
102
}
330
DC60
100
AcDbXrecord
280
     1
270
     1
271
     1
  0
XRECORD
  5
DC64
102
{ACAD_REACTORS
330
DC60
102
}
330
DC60
100
AcDbXrecord
280
     1
270
     1
271
     1
  0
XRECORD
  5
DC66
102
{ACAD_REACTORS
330
DC60
102
}
330
DC60
100
AcDbXrecord
280
     1
270
     1
271
     1
  0
XRECORD
  5
DC63
102
{ACAD_REACTORS
330
DC60
102
}
330
DC60
100
AcDbXrecord
280
     1
270
     1
271
     1
  0
XRECORD
  5
DC5A
102
{ACAD_REACTORS
330
DC58
102
}
330
DC58
100
AcDbXrecord
280
     1
270
     1
271
     1
  0
XRECORD
  5
DC59
102
{ACAD_REACTORS
330
DC58
102
}
330
DC58
100
AcDbXrecord
280
     1
270
     1
271
     1
  0
XRECORD
  5
DC5D
102
{ACAD_REACTORS
330
DC58
102
}
330
DC58
100
AcDbXrecord
280
     1
270
     1
271
     1
  0
XRECORD
  5
DC5C
102
{ACAD_REACTORS
330
DC58
102
}
330
DC58
100
AcDbXrecord
280
     1
270
     1
271
     1
  0
XRECORD
  5
DC5E
102
{ACAD_REACTORS
330
DC58
102
}
330
DC58
100
AcDbXrecord
280
     1
270
     1
271
     1
  0
XRECORD
  5
DC5B
102
{ACAD_REACTORS
330
DC58
102
}
330
DC58
100
AcDbXrecord
280
     1
270
     1
271
     1
  0
XRECORD
  5
DC6A
102
{ACAD_REACTORS
330
DC68
102
}
330
DC68
100
AcDbXrecord
280
     1
270
     1
271
     1
  0
XRECORD
  5
DC69
102
{ACAD_REACTORS
330
DC68
102
}
330
DC68
100
AcDbXrecord
280
     1
270
     1
271
     1
  0
XRECORD
  5
DC6D
102
{ACAD_REACTORS
330
DC68
102
}
330
DC68
100
AcDbXrecord
280
     1
270
     1
271
     1
  0
XRECORD
  5
DC6C
102
{ACAD_REACTORS
330
DC68
102
}
330
DC68
100
AcDbXrecord
280
     1
270
     1
271
     1
  0
XRECORD
  5
DC6E
102
{ACAD_REACTORS
330
DC68
102
}
330
DC68
100
AcDbXrecord
280
     1
270
     1
271
     1
  0
XRECORD
  5
DC6B
102
{ACAD_REACTORS
330
DC68
102
}
330
DC68
100
AcDbXrecord
280
     1
270
     1
271
     1
  0
CELLSTYLEMAP
  5
E20D
102
{ACAD_REACTORS
330
E20C
102
}
330
E20C
100
AcDbCellStyleMap
 90
        3
300
CELLSTYLE
  1
TABLEFORMAT_BEGIN
 90
        5
170
     1
 91
        0
 92
    32768
 62
   257
 93
        1
300
CONTENTFORMAT
  1
CONTENTFORMAT_BEGIN
 90
        0
 91
        0
 92
      512
 93
        0
300

 40
0.0
140
1.0
 94
        5
 62
     0
340
F
144
6.0
309
CONTENTFORMAT_END
171
     1
301
MARGIN
  1
CELLMARGIN_BEGIN
 40
1.5
 40
1.5
 40
1.5
 40
1.5
 40
4.5
 40
4.5
309
CELLMARGIN_END
 94
        6
 95
        1
302
GRIDFORMAT
  1
GRIDFORMAT_BEGIN
 90
        0
 91
        1
 62
     0
 92
       -2
340
0
 93
        0
 40
1.125
309
GRIDFORMAT_END
 95
        2
302
GRIDFORMAT
  1
GRIDFORMAT_BEGIN
 90
        0
 91
        1
 62
     0
 92
       -2
340
0
 93
        0
 40
1.125
309
GRIDFORMAT_END
 95
        4
302
GRIDFORMAT
  1
GRIDFORMAT_BEGIN
 90
        0
 91
        1
 62
     0
 92
       -2
340
0
 93
        0
 40
1.125
309
GRIDFORMAT_END
 95
        8
302
GRIDFORMAT
  1
GRIDFORMAT_BEGIN
 90
        0
 91
        1
 62
     0
 92
       -2
340
0
 93
        0
 40
1.125
309
GRIDFORMAT_END
 95
       16
302
GRIDFORMAT
  1
GRIDFORMAT_BEGIN
 90
        0
 91
        1
 62
     0
 92
       -2
340
0
 93
        0
 40
1.125
309
GRIDFORMAT_END
 95
       32
302
GRIDFORMAT
  1
GRIDFORMAT_BEGIN
 90
        0
 91
        1
 62
     0
 92
       -2
340
0
 93
        0
 40
1.125
309
GRIDFORMAT_END
309
TABLEFORMAT_END
  1
CELLSTYLE_BEGIN
 90
        1
 91
        1
300
_TITLE
309
CELLSTYLE_END
300
CELLSTYLE
  1
TABLEFORMAT_BEGIN
 90
        5
170
     1
 91
        0
 92
        0
 62
   257
 93
        1
300
CONTENTFORMAT
  1
CONTENTFORMAT_BEGIN
 90
        0
 91
        0
 92
      512
 93
        0
300

 40
0.0
140
1.0
 94
        5
 62
     0
340
F
144
4.5
309
CONTENTFORMAT_END
171
     1
301
MARGIN
  1
CELLMARGIN_BEGIN
 40
1.5
 40
1.5
 40
1.5
 40
1.5
 40
4.5
 40
4.5
309
CELLMARGIN_END
 94
        6
 95
        1
302
GRIDFORMAT
  1
GRIDFORMAT_BEGIN
 90
        0
 91
        1
 62
     0
 92
       -2
340
0
 93
        0
 40
1.125
309
GRIDFORMAT_END
 95
        2
302
GRIDFORMAT
  1
GRIDFORMAT_BEGIN
 90
        0
 91
        1
 62
     0
 92
       -2
340
0
 93
        0
 40
1.125
309
GRIDFORMAT_END
 95
        4
302
GRIDFORMAT
  1
GRIDFORMAT_BEGIN
 90
        0
 91
        1
 62
     0
 92
       -2
340
0
 93
        0
 40
1.125
309
GRIDFORMAT_END
 95
        8
302
GRIDFORMAT
  1
GRIDFORMAT_BEGIN
 90
        0
 91
        1
 62
     0
 92
       -2
340
0
 93
        0
 40
1.125
309
GRIDFORMAT_END
 95
       16
302
GRIDFORMAT
  1
GRIDFORMAT_BEGIN
 90
        0
 91
        1
 62
     0
 92
       -2
340
0
 93
        0
 40
1.125
309
GRIDFORMAT_END
 95
       32
302
GRIDFORMAT
  1
GRIDFORMAT_BEGIN
 90
        0
 91
        1
 62
     0
 92
       -2
340
0
 93
        0
 40
1.125
309
GRIDFORMAT_END
309
TABLEFORMAT_END
  1
CELLSTYLE_BEGIN
 90
        2
 91
        1
300
_HEADER
309
CELLSTYLE_END
300
CELLSTYLE
  1
TABLEFORMAT_BEGIN
 90
        5
170
     1
 91
        0
 92
        0
 62
   257
 93
        1
300
CONTENTFORMAT
  1
CONTENTFORMAT_BEGIN
 90
        0
 91
        0
 92
      512
 93
        0
300

 40
0.0
140
1.0
 94
        2
 62
     0
340
F
144
4.5
309
CONTENTFORMAT_END
171
     1
301
MARGIN
  1
CELLMARGIN_BEGIN
 40
1.5
 40
1.5
 40
1.5
 40
1.5
 40
4.5
 40
4.5
309
CELLMARGIN_END
 94
        6
 95
        1
302
GRIDFORMAT
  1
GRIDFORMAT_BEGIN
 90
        0
 91
        1
 62
     0
 92
       -2
340
0
 93
        0
 40
1.125
309
GRIDFORMAT_END
 95
        2
302
GRIDFORMAT
  1
GRIDFORMAT_BEGIN
 90
        0
 91
        1
 62
     0
 92
       -2
340
0
 93
        0
 40
1.125
309
GRIDFORMAT_END
 95
        4
302
GRIDFORMAT
  1
GRIDFORMAT_BEGIN
 90
        0
 91
        1
 62
     0
 92
       -2
340
0
 93
        0
 40
1.125
309
GRIDFORMAT_END
 95
        8
302
GRIDFORMAT
  1
GRIDFORMAT_BEGIN
 90
        0
 91
        1
 62
     0
 92
       -2
340
0
 93
        0
 40
1.125
309
GRIDFORMAT_END
 95
       16
302
GRIDFORMAT
  1
GRIDFORMAT_BEGIN
 90
        0
 91
        1
 62
     0
 92
       -2
340
0
 93
        0
 40
1.125
309
GRIDFORMAT_END
 95
       32
302
GRIDFORMAT
  1
GRIDFORMAT_BEGIN
 90
        0
 91
        1
 62
     0
 92
       -2
340
0
 93
        0
 40
1.125
309
GRIDFORMAT_END
309
TABLEFORMAT_END
  1
CELLSTYLE_BEGIN
 90
        3
 91
        2
300
_DATA
309
CELLSTYLE_END
  0
ENDSEC
  0
SECTION
  2
ACDSDATA
 70
     2
 71
     8
  0
ACDSSCHEMA
 90
        0
  1
AcDb_Thumbnail_Schema
  2
AcDbDs::ID
280
    10
 91
        8
  2
Thumbnail_Data
280
    15
 91
        0
101
ACDSRECORD
 95
        0
 90
        1
  2
AcDbDs::TreatedAsObjectData
280
     1
291
     1
101
ACDSRECORD
 95
        0
 90
        2
  2
AcDbDs::Legacy
280
     1
291
     1
101
ACDSRECORD
  1
AcDbDs::ID
 90
        3
  2
AcDs:Indexable
280
     1
291
     1
101
ACDSRECORD
  1
AcDbDs::ID
 90
        4
  2
AcDbDs::HandleAttribute
280
     7
282
     1
  0
ACDSSCHEMA
 90
        1
  1
AcDbDs::TreatedAsObjectDataSchema
  2
AcDbDs::TreatedAsObjectData
280
     1
 91
        0
  0
ACDSSCHEMA
 90
        2
  1
AcDbDs::LegacySchema
  2
AcDbDs::Legacy
280
     1
 91
        0
  0
ACDSSCHEMA
 90
        3
  1
AcDbDs::IndexedPropertySchema
  2
AcDs:Indexable
280
     1
 91
        0
  0
ACDSSCHEMA
 90
        4
  1
AcDbDs::HandleAttributeSchema
  2
AcDbDs::HandleAttribute
280
     7
 91
        1
284
     1
  0
ACDSRECORD
 90
        0
  2
AcDbDs::ID
280
    10
320
DCA5
  2
Thumbnail_Data
280
    15
 94
     1145
310
89504E470D0A1A0A0000000D4948445200000100000000670803000000D82A6C0200000300504C5445000000FFFFFF0000000000000000000000000000000000000000000000000000000000330000660000990000CC0000FF0033000033330033660033990033CC0033FF0066000066330066660066990066CC0066FF0099
310
000099330099660099990099CC0099FF00CC0000CC3300CC6600CC9900CCCC00CCFF00FF0000FF3300FF6600FF9900FFCC00FFFF3300003300333300663300993300CC3300FF3333003333333333663333993333CC3333FF3366003366333366663366993366CC3366FF3399003399333399663399993399CC3399FF33CC00
310
33CC3333CC6633CC9933CCCC33CCFF33FF0033FF3333FF6633FF9933FFCC33FFFF6600006600336600666600996600CC6600FF6633006633336633666633996633CC6633FF6666006666336666666666996666CC6666FF6699006699336699666699996699CC6699FF66CC0066CC3366CC6666CC9966CCCC66CCFF66FF0066
310
FF3366FF6666FF9966FFCC66FFFF9900009900339900669900999900CC9900FF9933009933339933669933999933CC9933FF9966009966339966669966999966CC9966FF9999009999339999669999999999CC9999FF99CC0099CC3399CC6699CC9999CCCC99CCFF99FF0099FF3399FF6699FF9999FFCC99FFFFCC0000CC00
310
33CC0066CC0099CC00CCCC00FFCC3300CC3333CC3366CC3399CC33CCCC33FFCC6600CC6633CC6666CC6699CC66CCCC66FFCC9900CC9933CC9966CC9999CC99CCCC99FFCCCC00CCCC33CCCC66CCCC99CCCCCCCCCCFFCCFF00CCFF33CCFF66CCFF99CCFFCCCCFFFFFF0000FF0033FF0066FF0099FF00CCFF00FFFF3300FF3333
310
FF3366FF3399FF33CCFF33FFFF6600FF6633FF6666FF6699FF66CCFF66FFFF9900FF9933FF9966FF9999FF99CCFF99FFFFCC00FFCC33FFCC66FFCC99FFCCCCFFCCFFFFFF00FFFF33FFFF66FFFF99FFFFCCFFFFFF0000000D0D0D1A1A1A2828283535354343435050505D5D5D6B6B6B787878868686939393A1A1A1AEAEAEBB
310
BBBBC9C9C9D6D6D6E4E4E4F1F1F1FFFFFF0000000000000000000000000000000000000000000000000000000000003AE5ACE9000001344944415478DAEDDC010E82300C40D11DA7F73FA1268011218002895DDF4FCC0031C01FEBEA1CB60600000000008093C4FDFCB9800E8E70F6F49E753456D42DF59540C0D8100A0BB8
310
B5C58A01041040401E01372432D904B4D7554F7D633D011F653901E3F6795929064C0BB3B28C8056FD0E18EA7CF6AA9507C4100662ACFC72BD408BD85E2F90095E3D9C231526205910DCDA238E36A3AEBE0CC5DABB873F932F153E549BB117481327420410400001DF0A58F625B5047CA4CC41802620081240000104104000
310
011221A930017D8E0A2F2EB89741D11F052C165A3F02A29A80CD39527B5B577F36C82520E311082080800B4FEFF2075EF27583F1D6AD9D9F23957092D4E67AEF026277D614019D0B88F2029A3B8080B6326BBC9080DA8FCC48850920A09A80EA7FA000000000000000E09F7900C0EC86D954E7DF310000000049454E44AE42
310
6082
  0
ENDSEC
  0
EOF
