  0
SECTION
  2
HEADER
  9
$ACADVER
  1
AC1032
  9
$ACADMAINTVER
 90
      174
  9
$DWGCODEPAGE
  3
ANSI_932
  9
$LASTSAVEDBY
  1
satoshi.ogura
  9
$REQUIREDVERSIONS
160
                 0
  9
$INSBASE
 10
268.4340021441085
 20
176.78614296069
 30
0.0
  9
$EXTMIN
 10
-269.2484309074635
 20
-87.25882096954569
 30
0.0
  9
$EXTMAX
 10
737.13702306921
 20
601.2939645376182
 30
0.0
  9
$LIMMIN
 10
0.0
 20
0.0
  9
$LIMMAX
 10
554.0
 20
395.0
  9
$ORTHOMODE
 70
     1
  9
$REGENMODE
 70
     1
  9
$FILLMODE
 70
     1
  9
$QTEXTMODE
 70
     0
  9
$MIRRTEXT
 70
     1
  9
$LTSCALE
 40
2.0
  9
$ATTMODE
 70
     1
  9
$TEXTSIZE
 40
8.0
  9
$TRACEWID
 40
0.2
  9
$TEXTSTYLE
  7
KANJI
  9
$CLAYER
  8
1外形線
  9
$CELTYPE
  6
BYLAYER
  9
$CECOLOR
 62
   256
  9
$CELTSCALE
 40
3.0
  9
$DISPSILH
 70
     0
  9
$DIMSCALE
 40
1.0
  9
$DIMASZ
 40
1.0
  9
$DIMEXO
 40
1.0
  9
$DIMDLI
 40
6.0
  9
$DIMRND
 40
0.0
  9
$DIMDLE
 40
0.0
  9
$DIMEXE
 40
1.0
  9
$DIMTP
 40
0.0
  9
$DIMTM
 40
0.0
  9
$DIMTXT
 40
2.5
  9
$DIMCEN
 40
0.0
  9
$DIMTSZ
 40
0.0
  9
$DIMTOL
 70
     0
  9
$DIMLIM
 70
     0
  9
$DIMTIH
 70
     0
  9
$DIMTOH
 70
     0
  9
$DIMSE1
 70
     0
  9
$DIMSE2
 70
     0
  9
$DIMTAD
 70
     1
  9
$DIMZIN
 70
     8
  9
$DIMBLK
  1

  9
$DIMASO
 70
     1
  9
$DIMSHO
 70
     1
  9
$DIMPOST
  1

  9
$DIMAPOST
  1

  9
$DIMALT
 70
     0
  9
$DIMALTD
 70
     2
  9
$DIMALTF
 40
25.4
  9
$DIMLFAC
 40
1.0
  9
$DIMTOFL
 70
     1
  9
$DIMTVP
 40
0.0
  9
$DIMTIX
 70
     0
  9
$DIMSOXD
 70
     0
  9
$DIMSAH
 70
     1
  9
$DIMBLK1
  1
1
  9
$DIMBLK2
  1
1
  9
$DIMSTYLE
  2
STANDARD
  9
$DIMCLRD
 70
     0
  9
$DIMCLRE
 70
     0
  9
$DIMCLRT
 70
     0
  9
$DIMTFAC
 40
1.0
  9
$DIMGAP
 40
0.5
  9
$DIMJUST
 70
     0
  9
$DIMSD1
 70
     0
  9
$DIMSD2
 70
     0
  9
$DIMTOLJ
 70
     1
  9
$DIMTZIN
 70
     8
  9
$DIMALTZ
 70
     8
  9
$DIMALTTZ
 70
     8
  9
$DIMUPT
 70
     0
  9
$DIMDEC
 70
     4
  9
$DIMTDEC
 70
     4
  9
$DIMALTU
 70
     2
  9
$DIMALTTD
 70
     2
  9
$DIMTXSTY
  7
KANJI
  9
$DIMAUNIT
 70
     0
  9
$DIMADEC
 70
     0
  9
$DIMALTRND
 40
0.0
  9
$DIMAZIN
 70
     0
  9
$DIMDSEP
 70
    46
  9
$DIMATFIT
 70
     3
  9
$DIMFRAC
 70
     0
  9
$DIMLDRBLK
  1

  9
$DIMLUNIT
 70
     2
  9
$DIMLWD
 70
    -2
  9
$DIMLWE
 70
    -2
  9
$DIMTMOVE
 70
     0
  9
$DIMFXL
 40
1.0
  9
$DIMFXLON
 70
     0
  9
$DIMJOGANG
 40
0.7853981633974483
  9
$DIMTFILL
 70
     0
  9
$DIMTFILLCLR
 70
     0
  9
$DIMARCSYM
 70
     0
  9
$DIMLTYPE
  6

  9
$DIMLTEX1
  6

  9
$DIMLTEX2
  6

  9
$DIMTXTDIRECTION
 70
     0
  9
$LUNITS
 70
     2
  9
$LUPREC
 70
     4
  9
$SKETCHINC
 40
0.1
  9
$FILLETRAD
 40
0.0
  9
$AUNITS
 70
     0
  9
$AUPREC
 70
     0
  9
$MENU
  1
tcad-s
  9
$ELEVATION
 40
0.0
  9
$PELEVATION
 40
0.0
  9
$THICKNESS
 40
0.0
  9
$LIMCHECK
 70
     0
  9
$CHAMFERA
 40
0.0
  9
$CHAMFERB
 40
0.0
  9
$CHAMFERC
 40
0.0
  9
$CHAMFERD
 40
0.0
  9
$SKPOLY
 70
     0
  9
$TDCREATE
 40
2452041.726134259
  9
$TDUCREATE
 40
2452041.351134259
  9
$TDUPDATE
 40
2459600.737997685
  9
$TDUUPDATE
 40
2459600.362997685
  9
$TDINDWG
 40
0.1705021875
  9
$TDUSRTIMER
 40
0.1705021875
  9
$USRTIMER
 70
     1
  9
$ANGBASE
 50
0.0
  9
$ANGDIR
 70
     0
  9
$PDMODE
 70
     0
  9
$PDSIZE
 40
2.399999999999999
  9
$PLINEWID
 40
0.0
  9
$SPLFRAME
 70
     0
  9
$SPLINETYPE
 70
     6
  9
$SPLINESEGS
 70
     8
  9
$HANDSEED
  5
E47E
  9
$SURFTAB1
 70
     6
  9
$SURFTAB2
 70
     6
  9
$SURFTYPE
 70
     6
  9
$SURFU
 70
     6
  9
$SURFV
 70
     6
  9
$UCSBASE
  2

  9
$UCSNAME
  2

  9
$UCSORG
 10
0.0
 20
0.0
 30
0.0
  9
$UCSXDIR
 10
1.0
 20
0.0
 30
0.0
  9
$UCSYDIR
 10
0.0
 20
1.0
 30
0.0
  9
$UCSORTHOREF
  2

  9
$UCSORTHOVIEW
 70
     0
  9
$UCSORGTOP
 10
0.0
 20
0.0
 30
0.0
  9
$UCSORGBOTTOM
 10
0.0
 20
0.0
 30
0.0
  9
$UCSORGLEFT
 10
0.0
 20
0.0
 30
0.0
  9
$UCSORGRIGHT
 10
0.0
 20
0.0
 30
0.0
  9
$UCSORGFRONT
 10
0.0
 20
0.0
 30
0.0
  9
$UCSORGBACK
 10
0.0
 20
0.0
 30
0.0
  9
$PUCSBASE
  2

  9
$PUCSNAME
  2

  9
$PUCSORG
 10
0.0
 20
0.0
 30
0.0
  9
$PUCSXDIR
 10
1.0
 20
0.0
 30
0.0
  9
$PUCSYDIR
 10
0.0
 20
1.0
 30
0.0
  9
$PUCSORTHOREF
  2

  9
$PUCSORTHOVIEW
 70
     0
  9
$PUCSORGTOP
 10
0.0
 20
0.0
 30
0.0
  9
$PUCSORGBOTTOM
 10
0.0
 20
0.0
 30
0.0
  9
$PUCSORGLEFT
 10
0.0
 20
0.0
 30
0.0
  9
$PUCSORGRIGHT
 10
0.0
 20
0.0
 30
0.0
  9
$PUCSORGFRONT
 10
0.0
 20
0.0
 30
0.0
  9
$PUCSORGBACK
 10
0.0
 20
0.0
 30
0.0
  9
$USERI1
 70
     0
  9
$USERI2
 70
     0
  9
$USERI3
 70
     0
  9
$USERI4
 70
     0
  9
$USERI5
 70
     0
  9
$USERR1
 40
0.0
  9
$USERR2
 40
0.0
  9
$USERR3
 40
0.0
  9
$USERR4
 40
0.0
  9
$USERR5
 40
0.0
  9
$WORLDVIEW
 70
     1
  9
$SHADEDGE
 70
     3
  9
$SHADEDIF
 70
    70
  9
$TILEMODE
 70
     1
  9
$MAXACTVP
 70
    16
  9
$PINSBASE
 10
0.0
 20
0.0
 30
0.0
  9
$PLIMCHECK
 70
     0
  9
$PEXTMIN
 10
1.000000000000000E+20
 20
1.000000000000000E+20
 30
1.000000000000000E+20
  9
$PEXTMAX
 10
-1.000000000000000E+20
 20
-1.000000000000000E+20
 30
-1.000000000000000E+20
  9
$PLIMMIN
 10
0.0
 20
0.0
  9
$PLIMMAX
 10
12.0
 20
9.0
  9
$UNITMODE
 70
     0
  9
$VISRETAIN
 70
     0
  9
$PLINEGEN
 70
     0
  9
$PSLTSCALE
 70
     0
  9
$TREEDEPTH
 70
  3020
  9
$CMLSTYLE
  2
STANDARD
  9
$CMLJUST
 70
     0
  9
$CMLSCALE
 40
1.0
  9
$PROXYGRAPHICS
 70
     1
  9
$MEASUREMENT
 70
     1
  9
$CELWEIGHT
370
    -1
  9
$ENDCAPS
280
     0
  9
$JOINSTYLE
280
     0
  9
$LWDISPLAY
290
     0
  9
$INSUNITS
 70
     0
  9
$HYPERLINKBASE
  1

  9
$STYLESHEET
  1

  9
$XEDIT
290
     1
  9
$CEPSNTYPE
380
     0
  9
$PSTYLEMODE
290
     1
  9
$FINGERPRINTGUID
  2
{EE00DFFC-65CF-3841-A462-D0580E5F6C94}
  9
$VERSIONGUID
  2
{052C3A03-4BC9-634D-AFDA-89F1436881D3}
  9
$EXTNAMES
290
     1
  9
$PSVPSCALE
 40
0.0
  9
$OLESTARTUP
290
     0
  9
$SORTENTS
280
    96
  9
$INDEXCTL
280
     0
  9
$HIDETEXT
280
     0
  9
$XCLIPFRAME
280
     2
  9
$HALOGAP
280
     0
  9
$OBSCOLOR
 70
   257
  9
$OBSLTYPE
280
     0
  9
$INTERSECTIONDISPLAY
280
     0
  9
$INTERSECTIONCOLOR
 70
   257
  9
$DIMASSOC
280
     1
  9
$PROJECTNAME
  1

  9
$CAMERADISPLAY
290
     0
  9
$LENSLENGTH
 40
50.0
  9
$CAMERAHEIGHT
 40
0.0
  9
$STEPSPERSEC
 40
2.0
  9
$STEPSIZE
 40
6.0
  9
$3DDWFPREC
 40
2.0
  9
$PSOLWIDTH
 40
0.25
  9
$PSOLHEIGHT
 40
4.0
  9
$LOFTANG1
 40
1.570796326794896
  9
$LOFTANG2
 40
1.570796326794896
  9
$LOFTMAG1
 40
0.0
  9
$LOFTMAG2
 40
0.0
  9
$LOFTPARAM
 70
     7
  9
$LOFTNORMALS
280
     1
  9
$LATITUDE
 40
37.795
  9
$LONGITUDE
 40
-122.394
  9
$NORTHDIRECTION
 40
0.0
  9
$TIMEZONE
 70
 -8000
  9
$LIGHTGLYPHDISPLAY
280
     1
  9
$TILEMODELIGHTSYNCH
280
     1
  9
$CMATERIAL
347
DF94
  9
$SOLIDHIST
280
     0
  9
$SHOWHIST
280
     1
  9
$DWFFRAME
280
     2
  9
$DGNFRAME
280
     0
  9
$REALWORLDSCALE
290
     1
  9
$INTERFERECOLOR
 62
     1
  9
$INTERFEREOBJVS
345
DFB6
  9
$INTERFEREVPVS
346
DFB3
  9
$CSHADOW
280
     0
  9
$SHADOWPLANELOCATION
 40
0.0
  0
ENDSEC
  0
SECTION
  2
CLASSES
  0
CLASS
  1
DICTIONARYVAR
  2
AcDbDictionaryVar
  3
ObjectDBX Classes
 90
        0
 91
       38
280
     0
281
     0
  0
CLASS
  1
ACDBDICTIONARYWDFLT
  2
AcDbDictionaryWithDefault
  3
ObjectDBX Classes
 90
        0
 91
        1
280
     0
281
     0
  0
CLASS
  1
MATERIAL
  2
AcDbMaterial
  3
ObjectDBX Classes
 90
     1153
 91
        3
280
     0
281
     0
  0
CLASS
  1
VISUALSTYLE
  2
AcDbVisualStyle
  3
ObjectDBX Classes
 90
     4095
 91
       24
280
     0
281
     0
  0
CLASS
  1
TABLESTYLE
  2
AcDbTableStyle
  3
ObjectDBX Classes
 90
     4095
 91
        1
280
     0
281
     0
  0
CLASS
  1
SCALE
  2
AcDbScale
  3
ObjectDBX Classes
 90
     1153
 91
       17
280
     0
281
     0
  0
CLASS
  1
MLEADERSTYLE
  2
AcDbMLeaderStyle
  3
ACDB_MLEADERSTYLE_CLASS
 90
     4095
 91
        1
280
     0
281
     0
  0
CLASS
  1
ACDBSECTIONVIEWSTYLE
  2
AcDbSectionViewStyle
  3
ObjectDBX Classes
 90
     1025
 91
        2
280
     0
281
     0
  0
CLASS
  1
ACDBDETAILVIEWSTYLE
  2
AcDbDetailViewStyle
  3
ObjectDBX Classes
 90
     1025
 91
        2
280
     0
281
     0
  0
CLASS
  1
SORTENTSTABLE
  2
AcDbSortentsTable
  3
ObjectDBX Classes
 90
        0
 91
        1
280
     0
281
     0
  0
CLASS
  1
CELLSTYLEMAP
  2
AcDbCellStyleMap
  3
ObjectDBX Classes
 90
     1152
 91
        1
280
     0
281
     0
  0
ENDSEC
  0
SECTION
  2
TABLES
  0
TABLE
  2
VPORT
  5
8
330
0
100
AcDbSymbolTable
 70
     1
  0
VPORT
  5
DF8F
330
8
100
AcDbSymbolTableRecord
100
AcDbViewportTableRecord
  2
*ACTIVE
 70
     0
 10
0.0
 20
0.0
 11
1.0
 21
1.0
 12
221.757461534998
 22
73.27974185399535
 13
0.0
 23
0.0
 14
1.0
 24
1.0
 15
0.0
 25
0.0
 16
0.0
 26
0.0
 36
1.0
 17
0.0
 27
0.0
 37
0.0
 40
608.375365933422
 41
2.476129032258064
 42
50.0
 43
0.0
 44
0.0
 50
0.0
 51
0.0
 71
     0
 72
  1000
 73
     1
 74
     1
 75
     0
 76
     0
 77
     0
 78
     1
281
     0
 65
     1
110
0.0
120
0.0
130
0.0
111
1.0
121
0.0
131
0.0
112
0.0
122
1.0
132
0.0
 79
     0
146
0.0
348
DFB2
 60
     3
 61
     5
292
     1
282
     1
141
0.0
142
0.0
 63
   250
421
  3355443
1001
ACAD_NAV_VCDISPLAY
1070
     3
  0
ENDTAB
  0
TABLE
  2
LTYPE
  5
5
330
0
100
AcDbSymbolTable
 70
     3
  0
LTYPE
  5
11
330
5
100
AcDbSymbolTableRecord
100
AcDbLinetypeTableRecord
  2
BYBLOCK
 70
     0
  3

 72
    65
 73
     0
 40
0.0
  0
LTYPE
  5
12
330
5
100
AcDbSymbolTableRecord
100
AcDbLinetypeTableRecord
  2
BYLAYER
 70
     0
  3

 72
    65
 73
     0
 40
0.0
  0
LTYPE
  5
13
330
5
100
AcDbSymbolTableRecord
100
AcDbLinetypeTableRecord
  2
CONTINUOUS
 70
     0
  3
Solid line
 72
    65
 73
     0
 40
0.0
  0
LTYPE
  5
E071
330
5
100
AcDbSymbolTableRecord
100
AcDbLinetypeTableRecord
  2
CENTER
 70
     0
  3
____ _ ____ _ ____ _ ____ _ ____ _ ____ _ ____ 
 72
    65
 73
     4
 40
2.0
 49
1.25
 74
     0
 49
-0.25
 74
     0
 49
0.25
 74
     0
 49
-0.25
 74
     0
  0
ENDTAB
  0
TABLE
  2
LAYER
  5
2
102
{ACAD_XDICTIONARY
360
E07B
102
}
330
0
100
AcDbSymbolTable
 70
     6
  0
LAYER
  5
E
102
{ACAD_XDICTIONARY
360
DFE8
102
}
330
2
100
AcDbSymbolTableRecord
100
AcDbLayerTableRecord
  2
0
 70
     0
 62
     7
  6
CONTINUOUS
370
    -3
390
DF92
347
DFA4
348
0
  0
LAYER
  5
40
102
{ACAD_XDICTIONARY
360
DFEA
102
}
330
2
100
AcDbSymbolTableRecord
100
AcDbLayerTableRecord
  2
1外形線
 70
     0
 62
     3
  6
CONTINUOUS
370
    -3
390
DF92
347
DFA4
348
0
  0
LAYER
  5
E072
102
{ACAD_XDICTIONARY
360
E073
102
}
330
2
100
AcDbSymbolTableRecord
100
AcDbLayerTableRecord
  2
C4
 70
     0
 62
     3
  6
CONTINUOUS
370
    -3
390
DF92
347
DFA4
348
0
  0
LAYER
  5
E074
330
2
100
AcDbSymbolTableRecord
100
AcDbLayerTableRecord
  2
DEFPOINTS
 70
     0
 62
     7
  6
CONTINUOUS
290
     0
370
    -3
390
DF92
347
DFA4
348
0
  0
LAYER
  5
E075
102
{ACAD_XDICTIONARY
360
E076
102
}
330
2
100
AcDbSymbolTableRecord
100
AcDbLayerTableRecord
  2
2寸法線
 70
     0
 62
     2
  6
CONTINUOUS
370
    -3
390
DF92
347
DFA4
348
0
  0
LAYER
  5
E077
330
2
100
AcDbSymbolTableRecord
100
AcDbLayerTableRecord
  2
L7中心
 70
     0
 62
     4
  6
CENTER
370
     9
390
DF92
347
DFA4
348
0
1001
AcAecLayerStandard
1000

1000

1001
ACCMTRANSPARENCY
1071
        0
  0
ENDTAB
  0
TABLE
  2
STYLE
  5
3
330
0
100
AcDbSymbolTable
 70
     2
  0
STYLE
  5
F
330
3
100
AcDbSymbolTableRecord
100
AcDbTextStyleTableRecord
  2
STANDARD
 70
     0
 40
0.0
 41
1.0
 50
0.0
 71
     0
 42
0.2
  3
txt
  4

  0
STYLE
  5
3B
330
3
100
AcDbSymbolTableRecord
100
AcDbTextStyleTableRecord
  2
KANJI
 70
     0
 40
0.0
 41
1.0
 50
0.0
 71
     0
 42
8.0
  3
simplex
  4
bigfont
  0
ENDTAB
  0
TABLE
  2
VIEW
  5
6
330
0
100
AcDbSymbolTable
 70
     2
  0
ENDTAB
  0
TABLE
  2
UCS
  5
7
330
0
100
AcDbSymbolTable
 70
     0
  0
ENDTAB
  0
TABLE
  2
APPID
  5
9
330
0
100
AcDbSymbolTable
 70
     6
  0
APPID
  5
10
330
9
100
AcDbSymbolTableRecord
100
AcDbRegAppTableRecord
  2
ACAD
 70
     0
  0
APPID
  5
DFEC
330
9
100
AcDbSymbolTableRecord
100
AcDbRegAppTableRecord
  2
ACAD_NAV_VCDISPLAY
 70
     0
  0
APPID
  5
E078
330
9
100
AcDbSymbolTableRecord
100
AcDbRegAppTableRecord
  2
ACAD_PSEXT
 70
     0
  0
APPID
  5
E079
330
9
100
AcDbSymbolTableRecord
100
AcDbRegAppTableRecord
  2
AcAecLayerStandard
 70
     0
  0
APPID
  5
E07A
330
9
100
AcDbSymbolTableRecord
100
AcDbRegAppTableRecord
  2
ACCMTRANSPARENCY
 70
     0
  0
APPID
  5
E3F7
330
9
100
AcDbSymbolTableRecord
100
AcDbRegAppTableRecord
  2
ACAD_EXEMPT_FROM_CAD_STANDARDS
 70
     0
  0
ENDTAB
  0
TABLE
  2
DIMSTYLE
  5
A
330
0
100
AcDbSymbolTable
 70
     1
100
AcDbDimStyleTable
 71
     0
  0
DIMSTYLE
105
E11
330
A
100
AcDbSymbolTableRecord
100
AcDbDimStyleTableRecord
  2
STANDARD
 70
     0
 41
1.0
 42
1.0
 43
6.0
 44
1.0
 73
     0
 74
     0
 77
     1
 78
     8
140
2.5
141
0.0
147
0.5
172
     1
173
     1
284
     8
285
     8
286
     8
340
3B
341
C7B3
343
C7B3
344
C7B3
  0
ENDTAB
  0
TABLE
  2
BLOCK_RECORD
  5
1
330
0
100
AcDbSymbolTable
 70
    23
  0
BLOCK_RECORD
  5
17
330
1
100
AcDbSymbolTableRecord
100
AcDbBlockTableRecord
  2
*MODEL_SPACE
340
DFE2
 70
     0
280
     1
281
     0
  0
BLOCK_RECORD
  5
14
330
1
100
AcDbSymbolTableRecord
100
AcDbBlockTableRecord
  2
*PAPER_SPACE
340
DFE3
 70
     0
280
     1
281
     0
  0
BLOCK_RECORD
  5
C7B3
330
1
100
AcDbSymbolTableRecord
100
AcDbBlockTableRecord
  2
1
340
0
102
{BLKREFS
331
E430
331
E43A
331
E43B
331
E443
331
E444
331
E44C
331
E44D
331
E3FC
331
E3FD
331
E404
331
E405
331
E40B
331
E40C
331
E414
331
E415
331
E41D
331
E41E
331
E426
331
E427
331
E42F
102
}
 70
     0
280
     1
281
     0
  0
BLOCK_RECORD
  5
DFF6
330
1
100
AcDbSymbolTableRecord
100
AcDbBlockTableRecord
  2
Y2
340
0
102
{BLKREFS
331
DFFF
331
E000
331
E00A
331
E00B
331
E014
331
E015
331
E020
331
E021
331
E02C
331
E02D
331
E038
331
E039
331
E044
331
E045
331
E052
331
E053
331
E05E
331
E05F
331
E06A
331
E06B
102
}
 70
     0
280
     1
281
     0
  0
BLOCK_RECORD
  5
DFFA
330
1
100
AcDbSymbolTableRecord
100
AcDbBlockTableRecord
  2
*D2
340
0
 70
     0
280
     1
281
     0
  0
BLOCK_RECORD
  5
E006
330
1
100
AcDbSymbolTableRecord
100
AcDbBlockTableRecord
  2
*D3
340
0
 70
     0
280
     1
281
     0
  0
BLOCK_RECORD
  5
E00F
330
1
100
AcDbSymbolTableRecord
100
AcDbBlockTableRecord
  2
*D4
340
0
 70
     0
280
     1
281
     0
  0
BLOCK_RECORD
  5
E01B
330
1
100
AcDbSymbolTableRecord
100
AcDbBlockTableRecord
  2
*D5
340
0
 70
     0
280
     1
281
     0
  0
BLOCK_RECORD
  5
E027
330
1
100
AcDbSymbolTableRecord
100
AcDbBlockTableRecord
  2
*D6
340
0
 70
     0
280
     1
281
     0
  0
BLOCK_RECORD
  5
E033
330
1
100
AcDbSymbolTableRecord
100
AcDbBlockTableRecord
  2
*D7
340
0
 70
     0
280
     1
281
     0
  0
BLOCK_RECORD
  5
E03F
330
1
100
AcDbSymbolTableRecord
100
AcDbBlockTableRecord
  2
*D8
340
0
 70
     0
280
     1
281
     0
  0
BLOCK_RECORD
  5
E04B
330
1
100
AcDbSymbolTableRecord
100
AcDbBlockTableRecord
  2
*D9
340
0
 70
     0
280
     1
281
     0
  0
BLOCK_RECORD
  5
E059
330
1
100
AcDbSymbolTableRecord
100
AcDbBlockTableRecord
  2
*D10
340
0
 70
     0
280
     1
281
     0
  0
BLOCK_RECORD
  5
E065
330
1
100
AcDbSymbolTableRecord
100
AcDbBlockTableRecord
  2
*D11
340
0
 70
     0
280
     1
281
     0
  0
BLOCK_RECORD
  5
E327
330
1
100
AcDbSymbolTableRecord
100
AcDbBlockTableRecord
  2
*D13
340
0
 70
     0
280
     1
281
     0
  0
BLOCK_RECORD
  5
E333
330
1
100
AcDbSymbolTableRecord
100
AcDbBlockTableRecord
  2
*D14
340
0
 70
     0
280
     1
281
     0
  0
BLOCK_RECORD
  5
E33C
330
1
100
AcDbSymbolTableRecord
100
AcDbBlockTableRecord
  2
*D15
340
0
 70
     0
280
     1
281
     0
  0
BLOCK_RECORD
  5
E348
330
1
100
AcDbSymbolTableRecord
100
AcDbBlockTableRecord
  2
*D16
340
0
 70
     0
280
     1
281
     0
  0
BLOCK_RECORD
  5
E354
330
1
100
AcDbSymbolTableRecord
100
AcDbBlockTableRecord
  2
*D17
340
0
 70
     0
280
     1
281
     0
  0
BLOCK_RECORD
  5
E360
330
1
100
AcDbSymbolTableRecord
100
AcDbBlockTableRecord
  2
*D18
340
0
 70
     0
280
     1
281
     0
  0
BLOCK_RECORD
  5
E36C
330
1
100
AcDbSymbolTableRecord
100
AcDbBlockTableRecord
  2
*D19
340
0
 70
     0
280
     1
281
     0
  0
BLOCK_RECORD
  5
E378
330
1
100
AcDbSymbolTableRecord
100
AcDbBlockTableRecord
  2
*D20
340
0
 70
     0
280
     1
281
     0
  0
BLOCK_RECORD
  5
E386
330
1
100
AcDbSymbolTableRecord
100
AcDbBlockTableRecord
  2
*D21
340
0
 70
     0
280
     1
281
     0
  0
BLOCK_RECORD
  5
E392
330
1
100
AcDbSymbolTableRecord
100
AcDbBlockTableRecord
  2
*D22
340
0
 70
     0
280
     1
281
     0
  0
ENDTAB
  0
ENDSEC
  0
SECTION
  2
BLOCKS
  0
BLOCK
  5
4F
330
17
100
AcDbEntity
  8
0
100
AcDbBlockBegin
  2
*MODEL_SPACE
 70
     0
 10
0.0
 20
0.0
 30
0.0
  3
*MODEL_SPACE
  1

  0
ENDBLK
  5
50
330
17
100
AcDbEntity
  8
0
100
AcDbBlockEnd
  0
BLOCK
  5
4D
330
14
100
AcDbEntity
 67
     1
  8
0
100
AcDbBlockBegin
  2
*PAPER_SPACE
 70
     0
 10
0.0
 20
0.0
 30
0.0
  3
*PAPER_SPACE
  1

  0
ENDBLK
  5
4E
330
14
100
AcDbEntity
 67
     1
  8
0
100
AcDbBlockEnd
  0
BLOCK
  5
C7B4
330
C7B3
100
AcDbEntity
  8
0
 48
2.0
100
AcDbBlockBegin
  2
1
 70
     0
 10
0.0
 20
0.0
 30
0.0
  3
1
  1

  0
SOLID
  5
C7B5
330
C7B3
100
AcDbEntity
  8
0
  6
ByBlock
 62
     0
100
AcDbTrace
 10
-1.811110924292052
 20
0.4852857095671653
 30
0.0
 11
-1.811110924292052
 21
-0.4852857095673642
 31
0.0
 12
0.0
 22
0.0
 32
0.0
 13
0.0
 23
0.0
 33
0.0
  0
ENDBLK
  5
C7B6
330
C7B3
100
AcDbEntity
  8
0
 48
2.0
100
AcDbBlockEnd
  0
BLOCK
  5
DFF7
330
DFF6
100
AcDbEntity
  8
0
 48
2.0
100
AcDbBlockBegin
  2
Y2
 70
     0
 10
0.0
 20
0.0
 30
0.0
  3
Y2
  1

  0
SOLID
  5
DFF8
330
DFF6
100
AcDbEntity
  8
0
  6
ByBlock
 62
     0
100
AcDbTrace
 10
-1.811110924292108
 20
0.485285709567151
 30
0.0
 11
-1.811110924292108
 21
-0.4852857095673784
 31
0.0
 12
-0.0000000000000568
 22
-0.0000000000000142
 32
0.0
 13
-0.0000000000000568
 23
-0.0000000000000142
 33
0.0
  0
ENDBLK
  5
DFF9
330
DFF6
100
AcDbEntity
  8
0
 48
2.0
100
AcDbBlockEnd
  0
BLOCK
  5
DFFB
330
DFFA
100
AcDbEntity
  8
0
 48
2.0
100
AcDbBlockBegin
  2
*D2
 70
     1
 10
0.0
 20
0.0
 30
0.0
  3
*D2
  1

  0
LINE
  5
DFFC
330
DFFA
100
AcDbEntity
  8
2寸法線
 62
     0
440
 16777216
 48
3.0
370
    -2
100
AcDbLine
 10
44.26364897560614
 20
198.239042799355
 30
0.0
 11
44.26364897560613
 21
114.1227699282663
 31
0.0
  0
LINE
  5
DFFD
330
DFFA
100
AcDbEntity
  8
2寸法線
 62
     0
440
 16777216
 48
3.0
370
    -2
100
AcDbLine
 10
164.7636489756066
 20
198.239042799355
 30
0.0
 11
164.7636489756066
 21
114.1227699282663
 31
0.0
  0
LINE
  5
DFFE
330
DFFA
100
AcDbEntity
  8
2寸法線
 62
     0
440
 16777216
 48
3.0
370
    -2
100
AcDbLine
 10
45.76364897560614
 20
115.1227699282663
 30
0.0
 11
163.2636489756066
 21
115.1227699282663
 31
0.0
  0
INSERT
  5
DFFF
330
DFFA
100
AcDbEntity
  8
2寸法線
 62
     0
440
 16777216
 48
3.0
370
    -2
100
AcDbBlockReference
  2
Y2
 10
44.26364897560613
 20
115.1227699282663
 30
0.0
 41
1.5
 42
1.5
 43
1.5
 50
180.0
  0
INSERT
  5
E000
330
DFFA
100
AcDbEntity
  8
2寸法線
 62
     0
440
 16777216
 48
3.0
370
    -2
100
AcDbBlockReference
  2
Y2
 10
164.7636489756066
 20
115.1227699282663
 30
0.0
 41
1.5
 42
1.5
 43
1.5
  0
MTEXT
  5
E001
330
DFFA
100
AcDbEntity
  8
2寸法線
 62
     1
440
 16777216
 48
3.0
100
AcDbMText
 10
104.5136489756063
 20
117.8727699282662
 30
0.0
 40
3.5
 41
0.0
 46
0.0
 71
     5
 72
     1
  1
\A1;120.5
  7
KANJI
 73
     1
 44
1.0
  0
POINT
  5
E002
330
DFFA
100
AcDbEntity
  8
DEFPOINTS
 62
     0
440
 16777216
 48
3.0
100
AcDbPoint
 10
44.26364897560614
 20
200.239042799355
 30
0.0
  0
POINT
  5
E003
330
DFFA
100
AcDbEntity
  8
DEFPOINTS
 62
     0
440
 16777216
 48
3.0
100
AcDbPoint
 10
164.7636489756066
 20
200.239042799355
 30
0.0
  0
POINT
  5
E004
330
DFFA
100
AcDbEntity
  8
DEFPOINTS
 62
     0
440
 16777216
 48
3.0
100
AcDbPoint
 10
164.7636489756066
 20
115.1227699282663
 30
0.0
  0
ENDBLK
  5
E005
330
DFFA
100
AcDbEntity
  8
0
 48
2.0
100
AcDbBlockEnd
  0
BLOCK
  5
E007
330
E006
100
AcDbEntity
  8
0
 48
2.0
100
AcDbBlockBegin
  2
*D3
 70
     1
 10
0.0
 20
0.0
 30
0.0
  3
*D3
  1

  0
LINE
  5
E008
330
E006
100
AcDbEntity
  8
2寸法線
 62
     0
440
 16777216
 48
2.0
370
    -2
100
AcDbLine
 10
295.0771891357456
 20
180.1668927235351
 30
0.0
 11
361.396288068071
 21
220.2671061494556
 31
0.0
  0
MTEXT
  5
E009
330
E006
100
AcDbEntity
  8
2寸法線
 62
     1
440
 16777216
 48
2.0
100
AcDbMText
 10
337.4493634365944
 20
209.9599071656321
 30
0.0
 40
4.0
 41
0.0
 46
0.0
 71
     5
 72
     1
  1
\A1;φ80
  7
KANJI
 11
0.8557303088042035
 21
0.5174221087215568
 31
0.0
 73
     1
 44
1.0
  0
INSERT
  5
E00A
330
E006
100
AcDbEntity
  8
2寸法線
 62
     0
440
 16777216
 48
2.0
370
    -2
100
AcDbBlockReference
  2
Y2
 10
293.7935936725393
 20
179.3907595604528
 30
0.0
 41
1.5
 42
1.5
 43
1.5
 50
211.1594899621041
  0
INSERT
  5
E00B
330
E006
100
AcDbEntity
  8
2寸法線
 62
     0
440
 16777216
 48
2.0
370
    -2
100
AcDbBlockReference
  2
Y2
 10
362.6798835312774
 20
221.0432393125379
 30
0.0
 41
1.5
 42
1.5
 43
1.5
 50
31.15948996210414
  0
POINT
  5
E00C
330
E006
100
AcDbEntity
  8
DEFPOINTS
 62
     0
440
 16777216
 48
2.0
100
AcDbPoint
 10
362.6798835312774
 20
221.0432393125379
 30
0.0
  0
POINT
  5
E00D
330
E006
100
AcDbEntity
  8
DEFPOINTS
 62
     0
440
 16777216
 48
2.0
100
AcDbPoint
 10
293.7935936725393
 20
179.3907595604528
 30
0.0
  0
ENDBLK
  5
E00E
330
E006
100
AcDbEntity
  8
0
 48
2.0
100
AcDbBlockEnd
  0
BLOCK
  5
E010
330
E00F
100
AcDbEntity
  8
0
 48
2.0
100
AcDbBlockBegin
  2
*D4
 70
     1
 10
0.0
 20
0.0
 30
0.0
  3
*D4
  1

  0
LINE
  5
E011
330
E00F
100
AcDbEntity
  8
2寸法線
 62
     0
440
 16777216
 48
3.0
370
    -2
100
AcDbLine
 10
148.8586614134935
 20
274.2169994364915
 30
0.0
 11
177.331152550749
 21
274.2169994364915
 31
0.0
  0
LINE
  5
E012
330
E00F
100
AcDbEntity
  8
2寸法線
 62
     0
440
 16777216
 48
3.0
370
    -2
100
AcDbLine
 10
148.8586614134935
 20
126.216999436491
 30
0.0
 11
177.331152550749
 21
126.216999436491
 31
0.0
  0
LINE
  5
E013
330
E00F
100
AcDbEntity
  8
2寸法線
 62
     0
440
 16777216
 48
3.0
370
    -2
100
AcDbLine
 10
176.331152550749
 20
272.7169994364915
 30
0.0
 11
176.331152550749
 21
127.716999436491
 31
0.0
  0
INSERT
  5
E014
330
E00F
100
AcDbEntity
  8
2寸法線
 62
     0
440
 16777216
 48
3.0
370
    -2
100
AcDbBlockReference
  2
Y2
 10
176.331152550749
 20
274.2169994364915
 30
0.0
 41
1.5
 42
1.5
 43
1.5
 50
90.0
  0
INSERT
  5
E015
330
E00F
100
AcDbEntity
  8
2寸法線
 62
     0
440
 16777216
 48
3.0
370
    -2
100
AcDbBlockReference
  2
Y2
 10
176.331152550749
 20
126.216999436491
 30
0.0
 41
1.5
 42
1.5
 43
1.5
 50
270.0
  0
MTEXT
  5
E016
330
E00F
100
AcDbEntity
  8
2寸法線
 62
     1
440
 16777216
 48
3.0
100
AcDbMText
 10
173.581152550749
 20
200.2169994364913
 30
0.0
 40
3.5
 41
0.0
 46
0.0
 71
     5
 72
     1
  1
\A1;148
  7
KANJI
 11
0.0000000000000001
 21
1.0
 31
0.0
 73
     1
 44
1.0
  0
POINT
  5
E017
330
E00F
100
AcDbEntity
  8
DEFPOINTS
 62
     0
440
 16777216
 48
3.0
100
AcDbPoint
 10
146.8586614134935
 20
274.2169994364915
 30
0.0
  0
POINT
  5
E018
330
E00F
100
AcDbEntity
  8
DEFPOINTS
 62
     0
440
 16777216
 48
3.0
100
AcDbPoint
 10
146.8586614134935
 20
126.216999436491
 30
0.0
  0
POINT
  5
E019
330
E00F
100
AcDbEntity
  8
DEFPOINTS
 62
     0
440
 16777216
 48
3.0
100
AcDbPoint
 10
176.331152550749
 20
126.216999436491
 30
0.0
  0
ENDBLK
  5
E01A
330
E00F
100
AcDbEntity
  8
0
 48
2.0
100
AcDbBlockEnd
  0
BLOCK
  5
E01C
330
E01B
100
AcDbEntity
  8
0
 48
2.0
100
AcDbBlockBegin
  2
*D5
 70
     1
 10
0.0
 20
0.0
 30
0.0
  3
*D5
  1

  0
LINE
  5
E01D
330
E01B
100
AcDbEntity
  8
2寸法線
 62
     0
440
 16777216
 48
3.0
370
    -2
100
AcDbLine
 10
364.2367386019085
 20
252.2169994364992
 30
0.0
 11
398.8825763401548
 21
252.2169994364992
 31
0.0
  0
LINE
  5
E01E
330
E01B
100
AcDbEntity
  8
2寸法線
 62
     0
440
 16777216
 48
3.0
370
    -2
100
AcDbLine
 10
364.2367386019085
 20
148.2169994364917
 30
0.0
 11
398.8825763401548
 21
148.2169994364917
 31
0.0
  0
LINE
  5
E01F
330
E01B
100
AcDbEntity
  8
2寸法線
 62
     0
440
 16777216
 48
3.0
370
    -2
100
AcDbLine
 10
397.8825763401548
 20
250.7169994364992
 30
0.0
 11
397.8825763401548
 21
149.7169994364917
 31
0.0
  0
INSERT
  5
E020
330
E01B
100
AcDbEntity
  8
2寸法線
 62
     0
440
 16777216
 48
3.0
370
    -2
100
AcDbBlockReference
  2
Y2
 10
397.8825763401548
 20
252.2169994364992
 30
0.0
 41
1.5
 42
1.5
 43
1.5
 50
90.0
  0
INSERT
  5
E021
330
E01B
100
AcDbEntity
  8
2寸法線
 62
     0
440
 16777216
 48
3.0
370
    -2
100
AcDbBlockReference
  2
Y2
 10
397.8825763401548
 20
148.2169994364917
 30
0.0
 41
1.5
 42
1.5
 43
1.5
 50
270.0
  0
MTEXT
  5
E022
330
E01B
100
AcDbEntity
  8
2寸法線
 62
     1
440
 16777216
 48
3.0
100
AcDbMText
 10
395.1325763401547
 20
200.2169994364956
 30
0.0
 40
3.5
 41
0.0
 46
0.0
 71
     5
 72
     1
  1
\A1;104
  7
KANJI
 11
0.0000000000000001
 21
1.0
 31
0.0
 73
     1
 44
1.0
  0
POINT
  5
E023
330
E01B
100
AcDbEntity
  8
DEFPOINTS
 62
     0
440
 16777216
 48
3.0
100
AcDbPoint
 10
362.2367386019085
 20
252.2169994364992
 30
0.0
  0
POINT
  5
E024
330
E01B
100
AcDbEntity
  8
DEFPOINTS
 62
     0
440
 16777216
 48
3.0
100
AcDbPoint
 10
362.2367386019085
 20
148.2169994364917
 30
0.0
  0
POINT
  5
E025
330
E01B
100
AcDbEntity
  8
DEFPOINTS
 62
     0
440
 16777216
 48
3.0
100
AcDbPoint
 10
397.8825763401548
 20
148.2169994364917
 30
0.0
  0
ENDBLK
  5
E026
330
E01B
100
AcDbEntity
  8
0
 48
2.0
100
AcDbBlockEnd
  0
BLOCK
  5
E028
330
E027
100
AcDbEntity
  8
0
 48
2.0
100
AcDbBlockBegin
  2
*D6
 70
     1
 10
0.0
 20
0.0
 30
0.0
  3
*D6
  1

  0
LINE
  5
E029
330
E027
100
AcDbEntity
  8
2寸法線
 62
     0
440
 16777216
 48
3.0
370
    -2
100
AcDbLine
 10
60.26364843927544
 20
50.44309623170602
 30
0.0
 11
60.26364843927544
 21
101.9315088975927
 31
0.0
  0
LINE
  5
E02A
330
E027
100
AcDbEntity
  8
2寸法線
 62
     0
440
 16777216
 48
3.0
370
    -2
100
AcDbLine
 10
148.7636489757173
 20
50.44309623170602
 30
0.0
 11
148.7636489757173
 21
101.9315088975927
 31
0.0
  0
LINE
  5
E02B
330
E027
100
AcDbEntity
  8
2寸法線
 62
     0
440
 16777216
 48
3.0
370
    -2
100
AcDbLine
 10
61.76364843927544
 20
100.9315088975927
 30
0.0
 11
147.2636489757173
 21
100.9315088975927
 31
0.0
  0
INSERT
  5
E02C
330
E027
100
AcDbEntity
  8
2寸法線
 62
     0
440
 16777216
 48
3.0
370
    -2
100
AcDbBlockReference
  2
Y2
 10
60.26364843927544
 20
100.9315088975927
 30
0.0
 41
1.5
 42
1.5
 43
1.5
 50
180.0
  0
INSERT
  5
E02D
330
E027
100
AcDbEntity
  8
2寸法線
 62
     0
440
 16777216
 48
3.0
370
    -2
100
AcDbBlockReference
  2
Y2
 10
148.7636489757173
 20
100.9315088975927
 30
0.0
 41
1.5
 42
1.5
 43
1.5
  0
MTEXT
  5
E02E
330
E027
100
AcDbEntity
  8
2寸法線
 62
     1
440
 16777216
 48
3.0
100
AcDbMText
 10
104.5136487074964
 20
103.6815088975927
 30
0.0
 40
3.5
 41
0.0
 46
0.0
 71
     5
 72
     1
  1
\A1;89
  7
KANJI
 73
     1
 44
1.0
  0
POINT
  5
E02F
330
E027
100
AcDbEntity
  8
DEFPOINTS
 62
     0
440
 16777216
 48
3.0
100
AcDbPoint
 10
60.26364843927544
 20
48.44309623170602
 30
0.0
  0
POINT
  5
E030
330
E027
100
AcDbEntity
  8
DEFPOINTS
 62
     0
440
 16777216
 48
3.0
100
AcDbPoint
 10
148.7636489757173
 20
48.44309623170602
 30
0.0
  0
POINT
  5
E031
330
E027
100
AcDbEntity
  8
DEFPOINTS
 62
     0
440
 16777216
 48
3.0
100
AcDbPoint
 10
148.7636489757173
 20
100.9315088975927
 30
0.0
  0
ENDBLK
  5
E032
330
E027
100
AcDbEntity
  8
0
 48
2.0
100
AcDbBlockEnd
  0
BLOCK
  5
E034
330
E033
100
AcDbEntity
  8
0
 48
2.0
100
AcDbBlockBegin
  2
*D7
 70
     1
 10
0.0
 20
0.0
 30
0.0
  3
*D7
  1

  0
LINE
  5
E035
330
E033
100
AcDbEntity
  8
2寸法線
 62
     0
440
 16777216
 48
3.0
370
    -2
100
AcDbLine
 10
106.5146443967897
 20
93.54309623145217
 30
0.0
 11
177.331152550749
 21
93.54309623145217
 31
0.0
  0
LINE
  5
E036
330
E033
100
AcDbEntity
  8
2寸法線
 62
     0
440
 16777216
 48
3.0
370
    -2
100
AcDbLine
 10
166.7636489756061
 20
48.44309623170602
 30
0.0
 11
177.331152550749
 21
48.44309623170602
 31
0.0
  0
LINE
  5
E037
330
E033
100
AcDbEntity
  8
2寸法線
 62
     0
440
 16777216
 48
3.0
370
    -2
100
AcDbLine
 10
176.331152550749
 20
92.04309623145217
 30
0.0
 11
176.331152550749
 21
49.94309623170601
 31
0.0
  0
INSERT
  5
E038
330
E033
100
AcDbEntity
  8
2寸法線
 62
     0
440
 16777216
 48
3.0
370
    -2
100
AcDbBlockReference
  2
Y2
 10
176.331152550749
 20
93.54309623145217
 30
0.0
 41
1.5
 42
1.5
 43
1.5
 50
90.0
  0
INSERT
  5
E039
330
E033
100
AcDbEntity
  8
2寸法線
 62
     0
440
 16777216
 48
3.0
370
    -2
100
AcDbBlockReference
  2
Y2
 10
176.331152550749
 20
48.44309623170602
 30
0.0
 41
1.5
 42
1.5
 43
1.5
 50
270.0
  0
MTEXT
  5
E03A
330
E033
100
AcDbEntity
  8
2寸法線
 62
     1
440
 16777216
 48
3.0
100
AcDbMText
 10
173.581152550749
 20
70.99309623157911
 30
0.0
 40
3.5
 41
0.0
 46
0.0
 71
     5
 72
     1
  1
\A1;45
  7
KANJI
 11
0.0000000000000001
 21
1.0
 31
0.0
 73
     1
 44
1.0
  0
POINT
  5
E03B
330
E033
100
AcDbEntity
  8
DEFPOINTS
 62
     0
440
 16777216
 48
3.0
100
AcDbPoint
 10
104.5146443967897
 20
93.54309623145217
 30
0.0
  0
POINT
  5
E03C
330
E033
100
AcDbEntity
  8
DEFPOINTS
 62
     0
440
 16777216
 48
3.0
100
AcDbPoint
 10
164.7636489756061
 20
48.44309623170602
 30
0.0
  0
POINT
  5
E03D
330
E033
100
AcDbEntity
  8
DEFPOINTS
 62
     0
440
 16777216
 48
3.0
100
AcDbPoint
 10
176.331152550749
 20
48.44309623170602
 30
0.0
  0
ENDBLK
  5
E03E
330
E033
100
AcDbEntity
  8
0
 48
2.0
100
AcDbBlockEnd
  0
BLOCK
  5
E040
330
E03F
100
AcDbEntity
  8
0
 48
2.0
100
AcDbBlockBegin
  2
*D8
 70
     1
 10
0.0
 20
0.0
 30
0.0
  3
*D8
  1

  0
LINE
  5
E041
330
E03F
100
AcDbEntity
  8
2寸法線
 62
     0
440
 16777216
 48
3.0
370
    -2
100
AcDbLine
 10
355.2367386019073
 20
256.7169996749169
 30
0.0
 11
345.7088730787664
 21
256.7169996749169
 31
0.0
  0
LINE
  5
E042
330
E03F
100
AcDbEntity
  8
2寸法線
 62
     0
440
 16777216
 48
3.0
370
    -2
100
AcDbLine
 10
355.2367386019076
 20
247.7169996749167
 30
0.0
 11
345.7088730787664
 21
247.7169996749167
 31
0.0
  0
LINE
  5
E043
330
E03F
100
AcDbEntity
  8
2寸法線
 62
     0
440
 16777216
 48
3.0
370
    -2
100
AcDbLine
 10
346.7088730787664
 20
255.2169996749169
 30
0.0
 11
346.7088730787664
 21
249.2169996749167
 31
0.0
  0
INSERT
  5
E044
330
E03F
100
AcDbEntity
  8
2寸法線
 62
     0
440
 16777216
 48
3.0
370
    -2
100
AcDbBlockReference
  2
Y2
 10
346.7088730787664
 20
256.7169996749169
 30
0.0
 41
1.5
 42
1.5
 43
1.5
 50
90.0
  0
INSERT
  5
E045
330
E03F
100
AcDbEntity
  8
2寸法線
 62
     0
440
 16777216
 48
3.0
370
    -2
100
AcDbBlockReference
  2
Y2
 10
346.7088730787664
 20
247.7169996749167
 30
0.0
 41
1.5
 42
1.5
 43
1.5
 50
270.0
  0
MTEXT
  5
E046
330
E03F
100
AcDbEntity
  8
2寸法線
 62
     1
440
 16777216
 48
3.0
100
AcDbMText
 10
343.9588730787664
 20
252.2169996749167
 30
0.0
 40
3.5
 41
0.0
 46
0.0
 71
     5
 72
     1
  1
\A1;9
  7
KANJI
 11
0.0000000000000001
 21
1.0
 31
0.0
 73
     1
 44
1.0
  0
POINT
  5
E047
330
E03F
100
AcDbEntity
  8
DEFPOINTS
 62
     0
440
 16777216
 48
3.0
100
AcDbPoint
 10
357.2367386019073
 20
256.7169996749169
 30
0.0
  0
POINT
  5
E048
330
E03F
100
AcDbEntity
  8
DEFPOINTS
 62
     0
440
 16777216
 48
3.0
100
AcDbPoint
 10
357.2367386019076
 20
247.7169996749167
 30
0.0
  0
POINT
  5
E049
330
E03F
100
AcDbEntity
  8
DEFPOINTS
 62
     0
440
 16777216
 48
3.0
100
AcDbPoint
 10
346.7088730787664
 20
247.7169996749167
 30
0.0
  0
ENDBLK
  5
E04A
330
E03F
100
AcDbEntity
  8
0
 48
2.0
100
AcDbBlockEnd
  0
BLOCK
  5
E04C
330
E04B
100
AcDbEntity
  8
0
 48
2.0
100
AcDbBlockBegin
  2
*D9
 70
     1
 10
0.0
 20
0.0
 30
0.0
  3
*D9
  1

  0
LINE
  5
E04D
330
E04B
100
AcDbEntity
  8
2寸法線
 62
     0
440
 16777216
 48
3.0
370
    -2
100
AcDbLine
 10
359.336738601908
 20
247.8169996749171
 30
0.0
 11
359.336738601908
 21
240.0136583656986
 31
0.0
  0
LINE
  5
E04E
330
E04B
100
AcDbEntity
  8
2寸法線
 62
     0
440
 16777216
 48
3.0
370
    -2
100
AcDbLine
 10
355.1367386019076
 20
247.8169996749171
 30
0.0
 11
355.1367386019076
 21
240.0136583656986
 31
0.0
  0
LINE
  5
E04F
330
E04B
100
AcDbEntity
  8
2寸法線
 62
     0
440
 16777216
 48
3.0
370
    -2
100
AcDbLine
 10
360.8367386019081
 20
241.0136583656986
 30
0.0
 11
362.3367386019081
 21
241.0136583656986
 31
0.0
  0
LINE
  5
E050
330
E04B
100
AcDbEntity
  8
2寸法線
 62
     0
440
 16777216
 48
3.0
370
    -2
100
AcDbLine
 10
353.6367386019076
 20
241.0136583656986
 30
0.0
 11
342.8034052685742
 21
241.0136583656986
 31
0.0
  0
LINE
  5
E051
330
E04B
100
AcDbEntity
  8
2寸法線
 62
     0
440
 16777216
 48
3.0
370
    -2
100
AcDbLine
 10
359.336738601908
 20
241.0136583656986
 30
0.0
 11
355.1367386019076
 21
241.0136583656986
 31
0.0
  0
INSERT
  5
E052
330
E04B
100
AcDbEntity
  8
2寸法線
 62
     0
440
 16777216
 48
3.0
370
    -2
100
AcDbBlockReference
  2
Y2
 10
359.336738601908
 20
241.0136583656986
 30
0.0
 41
1.5
 42
1.5
 43
1.5
 50
180.0
  0
INSERT
  5
E053
330
E04B
100
AcDbEntity
  8
2寸法線
 62
     0
440
 16777216
 48
3.0
370
    -2
100
AcDbBlockReference
  2
Y2
 10
355.1367386019076
 20
241.0136583656986
 30
0.0
 41
1.5
 42
1.5
 43
1.5
  0
MTEXT
  5
E054
330
E04B
100
AcDbEntity
  8
2寸法線
 62
     1
440
 16777216
 48
3.0
100
AcDbMText
 10
347.4700719352409
 20
243.7636583656986
 30
0.0
 40
3.5
 41
0.0
 46
0.0
 71
     5
 72
     1
  1
\A1;4.2
  7
KANJI
 73
     1
 44
1.0
  0
POINT
  5
E055
330
E04B
100
AcDbEntity
  8
DEFPOINTS
 62
     0
440
 16777216
 48
3.0
100
AcDbPoint
 10
359.336738601908
 20
249.8169996749171
 30
0.0
  0
POINT
  5
E056
330
E04B
100
AcDbEntity
  8
DEFPOINTS
 62
     0
440
 16777216
 48
3.0
100
AcDbPoint
 10
355.1367386019076
 20
249.8169996749171
 30
0.0
  0
POINT
  5
E057
330
E04B
100
AcDbEntity
  8
DEFPOINTS
 62
     0
440
 16777216
 48
3.0
100
AcDbPoint
 10
355.1367386019076
 20
241.0136583656986
 30
0.0
  0
ENDBLK
  5
E058
330
E04B
100
AcDbEntity
  8
0
 48
2.0
100
AcDbBlockEnd
  0
BLOCK
  5
E05A
330
E059
100
AcDbEntity
  8
0
 48
2.0
100
AcDbBlockBegin
  2
*D10
 70
     1
 10
0.0
 20
0.0
 30
0.0
  3
*D10
  1

  0
LINE
  5
E05B
330
E059
100
AcDbEntity
  8
2寸法線
 62
     0
440
 16777216
 48
3.0
370
    -2
100
AcDbLine
 10
299.2367386019093
 20
138.716999436491
 30
0.0
 11
299.2367386019093
 21
114.1227699282663
 31
0.0
  0
LINE
  5
E05C
330
E059
100
AcDbEntity
  8
2寸法線
 62
     0
440
 16777216
 48
3.0
370
    -2
100
AcDbLine
 10
357.2367386019084
 20
138.716999436491
 30
0.0
 11
357.2367386019084
 21
114.1227699282663
 31
0.0
  0
LINE
  5
E05D
330
E059
100
AcDbEntity
  8
2寸法線
 62
     0
440
 16777216
 48
3.0
370
    -2
100
AcDbLine
 10
300.7367386019093
 20
115.1227699282663
 30
0.0
 11
355.7367386019084
 21
115.1227699282663
 31
0.0
  0
INSERT
  5
E05E
330
E059
100
AcDbEntity
  8
2寸法線
 62
     0
440
 16777216
 48
3.0
370
    -2
100
AcDbBlockReference
  2
Y2
 10
299.2367386019093
 20
115.1227699282663
 30
0.0
 41
1.5
 42
1.5
 43
1.5
 50
180.0
  0
INSERT
  5
E05F
330
E059
100
AcDbEntity
  8
2寸法線
 62
     0
440
 16777216
 48
3.0
370
    -2
100
AcDbBlockReference
  2
Y2
 10
357.2367386019084
 20
115.1227699282663
 30
0.0
 41
1.5
 42
1.5
 43
1.5
  0
MTEXT
  5
E060
330
E059
100
AcDbEntity
  8
2寸法線
 62
     1
440
 16777216
 48
3.0
100
AcDbMText
 10
328.2367386019088
 20
117.8727699282662
 30
0.0
 40
3.5
 41
0.0
 46
0.0
 71
     5
 72
     1
  1
\A1;58
  7
KANJI
 73
     1
 44
1.0
  0
POINT
  5
E061
330
E059
100
AcDbEntity
  8
DEFPOINTS
 62
     0
440
 16777216
 48
3.0
100
AcDbPoint
 10
299.2367386019093
 20
140.716999436491
 30
0.0
  0
POINT
  5
E062
330
E059
100
AcDbEntity
  8
DEFPOINTS
 62
     0
440
 16777216
 48
3.0
100
AcDbPoint
 10
357.2367386019084
 20
140.716999436491
 30
0.0
  0
POINT
  5
E063
330
E059
100
AcDbEntity
  8
DEFPOINTS
 62
     0
440
 16777216
 48
3.0
100
AcDbPoint
 10
357.2367386019084
 20
115.1227699282663
 30
0.0
  0
ENDBLK
  5
E064
330
E059
100
AcDbEntity
  8
0
 48
2.0
100
AcDbBlockEnd
  0
BLOCK
  5
E066
330
E065
100
AcDbEntity
  8
0
 48
2.0
100
AcDbBlockBegin
  2
*D11
 70
     1
 10
0.0
 20
0.0
 30
0.0
  3
*D11
  1

  0
LINE
  5
E067
330
E065
100
AcDbEntity
  8
2寸法線
 62
     0
440
 16777216
 48
3.0
370
    -2
100
AcDbLine
 10
350.4867373609215
 20
136.2170017685323
 30
0.0
 11
385.0230952567331
 21
136.2170017685323
 31
0.0
  0
LINE
  5
E068
330
E065
100
AcDbEntity
  8
2寸法線
 62
     0
440
 16777216
 48
3.0
370
    -2
100
AcDbLine
 10
372.7626272530288
 20
126.2170005689891
 30
0.0
 11
385.0230952567331
 21
126.2170005689891
 31
0.0
  0
LINE
  5
E069
330
E065
100
AcDbEntity
  8
2寸法線
 62
     0
440
 16777216
 48
3.0
370
    -2
100
AcDbLine
 10
384.0230952567332
 20
134.7170017685323
 30
0.0
 11
384.0230952567331
 21
127.7170005689891
 31
0.0
  0
INSERT
  5
E06A
330
E065
100
AcDbEntity
  8
2寸法線
 62
     0
440
 16777216
 48
3.0
370
    -2
100
AcDbBlockReference
  2
Y2
 10
384.0230952567332
 20
136.2170017685323
 30
0.0
 41
1.5
 42
1.5
 43
1.5
 50
90.0
  0
INSERT
  5
E06B
330
E065
100
AcDbEntity
  8
2寸法線
 62
     0
440
 16777216
 48
3.0
370
    -2
100
AcDbBlockReference
  2
Y2
 10
384.0230952567331
 20
126.2170005689891
 30
0.0
 41
1.5
 42
1.5
 43
1.5
 50
270.0
  0
MTEXT
  5
E06C
330
E065
100
AcDbEntity
  8
2寸法線
 62
     1
440
 16777216
 48
3.0
100
AcDbMText
 10
381.2730952567331
 20
131.2170011687607
 30
0.0
 40
3.5
 41
0.0
 46
0.0
 71
     5
 72
     1
  1
\A1;10
  7
KANJI
 11
0.0000000000000001
 21
1.0
 31
0.0
 73
     1
 44
1.0
  0
POINT
  5
E06D
330
E065
100
AcDbEntity
  8
DEFPOINTS
 62
     0
440
 16777216
 48
3.0
100
AcDbPoint
 10
348.4867373609215
 20
136.2170017685323
 30
0.0
  0
POINT
  5
E06E
330
E065
100
AcDbEntity
  8
DEFPOINTS
 62
     0
440
 16777216
 48
3.0
100
AcDbPoint
 10
370.7626272530288
 20
126.2170005689891
 30
0.0
  0
POINT
  5
E06F
330
E065
100
AcDbEntity
  8
DEFPOINTS
 62
     0
440
 16777216
 48
3.0
100
AcDbPoint
 10
384.0230952567331
 20
126.2170005689891
 30
0.0
  0
ENDBLK
  5
E070
330
E065
100
AcDbEntity
  8
0
 48
2.0
100
AcDbBlockEnd
  0
BLOCK
  5
E328
330
E327
100
AcDbEntity
  8
0
 48
3.0
100
AcDbBlockBegin
  2
*D13
 70
     1
 10
0.0
 20
0.0
 30
0.0
  3
*D13
  1

  0
LINE
  5
E3F9
330
E327
100
AcDbEntity
  8
2寸法線
 62
     0
440
 16777216
 48
3.0
370
    -2
100
AcDbLine
 10
82.62389756916219
 20
142.4738969756476
 30
0.0
 11
82.62389756916219
 21
58.35762410455891
 31
0.0
  0
LINE
  5
E3FA
330
E327
100
AcDbEntity
  8
2寸法線
 62
     0
440
 16777216
 48
3.0
370
    -2
100
AcDbLine
 10
203.1238975691626
 20
142.4738969756476
 30
0.0
 11
203.1238975691626
 21
58.35762410455891
 31
0.0
  0
LINE
  5
E3FB
330
E327
100
AcDbEntity
  8
2寸法線
 62
     0
440
 16777216
 48
3.0
370
    -2
100
AcDbLine
 10
84.12389756916217
 20
59.35762410455891
 30
0.0
 11
201.6238975691627
 21
59.35762410455891
 31
0.0
  0
INSERT
  5
E3FC
330
E327
100
AcDbEntity
  8
2寸法線
 62
     0
440
 16777216
 48
3.0
370
    -2
100
AcDbBlockReference
  2
1
 10
82.62389756916219
 20
59.35762410455891
 30
0.0
 41
1.5
 42
1.5
 43
1.5
 50
180.0
  0
INSERT
  5
E3FD
330
E327
100
AcDbEntity
  8
2寸法線
 62
     0
440
 16777216
 48
3.0
370
    -2
100
AcDbBlockReference
  2
1
 10
203.1238975691626
 20
59.35762410455891
 30
0.0
 41
1.5
 42
1.5
 43
1.5
  0
MTEXT
  5
E3FE
330
E327
100
AcDbEntity
  8
2寸法線
 62
     1
440
 16777216
 48
3.0
100
AcDbMText
 10
142.8738975691624
 20
62.10762410455891
 30
0.0
 40
3.5
 41
0.0
 46
0.0
 71
     5
 72
     1
  1
\A1;120.5
  7
KANJI
 73
     1
 44
1.0
  0
POINT
  5
E3FF
330
E327
100
AcDbEntity
  8
DEFPOINTS
 62
     0
440
 16777216
 48
3.0
100
AcDbPoint
 10
82.62389756916219
 20
144.4738969756476
 30
0.0
  0
POINT
  5
E400
330
E327
100
AcDbEntity
  8
DEFPOINTS
 62
     0
440
 16777216
 48
3.0
100
AcDbPoint
 10
203.1238975691626
 20
144.4738969756476
 30
0.0
  0
POINT
  5
E401
330
E327
100
AcDbEntity
  8
DEFPOINTS
 62
     0
440
 16777216
 48
3.0
100
AcDbPoint
 10
203.1238975691626
 20
59.35762410455891
 30
0.0
  0
ENDBLK
  5
E329
330
E327
100
AcDbEntity
  8
0
 48
3.0
100
AcDbBlockEnd
  0
BLOCK
  5
E334
330
E333
100
AcDbEntity
  8
0
 48
3.0
100
AcDbBlockBegin
  2
*D14
 70
     1
 10
0.0
 20
0.0
 30
0.0
  3
*D14
  1

  0
LINE
  5
E402
330
E333
100
AcDbEntity
  8
2寸法線
 62
     0
440
 16777216
 48
2.0
370
    -2
100
AcDbLine
 10
333.4374377293016
 20
124.4017468998277
 30
0.0
 11
399.7565366616271
 21
164.5019603257482
 31
0.0
  0
MTEXT
  5
E403
330
E333
100
AcDbEntity
  8
2寸法線
 62
     1
440
 16777216
 48
2.0
100
AcDbMText
 10
375.8096120301503
 20
154.1947613419246
 30
0.0
 40
4.0
 41
0.0
 46
0.0
 71
     5
 72
     1
  1
\A1;φ80
  7
KANJI
 11
0.8557303088042035
 21
0.5174221087215568
 31
0.0
 73
     1
 44
1.0
  0
INSERT
  5
E404
330
E333
100
AcDbEntity
  8
2寸法線
 62
     0
440
 16777216
 48
2.0
370
    -2
100
AcDbBlockReference
  2
1
 10
332.1538422660953
 20
123.6256137367454
 30
0.0
 41
1.5
 42
1.5
 43
1.5
 50
211.1594899621041
  0
INSERT
  5
E405
330
E333
100
AcDbEntity
  8
2寸法線
 62
     0
440
 16777216
 48
2.0
370
    -2
100
AcDbBlockReference
  2
1
 10
401.0401321248333
 20
165.2780934888305
 30
0.0
 41
1.5
 42
1.5
 43
1.5
 50
31.15948996210414
  0
POINT
  5
E406
330
E333
100
AcDbEntity
  8
DEFPOINTS
 62
     0
440
 16777216
 48
2.0
100
AcDbPoint
 10
401.0401321248333
 20
165.2780934888305
 30
0.0
  0
POINT
  5
E407
330
E333
100
AcDbEntity
  8
DEFPOINTS
 62
     0
440
 16777216
 48
2.0
100
AcDbPoint
 10
332.1538422660953
 20
123.6256137367454
 30
0.0
  0
ENDBLK
  5
E335
330
E333
100
AcDbEntity
  8
0
 48
3.0
100
AcDbBlockEnd
  0
BLOCK
  5
E33D
330
E33C
100
AcDbEntity
  8
0
 48
3.0
100
AcDbBlockBegin
  2
*D15
 70
     1
 10
0.0
 20
0.0
 30
0.0
  3
*D15
  1

  0
LINE
  5
E408
330
E33C
100
AcDbEntity
  8
2寸法線
 62
     0
440
 16777216
 48
3.0
370
    -2
100
AcDbLine
 10
187.2189100070496
 20
218.4518536127843
 30
0.0
 11
215.6914011443053
 21
218.4518536127843
 31
0.0
  0
LINE
  5
E409
330
E33C
100
AcDbEntity
  8
2寸法線
 62
     0
440
 16777216
 48
3.0
370
    -2
100
AcDbLine
 10
187.2189100070496
 20
70.4518536127837
 30
0.0
 11
215.6914011443053
 21
70.4518536127837
 31
0.0
  0
LINE
  5
E40A
330
E33C
100
AcDbEntity
  8
2寸法線
 62
     0
440
 16777216
 48
3.0
370
    -2
100
AcDbLine
 10
214.6914011443053
 20
216.9518536127843
 30
0.0
 11
214.6914011443053
 21
71.95185361278371
 31
0.0
  0
INSERT
  5
E40B
330
E33C
100
AcDbEntity
  8
2寸法線
 62
     0
440
 16777216
 48
3.0
370
    -2
100
AcDbBlockReference
  2
1
 10
214.6914011443053
 20
218.4518536127843
 30
0.0
 41
1.5
 42
1.5
 43
1.5
 50
90.0
  0
INSERT
  5
E40C
330
E33C
100
AcDbEntity
  8
2寸法線
 62
     0
440
 16777216
 48
3.0
370
    -2
100
AcDbBlockReference
  2
1
 10
214.6914011443053
 20
70.4518536127837
 30
0.0
 41
1.5
 42
1.5
 43
1.5
 50
270.0
  0
MTEXT
  5
E40D
330
E33C
100
AcDbEntity
  8
2寸法線
 62
     1
440
 16777216
 48
3.0
100
AcDbMText
 10
211.9414011443053
 20
144.4518536127839
 30
0.0
 40
3.5
 41
0.0
 46
0.0
 71
     5
 72
     1
  1
\A1;148
  7
KANJI
 11
0.0000000000000001
 21
1.0
 31
0.0
 73
     1
 44
1.0
  0
POINT
  5
E40E
330
E33C
100
AcDbEntity
  8
DEFPOINTS
 62
     0
440
 16777216
 48
3.0
100
AcDbPoint
 10
185.2189100070496
 20
218.4518536127843
 30
0.0
  0
POINT
  5
E40F
330
E33C
100
AcDbEntity
  8
DEFPOINTS
 62
     0
440
 16777216
 48
3.0
100
AcDbPoint
 10
185.2189100070496
 20
70.4518536127837
 30
0.0
  0
POINT
  5
E410
330
E33C
100
AcDbEntity
  8
DEFPOINTS
 62
     0
440
 16777216
 48
3.0
100
AcDbPoint
 10
214.6914011443053
 20
70.4518536127837
 30
0.0
  0
ENDBLK
  5
E33E
330
E33C
100
AcDbEntity
  8
0
 48
3.0
100
AcDbBlockEnd
  0
BLOCK
  5
E349
330
E348
100
AcDbEntity
  8
0
 48
3.0
100
AcDbBlockBegin
  2
*D16
 70
     1
 10
0.0
 20
0.0
 30
0.0
  3
*D16
  1

  0
LINE
  5
E411
330
E348
100
AcDbEntity
  8
2寸法線
 62
     0
440
 16777216
 48
3.0
370
    -2
100
AcDbLine
 10
402.5969871954647
 20
196.451853612792
 30
0.0
 11
437.2428249337113
 21
196.451853612792
 31
0.0
  0
LINE
  5
E412
330
E348
100
AcDbEntity
  8
2寸法線
 62
     0
440
 16777216
 48
3.0
370
    -2
100
AcDbLine
 10
402.5969871954647
 20
92.45185361278439
 30
0.0
 11
437.2428249337113
 21
92.45185361278441
 31
0.0
  0
LINE
  5
E413
330
E348
100
AcDbEntity
  8
2寸法線
 62
     0
440
 16777216
 48
3.0
370
    -2
100
AcDbLine
 10
436.2428249337113
 20
194.951853612792
 30
0.0
 11
436.2428249337114
 21
93.95185361278441
 31
0.0
  0
INSERT
  5
E414
330
E348
100
AcDbEntity
  8
2寸法線
 62
     0
440
 16777216
 48
3.0
370
    -2
100
AcDbBlockReference
  2
1
 10
436.2428249337113
 20
196.451853612792
 30
0.0
 41
1.5
 42
1.5
 43
1.5
 50
90.0
  0
INSERT
  5
E415
330
E348
100
AcDbEntity
  8
2寸法線
 62
     0
440
 16777216
 48
3.0
370
    -2
100
AcDbBlockReference
  2
1
 10
436.2428249337114
 20
92.45185361278441
 30
0.0
 41
1.5
 42
1.5
 43
1.5
 50
270.0
  0
MTEXT
  5
E416
330
E348
100
AcDbEntity
  8
2寸法線
 62
     1
440
 16777216
 48
3.0
100
AcDbMText
 10
433.4928249337113
 20
144.451853612788
 30
0.0
 40
3.5
 41
0.0
 46
0.0
 71
     5
 72
     1
  1
\A1;104
  7
KANJI
 11
0.0000000000000001
 21
1.0
 31
0.0
 73
     1
 44
1.0
  0
POINT
  5
E417
330
E348
100
AcDbEntity
  8
DEFPOINTS
 62
     0
440
 16777216
 48
3.0
100
AcDbPoint
 10
400.5969871954647
 20
196.451853612792
 30
0.0
  0
POINT
  5
E418
330
E348
100
AcDbEntity
  8
DEFPOINTS
 62
     0
440
 16777216
 48
3.0
100
AcDbPoint
 10
400.5969871954647
 20
92.45185361278439
 30
0.0
  0
POINT
  5
E419
330
E348
100
AcDbEntity
  8
DEFPOINTS
 62
     0
440
 16777216
 48
3.0
100
AcDbPoint
 10
436.2428249337114
 20
92.45185361278441
 30
0.0
  0
ENDBLK
  5
E34A
330
E348
100
AcDbEntity
  8
0
 48
3.0
100
AcDbBlockEnd
  0
BLOCK
  5
E355
330
E354
100
AcDbEntity
  8
0
 48
3.0
100
AcDbBlockBegin
  2
*D17
 70
     1
 10
0.0
 20
0.0
 30
0.0
  3
*D17
  1

  0
LINE
  5
E41A
330
E354
100
AcDbEntity
  8
2寸法線
 62
     0
440
 16777216
 48
3.0
370
    -2
100
AcDbLine
 10
98.62389703283149
 20
-5.322049592001349
 30
0.0
 11
98.62389703283149
 21
46.16636307388534
 31
0.0
  0
LINE
  5
E41B
330
E354
100
AcDbEntity
  8
2寸法線
 62
     0
440
 16777216
 48
3.0
370
    -2
100
AcDbLine
 10
187.1238975692734
 20
-5.322049592001349
 30
0.0
 11
187.1238975692734
 21
46.16636307388534
 31
0.0
  0
LINE
  5
E41C
330
E354
100
AcDbEntity
  8
2寸法線
 62
     0
440
 16777216
 48
3.0
370
    -2
100
AcDbLine
 10
100.1238970328315
 20
45.16636307388535
 30
0.0
 11
185.6238975692734
 21
45.16636307388535
 31
0.0
  0
INSERT
  5
E41D
330
E354
100
AcDbEntity
  8
2寸法線
 62
     0
440
 16777216
 48
3.0
370
    -2
100
AcDbBlockReference
  2
1
 10
98.62389703283149
 20
45.16636307388535
 30
0.0
 41
1.5
 42
1.5
 43
1.5
 50
180.0
  0
INSERT
  5
E41E
330
E354
100
AcDbEntity
  8
2寸法線
 62
     0
440
 16777216
 48
3.0
370
    -2
100
AcDbBlockReference
  2
1
 10
187.1238975692734
 20
45.16636307388535
 30
0.0
 41
1.5
 42
1.5
 43
1.5
  0
MTEXT
  5
E41F
330
E354
100
AcDbEntity
  8
2寸法線
 62
     1
440
 16777216
 48
3.0
100
AcDbMText
 10
142.8738973010524
 20
47.91636307388535
 30
0.0
 40
3.5
 41
0.0
 46
0.0
 71
     5
 72
     1
  1
\A1;89
  7
KANJI
 73
     1
 44
1.0
  0
POINT
  5
E420
330
E354
100
AcDbEntity
  8
DEFPOINTS
 62
     0
440
 16777216
 48
3.0
100
AcDbPoint
 10
98.62389703283149
 20
-7.322049592001349
 30
0.0
  0
POINT
  5
E421
330
E354
100
AcDbEntity
  8
DEFPOINTS
 62
     0
440
 16777216
 48
3.0
100
AcDbPoint
 10
187.1238975692734
 20
-7.322049592001349
 30
0.0
  0
POINT
  5
E422
330
E354
100
AcDbEntity
  8
DEFPOINTS
 62
     0
440
 16777216
 48
3.0
100
AcDbPoint
 10
187.1238975692734
 20
45.16636307388535
 30
0.0
  0
ENDBLK
  5
E356
330
E354
100
AcDbEntity
  8
0
 48
3.0
100
AcDbBlockEnd
  0
BLOCK
  5
E361
330
E360
100
AcDbEntity
  8
0
 48
3.0
100
AcDbBlockBegin
  2
*D18
 70
     1
 10
0.0
 20
0.0
 30
0.0
  3
*D18
  1

  0
LINE
  5
E423
330
E360
100
AcDbEntity
  8
2寸法線
 62
     0
440
 16777216
 48
3.0
370
    -2
100
AcDbLine
 10
144.8748929903458
 20
37.77795040774484
 30
0.0
 11
215.6914011443053
 21
37.77795040774484
 31
0.0
  0
LINE
  5
E424
330
E360
100
AcDbEntity
  8
2寸法線
 62
     0
440
 16777216
 48
3.0
370
    -2
100
AcDbLine
 10
205.1238975691623
 20
-7.322049592001352
 30
0.0
 11
215.6914011443053
 21
-7.32204959200135
 31
0.0
  0
LINE
  5
E425
330
E360
100
AcDbEntity
  8
2寸法線
 62
     0
440
 16777216
 48
3.0
370
    -2
100
AcDbLine
 10
214.6914011443053
 20
36.27795040774484
 30
0.0
 11
214.6914011443053
 21
-5.822049592001349
 31
0.0
  0
INSERT
  5
E426
330
E360
100
AcDbEntity
  8
2寸法線
 62
     0
440
 16777216
 48
3.0
370
    -2
100
AcDbBlockReference
  2
1
 10
214.6914011443053
 20
37.77795040774484
 30
0.0
 41
1.5
 42
1.5
 43
1.5
 50
90.0
  0
INSERT
  5
E427
330
E360
100
AcDbEntity
  8
2寸法線
 62
     0
440
 16777216
 48
3.0
370
    -2
100
AcDbBlockReference
  2
1
 10
214.6914011443053
 20
-7.32204959200135
 30
0.0
 41
1.5
 42
1.5
 43
1.5
 50
270.0
  0
MTEXT
  5
E428
330
E360
100
AcDbEntity
  8
2寸法線
 62
     1
440
 16777216
 48
3.0
100
AcDbMText
 10
211.9414011443053
 20
15.22795040787168
 30
0.0
 40
3.5
 41
0.0
 46
0.0
 71
     5
 72
     1
  1
\A1;45
  7
KANJI
 11
0.0000000000000001
 21
1.0
 31
0.0
 73
     1
 44
1.0
  0
POINT
  5
E429
330
E360
100
AcDbEntity
  8
DEFPOINTS
 62
     0
440
 16777216
 48
3.0
100
AcDbPoint
 10
142.8748929903458
 20
37.77795040774483
 30
0.0
  0
POINT
  5
E42A
330
E360
100
AcDbEntity
  8
DEFPOINTS
 62
     0
440
 16777216
 48
3.0
100
AcDbPoint
 10
203.1238975691623
 20
-7.322049592001352
 30
0.0
  0
POINT
  5
E42B
330
E360
100
AcDbEntity
  8
DEFPOINTS
 62
     0
440
 16777216
 48
3.0
100
AcDbPoint
 10
214.6914011443053
 20
-7.32204959200135
 30
0.0
  0
ENDBLK
  5
E362
330
E360
100
AcDbEntity
  8
0
 48
3.0
100
AcDbBlockEnd
  0
BLOCK
  5
E36D
330
E36C
100
AcDbEntity
  8
0
 48
3.0
100
AcDbBlockBegin
  2
*D19
 70
     1
 10
0.0
 20
0.0
 30
0.0
  3
*D19
  1

  0
LINE
  5
E42C
330
E36C
100
AcDbEntity
  8
2寸法線
 62
     0
440
 16777216
 48
3.0
370
    -2
100
AcDbLine
 10
393.5969871954636
 20
200.9518538512097
 30
0.0
 11
384.0691216723225
 21
200.9518538512097
 31
0.0
  0
LINE
  5
E42D
330
E36C
100
AcDbEntity
  8
2寸法線
 62
     0
440
 16777216
 48
3.0
370
    -2
100
AcDbLine
 10
393.5969871954638
 20
191.9518538512093
 30
0.0
 11
384.0691216723225
 21
191.9518538512093
 31
0.0
  0
LINE
  5
E42E
330
E36C
100
AcDbEntity
  8
2寸法線
 62
     0
440
 16777216
 48
3.0
370
    -2
100
AcDbLine
 10
385.0691216723225
 20
199.4518538512096
 30
0.0
 11
385.0691216723225
 21
193.4518538512094
 31
0.0
  0
INSERT
  5
E42F
330
E36C
100
AcDbEntity
  8
2寸法線
 62
     0
440
 16777216
 48
3.0
370
    -2
100
AcDbBlockReference
  2
1
 10
385.0691216723225
 20
200.9518538512097
 30
0.0
 41
1.5
 42
1.5
 43
1.5
 50
90.0
  0
INSERT
  5
E430
330
E36C
100
AcDbEntity
  8
2寸法線
 62
     0
440
 16777216
 48
3.0
370
    -2
100
AcDbBlockReference
  2
1
 10
385.0691216723225
 20
191.9518538512093
 30
0.0
 41
1.5
 42
1.5
 43
1.5
 50
270.0
  0
MTEXT
  5
E431
330
E36C
100
AcDbEntity
  8
2寸法線
 62
     1
440
 16777216
 48
3.0
100
AcDbMText
 10
382.3191216723224
 20
196.4518538512093
 30
0.0
 40
3.5
 41
0.0
 46
0.0
 71
     5
 72
     1
  1
\A1;9
  7
KANJI
 11
0.0000000000000001
 21
1.0
 31
0.0
 73
     1
 44
1.0
  0
POINT
  5
E432
330
E36C
100
AcDbEntity
  8
DEFPOINTS
 62
     0
440
 16777216
 48
3.0
100
AcDbPoint
 10
395.5969871954636
 20
200.9518538512097
 30
0.0
  0
POINT
  5
E433
330
E36C
100
AcDbEntity
  8
DEFPOINTS
 62
     0
440
 16777216
 48
3.0
100
AcDbPoint
 10
395.5969871954638
 20
191.9518538512093
 30
0.0
  0
POINT
  5
E434
330
E36C
100
AcDbEntity
  8
DEFPOINTS
 62
     0
440
 16777216
 48
3.0
100
AcDbPoint
 10
385.0691216723225
 20
191.9518538512093
 30
0.0
  0
ENDBLK
  5
E36E
330
E36C
100
AcDbEntity
  8
0
 48
3.0
100
AcDbBlockEnd
  0
BLOCK
  5
E379
330
E378
100
AcDbEntity
  8
0
 48
3.0
100
AcDbBlockBegin
  2
*D20
 70
     1
 10
0.0
 20
0.0
 30
0.0
  3
*D20
  1

  0
LINE
  5
E435
330
E378
100
AcDbEntity
  8
2寸法線
 62
     0
440
 16777216
 48
3.0
370
    -2
100
AcDbLine
 10
397.6969871954641
 20
192.0518538512096
 30
0.0
 11
397.6969871954641
 21
184.2485125419912
 31
0.0
  0
LINE
  5
E436
330
E378
100
AcDbEntity
  8
2寸法線
 62
     0
440
 16777216
 48
3.0
370
    -2
100
AcDbLine
 10
393.4969871954636
 20
192.0518538512096
 30
0.0
 11
393.4969871954636
 21
184.2485125419912
 31
0.0
  0
LINE
  5
E437
330
E378
100
AcDbEntity
  8
2寸法線
 62
     0
440
 16777216
 48
3.0
370
    -2
100
AcDbLine
 10
399.1969871954641
 20
185.2485125419912
 30
0.0
 11
400.696987195464
 21
185.2485125419912
 31
0.0
  0
LINE
  5
E438
330
E378
100
AcDbEntity
  8
2寸法線
 62
     0
440
 16777216
 48
3.0
370
    -2
100
AcDbLine
 10
391.9969871954636
 20
185.2485125419912
 30
0.0
 11
381.1636538621303
 21
185.2485125419912
 31
0.0
  0
LINE
  5
E439
330
E378
100
AcDbEntity
  8
2寸法線
 62
     0
440
 16777216
 48
3.0
370
    -2
100
AcDbLine
 10
397.6969871954641
 20
185.2485125419912
 30
0.0
 11
393.4969871954636
 21
185.2485125419912
 31
0.0
  0
INSERT
  5
E43A
330
E378
100
AcDbEntity
  8
2寸法線
 62
     0
440
 16777216
 48
3.0
370
    -2
100
AcDbBlockReference
  2
1
 10
397.6969871954641
 20
185.2485125419912
 30
0.0
 41
1.5
 42
1.5
 43
1.5
 50
180.0
  0
INSERT
  5
E43B
330
E378
100
AcDbEntity
  8
2寸法線
 62
     0
440
 16777216
 48
3.0
370
    -2
100
AcDbBlockReference
  2
1
 10
393.4969871954636
 20
185.2485125419912
 30
0.0
 41
1.5
 42
1.5
 43
1.5
  0
MTEXT
  5
E43C
330
E378
100
AcDbEntity
  8
2寸法線
 62
     1
440
 16777216
 48
3.0
100
AcDbMText
 10
385.8303205287969
 20
187.9985125419912
 30
0.0
 40
3.5
 41
0.0
 46
0.0
 71
     5
 72
     1
  1
\A1;4.2
  7
KANJI
 73
     1
 44
1.0
  0
POINT
  5
E43D
330
E378
100
AcDbEntity
  8
DEFPOINTS
 62
     0
440
 16777216
 48
3.0
100
AcDbPoint
 10
397.6969871954641
 20
194.0518538512096
 30
0.0
  0
POINT
  5
E43E
330
E378
100
AcDbEntity
  8
DEFPOINTS
 62
     0
440
 16777216
 48
3.0
100
AcDbPoint
 10
393.4969871954636
 20
194.0518538512096
 30
0.0
  0
POINT
  5
E43F
330
E378
100
AcDbEntity
  8
DEFPOINTS
 62
     0
440
 16777216
 48
3.0
100
AcDbPoint
 10
393.4969871954636
 20
185.2485125419912
 30
0.0
  0
ENDBLK
  5
E37A
330
E378
100
AcDbEntity
  8
0
 48
3.0
100
AcDbBlockEnd
  0
BLOCK
  5
E387
330
E386
100
AcDbEntity
  8
0
 48
3.0
100
AcDbBlockBegin
  2
*D21
 70
     1
 10
0.0
 20
0.0
 30
0.0
  3
*D21
  1

  0
LINE
  5
E440
330
E386
100
AcDbEntity
  8
2寸法線
 62
     0
440
 16777216
 48
3.0
370
    -2
100
AcDbLine
 10
337.5969871954653
 20
82.95185361278369
 30
0.0
 11
337.5969871954653
 21
58.35762410455891
 31
0.0
  0
LINE
  5
E441
330
E386
100
AcDbEntity
  8
2寸法線
 62
     0
440
 16777216
 48
3.0
370
    -2
100
AcDbLine
 10
395.5969871954644
 20
82.95185361278369
 30
0.0
 11
395.5969871954644
 21
58.35762410455891
 31
0.0
  0
LINE
  5
E442
330
E386
100
AcDbEntity
  8
2寸法線
 62
     0
440
 16777216
 48
3.0
370
    -2
100
AcDbLine
 10
339.0969871954653
 20
59.35762410455891
 30
0.0
 11
394.0969871954644
 21
59.35762410455891
 31
0.0
  0
INSERT
  5
E443
330
E386
100
AcDbEntity
  8
2寸法線
 62
     0
440
 16777216
 48
3.0
370
    -2
100
AcDbBlockReference
  2
1
 10
337.5969871954653
 20
59.35762410455891
 30
0.0
 41
1.5
 42
1.5
 43
1.5
 50
180.0
  0
INSERT
  5
E444
330
E386
100
AcDbEntity
  8
2寸法線
 62
     0
440
 16777216
 48
3.0
370
    -2
100
AcDbBlockReference
  2
1
 10
395.5969871954644
 20
59.35762410455891
 30
0.0
 41
1.5
 42
1.5
 43
1.5
  0
MTEXT
  5
E445
330
E386
100
AcDbEntity
  8
2寸法線
 62
     1
440
 16777216
 48
3.0
100
AcDbMText
 10
366.5969871954648
 20
62.10762410455891
 30
0.0
 40
3.5
 41
0.0
 46
0.0
 71
     5
 72
     1
  1
\A1;58
  7
KANJI
 73
     1
 44
1.0
  0
POINT
  5
E446
330
E386
100
AcDbEntity
  8
DEFPOINTS
 62
     0
440
 16777216
 48
3.0
100
AcDbPoint
 10
337.5969871954653
 20
84.95185361278368
 30
0.0
  0
POINT
  5
E447
330
E386
100
AcDbEntity
  8
DEFPOINTS
 62
     0
440
 16777216
 48
3.0
100
AcDbPoint
 10
395.5969871954644
 20
84.95185361278368
 30
0.0
  0
POINT
  5
E448
330
E386
100
AcDbEntity
  8
DEFPOINTS
 62
     0
440
 16777216
 48
3.0
100
AcDbPoint
 10
395.5969871954644
 20
59.35762410455891
 30
0.0
  0
ENDBLK
  5
E388
330
E386
100
AcDbEntity
  8
0
 48
3.0
100
AcDbBlockEnd
  0
BLOCK
  5
E393
330
E392
100
AcDbEntity
  8
0
 48
3.0
100
AcDbBlockBegin
  2
*D22
 70
     1
 10
0.0
 20
0.0
 30
0.0
  3
*D22
  1

  0
LINE
  5
E449
330
E392
100
AcDbEntity
  8
2寸法線
 62
     0
440
 16777216
 48
3.0
370
    -2
100
AcDbLine
 10
388.8469859544777
 20
80.45185594482498
 30
0.0
 11
423.3833438502896
 21
80.451855944825
 31
0.0
  0
LINE
  5
E44A
330
E392
100
AcDbEntity
  8
2寸法線
 62
     0
440
 16777216
 48
3.0
370
    -2
100
AcDbLine
 10
411.122875846585
 20
70.45185474528174
 30
0.0
 11
423.3833438502896
 21
70.45185474528175
 31
0.0
  0
LINE
  5
E44B
330
E392
100
AcDbEntity
  8
2寸法線
 62
     0
440
 16777216
 48
3.0
370
    -2
100
AcDbLine
 10
422.3833438502897
 20
78.951855944825
 30
0.0
 11
422.3833438502897
 21
71.95185474528175
 31
0.0
  0
INSERT
  5
E44C
330
E392
100
AcDbEntity
  8
2寸法線
 62
     0
440
 16777216
 48
3.0
370
    -2
100
AcDbBlockReference
  2
1
 10
422.3833438502897
 20
80.451855944825
 30
0.0
 41
1.5
 42
1.5
 43
1.5
 50
90.0
  0
INSERT
  5
E44D
330
E392
100
AcDbEntity
  8
2寸法線
 62
     0
440
 16777216
 48
3.0
370
    -2
100
AcDbBlockReference
  2
1
 10
422.3833438502897
 20
70.45185474528175
 30
0.0
 41
1.5
 42
1.5
 43
1.5
 50
270.0
  0
MTEXT
  5
E44E
330
E392
100
AcDbEntity
  8
2寸法線
 62
     1
440
 16777216
 48
3.0
100
AcDbMText
 10
419.6333438502895
 20
75.45185534505323
 30
0.0
 40
3.5
 41
0.0
 46
0.0
 71
     5
 72
     1
  1
\A1;10
  7
KANJI
 11
0.0000000000000001
 21
1.0
 31
0.0
 73
     1
 44
1.0
  0
POINT
  5
E44F
330
E392
100
AcDbEntity
  8
DEFPOINTS
 62
     0
440
 16777216
 48
3.0
100
AcDbPoint
 10
386.8469859544777
 20
80.45185594482498
 30
0.0
  0
POINT
  5
E450
330
E392
100
AcDbEntity
  8
DEFPOINTS
 62
     0
440
 16777216
 48
3.0
100
AcDbPoint
 10
409.1228758465851
 20
70.45185474528174
 30
0.0
  0
POINT
  5
E451
330
E392
100
AcDbEntity
  8
DEFPOINTS
 62
     0
440
 16777216
 48
3.0
100
AcDbPoint
 10
422.3833438502897
 20
70.45185474528175
 30
0.0
  0
ENDBLK
  5
E394
330
E392
100
AcDbEntity
  8
0
 48
3.0
100
AcDbBlockEnd
  0
ENDSEC
  0
SECTION
  2
ENTITIES
  0
LINE
  5
E1D6
330
17
100
AcDbEntity
  8
1外形線
  6
Continuous
370
    15
100
AcDbLine
 10
98.62389756916172
 20
103.8872335704095
 30
0.0
 11
98.62389756916172
 21
81.59881905057364
 31
0.0
  0
ELLIPSE
  5
E1D7
330
17
100
AcDbEntity
  8
1外形線
  6
Continuous
370
    15
100
AcDbEllipse
 10
121.6274011141718
 20
81.59881905057364
 30
0.0
 11
-23.00350354500984
 21
0.0000000000398993
 31
0.0
210
0.0
220
0.0
230
1.0
 40
0.9998476951574669
 41
0.0000000000016716
 42
0.0996535727825785
  0
LINE
  5
E1D8
330
17
100
AcDbEntity
  8
1外形線
  6
Continuous
370
    15
100
AcDbLine
 10
99.55185666629269
 20
71.17226264147394
 30
0.0
 11
98.73802506789843
 21
79.3105786254182
 31
0.0
  0
ELLIPSE
  5
E1D9
330
17
100
AcDbEntity
  8
1外形線
  6
Continuous
370
    15
100
AcDbEllipse
 10
100.3480088765977
 20
71.25185361278363
 30
0.0
 11
-0.8001218624350235
 21
-0.000000000692448
 31
0.0
210
0.0
220
0.0
230
1.0
 40
0.9998476951565157
 41
0.0996535719153773
 42
1.5707963259296
  0
LINE
  5
E1DA
330
17
100
AcDbEntity
  8
1外形線
  6
Continuous
370
    15
100
AcDbLine
 10
241.7516352661355
 20
207.3048881851237
 30
0.0
 11
241.7516352661355
 21
81.59881904044368
 31
0.0
  0
ARC
  5
E1DB
330
17
100
AcDbEntity
  8
1外形線
  6
Continuous
370
    15
100
AcDbCircle
 10
264.7516352661355
 20
207.3048881851237
 30
0.0
 40
23.00000000000001
100
AcDbArc
 50
174.2902709669511
 51
180.0
  0
ARC
  5
E1DC
330
17
100
AcDbEntity
  8
1外形線
  6
Continuous
370
    15
100
AcDbCircle
 10
264.7516352661355
 20
81.59881904044368
 30
0.0
 40
23.00000000000005
100
AcDbArc
 50
180.0
 51
185.7097290330489
  0
LINE
  5
E1DD
330
17
100
AcDbEntity
  8
1外形線
  6
Continuous
370
    15
100
AcDbLine
 10
241.8657451310096
 20
79.31058113512017
 30
0.0
 11
242.6794529792137
 21
71.17226265285762
 31
0.0
  0
LINE
  5
E1DE
330
17
100
AcDbEntity
  8
1外形線
  6
Continuous
370
    15
100
AcDbLine
 10
242.6794529792137
 20
217.7314445727102
 30
0.0
 11
241.8657453789324
 21
209.5931285700549
 31
0.0
  0
ARC
  5
E1DF
330
17
100
AcDbEntity
  8
1外形線
  6
Continuous
370
    15
100
AcDbCircle
 10
243.4754839160701
 20
217.6518536127837
 30
0.0
 40
0.799999999999992
100
AcDbArc
 50
90.0
 51
173.629516794053
  0
ARC
  5
E1E0
330
17
100
AcDbEntity
  8
1外形線
  6
Continuous
370
    15
100
AcDbCircle
 10
243.4754839160701
 20
71.25185361278363
 30
0.0
 40
0.800000000000011
100
AcDbArc
 50
186.1936038138902
 51
270.0
  0
LINE
  5
E1E1
330
17
100
AcDbEntity
  8
1外形線
  6
Continuous
370
    15
100
AcDbLine
 10
284.551985567276
 20
174.4598763505096
 30
0.0
 11
284.551985567276
 21
114.3997440828609
 31
0.0
  0
ARC
  5
E1E2
330
17
100
AcDbEntity
  8
1外形線
370
    15
100
AcDbCircle
 10
286.551985567276
 20
174.4598763505096
 30
0.0
 40
2.0
100
AcDbArc
 50
90.0
 51
180.0
  0
LINE
  5
E1E3
330
17
100
AcDbEntity
  8
1外形線
  6
Continuous
370
    15
100
AcDbLine
 10
286.851635266135
 20
185.5860299721207
 30
0.0
 11
286.851635266135
 21
108.3176772534468
 31
0.0
  0
LINE
  5
E1E4
330
17
100
AcDbEntity
  8
1外形線
  6
Continuous
370
    15
100
AcDbLine
 10
286.851635266135
 20
185.5860299721207
 30
0.0
 11
286.851635266135
 21
189.9726810803854
 31
0.0
  0
LINE
  5
E1E5
330
17
100
AcDbEntity
  8
1外形線
  6
Continuous
370
    15
100
AcDbLine
 10
286.5514699333421
 20
112.3997441493306
 30
0.0
 11
286.8511191885513
 21
112.3997442158002
 31
0.0
  0
ARC
  5
E1E6
330
17
100
AcDbEntity
  8
1外形線
  6
Continuous
370
    15
100
AcDbCircle
 10
286.551985567276
 20
114.3997440828609
 30
0.0
 40
2.0
100
AcDbArc
 50
180.0
 51
270.0000127096016
  0
LINE
  5
E1E7
330
17
100
AcDbEntity
  8
1外形線
  6
Continuous
370
    15
100
AcDbLine
 10
286.851635266135
 20
103.9310256350634
 30
0.0
 11
286.851635266135
 21
108.3176772534468
 31
0.0
  0
LINE
  5
E1E8
330
17
100
AcDbEntity
  8
1外形線
  6
Continuous
370
    15
100
AcDbLine
 10
286.851635266135
 20
81.59881905057455
 30
0.0
 11
286.851635266135
 21
103.9310256350634
 31
0.0
  0
LINE
  5
E1E9
330
17
100
AcDbEntity
  8
1外形線
  6
Continuous
370
    15
100
AcDbLine
 10
286.851635266135
 20
189.9726810803854
 30
0.0
 11
286.851635266135
 21
207.3048881749928
 31
0.0
  0
LINE
  5
E1EA
330
17
100
AcDbEntity
  8
1外形線
  6
Continuous
370
    15
100
AcDbLine
 10
286.851635266135
 20
81.59881905057455
 30
0.0
 11
286.851635266135
 21
79.31057862541888
 31
0.0
  0
LINE
  5
E1EB
330
17
100
AcDbEntity
  8
1外形線
  6
Continuous
370
    15
100
AcDbLine
 10
286.851635266135
 20
209.5931286001483
 30
0.0
 11
286.851635266135
 21
207.3048881749928
 31
0.0
  0
SPLINE
  5
E1EC
330
17
100
AcDbEntity
  8
1外形線
  6
Continuous
370
    15
100
AcDbSpline
210
0.0
220
0.0
230
1.0
 70
    24
 71
     3
 72
    28
 73
    24
 74
     0
 42
0.000000001
 43
0.0000000001
 40
0.0
 40
0.0
 40
0.0
 40
0.0
 40
0.1249999999999994
 40
0.1249999999999994
 40
0.1874999999999991
 40
0.1874999999999991
 40
0.2499999999999988
 40
0.2499999999999988
 40
0.374999999999998
 40
0.374999999999998
 40
0.4374999999999979
 40
0.4374999999999979
 40
0.4999999999999977
 40
0.4999999999999977
 40
0.6249999999999983
 40
0.6249999999999983
 40
0.6874999999999986
 40
0.6874999999999986
 40
0.7499999999999987
 40
0.7499999999999987
 40
0.8749999999999992
 40
0.8749999999999992
 40
1.0
 40
1.0
 40
1.0
 40
1.0
 10
243.5786540932436
 20
218.4518536127839
 30
0.0
 10
243.5924533946113
 20
218.4518536127839
 30
0.0
 10
243.7452546414756
 20
218.4518536127839
 30
0.0
 10
244.1743773149906
 20
218.4518536127839
 30
0.0
 10
244.3509778727898
 20
218.4518536127839
 30
0.0
 10
244.7727118159305
 20
218.4518536127839
 30
0.0
 10
245.0192697577208
 20
218.4518536127839
 30
0.0
 10
245.847980994436
 20
218.4518536127839
 30
0.0
 10
246.5207957456791
 20
218.4518536127839
 30
0.0
 10
247.7080171275261
 20
218.4518536127839
 30
0.0
 10
248.1336255327637
 20
218.4518536127839
 30
0.0
 10
249.0467087528973
 20
218.4518536127839
 30
0.0
 10
249.5266970455182
 20
218.4518536127839
 30
0.0
 10
251.0343270178168
 20
218.4518536127839
 30
0.0
 10
252.1291363977876
 20
218.4518536127839
 30
0.0
 10
253.9078054474244
 20
218.4518536127839
 30
0.0
 10
254.5264039207664
 20
218.4518536127839
 30
0.0
 10
255.7848491037926
 20
218.4518536127839
 30
0.0
 10
256.4270027395746
 20
218.4518536127839
 30
0.0
 10
258.3914527228412
 20
218.4518536127839
 30
0.0
 10
259.75137680132
 20
218.4518536127839
 30
0.0
 10
262.5761022420406
 20
218.4518536127839
 30
0.0
 10
264.0047915160108
 20
218.4518536127839
 30
0.0
 10
265.4493886252744
 20
218.4518536127839
 30
0.0
  0
SPLINE
  5
E1ED
330
17
100
AcDbEntity
  8
1外形線
  6
Continuous
370
    15
100
AcDbSpline
210
0.0
220
0.0
230
1.0
 70
    24
 71
     3
 72
    28
 73
    24
 74
     0
 42
0.000000001
 43
0.0000000001
 40
0.0
 40
0.0
 40
0.0
 40
0.0
 40
0.1249999999999994
 40
0.1249999999999994
 40
0.1874999999999993
 40
0.1874999999999993
 40
0.2499999999999992
 40
0.2499999999999992
 40
0.3749999999999991
 40
0.3749999999999991
 40
0.4374999999999992
 40
0.4374999999999992
 40
0.4999999999999992
 40
0.4999999999999992
 40
0.6249999999999999
 40
0.6249999999999999
 40
0.6875
 40
0.6875
 40
0.75
 40
0.75
 40
0.8749999999999998
 40
0.8749999999999998
 40
1.0
 40
1.0
 40
1.0
 40
1.0
 10
265.4493886252744
 20
70.45185361278368
 30
0.0
 10
264.0047912997029
 20
70.45185361278368
 30
0.0
 10
262.5864298231704
 20
70.45185361278368
 30
0.0
 10
260.4966216519819
 20
70.45185361278368
 30
0.0
 10
259.8063531377943
 20
70.45185361278368
 30
0.0
 10
258.4387513182532
 20
70.45185361278368
 30
0.0
 10
257.7587430961198
 20
70.45185361278368
 30
0.0
 10
255.7798581932007
 20
70.45185361278368
 30
0.0
 10
254.529836342675
 20
70.45185361278368
 30
0.0
 10
252.7572106958464
 20
70.45185361278368
 30
0.0
 10
252.1835192064359
 20
70.45185361278368
 30
0.0
 10
251.0717294193778
 20
70.45185361278368
 30
0.0
 10
250.5427536241364
 20
70.45185361278368
 30
0.0
 10
249.0340927827615
 20
70.45185361278368
 30
0.0
 10
248.1318360107921
 20
70.45185361278368
 30
0.0
 10
246.9358850687017
 20
70.45185361278368
 30
0.0
 10
246.562458389641
 20
70.45185361278368
 30
0.0
 10
245.8842801869728
 20
70.45185361278368
 30
0.0
 10
245.5776337017182
 20
70.45185361278391
 30
0.0
 10
244.7530048052645
 20
70.45185361278391
 30
0.0
 10
244.3294263767925
 20
70.45185361278391
 30
0.0
 10
243.7453955229171
 20
70.45185361278391
 30
0.0
 10
243.5924533966777
 20
70.45185361278391
 30
0.0
 10
243.5786540932436
 20
70.45185361278391
 30
0.0
  0
LINE
  5
E1EE
330
17
100
AcDbEntity
  8
1外形線
  6
Continuous
370
    15
100
AcDbLine
 10
286.851635266135
 20
79.31057862541888
 30
0.0
 11
286.851635266135
 21
70.45185361278368
 31
0.0
  0
LINE
  5
E1EF
330
17
100
AcDbEntity
  8
1外形線
  6
Continuous
370
    15
100
AcDbLine
 10
286.851635266135
 20
209.5931286001483
 30
0.0
 11
286.851635266135
 21
218.4518536127839
 31
0.0
  0
LINE
  5
E1F0
330
17
100
AcDbEntity
  8
1外形線
  6
Continuous
370
    15
100
AcDbLine
 10
286.851635266135
 20
70.45185361278368
 30
0.0
 11
265.4493886286969
 21
70.45185361278368
 31
0.0
  0
LINE
  5
E1F1
330
17
100
AcDbEntity
  8
1外形線
  6
Continuous
370
    15
100
AcDbLine
 10
265.4493886286969
 20
218.4518536127839
 30
0.0
 11
286.851635266135
 21
218.4518536127839
 31
0.0
  0
SPLINE
  5
E1F2
330
17
100
AcDbEntity
  8
1外形線
  6
Continuous
370
    15
100
AcDbSpline
210
0.0
220
0.0
230
1.0
 70
    24
 71
     3
 72
     8
 73
     4
 74
     0
 42
0.000000001
 43
0.0000000001
 40
0.0
 40
0.0
 40
0.0
 40
0.0
 40
1.0
 40
1.0
 40
1.0
 40
1.0
 10
243.5786538948992
 20
70.45185361278391
 30
0.0
 10
243.5098212561475
 20
70.45185361278391
 30
0.0
 10
243.4754331010067
 20
70.45185361278391
 30
0.0
 10
243.4754839724269
 20
70.45185361278391
 30
0.0
  0
ARC
  5
E1F3
330
17
100
AcDbEntity
  8
1外形線
 48
2.0
100
AcDbCircle
 10
122.6238975691622
 20
144.4298102499201
 30
0.0
 40
40.0
100
AcDbArc
 50
179.9684252069478
 51
233.201939947677
  0
ARC
  5
E1F4
330
17
100
AcDbEntity
  8
1外形線
 48
2.0
100
AcDbCircle
 10
163.1238975691626
 20
144.4298102499201
 30
0.0
 40
40.0
100
AcDbArc
 50
306.798060052323
 51
0.0315747930522013
  0
LINE
  5
E1F5
330
17
100
AcDbEntity
  8
1外形線
 48
2.0
100
AcDbLine
 10
286.551985567276
 20
176.4598763505096
 30
0.0
 11
286.851635266135
 21
176.4598763505096
 31
0.0
  0
LINE
  5
E1F6
330
17
100
AcDbEntity
  8
C4
 48
2.0
100
AcDbLine
 10
98.62389756916172
 20
81.59881905057364
 30
0.0
 11
98.62389756916172
 21
144.4518536127839
 31
0.0
  0
LINE
  5
E1F7
330
17
100
AcDbEntity
  8
1外形線
  6
Continuous
370
    15
100
AcDbLine
 10
187.1238975691617
 20
103.8872335704095
 30
0.0
 11
187.1238975691617
 21
81.59881905057364
 31
0.0
  0
ELLIPSE
  5
E1F8
330
17
100
AcDbEntity
  8
1外形線
  6
Continuous
370
    15
100
AcDbEllipse
 10
164.1203940241516
 20
81.59881905057364
 30
0.0
 11
-23.00350354500984
 21
-0.0000000000398965
 31
0.0
210
0.0
220
0.0
230
-1.0
 40
0.9998476951574669
 41
3.141592653591464
 42
3.241246226372371
  0
LINE
  5
E1F9
330
17
100
AcDbEntity
  8
1外形線
  6
Continuous
370
    15
100
AcDbLine
 10
186.2139471972591
 20
71.35234989376249
 30
0.0
 11
187.009770070425
 21
79.3105786254182
 31
0.0
  0
LINE
  5
E1FA
330
17
100
AcDbEntity
  8
C4
 48
2.0
100
AcDbLine
 10
187.1238975691617
 20
81.59881905057364
 30
0.0
 11
187.1238975691611
 21
144.4518536127839
 31
0.0
  0
LINE
  5
E1FB
330
17
100
AcDbEntity
  8
C4
 48
2.0
100
AcDbLine
 10
100.3480088765977
 20
70.45185361278368
 30
0.0
 11
185.2189100070495
 21
70.45185361278368
 31
0.0
  0
ARC
  5
E1FC
330
17
100
AcDbEntity
  8
C4
 48
2.0
100
AcDbCircle
 10
185.2189100070495
 20
71.45185361278368
 30
0.0
 40
1.0
100
AcDbArc
 50
270.0
 51
354.2894068625026
  0
LINE
  5
E1FD
330
17
100
AcDbEntity
  8
1外形線
  6
Continuous
370
    15
100
AcDbLine
 10
322.3469871954644
 20
207.3048881749937
 30
0.0
 11
322.3469871954644
 21
190.0164718527398
 31
0.0
  0
ELLIPSE
  5
E1FE
330
17
100
AcDbEntity
  8
1外形線
  6
Continuous
370
    15
100
AcDbEllipse
 10
345.3504907404745
 20
207.3048881749937
 30
0.0
 11
-23.00350354500984
 21
0.0000000000247381
 31
0.0
210
0.0
220
0.0
230
1.0
 40
0.9998476951571623
 41
-0.0996535727797705
 42
0.0000000000011371
  0
LINE
  5
E1FF
330
17
100
AcDbEntity
  8
1外形線
  6
Continuous
370
    15
100
AcDbLine
 10
323.2749462925954
 20
217.7314445840934
 30
0.0
 11
322.4611146942011
 21
209.5931286001492
 31
0.0
  0
ELLIPSE
  5
E200
330
17
100
AcDbEntity
  8
1外形線
  6
Continuous
370
    15
100
AcDbEllipse
 10
324.0710985029005
 20
217.6518536127837
 30
0.0
 11
-0.8001218624350649
 21
-0.0000000004894929
 31
0.0
210
0.0
220
0.0
230
1.0
 40
0.9998476951564819
 41
4.71238897977301
 42
6.183531733786712
  0
ARC
  5
E201
330
17
100
AcDbEntity
  8
1外形線
 48
2.0
100
AcDbCircle
 10
346.3469871954649
 20
144.4298102499201
 30
0.0
 40
40.0
100
AcDbArc
 50
126.8698976458313
 51
179.9684252069478
  0
ARC
  5
E202
330
17
100
AcDbEntity
  8
1外形線
 48
2.0
100
AcDbCircle
 10
346.3469871954649
 20
144.4298102499201
 30
0.0
 40
39.4
100
AcDbArc
 50
127.5271326060974
 51
131.2921305428858
  0
ARC
  5
E203
330
17
100
AcDbEntity
  8
1外形線
 48
2.0
100
AcDbCircle
 10
386.8469871954653
 20
144.4298102499201
 30
0.0
 40
40.0
100
AcDbArc
 50
0.0315747930522013
 51
53.13010235416862
  0
ARC
  5
E204
330
17
100
AcDbEntity
  8
1外形線
 48
2.0
100
AcDbCircle
 10
386.8469871954653
 20
144.4298102499201
 30
0.0
 40
39.4
100
AcDbArc
 50
48.70786945711417
 51
52.4728673939026
  0
LINE
  5
E205
330
17
100
AcDbEntity
  8
C4
 48
2.0
100
AcDbLine
 10
324.3469871954644
 20
144.4518536127839
 30
0.0
 11
324.3469871954644
 21
218.4518536127839
 31
0.0
  0
LINE
  5
E206
330
17
100
AcDbEntity
  8
C4
 48
2.0
100
AcDbLine
 10
322.3469871954644
 20
144.4518536127839
 30
0.0
 11
322.3469871954644
 21
175.676570081941
 31
0.0
  0
LINE
  5
E207
330
17
100
AcDbEntity
  8
C4
 48
2.0
100
AcDbLine
 10
320.3469871954644
 20
144.4518536127839
 30
0.0
 11
320.3469871954644
 21
174.0331884355232
 31
0.0
  0
LINE
  5
E208
330
17
100
AcDbEntity
  8
C4
 48
2.0
100
AcDbLine
 10
322.3469871954644
 20
176.4298102499197
 30
0.0
 11
322.3469871954644
 21
207.3048881749937
 31
0.0
  0
ELLIPSE
  5
E209
330
17
100
AcDbEntity
  8
1外形線
  6
Continuous
370
    15
100
AcDbEllipse
 10
387.8434836504543
 20
207.3048881749937
 30
0.0
 11
-23.00350354500984
 21
-0.0000000000247353
 31
0.0
210
0.0
220
0.0
230
-1.0
 40
0.9998476951571623
 41
3.041939080810022
 42
3.14159265359093
  0
LINE
  5
E20A
330
17
100
AcDbEntity
  8
1外形線
  6
Continuous
370
    15
100
AcDbLine
 10
409.9190280983334
 20
217.7314445840934
 30
0.0
 11
410.7328596967277
 21
209.5931286001492
 31
0.0
  0
ELLIPSE
  5
E20B
330
17
100
AcDbEntity
  8
1外形線
  6
Continuous
370
    15
100
AcDbEllipse
 10
409.1228758880284
 20
217.6518536127837
 30
0.0
 11
-0.8001218624350649
 21
0.000000000489493
 31
0.0
210
0.0
220
0.0
230
-1.0
 40
0.9998476951564819
 41
1.570796326183216
 42
3.04193908019692
  0
LINE
  5
E20C
330
17
100
AcDbEntity
  8
C4
 48
2.0
100
AcDbLine
 10
408.8469871954644
 20
144.4518536127839
 30
0.0
 11
408.8469871954644
 21
218.4518536127839
 31
0.0
  0
LINE
  5
E20D
330
17
100
AcDbEntity
  8
C4
 48
2.0
100
AcDbLine
 10
410.8469871954637
 20
144.4518536127839
 30
0.0
 11
410.8469871954635
 21
175.6765700819419
 31
0.0
  0
LINE
  5
E20E
330
17
100
AcDbEntity
  8
C4
 48
2.0
100
AcDbLine
 10
412.8469871954644
 20
144.4518536127839
 30
0.0
 11
412.8469871954634
 21
174.0331884355246
 31
0.0
  0
LINE
  5
E20F
330
17
100
AcDbEntity
  8
C4
 48
2.0
100
AcDbLine
 10
410.8469871954635
 20
176.429810249921
 30
0.0
 11
410.8469871954643
 21
207.3048881749937
 31
0.0
  0
LINE
  5
E210
330
17
100
AcDbEntity
  8
C4
 48
2.0
100
AcDbLine
 10
324.0710985029005
 20
218.4518536127839
 30
0.0
 11
409.1228758880284
 21
218.4518536127839
 31
0.0
  0
ARC
  5
E21F
330
17
100
AcDbEntity
  8
1外形線
  6
Continuous
370
    15
100
AcDbCircle
 10
201.1238975691622
 20
-7.022399893142392
 30
0.0
 40
2.0
100
AcDbArc
 50
0.0
 51
90.0
  0
LINE
  5
E220
330
17
100
AcDbEntity
  8
1外形線
  6
Continuous
370
    15
100
AcDbLine
 10
82.62973723974415
 20
-6.987495080267763
 30
0.0
 11
82.62390034700093
 21
-7.321890441559844
 31
0.0
  0
ARC
  5
E221
330
17
100
AcDbEntity
  8
1外形線
  6
Continuous
370
    15
100
AcDbCircle
 10
84.62943263005696
 20
-7.022399893142392
 30
0.0
 40
2.0
100
AcDbArc
 50
90.0
 51
178.9999999999982
  0
LINE
  5
E222
330
17
100
AcDbEntity
  8
1外形線
  6
Continuous
370
    15
100
AcDbLine
 10
184.7503723252384
 20
14.05974356492879
 30
0.0
 11
185.1235929130744
 21
-7.322049592001349
 31
0.0
  0
ARC
  5
E223
330
17
100
AcDbEntity
  8
1外形線
  6
Continuous
370
    15
100
AcDbCircle
 10
162.7537230317978
 20
13.67579062330787
 30
0.0
 40
22.00000000000001
100
AcDbArc
 50
1.000000000001775
 51
89.41113436978989
  0
ARC
  5
E224
330
17
100
AcDbEntity
  8
1外形線
  6
Continuous
370
    15
100
AcDbCircle
 10
142.8738975691621
 20
-1920.534549592002
 30
0.0
 40
1956.3125
100
AcDbArc
 50
89.41113436978989
 51
90.58886563020362
  0
ARC
  5
E225
330
17
100
AcDbEntity
  8
1外形線
  6
Continuous
370
    15
100
AcDbCircle
 10
122.9940721065265
 20
13.67579062330787
 30
0.0
 40
22.0
100
AcDbArc
 50
90.58886563020362
 51
178.9999999999982
  0
LINE
  5
E226
330
17
100
AcDbEntity
  8
1外形線
  6
Continuous
370
    15
100
AcDbLine
 10
100.9974228130859
 20
14.05974356492879
 30
0.0
 11
100.6242022252499
 21
-7.322049592001349
 31
0.0
  0
LINE
  5
E228
330
17
100
AcDbEntity
  8
1外形線
  6
Continuous
370
    15
100
AcDbLine
 10
185.1235929130744
 20
-7.322049592001349
 30
0.0
 11
185.3997862617261
 21
-7.322049592001349
 31
0.0
  0
LINE
  5
E229
330
17
100
AcDbEntity
  8
1外形線
  6
Continuous
370
    15
100
AcDbLine
 10
186.1959384720314
 20
-7.322049592001349
 30
0.0
 11
185.3997862617261
 21
-7.322049592001349
 31
0.0
  0
LINE
  5
E22A
330
17
100
AcDbEntity
  8
1外形線
  6
Continuous
370
    15
100
AcDbLine
 10
100.3480088765984
 20
-7.322049592001349
 30
0.0
 11
99.55185666629313
 21
-7.322049592001349
 31
0.0
  0
LINE
  5
E22B
330
17
100
AcDbEntity
  8
1外形線
  6
Continuous
370
    15
100
AcDbLine
 10
186.1959384720314
 20
-7.322049592001349
 30
0.0
 11
187.0097700704257
 21
-7.322049592001349
 31
0.0
  0
LINE
  5
E22C
330
17
100
AcDbEntity
  8
1外形線
  6
Continuous
370
    15
100
AcDbLine
 10
98.73802506789866
 20
-7.322049592001349
 30
0.0
 11
99.55185666629313
 21
-7.322049592001349
 31
0.0
  0
ARC
  5
E22D
330
17
100
AcDbEntity
  8
1外形線
  6
Continuous
370
    15
100
AcDbCircle
 10
142.8738975691621
 20
-1920.534549592002
 30
0.0
 40
1958.3125
100
AcDbArc
 50
89.41113436978989
 51
90.58880735128377
  0
SPLINE
  5
E22E
330
17
100
AcDbEntity
  8
1外形線
  6
Continuous
370
    15
100
AcDbSpline
210
0.0
220
0.0
230
1.0
 70
     8
 71
     3
 72
     8
 73
     4
 74
     0
 42
0.000000001
 43
0.0000000001
 40
0.0
 40
0.0
 40
0.0
 40
0.0
 40
0.0000019916491224
 40
0.0000019916491224
 40
0.0000019916491224
 40
0.0000019916491224
 10
122.7474129906375
 20
37.67452307484746
 30
0.0
 10
122.7480768386156
 20
37.67452989788035
 30
0.0
 10
122.7487407179387
 20
37.67453672089869
 30
0.0
 10
122.749404440477
 20
37.67454354196798
 30
0.0
  0
SPLINE
  5
E22F
330
17
100
AcDbEntity
  8
1外形線
  6
Continuous
370
    15
100
AcDbSpline
210
0.0
220
0.0
230
1.0
 70
    24
 71
     3
 72
     8
 73
     4
 74
     0
 42
0.000000001
 43
0.0000000001
 40
0.0
 40
0.0
 40
0.0
 40
0.0
 40
0.000001991519788
 40
0.000001991519788
 40
0.000001991519788
 40
0.000001991519788
 10
186.7500677155512
 20
14.09464837780342
 30
0.0
 10
186.7500793011554
 20
14.09398463898014
 30
0.0
 10
186.7500908873337
 20
14.0933208672759
 30
0.0
 10
186.7501024706407
 20
14.0926572600647
 30
0.0
  0
LINE
  5
E230
330
17
100
AcDbEntity
  8
1外形線
  6
Continuous
370
    15
100
AcDbLine
 10
186.7501024772455
 20
14.09265688167034
 30
0.0
 11
187.1238980362907
 21
-7.322049592001349
 31
0.0
  0
LINE
  5
E231
330
17
100
AcDbEntity
  8
1外形線
  6
Continuous
370
    15
100
AcDbLine
 10
187.1238975691622
 20
-7.322049592001349
 30
0.0
 11
187.0097700704257
 21
-7.322049592001349
 31
0.0
  0
ARC
  5
E232
330
17
100
AcDbEntity
  8
1外形線
  6
Continuous
370
    15
100
AcDbCircle
 10
122.9940721065265
 20
13.67579062330787
 30
0.0
 40
24.00000000000022
100
AcDbArc
 50
90.58886563020362
 51
178.9999999999982
  0
LINE
  5
E233
330
17
100
AcDbEntity
  8
1外形線
  6
Continuous
370
    15
100
AcDbLine
 10
98.62389710203387
 20
-7.322049592001349
 30
0.0
 11
98.9977274227731
 21
14.09464837780342
 31
0.0
  0
LINE
  5
E234
330
17
100
AcDbEntity
  8
1外形線
  6
Continuous
370
    15
100
AcDbLine
 10
98.73802506789866
 20
-7.322049592001349
 30
0.0
 11
98.62389756916218
 21
-7.322049592001349
 31
0.0
  0
ARC
  5
E235
330
17
100
AcDbEntity
  8
1外形線
  6
Continuous
370
    15
100
AcDbCircle
 10
162.7537230317978
 20
13.67579062330787
 30
0.0
 40
24.00000000000023
100
AcDbArc
 50
1.000000000001775
 51
89.41113436978989
  0
LINE
  5
E236
330
17
100
AcDbEntity
  8
1外形線
  6
Continuous
370
    15
100
AcDbLine
 10
189.0491515605879
 20
-5.022399893142392
 30
0.0
 11
201.1238975691622
 21
-5.022399893142392
 31
0.0
  0
ARC
  5
E237
330
17
100
AcDbEntity
  8
1外形線
  6
Continuous
370
    15
100
AcDbCircle
 10
189.0491515605879
 20
-3.022399893142392
 30
0.0
 40
2.0
100
AcDbArc
 50
181.0000000000017
 51
270.0
  0
LINE
  5
E238
330
17
100
AcDbEntity
  8
1外形線
  6
Continuous
370
    15
100
AcDbLine
 10
187.1238980362907
 20
-7.322049592001349
 30
0.0
 11
203.1238975691622
 21
-7.322049592001349
 31
0.0
  0
LINE
  5
E239
330
17
100
AcDbEntity
  8
1外形線
  6
Continuous
370
    15
100
AcDbLine
 10
94.97482347756477
 20
-7.322049592001349
 30
0.0
 11
98.62389710203387
 21
-7.322049592001349
 31
0.0
  0
LINE
  5
E23A
330
17
100
AcDbEntity
  8
1外形線
  6
Continuous
370
    15
100
AcDbLine
 10
96.69864357773645
 20
-5.022399893142392
 30
0.0
 11
84.62943263005696
 21
-5.022399893142392
 31
0.0
  0
ARC
  5
E23B
330
17
100
AcDbEntity
  8
1外形線
  6
Continuous
370
    15
100
AcDbCircle
 10
96.69864357773645
 20
-3.022399893142392
 30
0.0
 40
2.0
100
AcDbArc
 50
270.0
 51
358.9999999999982
  0
LINE
  5
E23C
330
17
100
AcDbEntity
  8
1外形線
  6
Continuous
370
    15
100
AcDbLine
 10
94.97482347756477
 20
-7.322049592001349
 30
0.0
 11
82.62389756916219
 21
-7.322049592001349
 31
0.0
  0
LINE
  5
E23D
330
17
100
AcDbEntity
  8
1外形線
 48
2.0
100
AcDbLine
 10
203.1238975691622
 20
-7.322049592001349
 30
0.0
 11
203.1238975691622
 21
-7.022399893142392
 31
0.0
  0
LINE
  5
E23E
330
17
100
AcDbEntity
  8
1外形線
  6
Continuous
370
    15
100
AcDbLine
 10
322.3469871954644
 20
81.59881905057408
 30
0.0
 11
322.3469871954644
 21
98.88723537282794
 31
0.0
  0
ELLIPSE
  5
E23F
330
17
100
AcDbEntity
  8
1外形線
  6
Continuous
370
    15
100
AcDbEllipse
 10
345.3504907404745
 20
81.59881905057408
 30
0.0
 11
-23.00350354500984
 21
-0.0000000000247381
 31
0.0
210
0.0
220
0.0
230
-1.0
 40
0.9998476951571623
 41
-0.0996535727797705
 42
0.0000000000011371
  0
LINE
  5
E240
330
17
100
AcDbEntity
  8
1外形線
  6
Continuous
370
    15
100
AcDbLine
 10
323.2749462925954
 20
71.17226264147439
 30
0.0
 11
322.4611146942011
 21
79.31057862541866
 31
0.0
  0
ELLIPSE
  5
E241
330
17
100
AcDbEntity
  8
1外形線
  6
Continuous
370
    15
100
AcDbEllipse
 10
324.0710985029005
 20
71.25185361278409
 30
0.0
 11
-0.8001218624350649
 21
0.0000000004894929
 31
0.0
210
0.0
220
0.0
230
-1.0
 40
0.9998476951564819
 41
4.71238897977301
 42
6.183531733786712
  0
ARC
  5
E242
330
17
100
AcDbEntity
  8
1外形線
 48
2.0
100
AcDbCircle
 10
346.3469871954649
 20
144.4738969756476
 30
0.0
 40
40.0
100
AcDbArc
 50
180.0315747930522
 51
233.1301023541722
  0
ARC
  5
E243
330
17
100
AcDbEntity
  8
1外形線
 48
2.0
100
AcDbCircle
 10
346.3469871954649
 20
144.4738969756476
 30
0.0
 40
39.4
100
AcDbArc
 50
228.7078694571145
 51
232.4728673939014
  0
ARC
  5
E244
330
17
100
AcDbEntity
  8
1外形線
 48
2.0
100
AcDbCircle
 10
386.8469871954653
 20
144.4738969756476
 30
0.0
 40
40.0
100
AcDbArc
 50
306.8698976458277
 51
359.9684252069478
  0
ARC
  5
E245
330
17
100
AcDbEntity
  8
1外形線
 48
2.0
100
AcDbCircle
 10
386.8469871954653
 20
144.4738969756476
 30
0.0
 40
39.4
100
AcDbArc
 50
307.5271326060986
 51
311.2921305428855
  0
LINE
  5
E246
330
17
100
AcDbEntity
  8
C4
 48
2.0
100
AcDbLine
 10
324.3469871954644
 20
144.4518536127839
 30
0.0
 11
324.3469871954644
 21
70.45185361278391
 31
0.0
  0
LINE
  5
E247
330
17
100
AcDbEntity
  8
C4
 48
2.0
100
AcDbLine
 10
322.3469871954644
 20
144.4518536127839
 30
0.0
 11
322.3469871954644
 21
113.2271371436268
 31
0.0
  0
LINE
  5
E248
330
17
100
AcDbEntity
  8
C4
 48
2.0
100
AcDbLine
 10
320.3469871954644
 20
144.4518536127839
 30
0.0
 11
320.3469871954644
 21
114.8705187900445
 31
0.0
  0
LINE
  5
E249
330
17
100
AcDbEntity
  8
C4
 48
2.0
100
AcDbLine
 10
322.3469871954644
 20
112.4738969756481
 30
0.0
 11
322.3469871954644
 21
81.59881905057408
 31
0.0
  0
ELLIPSE
  5
E24A
330
17
100
AcDbEntity
  8
1外形線
  6
Continuous
370
    15
100
AcDbEllipse
 10
387.8434836504543
 20
81.59881905057408
 30
0.0
 11
-23.00350354500984
 21
0.0000000000247353
 31
0.0
210
0.0
220
0.0
230
1.0
 40
0.9998476951571623
 41
3.041939080810022
 42
3.14159265359093
  0
LINE
  5
E24B
330
17
100
AcDbEntity
  8
1外形線
  6
Continuous
370
    15
100
AcDbLine
 10
409.9190280983334
 20
71.17226264147439
 30
0.0
 11
410.7328596967277
 21
79.31057862541866
 31
0.0
  0
ELLIPSE
  5
E24C
330
17
100
AcDbEntity
  8
1外形線
  6
Continuous
370
    15
100
AcDbEllipse
 10
409.1228758880284
 20
71.25185361278409
 30
0.0
 11
-0.8001218624350649
 21
-0.000000000489493
 31
0.0
210
0.0
220
0.0
230
1.0
 40
0.9998476951564819
 41
1.570796326183216
 42
3.04193908019692
  0
LINE
  5
E24D
330
17
100
AcDbEntity
  8
C4
 48
2.0
100
AcDbLine
 10
408.8469871954644
 20
144.4518536127839
 30
0.0
 11
408.8469871954644
 21
70.45185361278391
 31
0.0
  0
LINE
  5
E24E
330
17
100
AcDbEntity
  8
C4
 48
2.0
100
AcDbLine
 10
410.8469871954637
 20
144.4518536127839
 30
0.0
 11
410.8469871954635
 21
113.2271371436259
 31
0.0
  0
LINE
  5
E24F
330
17
100
AcDbEntity
  8
C4
 48
2.0
100
AcDbLine
 10
412.8469871954644
 20
144.4518536127839
 30
0.0
 11
412.8469871954634
 21
114.8705187900432
 31
0.0
  0
LINE
  5
E250
330
17
100
AcDbEntity
  8
C4
 48
2.0
100
AcDbLine
 10
410.8469871954635
 20
112.4738969756467
 30
0.0
 11
410.8469871954643
 21
81.59881905057408
 31
0.0
  0
LINE
  5
E251
330
17
100
AcDbEntity
  8
C4
 48
2.0
100
AcDbLine
 10
324.0710985029005
 20
70.45185361278391
 30
0.0
 11
409.1228758880284
 21
70.45185361278391
 31
0.0
  0
LINE
  5
E260
330
17
100
AcDbEntity
  8
1外形線
  6
Continuous
370
    15
100
AcDbLine
 10
98.62389756916172
 20
185.0164736551582
 30
0.0
 11
98.62389756916172
 21
207.3048881749942
 31
0.0
  0
ELLIPSE
  5
E261
330
17
100
AcDbEntity
  8
1外形線
  6
Continuous
370
    15
100
AcDbEllipse
 10
121.6274011141718
 20
207.3048881749942
 30
0.0
 11
-23.00350354500984
 21
-0.0000000000398993
 31
0.0
210
0.0
220
0.0
230
-1.0
 40
0.9998476951574669
 41
0.0000000000016716
 42
0.0996535727825785
  0
LINE
  5
E262
330
17
100
AcDbEntity
  8
1外形線
  6
Continuous
370
    15
100
AcDbLine
 10
99.55185666629269
 20
217.7314445840939
 30
0.0
 11
98.73802506789843
 21
209.5931286001496
 31
0.0
  0
ELLIPSE
  5
E263
330
17
100
AcDbEntity
  8
1外形線
  6
Continuous
370
    15
100
AcDbEllipse
 10
100.3480088765977
 20
217.6518536127842
 30
0.0
 11
-0.8001218624350235
 21
0.000000000692448
 31
0.0
210
0.0
220
0.0
230
-1.0
 40
0.9998476951565157
 41
0.0996535719153773
 42
1.5707963259296
  0
ARC
  5
E264
330
17
100
AcDbEntity
  8
1外形線
 48
2.0
100
AcDbCircle
 10
122.6238975691622
 20
144.4738969756476
 30
0.0
 40
40.0
100
AcDbArc
 50
126.7980600523221
 51
180.0315747930522
  0
ARC
  5
E265
330
17
100
AcDbEntity
  8
1外形線
 48
2.0
100
AcDbCircle
 10
163.1238975691626
 20
144.4738969756476
 30
0.0
 40
40.0
100
AcDbArc
 50
359.9684252069478
 51
53.20193994767783
  0
LINE
  5
E266
330
17
100
AcDbEntity
  8
C4
 48
2.0
100
AcDbLine
 10
98.62389756916172
 20
207.3048881749942
 30
0.0
 11
98.62389756916172
 21
144.4518536127839
 31
0.0
  0
LINE
  5
E267
330
17
100
AcDbEntity
  8
1外形線
  6
Continuous
370
    15
100
AcDbLine
 10
187.1238975691617
 20
185.0164736551582
 30
0.0
 11
187.1238975691617
 21
207.3048881749942
 31
0.0
  0
ELLIPSE
  5
E268
330
17
100
AcDbEntity
  8
1外形線
  6
Continuous
370
    15
100
AcDbEllipse
 10
164.1203940241516
 20
207.3048881749942
 30
0.0
 11
-23.00350354500984
 21
0.0000000000398965
 31
0.0
210
0.0
220
0.0
230
1.0
 40
0.9998476951574669
 41
3.141592653591464
 42
3.241246226372371
  0
LINE
  5
E269
330
17
100
AcDbEntity
  8
1外形線
  6
Continuous
370
    15
100
AcDbLine
 10
186.2139471972591
 20
217.5513573318053
 30
0.0
 11
187.009770070425
 21
209.5931286001496
 31
0.0
  0
LINE
  5
E26A
330
17
100
AcDbEntity
  8
C4
 48
2.0
100
AcDbLine
 10
187.1238975691617
 20
207.3048881749942
 30
0.0
 11
187.1238975691611
 21
144.4518536127839
 31
0.0
  0
LINE
  5
E26B
330
17
100
AcDbEntity
  8
C4
 48
2.0
100
AcDbLine
 10
100.3480088765977
 20
218.4518536127841
 30
0.0
 11
185.2189100070495
 21
218.4518536127841
 31
0.0
  0
ARC
  5
E26C
330
17
100
AcDbEntity
  8
C4
 48
2.0
100
AcDbCircle
 10
185.2189100070495
 20
217.4518536127841
 30
0.0
 40
1.0
100
AcDbArc
 50
5.710593137497324
 51
90.0
  0
LINE
  5
E26D
330
17
100
AcDbEntity
  8
1外形線
  6
Continuous
370
    15
100
AcDbLine
 10
364.0969872383053
 20
81.45185268891555
 30
0.0
 11
347.3469871824259
 21
81.45185268891555
 31
0.0
  0
LINE
  5
E26E
330
17
100
AcDbEntity
  8
1外形線
  6
Continuous
370
    15
100
AcDbLine
 10
345.3469871824304
 20
81.45185268891555
 30
0.0
 11
324.8469872420305
 21
81.45185268891555
 31
0.0
  0
LINE
  5
E26F
330
17
100
AcDbEntity
  8
1外形線
  6
Continuous
370
    15
100
AcDbLine
 10
324.3469872420305
 20
81.95185268891554
 30
0.0
 11
324.3469872420305
 21
206.9518513180087
 31
0.0
  0
ARC
  5
E270
330
17
100
AcDbEntity
  8
1外形線
  6
Continuous
370
    15
100
AcDbCircle
 10
324.8469872420305
 20
81.95185268891554
 30
0.0
 40
0.5
100
AcDbArc
 50
180.0
 51
270.0
  0
LINE
  5
E271
330
17
100
AcDbEntity
  8
1外形線
  6
Continuous
370
    15
100
AcDbLine
 10
324.8470627611155
 20
207.4518534041713
 30
0.0
 11
345.3469871824304
 21
207.4518534041713
 31
0.0
  0
LINE
  5
E272
330
17
100
AcDbEntity
  8
1外形線
  6
Continuous
370
    15
100
AcDbLine
 10
347.3469871824259
 20
207.4518534041713
 30
0.0
 11
364.0969872383053
 21
207.4518534041713
 31
0.0
  0
LINE
  5
E273
330
17
100
AcDbEntity
  8
1外形線
  6
Continuous
370
    15
100
AcDbLine
 10
366.0969871586772
 20
218.4518513180087
 30
0.0
 11
367.0969872061746
 21
218.4518513180087
 31
0.0
  0
LINE
  5
E274
330
17
100
AcDbEntity
  8
1外形線
  6
Continuous
370
    15
100
AcDbLine
 10
369.0969871265465
 20
207.4518534041713
 30
0.0
 11
385.8469871824295
 21
207.4518534041713
 31
0.0
  0
LINE
  5
E275
330
17
100
AcDbEntity
  8
1外形線
  6
Continuous
370
    15
100
AcDbLine
 10
387.846987182425
 20
207.4518534041713
 30
0.0
 11
408.3469116037372
 21
207.4518534041713
 31
0.0
  0
LINE
  5
E279
330
17
100
AcDbEntity
  8
1外形線
  6
Continuous
370
    15
100
AcDbLine
 10
408.8469871228221
 20
206.9518513180087
 30
0.0
 11
408.8469871228221
 21
81.95185590756613
 31
0.0
  0
LINE
  5
E27A
330
17
100
AcDbEntity
  8
1外形線
  6
Continuous
370
    15
100
AcDbLine
 10
408.3469116037372
 20
81.45185268891555
 30
0.0
 11
387.846987182425
 21
81.45185268891555
 31
0.0
  0
LINE
  5
E27C
330
17
100
AcDbEntity
  8
1外形線
  6
Continuous
370
    15
100
AcDbLine
 10
385.8469871824295
 20
81.45185268891555
 30
0.0
 11
369.0969871265465
 21
81.45185268891555
 31
0.0
  0
LINE
  5
E27D
330
17
100
AcDbEntity
  8
1外形線
  6
Continuous
370
    15
100
AcDbLine
 10
366.0969871586772
 20
70.45185477507811
 30
0.0
 11
367.0969872061746
 21
70.45185477507811
 31
0.0
  0
LINE
  5
E27E
330
17
100
AcDbEntity
  8
C4
100
AcDbLine
 10
324.8469872420305
 20
207.4518513180087
 30
0.0
 11
345.3469871824277
 21
207.4518513180087
 31
0.0
  0
ARC
  5
E27F
330
17
100
AcDbEntity
  8
C4
100
AcDbCircle
 10
324.8469872420305
 20
206.9518513180087
 30
0.0
 40
0.5
100
AcDbArc
 50
90.0
 51
180.0
  0
LINE
  5
E280
330
17
100
AcDbEntity
  8
C4
100
AcDbLine
 10
347.3469871824277
 20
207.4518513180087
 30
0.0
 11
364.0969871824259
 21
207.4518513180087
 31
0.0
  0
LINE
  5
E281
330
17
100
AcDbEntity
  8
C4
100
AcDbLine
 10
366.0969871824259
 20
218.4518513180087
 30
0.0
 11
367.0969871824259
 21
218.4518513180087
 31
0.0
  0
LINE
  5
E282
330
17
100
AcDbEntity
  8
C4
100
AcDbLine
 10
369.0969871824259
 20
207.4518513180087
 30
0.0
 11
385.8469871824268
 21
207.4518513180087
 31
0.0
  0
LINE
  5
E283
330
17
100
AcDbEntity
  8
C4
100
AcDbLine
 10
387.8469871824277
 20
207.4518513180087
 30
0.0
 11
408.3469871228222
 21
207.4518513180087
 31
0.0
  0
ARC
  5
E284
330
17
100
AcDbEntity
  8
C4
100
AcDbCircle
 10
408.3469871228222
 20
206.9518513180087
 30
0.0
 40
0.5
100
AcDbArc
 50
0.0
 51
90.0
  0
LINE
  5
E285
330
17
100
AcDbEntity
  8
1外形線
  6
Continuous
370
    15
100
AcDbLine
 10
347.3469871824277
 20
207.4518513180083
 30
0.0
 11
364.5969871824241
 21
207.4518513180087
 31
0.0
  0
LINE
  5
E286
330
17
100
AcDbEntity
  8
1外形線
  6
Continuous
370
    15
100
AcDbLine
 10
364.9469871824272
 20
209.4518513180083
 30
0.0
 11
364.9469871824272
 21
217.4518513180083
 31
0.0
  0
ARC
  5
E287
330
17
100
AcDbEntity
  8
1外形線
  6
Continuous
370
    15
100
AcDbCircle
 10
365.9469871824271
 20
217.4518513180083
 30
0.0
 40
1.0
100
AcDbArc
 50
90.0
 51
179.9999999999739
  0
LINE
  5
E288
330
17
100
AcDbEntity
  8
1外形線
  6
Continuous
370
    15
100
AcDbLine
 10
365.9469871824271
 20
218.4518513180083
 30
0.0
 11
367.2469871824274
 21
218.4518513180083
 31
0.0
  0
ARC
  5
E289
330
17
100
AcDbEntity
  8
1外形線
  6
Continuous
370
    15
100
AcDbCircle
 10
367.2469871824274
 20
217.4518513180083
 30
0.0
 40
1.0
100
AcDbArc
 50
0.0
 51
90.0
  0
LINE
  5
E28A
330
17
100
AcDbEntity
  8
1外形線
  6
Continuous
370
    15
100
AcDbLine
 10
368.2469871824273
 20
209.4518513180083
 30
0.0
 11
368.2469871824273
 21
217.4518513180083
 31
0.0
  0
LINE
  5
E28B
330
17
100
AcDbEntity
  8
1外形線
  6
Continuous
370
    15
100
AcDbLine
 10
368.5969871824231
 20
207.4518513180087
 30
0.0
 11
385.8469871824268
 21
207.4518513180083
 31
0.0
  0
ARC
  5
E28C
330
17
100
AcDbEntity
  8
1外形線
 48
3.0
100
AcDbCircle
 10
386.8469871824277
 20
207.4518513180083
 30
0.0
 40
1.0
100
AcDbArc
 50
0.0
 51
180.0
  0
ARC
  5
E28D
330
17
100
AcDbEntity
  8
1外形線
 48
3.0
100
AcDbCircle
 10
346.3469871824277
 20
207.4518513180083
 30
0.0
 40
1.0
100
AcDbArc
 50
0.0
 51
180.0
  0
LINE
  5
E28E
330
17
100
AcDbEntity
  8
1外形線
  6
Continuous
370
    15
100
AcDbLine
 10
368.2469871824273
 20
209.4518513180087
 30
0.0
 11
368.2469871824273
 21
217.4518513180087
 31
0.0
  0
ARC
  5
E28F
330
17
100
AcDbEntity
  8
1外形線
  6
Continuous
370
    15
100
AcDbCircle
 10
367.2469871824274
 20
217.4518513180087
 30
0.0
 40
1.000000000000056
100
AcDbArc
 50
0.0000000000260551
 51
90.0
  0
LINE
  5
E290
330
17
100
AcDbEntity
  8
1外形線
  6
Continuous
370
    15
100
AcDbLine
 10
365.9469871824271
 20
218.4518513180087
 30
0.0
 11
367.2469871824274
 21
218.4518513180087
 31
0.0
  0
ARC
  5
E291
330
17
100
AcDbEntity
  8
1外形線
  6
Continuous
370
    15
100
AcDbCircle
 10
365.9469871824271
 20
217.4518513180087
 30
0.0
 40
1.000000000000056
100
AcDbArc
 50
90.0
 51
180.0
  0
LINE
  5
E292
330
17
100
AcDbEntity
  8
1外形線
  6
Continuous
370
    15
100
AcDbLine
 10
364.9469871824272
 20
209.4518513180087
 30
0.0
 11
364.9469871824272
 21
217.4518513180087
 31
0.0
  0
ARC
  5
E293
330
17
100
AcDbEntity
  8
1外形線
370
    15
100
AcDbCircle
 10
364.5969871824231
 20
208.4518513180087
 30
0.0
 40
1.0
100
AcDbArc
 50
270.0
 51
0.0
  0
ARC
  5
E294
330
17
100
AcDbEntity
  8
1外形線
  6
Continuous
370
    15
100
AcDbCircle
 10
363.9469871824263
 20
208.4518513180087
 30
0.0
 40
1.0
100
AcDbArc
 50
270.0
 51
0.0
  0
LINE
  5
E295
330
17
100
AcDbEntity
  8
1外形線
  6
Continuous
370
    15
100
AcDbLine
 10
368.2469871824264
 20
217.4518513180087
 30
0.0
 11
368.2469871824264
 21
208.4518513180087
 31
0.0
  0
ARC
  5
E296
330
17
100
AcDbEntity
  8
1外形線
  6
Continuous
370
    15
100
AcDbCircle
 10
369.2469871824264
 20
208.4518513180087
 30
0.0
 40
1.0
100
AcDbArc
 50
180.0
 51
270.0
  0
LINE
  5
E297
330
17
100
AcDbEntity
  8
1外形線
  6
Continuous
370
    15
100
AcDbLine
 10
364.9469871824262
 20
208.4518513180087
 30
0.0
 11
364.9469871824262
 21
217.4518513180087
 31
0.0
  0
LINE
  5
E298
330
17
100
AcDbEntity
  8
1外形線
  6
Continuous
370
    15
100
AcDbLine
 10
366.0969871824268
 20
218.4518513180087
 30
0.0
 11
366.0969871824268
 21
218.4518513180087
 31
0.0
  0
ARC
  5
E299
330
17
100
AcDbEntity
  8
1外形線
  6
Continuous
370
    15
100
AcDbCircle
 10
365.9469871824263
 20
217.4518513180087
 30
0.0
 40
1.0
100
AcDbArc
 50
90.0
 51
180.0
  0
ARC
  5
E29A
330
17
100
AcDbEntity
  8
1外形線
  6
Continuous
370
    15
100
AcDbCircle
 10
367.2469871824264
 20
217.4518513180087
 30
0.0
 40
1.0
100
AcDbArc
 50
0.0
 51
90.0
  0
LINE
  5
E29B
330
17
100
AcDbEntity
  8
1外形線
 48
3.0
100
AcDbLine
 10
367.5969871824232
 20
208.4518513180087
 30
0.0
 11
367.5969871824232
 21
218.3178767217928
 31
0.0
  0
ARC
  5
E29C
330
17
100
AcDbEntity
  8
1外形線
 48
3.0
100
AcDbCircle
 10
368.5969871824231
 20
208.4518513180087
 30
0.0
 40
1.0
100
AcDbArc
 50
180.0
 51
270.0
  0
LINE
  5
E29D
330
17
100
AcDbEntity
  8
1外形線
 48
3.0
100
AcDbLine
 10
365.5969871824232
 20
218.3178767217924
 30
0.0
 11
365.5969871824232
 21
208.4518513180087
 31
0.0
  0
LINE
  5
E29E
330
17
100
AcDbEntity
  8
1外形線
 48
3.0
100
AcDbLine
 10
365.9469871824263
 20
218.4518513180087
 30
0.0
 11
367.2469871824264
 21
218.4518513180087
 31
0.0
  0
LINE
  5
E29F
330
17
100
AcDbEntity
  8
1外形線
  6
Continuous
370
    15
100
AcDbLine
 10
347.3469871824259
 20
81.45185268891532
 30
0.0
 11
364.0969872383053
 21
81.45185268891532
 31
0.0
  0
LINE
  5
E2A0
330
17
100
AcDbEntity
  8
1外形線
  6
Continuous
370
    15
100
AcDbLine
 10
366.0969871586772
 20
70.45185477507789
 30
0.0
 11
367.0969872061746
 21
70.45185477507789
 31
0.0
  0
LINE
  5
E2A1
330
17
100
AcDbEntity
  8
1外形線
  6
Continuous
370
    15
100
AcDbLine
 10
369.0969871265465
 20
81.45185268891532
 30
0.0
 11
385.8469871824295
 21
81.45185268891509
 31
0.0
  0
LINE
  5
E2A2
330
17
100
AcDbEntity
  8
C4
100
AcDbLine
 10
347.3469871824277
 20
81.45185477507789
 30
0.0
 11
364.0969871824259
 21
81.45185477507789
 31
0.0
  0
LINE
  5
E2A3
330
17
100
AcDbEntity
  8
C4
100
AcDbLine
 10
366.0969871824259
 20
70.45185477507789
 30
0.0
 11
367.0969871824259
 21
70.45185477507789
 31
0.0
  0
LINE
  5
E2A4
330
17
100
AcDbEntity
  8
C4
100
AcDbLine
 10
369.0969871824259
 20
81.45185477507789
 30
0.0
 11
385.8469871824268
 21
81.45185477507789
 31
0.0
  0
LINE
  5
E2A5
330
17
100
AcDbEntity
  8
1外形線
  6
Continuous
370
    15
100
AcDbLine
 10
347.3469871824277
 20
81.45185477507835
 30
0.0
 11
364.5969871824241
 21
81.45185477507789
 31
0.0
  0
LINE
  5
E2A6
330
17
100
AcDbEntity
  8
1外形線
  6
Continuous
370
    15
100
AcDbLine
 10
364.9469871824272
 20
79.45185477507834
 30
0.0
 11
364.9469871824272
 21
71.45185477507834
 31
0.0
  0
ARC
  5
E2A7
330
17
100
AcDbEntity
  8
1外形線
  6
Continuous
370
    15
100
AcDbCircle
 10
365.9469871824271
 20
71.45185477507834
 30
0.0
 40
1.0
100
AcDbArc
 50
180.0
 51
270.0
  0
LINE
  5
E2A8
330
17
100
AcDbEntity
  8
1外形線
  6
Continuous
370
    15
100
AcDbLine
 10
365.9469871824271
 20
70.45185477507835
 30
0.0
 11
367.2469871824274
 21
70.45185477507835
 31
0.0
  0
ARC
  5
E2A9
330
17
100
AcDbEntity
  8
1外形線
  6
Continuous
370
    15
100
AcDbCircle
 10
367.2469871824274
 20
71.45185477507834
 30
0.0
 40
1.0
100
AcDbArc
 50
270.0
 51
0.0
  0
LINE
  5
E2AA
330
17
100
AcDbEntity
  8
1外形線
  6
Continuous
370
    15
100
AcDbLine
 10
368.2469871824273
 20
79.45185477507834
 30
0.0
 11
368.2469871824273
 21
71.45185477507834
 31
0.0
  0
LINE
  5
E2AB
330
17
100
AcDbEntity
  8
1外形線
  6
Continuous
370
    15
100
AcDbLine
 10
368.5969871824231
 20
81.45185477507789
 30
0.0
 11
385.8469871824268
 21
81.45185477507835
 31
0.0
  0
ARC
  5
E2AC
330
17
100
AcDbEntity
  8
1外形線
 48
3.0
100
AcDbCircle
 10
386.8469871824277
 20
81.45185477507835
 30
0.0
 40
1.0
100
AcDbArc
 50
180.0
 51
0.0
  0
ARC
  5
E2AD
330
17
100
AcDbEntity
  8
1外形線
 48
3.0
100
AcDbCircle
 10
346.3469871824277
 20
81.45185477507835
 30
0.0
 40
1.0
100
AcDbArc
 50
180.0
 51
0.0
  0
LINE
  5
E2AE
330
17
100
AcDbEntity
  8
1外形線
  6
Continuous
370
    15
100
AcDbLine
 10
368.2469871824273
 20
79.45185477507789
 30
0.0
 11
368.2469871824273
 21
71.45185477507789
 31
0.0
  0
ARC
  5
E2AF
330
17
100
AcDbEntity
  8
1外形線
  6
Continuous
370
    15
100
AcDbCircle
 10
367.2469871824274
 20
71.45185477507789
 30
0.0
 40
1.000000000000056
100
AcDbArc
 50
270.0
 51
359.999999999974
  0
LINE
  5
E2B0
330
17
100
AcDbEntity
  8
1外形線
  6
Continuous
370
    15
100
AcDbLine
 10
365.9469871824271
 20
70.45185477507789
 30
0.0
 11
367.2469871824274
 21
70.45185477507789
 31
0.0
  0
ARC
  5
E2B1
330
17
100
AcDbEntity
  8
1外形線
  6
Continuous
370
    15
100
AcDbCircle
 10
365.9469871824271
 20
71.45185477507789
 30
0.0
 40
1.000000000000056
100
AcDbArc
 50
180.0
 51
270.0
  0
LINE
  5
E2B2
330
17
100
AcDbEntity
  8
1外形線
  6
Continuous
370
    15
100
AcDbLine
 10
364.9469871824272
 20
79.45185477507789
 30
0.0
 11
364.9469871824272
 21
71.45185477507789
 31
0.0
  0
ARC
  5
E2B3
330
17
100
AcDbEntity
  8
1外形線
370
    15
100
AcDbCircle
 10
364.5969871824231
 20
80.45185477507789
 30
0.0
 40
1.0
100
AcDbArc
 50
0.0
 51
90.0
  0
ARC
  5
E2B4
330
17
100
AcDbEntity
  8
1外形線
  6
Continuous
370
    15
100
AcDbCircle
 10
363.9469871824263
 20
80.45185477507789
 30
0.0
 40
1.0
100
AcDbArc
 50
0.0
 51
90.0
  0
LINE
  5
E2B5
330
17
100
AcDbEntity
  8
1外形線
  6
Continuous
370
    15
100
AcDbLine
 10
368.2469871824264
 20
71.45185477507789
 30
0.0
 11
368.2469871824264
 21
80.45185477507789
 31
0.0
  0
ARC
  5
E2B6
330
17
100
AcDbEntity
  8
1外形線
  6
Continuous
370
    15
100
AcDbCircle
 10
369.2469871824264
 20
80.45185477507789
 30
0.0
 40
1.0
100
AcDbArc
 50
90.0
 51
180.0
  0
LINE
  5
E2B7
330
17
100
AcDbEntity
  8
1外形線
  6
Continuous
370
    15
100
AcDbLine
 10
364.9469871824262
 20
80.45185477507789
 30
0.0
 11
364.9469871824262
 21
71.45185477507789
 31
0.0
  0
LINE
  5
E2B8
330
17
100
AcDbEntity
  8
1外形線
  6
Continuous
370
    15
100
AcDbLine
 10
366.0969871824268
 20
70.45185477507789
 30
0.0
 11
366.0969871824268
 21
70.45185477507789
 31
0.0
  0
ARC
  5
E2B9
330
17
100
AcDbEntity
  8
1外形線
  6
Continuous
370
    15
100
AcDbCircle
 10
365.9469871824263
 20
71.45185477507789
 30
0.0
 40
1.0
100
AcDbArc
 50
180.0
 51
270.0
  0
ARC
  5
E2BA
330
17
100
AcDbEntity
  8
1外形線
  6
Continuous
370
    15
100
AcDbCircle
 10
367.2469871824264
 20
71.45185477507789
 30
0.0
 40
1.0
100
AcDbArc
 50
270.0
 51
0.0
  0
LINE
  5
E2BB
330
17
100
AcDbEntity
  8
1外形線
 48
3.0
100
AcDbLine
 10
367.5969871824232
 20
80.45185477507789
 30
0.0
 11
367.5969871824232
 21
70.58582937129381
 31
0.0
  0
ARC
  5
E2BC
330
17
100
AcDbEntity
  8
1外形線
 48
3.0
100
AcDbCircle
 10
368.5969871824231
 20
80.45185477507789
 30
0.0
 40
1.0
100
AcDbArc
 50
90.0
 51
180.0
  0
LINE
  5
E2BD
330
17
100
AcDbEntity
  8
1外形線
 48
3.0
100
AcDbLine
 10
365.5969871824232
 20
70.58582937129426
 30
0.0
 11
365.5969871824232
 21
80.45185477507789
 31
0.0
  0
LINE
  5
E2BE
330
17
100
AcDbEntity
  8
1外形線
 48
3.0
100
AcDbLine
 10
365.9469871824263
 20
70.45185477507789
 30
0.0
 11
367.2469871824264
 21
70.45185477507789
 31
0.0
  0
ARC
  5
E2C2
330
17
100
AcDbEntity
  8
C4
100
AcDbCircle
 10
408.3469871228222
 20
81.95185590756613
 30
0.0
 40
0.5
100
AcDbArc
 50
270.0
 51
0.0
  0
CIRCLE
  5
E2C9
330
17
100
AcDbEntity
  8
1外形線
 48
2.0
100
AcDbCircle
 10
366.5969871954644
 20
144.4518536127875
 30
0.0
 40
40.25
  0
ARC
  5
E2CA
330
17
100
AcDbEntity
  8
1外形線
  6
Continuous
370
    15
100
AcDbCircle
 10
395.5969871954644
 20
194.0518536127911
 30
0.0
 40
2.099999999999994
100
AcDbArc
 50
180.0
 51
270.0
  0
ARC
  5
E2CB
330
17
100
AcDbEntity
  8
1外形線
  6
Continuous
370
    15
100
AcDbCircle
 10
395.5969871954644
 20
194.0518536127911
 30
0.0
 40
2.099999999999994
100
AcDbArc
 50
270.0
 51
0.0
  0
LINE
  5
E2CC
330
17
100
AcDbEntity
  8
1外形線
  6
Continuous
370
    15
100
AcDbLine
 10
397.6969871954648
 20
198.8518536127912
 30
0.0
 11
397.6969871954648
 21
194.0518536127911
 31
0.0
  0
LINE
  5
E2CD
330
17
100
AcDbEntity
  8
1外形線
  6
Continuous
370
    15
100
AcDbLine
 10
393.4969871954649
 20
194.0518536127911
 30
0.0
 11
393.4969871954641
 21
198.8518536127912
 31
0.0
  0
ARC
  5
E2CE
330
17
100
AcDbEntity
  8
1外形線
  6
Continuous
370
    15
100
AcDbCircle
 10
395.5969871954644
 20
198.8518536127912
 30
0.0
 40
2.100000000000065
100
AcDbArc
 50
0.0
 51
90.0
  0
ARC
  5
E2CF
330
17
100
AcDbEntity
  8
1外形線
  6
Continuous
370
    15
100
AcDbCircle
 10
395.5969871954644
 20
198.8518536127912
 30
0.0
 40
2.100000000000065
100
AcDbArc
 50
90.0
 51
180.0
  0
ARC
  5
E2D0
330
17
100
AcDbEntity
  8
1外形線
  6
Continuous
370
    15
100
AcDbCircle
 10
337.5969871954653
 20
194.0518536127911
 30
0.0
 40
2.099999999999994
100
AcDbArc
 50
270.0
 51
0.0
  0
ARC
  5
E2D1
330
17
100
AcDbEntity
  8
1外形線
  6
Continuous
370
    15
100
AcDbCircle
 10
337.5969871954653
 20
194.0518536127911
 30
0.0
 40
2.099999999999994
100
AcDbArc
 50
180.0
 51
270.0
  0
LINE
  5
E2D2
330
17
100
AcDbEntity
  8
1外形線
  6
Continuous
370
    15
100
AcDbLine
 10
335.4969871954649
 20
198.8518536127912
 30
0.0
 11
335.4969871954649
 21
194.0518536127911
 31
0.0
  0
LINE
  5
E2D3
330
17
100
AcDbEntity
  8
1外形線
  6
Continuous
370
    15
100
AcDbLine
 10
339.6969871954648
 20
194.0518536127911
 30
0.0
 11
339.6969871954657
 21
198.8518536127912
 31
0.0
  0
ARC
  5
E2D4
330
17
100
AcDbEntity
  8
1外形線
  6
Continuous
370
    15
100
AcDbCircle
 10
337.5969871954653
 20
198.8518536127912
 30
0.0
 40
2.100000000000065
100
AcDbArc
 50
90.0
 51
180.0
  0
ARC
  5
E2D5
330
17
100
AcDbEntity
  8
1外形線
  6
Continuous
370
    15
100
AcDbCircle
 10
337.5969871954653
 20
198.8518536127912
 30
0.0
 40
2.100000000000065
100
AcDbArc
 50
0.0
 51
90.0
  0
ARC
  5
E2D6
330
17
100
AcDbEntity
  8
1外形線
  6
Continuous
370
    15
100
AcDbCircle
 10
395.5969871954644
 20
94.851853612784
 30
0.0
 40
2.099999999999994
100
AcDbArc
 50
90.0
 51
180.0
  0
ARC
  5
E2D7
330
17
100
AcDbEntity
  8
1外形線
  6
Continuous
370
    15
100
AcDbCircle
 10
395.5969871954644
 20
94.851853612784
 30
0.0
 40
2.099999999999994
100
AcDbArc
 50
0.0
 51
90.0
  0
LINE
  5
E2D8
330
17
100
AcDbEntity
  8
1外形線
  6
Continuous
370
    15
100
AcDbLine
 10
397.6969871954648
 20
90.05185361278336
 30
0.0
 11
397.6969871954648
 21
94.85185361278354
 31
0.0
  0
LINE
  5
E2D9
330
17
100
AcDbEntity
  8
1外形線
  6
Continuous
370
    15
100
AcDbLine
 10
393.4969871954649
 20
94.851853612784
 30
0.0
 11
393.4969871954641
 21
90.05185361278382
 31
0.0
  0
ARC
  5
E2DA
330
17
100
AcDbEntity
  8
1外形線
  6
Continuous
370
    15
100
AcDbCircle
 10
395.5969871954644
 20
90.05185361278382
 30
0.0
 40
2.100000000000065
100
AcDbArc
 50
270.0
 51
0.0
  0
ARC
  5
E2DB
330
17
100
AcDbEntity
  8
1外形線
  6
Continuous
370
    15
100
AcDbCircle
 10
395.5969871954644
 20
90.05185361278382
 30
0.0
 40
2.100000000000065
100
AcDbArc
 50
180.0
 51
270.0
  0
ARC
  5
E2DC
330
17
100
AcDbEntity
  8
1外形線
  6
Continuous
370
    15
100
AcDbCircle
 10
337.5969871954653
 20
94.851853612784
 30
0.0
 40
2.099999999999994
100
AcDbArc
 50
0.0
 51
90.0
  0
ARC
  5
E2DD
330
17
100
AcDbEntity
  8
1外形線
  6
Continuous
370
    15
100
AcDbCircle
 10
337.5969871954653
 20
94.851853612784
 30
0.0
 40
2.099999999999994
100
AcDbArc
 50
90.0
 51
180.0
  0
LINE
  5
E2DE
330
17
100
AcDbEntity
  8
1外形線
  6
Continuous
370
    15
100
AcDbLine
 10
335.4969871954649
 20
90.05185361278336
 30
0.0
 11
335.4969871954649
 21
94.85185361278354
 31
0.0
  0
LINE
  5
E2DF
330
17
100
AcDbEntity
  8
1外形線
  6
Continuous
370
    15
100
AcDbLine
 10
339.6969871954648
 20
94.851853612784
 30
0.0
 11
339.6969871954657
 21
90.05185361278382
 31
0.0
  0
ARC
  5
E2E0
330
17
100
AcDbEntity
  8
1外形線
  6
Continuous
370
    15
100
AcDbCircle
 10
337.5969871954653
 20
90.05185361278382
 30
0.0
 40
2.100000000000065
100
AcDbArc
 50
180.0
 51
270.0
  0
ARC
  5
E2E1
330
17
100
AcDbEntity
  8
1外形線
  6
Continuous
370
    15
100
AcDbCircle
 10
337.5969871954653
 20
90.05185361278382
 30
0.0
 40
2.100000000000065
100
AcDbArc
 50
270.0
 51
0.0
  0
LINE
  5
E2E5
330
17
100
AcDbEntity
  8
1外形線
  6
Continuous
370
    15
100
AcDbLine
 10
143.5238975692736
 20
-7.322049592001349
 30
0.0
 11
144.5238975692736
 21
-7.322049592001349
 31
0.0
  0
LINE
  5
E2E6
330
17
100
AcDbEntity
  8
1外形線
  6
Continuous
370
    15
100
AcDbLine
 10
143.5238975692736
 20
-7.322049592001349
 30
0.0
 11
142.2238975692734
 21
-7.322049592001349
 31
0.0
  0
LINE
  5
E2E7
330
17
100
AcDbEntity
  8
1外形線
  6
Continuous
370
    15
100
AcDbLine
 10
141.2238975692734
 20
-7.322049592001349
 30
0.0
 11
142.2238975692734
 21
-7.322049592001349
 31
0.0
  0
LINE
  5
E2E8
330
17
100
AcDbEntity
  8
1外形線
  6
Continuous
370
    15
100
AcDbLine
 10
144.5238975692736
 20
-7.322049592001349
 30
0.0
 11
145.5238975692736
 21
-7.322049592001349
 31
0.0
  0
LINE
  5
E2E9
330
17
100
AcDbEntity
  8
1外形線
  6
Continuous
370
    15
100
AcDbLine
 10
140.2238975692734
 20
-7.322049592001349
 30
0.0
 11
141.2238975692734
 21
-7.322049592001349
 31
0.0
  0
LINE
  5
E2EB
330
17
100
AcDbEntity
  8
1外形線
  6
Continuous
370
    15
100
AcDbLine
 10
180.1219743785467
 20
2.67795040799865
 30
0.0
 11
182.6154273085139
 21
2.67795040799865
 31
0.0
  0
LINE
  5
E2EC
330
17
100
AcDbEntity
  8
1外形線
  6
Continuous
370
    15
100
AcDbLine
 10
163.8738975692746
 20
-3.322049592001349
 30
0.0
 11
143.3738975692728
 21
-3.322049592001349
 31
0.0
  0
LINE
  5
E2ED
330
17
100
AcDbEntity
  8
1外形線
  6
Continuous
370
    15
100
AcDbLine
 10
185.123897569273
 20
-7.322049592001349
 30
0.0
 11
145.5238975692736
 21
-7.322049592001349
 31
0.0
  0
LINE
  5
E2EF
330
17
100
AcDbEntity
  8
1外形線
  6
Continuous
370
    15
100
AcDbLine
 10
103.1323678300333
 20
2.67795040799865
 30
0.0
 11
105.6258207599993
 21
2.67795040799865
 31
0.0
  0
LINE
  5
E2F0
330
17
100
AcDbEntity
  8
1外形線
  6
Continuous
370
    15
100
AcDbLine
 10
142.3738975692735
 20
-3.322049592001349
 30
0.0
 11
121.8738975692714
 21
-3.322049592001349
 31
0.0
  0
LINE
  5
E2F1
330
17
100
AcDbEntity
  8
1外形線
  6
Continuous
370
    15
100
AcDbLine
 10
140.2238975692734
 20
-7.322049592001349
 30
0.0
 11
100.623897569273
 21
-7.322049592001349
 31
0.0
  0
LINE
  5
E2F2
330
17
100
AcDbEntity
  8
1外形線
  6
Continuous
370
    15
100
AcDbLine
 10
182.6154273085139
 20
2.67795040799865
 30
0.0
 11
180.1219743785467
 21
2.67795040799865
 31
0.0
  0
LINE
  5
E2F3
330
17
100
AcDbEntity
  8
1外形線
  6
Continuous
370
    15
100
AcDbLine
 10
144.5238975692736
 20
-6.822049592002258
 30
0.0
 11
144.5238975692736
 21
-4.322049592002258
 31
0.0
  0
ARC
  5
E2F4
330
17
100
AcDbEntity
  8
1外形線
  6
Continuous
370
    15
100
AcDbCircle
 10
143.5238975692736
 20
-4.322049592002258
 30
0.0
 40
1.0
100
AcDbArc
 50
0.0
 51
90.0
  0
LINE
  5
E2F5
330
17
100
AcDbEntity
  8
1外形線
  6
Continuous
370
    15
100
AcDbLine
 10
141.2238975692734
 20
-4.322049592002258
 30
0.0
 11
141.2238975692734
 21
-6.822049592002258
 31
0.0
  0
ARC
  5
E2F6
330
17
100
AcDbEntity
  8
1外形線
  6
Continuous
370
    15
100
AcDbCircle
 10
142.2238975692734
 20
-4.322049592002258
 30
0.0
 40
1.0
100
AcDbArc
 50
90.0
 51
180.0
  0
LINE
  5
E2F7
330
17
100
AcDbEntity
  8
1外形線
 48
2.0
100
AcDbLine
 10
144.5238975692736
 20
-6.822049592002258
 30
0.0
 11
144.1738975692732
 21
-6.822049592002258
 31
0.0
  0
ARC
  5
E2F8
330
17
100
AcDbEntity
  8
1外形線
 48
2.0
100
AcDbCircle
 10
144.1738975692732
 20
-7.12204959200244
 30
0.0
 40
0.3
100
AcDbArc
 50
90.00000000002605
 51
180.0
  0
LINE
  5
E2F9
330
17
100
AcDbEntity
  8
1外形線
 48
2.0
100
AcDbLine
 10
141.5738975692728
 20
-6.822049592002258
 30
0.0
 11
141.2238975692734
 21
-6.822049592002258
 31
0.0
  0
ARC
  5
E2FA
330
17
100
AcDbEntity
  8
1外形線
 48
2.0
100
AcDbCircle
 10
141.5738975692728
 20
-7.12204959200244
 30
0.0
 40
0.3
100
AcDbArc
 50
0.0
 51
90.00000000002605
  0
LINE
  5
E2FB
330
17
100
AcDbEntity
  8
1外形線
  6
CENTER
 48
3.0
100
AcDbLine
 10
141.873897569273
 20
-7.12204959200244
 30
0.0
 11
141.873897569273
 21
-7.322049592001349
 31
0.0
  0
LINE
  5
E2FC
330
17
100
AcDbEntity
  8
1外形線
  6
CENTER
 48
3.0
100
AcDbLine
 10
143.873897569273
 20
-7.12204959200244
 30
0.0
 11
143.873897569273
 21
-7.322049592001349
 31
0.0
  0
LINE
  5
E2FD
330
17
100
AcDbEntity
  8
1外形線
100
AcDbLine
 10
142.7324762130373
 20
-3.680628235763833
 30
0.0
 11
142.373897569273
 21
-3.322049592000439
 31
0.0
  0
ARC
  5
E2FE
330
17
100
AcDbEntity
  8
1外形線
100
AcDbCircle
 10
142.8738975692739
 20
-3.539206879526318
 30
0.0
 40
0.2
100
AcDbArc
 50
225.00000000001
 51
315.0000000001373
  0
LINE
  5
E2FF
330
17
100
AcDbEntity
  8
1外形線
100
AcDbLine
 10
143.373897569273
 20
-3.322049592000439
 30
0.0
 11
143.0153189255124
 21
-3.680628235763833
 31
0.0
  0
ARC
  5
E300
330
17
100
AcDbEntity
  8
C4
100
AcDbCircle
 10
184.4783334912698
 20
1.012947417741997
 30
0.0
 40
0.5000000000000063
100
AcDbArc
 50
1.000000000001775
 51
55.71312302276319
  0
LINE
  5
E301
330
17
100
AcDbEntity
  8
C4
100
AcDbLine
 10
184.7600019035907
 20
1.42606108914515
 30
0.0
 11
183.1787641331556
 21
2.504177750805865
 31
0.0
  0
ARC
  5
E302
330
17
100
AcDbEntity
  8
C4
100
AcDbCircle
 10
182.6154273085139
 20
1.67795040799865
 30
0.0
 40
1.0
100
AcDbArc
 50
55.71312302276319
 51
90.0
  0
ARC
  5
E304
330
17
100
AcDbEntity
  8
C4
100
AcDbCircle
 10
101.2694616472771
 20
1.012947417741997
 30
0.0
 40
0.5000000000000063
100
AcDbArc
 50
124.2868769772368
 51
178.9999999999982
  0
LINE
  5
E305
330
17
100
AcDbEntity
  8
C4
100
AcDbLine
 10
100.9877932349563
 20
1.42606108914515
 30
0.0
 11
102.5690310053917
 21
2.504177750805865
 31
0.0
  0
ARC
  5
E306
330
17
100
AcDbEntity
  8
C4
100
AcDbCircle
 10
103.1323678300333
 20
1.67795040799865
 30
0.0
 40
1.0
100
AcDbArc
 50
90.0
 51
124.2868769772022
  0
ARC
  5
E307
330
17
100
AcDbEntity
  8
C4
100
AcDbCircle
 10
103.1323678300331
 20
1.67795040799865
 30
0.0
 40
1.0
100
AcDbArc
 50
90.0
 51
90.0
  0
LINE
  5
E308
330
17
100
AcDbEntity
  8
1外形線
 48
3.0
100
AcDbLine
 10
121.6238975692739
 20
-3.320747473345363
 30
0.0
 11
121.6238975692739
 21
-7.322049592001349
 31
0.0
  0
LINE
  5
E309
330
17
100
AcDbEntity
  8
1外形線
 48
3.0
100
AcDbLine
 10
123.6238975692739
 20
-3.322049592001349
 30
0.0
 11
123.6238975692739
 21
-7.322049592001349
 31
0.0
  0
LINE
  5
E30A
330
17
100
AcDbEntity
  8
1外形線
 48
3.0
100
AcDbLine
 10
162.123897569273
 20
-3.322049592002258
 30
0.0
 11
162.123897569273
 21
-7.322049592001349
 31
0.0
  0
LINE
  5
E30B
330
17
100
AcDbEntity
  8
1外形線
 48
3.0
100
AcDbLine
 10
164.123897569273
 20
-3.320747473345363
 30
0.0
 11
164.123897569273
 21
-7.322049592001349
 31
0.0
  0
ARC
  5
E30C
330
17
100
AcDbEntity
  8
1外形線
 48
3.0
100
AcDbCircle
 10
163.8738975692749
 20
20.67795040799865
 30
0.0
 40
24.0
100
AcDbArc
 50
270.0
 51
310.5358021113326
  0
ARC
  5
E30D
330
17
100
AcDbEntity
  8
1外形線
 48
3.0
100
AcDbCircle
 10
180.1219743785467
 20
1.67795040799865
 30
0.0
 40
1.0
100
AcDbArc
 50
90.0
 51
130.5358021113326
  0
ARC
  5
E30E
330
17
100
AcDbEntity
  8
1外形線
 48
3.0
100
AcDbCircle
 10
121.8738975692712
 20
20.67795040799865
 30
0.0
 40
24.0
100
AcDbArc
 50
229.4641978886981
 51
270.0
  0
ARC
  5
E30F
330
17
100
AcDbEntity
  8
1外形線
 48
3.0
100
AcDbCircle
 10
105.6258207599993
 20
1.67795040799865
 30
0.0
 40
1.0
100
AcDbArc
 50
49.46419788869815
 51
90.0
  0
ENDSEC
  0
SECTION
  2
OBJECTS
  0
DICTIONARY
  5
C
330
0
100
AcDbDictionary
281
     1
  3
ACAD_CIP_PREVIOUS_PRODUCT_INFO
350
DFE7
  3
ACAD_COLOR
350
DFC5
  3
ACAD_DETAILVIEWSTYLE
350
DFDF
  3
ACAD_GROUP
350
D
  3
ACAD_LAYOUT
350
DFC6
  3
ACAD_MATERIAL
350
DF93
  3
ACAD_MLEADERSTYLE
350
DFDB
  3
ACAD_MLINESTYLE
350
1A
  3
ACAD_PLOTSETTINGS
350
DFE1
  3
ACAD_PLOTSTYLENAME
350
DF91
  3
ACAD_SCALELIST
350
DFC9
  3
ACAD_SECTIONVIEWSTYLE
350
DFDD
  3
ACAD_TABLESTYLE
350
DFC7
  3
ACAD_VISUALSTYLE
350
DFAC
  3
ACDB_RECOMPOSE_DATA
350
E47D
  3
ACDBVARIABLEDICTIONARY
350
51
  0
DICTIONARY
  5
E07B
330
2
100
AcDbDictionary
280
     1
281
     1
  3
ACAD_LAYERSTATES
360
E07C
  0
DICTIONARY
  5
DFE8
330
E
100
AcDbDictionary
280
     1
281
     1
  3
ADSK_XREC_LAYER_RECONCILED
360
DFE9
  0
DICTIONARY
  5
DFEA
330
40
100
AcDbDictionary
280
     1
281
     1
  3
ADSK_XREC_LAYER_RECONCILED
360
DFEB
  0
DICTIONARY
  5
E073
330
E072
100
AcDbDictionary
280
     1
281
     1
  0
DICTIONARY
  5
E076
330
E075
100
AcDbDictionary
280
     1
281
     1
  0
XRECORD
  5
DFE7
102
{ACAD_REACTORS
330
C
102
}
330
C
100
AcDbXrecord
280
     1
300
ACDLT
300
2021
300

  0
DICTIONARY
  5
DFC5
102
{ACAD_REACTORS
330
C
102
}
330
C
100
AcDbDictionary
281
     1
  0
DICTIONARY
  5
DFDF
102
{ACAD_REACTORS
330
C
102
}
330
C
100
AcDbDictionary
281
     1
  3
Imperial24
350
E07E
  3
Metric50
350
DFE0
  0
DICTIONARY
  5
D
102
{ACAD_REACTORS
330
C
102
}
330
C
100
AcDbDictionary
281
     1
  0
DICTIONARY
  5
DFC6
102
{ACAD_REACTORS
330
C
102
}
330
C
100
AcDbDictionary
281
     1
  3
Model
350
DFE2
  3
レイアウト1
350
DFE3
  0
DICTIONARY
  5
DF93
102
{ACAD_REACTORS
330
C
102
}
330
C
100
AcDbDictionary
281
     1
  3
ByBlock
350
DF9C
  3
ByLayer
350
DF94
  3
Global
350
DFA4
  0
DICTIONARY
  5
DFDB
102
{ACAD_REACTORS
330
C
102
}
330
C
100
AcDbDictionary
281
     1
  3
Standard
350
DFDC
  0
DICTIONARY
  5
1A
102
{ACAD_REACTORS
330
C
102
}
330
C
100
AcDbDictionary
281
     1
  3
STANDARD
350
1B
  0
DICTIONARY
  5
DFE1
102
{ACAD_REACTORS
330
C
102
}
330
C
100
AcDbDictionary
281
     1
  0
ACDBDICTIONARYWDFLT
  5
DF91
102
{ACAD_REACTORS
330
C
102
}
330
C
100
AcDbDictionary
281
     1
  3
Normal
350
DF92
100
AcDbDictionaryWithDefault
340
DF92
  0
DICTIONARY
  5
DFC9
102
{ACAD_REACTORS
330
C
102
}
330
C
100
AcDbDictionary
281
     1
  3
A0
350
DFCA
  3
A1
350
DFCB
  3
A2
350
DFCC
  3
A3
350
DFCD
  3
A4
350
DFCE
  3
A5
350
DFCF
  3
A6
350
DFD0
  3
A7
350
DFD1
  3
A8
350
DFD2
  3
A9
350
DFD3
  3
B0
350
DFD4
  3
B1
350
DFD5
  3
B2
350
DFD6
  3
B3
350
DFD7
  3
B4
350
DFD8
  3
B5
350
DFD9
  3
B6
350
DFDA
  0
DICTIONARY
  5
DFDD
102
{ACAD_REACTORS
330
C
102
}
330
C
100
AcDbDictionary
281
     1
  3
Imperial24
350
E07D
  3
Metric50
350
DFDE
  0
DICTIONARY
  5
DFC7
102
{ACAD_REACTORS
330
C
102
}
330
C
100
AcDbDictionary
281
     1
  3
Standard
350
DFC8
  0
DICTIONARY
  5
DFAC
102
{ACAD_REACTORS
330
C
102
}
330
C
100
AcDbDictionary
281
     1
  3
2dWireframe
350
DFB2
  3
Basic
350
DFB1
  3
Brighten
350
DFB8
  3
ColorChange
350
DFBC
  3
Conceptual
350
DFB5
  3
Dim
350
DFB7
  3
EdgeColorOff
350
DFC4
  3
Facepattern
350
DFBB
  3
Flat
350
DFAD
  3
FlatWithEdges
350
DFAE
  3
Gouraud
350
DFAF
  3
GouraudWithEdges
350
DFB0
  3
Hidden
350
DFB4
  3
JitterOff
350
DFC2
  3
Linepattern
350
DFBA
  3
OverhangOff
350
DFC3
  3
Realistic
350
DFB6
  3
Shaded
350
DFC1
  3
Shaded with edges
350
DFC0
  3
Shades of Gray
350
DFBD
  3
Sketchy
350
DFBE
  3
Thicken
350
DFB9
  3
Wireframe
350
DFB3
  3
X-Ray
350
DFBF
  0
XRECORD
  5
E47D
102
{ACAD_REACTORS
330
C
102
}
330
C
100
AcDbXrecord
280
     1
 90
        1
330
DFC8
  0
DICTIONARY
  5
51
102
{ACAD_REACTORS
330
C
102
}
330
C
100
AcDbDictionary
281
     1
  3
CANNOSCALE
350
E477
  3
CMLEADERSTYLE
350
E473
  3
CTABLESTYLE
350
E472
  3
CVIEWDETAILSTYLE
350
E474
  3
CVIEWSECTIONSTYLE
350
E475
  3
DIMADEC
350
52
  3
LAYEREVAL
350
E479
  3
LAYERNOTIFY
350
E47A
  3
LIGHTINGUNITS
350
E478
  3
MSLTSCALE
350
E476
  3
SORTENTS
350
D1FE
  0
DICTIONARY
  5
E07C
102
{ACAD_REACTORS
330
E07B
102
}
330
E07B
100
AcDbDictionary
281
     1
  0
XRECORD
  5
DFE9
102
{ACAD_REACTORS
330
DFE8
102
}
330
DFE8
100
AcDbXrecord
280
     1
290
     1
  0
XRECORD
  5
DFEB
102
{ACAD_REACTORS
330
DFEA
102
}
330
DFEA
100
AcDbXrecord
280
     1
290
     1
  0
ACDBDETAILVIEWSTYLE
  5
E07E
102
{ACAD_REACTORS
330
DFDF
102
}
330
DFDF
100
AcDbModelDocViewStyle
 70
     0
  3
Imperial24
290
     0
300
Imperial24
 90
        0
100
AcDbDetailViewStyle
 70
     0
 71
     0
 90
        3
 71
     1
340
F
 62
   256
 40
0.24
340
0
 62
   256
 40
0.24
300

 40
0.36
280
     3
 71
     2
340
13
 90
       25
 62
   256
 71
     3
340
F
 62
   256
 40
0.24
 90
        1
 40
0.75
 90
        1
300
%<\AcVar ViewType \f "%tc1">% %<\AcVar ViewDetailId>%\PSCALE %<\AcVar ViewScale \f "%sn">%
 71
     4
340
13
 90
       25
 62
   256
340
13
 90
       25
 62
   256
280
     0
  0
ACDBDETAILVIEWSTYLE
  5
DFE0
102
{ACAD_REACTORS
330
DFDF
102
}
330
DFDF
100
AcDbModelDocViewStyle
 70
     0
  3
Metric50
290
     1
300
Metric50
 90
        0
100
AcDbDetailViewStyle
 70
     0
 71
     0
 90
        3
 71
     1
340
F
 62
   256
 40
5.0
340
0
 62
   256
 40
5.0
300

 40
0.0
280
     1
 71
     2
340
13
 90
       25
 62
   256
 71
     3
340
F
 62
   256
 40
5.0
 90
        0
 40
15.0
 90
        1
300
%<\AcVar ViewDetailId>% (%<\AcVar ViewScale \f "%sn">%)
 71
     4
340
13
 90
       25
 62
   256
340
13
 90
       25
 62
   256
280
     0
  0
LAYOUT
  5
DFE2
102
{ACAD_REACTORS
330
DFC6
102
}
330
DFC6
100
AcDbPlotSettings
  1

  2
OneNote for Windows 10
  4

  6

 40
0.0
 41
0.0
 42
0.0
 43
0.0
 44
0.0
 45
0.0
 46
0.0
 47
0.0
 48
0.0
 49
0.0
140
0.0
141
0.0
142
1.0
143
1.0
 70
  1712
 72
     0
 73
     0
 74
     0
  7

 75
     0
147
1.0
 76
     0
 77
     2
 78
   300
148
0.0
149
0.0
100
AcDbLayout
  1
Model
 70
     1
 71
     0
 10
0.0
 20
0.0
 11
12.0
 21
9.0
 12
0.0
 22
0.0
 32
0.0
 14
0.0
 24
0.0
 34
0.0
 15
0.0
 25
0.0
 35
0.0
146
0.0
 13
0.0
 23
0.0
 33
0.0
 16
1.0
 26
0.0
 36
0.0
 17
0.0
 27
1.0
 37
0.0
 76
     0
330
17
331
DF8F
  0
LAYOUT
  5
DFE3
102
{ACAD_REACTORS
330
DFC6
102
}
330
DFC6
100
AcDbPlotSettings
  1

  2
OneNote for Windows 10
  4

  6

 40
0.0
 41
0.0
 42
0.0
 43
0.0
 44
0.0
 45
0.0
 46
0.0
 47
0.0
 48
0.0
 49
0.0
140
0.0
141
0.0
142
1.0
143
1.0
 70
   688
 72
     0
 73
     0
 74
     5
  7

 75
    16
147
1.0
 76
     0
 77
     2
 78
   300
148
0.0
149
0.0
100
AcDbLayout
  1
レイアウト1
 70
     0
 71
     1
 10
0.0
 20
0.0
 11
12.0
 21
9.0
 12
0.0
 22
0.0
 32
0.0
 14
1.000000000000000E+20
 24
1.000000000000000E+20
 34
1.000000000000000E+20
 15
-1.000000000000000E+20
 25
-1.000000000000000E+20
 35
-1.000000000000000E+20
146
0.0
 13
0.0
 23
0.0
 33
0.0
 16
1.0
 26
0.0
 36
0.0
 17
0.0
 27
1.0
 37
0.0
 76
     0
330
14
  0
MATERIAL
  5
DF9C
102
{ACAD_XDICTIONARY
360
DF9D
102
}
102
{ACAD_REACTORS
330
DF93
102
}
330
DF93
100
AcDbMaterial
  1
ByBlock
 72
     0
 43
0.0208333333333333
 43
0.0
 43
0.0
 43
0.0
 43
0.0
 43
0.0208333333333333
 43
0.0
 43
0.0
 43
0.0
 43
0.0
 43
1.0
 43
0.0
 43
0.0
 43
0.0
 43
0.0
 43
1.0
 77
     0
 47
0.0208333333333333
 47
0.0
 47
0.0
 47
0.0
 47
0.0
 47
0.0208333333333333
 47
0.0
 47
0.0
 47
0.0
 47
0.0
 47
1.0
 47
0.0
 47
0.0
 47
0.0
 47
0.0
 47
1.0
171
     0
 49
0.0208333333333333
 49
0.0
 49
0.0
 49
0.0
 49
0.0
 49
0.0208333333333333
 49
0.0
 49
0.0
 49
0.0
 49
0.0
 49
1.0
 49
0.0
 49
0.0
 49
0.0
 49
0.0
 49
1.0
175
     0
142
0.0208333333333333
142
0.0
142
0.0
142
0.0
142
0.0
142
0.0208333333333333
142
0.0
142
0.0
142
0.0
142
0.0
142
1.0
142
0.0
142
0.0
142
0.0
142
0.0
142
1.0
179
     0
144
0.0208333333333333
144
0.0
144
0.0
144
0.0
144
0.0
144
0.0208333333333333
144
0.0
144
0.0
144
0.0
144
0.0
144
1.0
144
0.0
144
0.0
144
0.0
144
0.0
144
1.0
147
0.0208333333333333
147
0.0
147
0.0
147
0.0
147
0.0
147
0.0208333333333333
147
0.0
147
0.0
147
0.0
147
0.0
147
1.0
147
0.0
147
0.0
147
0.0
147
0.0
147
1.0
  0
MATERIAL
  5
DF94
102
{ACAD_XDICTIONARY
360
DF95
102
}
102
{ACAD_REACTORS
330
DF93
102
}
330
DF93
100
AcDbMaterial
  1
ByLayer
 72
     0
 43
0.0208333333333333
 43
0.0
 43
0.0
 43
0.0
 43
0.0
 43
0.0208333333333333
 43
0.0
 43
0.0
 43
0.0
 43
0.0
 43
1.0
 43
0.0
 43
0.0
 43
0.0
 43
0.0
 43
1.0
 77
     0
 47
0.0208333333333333
 47
0.0
 47
0.0
 47
0.0
 47
0.0
 47
0.0208333333333333
 47
0.0
 47
0.0
 47
0.0
 47
0.0
 47
1.0
 47
0.0
 47
0.0
 47
0.0
 47
0.0
 47
1.0
171
     0
 49
0.0208333333333333
 49
0.0
 49
0.0
 49
0.0
 49
0.0
 49
0.0208333333333333
 49
0.0
 49
0.0
 49
0.0
 49
0.0
 49
1.0
 49
0.0
 49
0.0
 49
0.0
 49
0.0
 49
1.0
175
     0
142
0.0208333333333333
142
0.0
142
0.0
142
0.0
142
0.0
142
0.0208333333333333
142
0.0
142
0.0
142
0.0
142
0.0
142
1.0
142
0.0
142
0.0
142
0.0
142
0.0
142
1.0
179
     0
144
0.0208333333333333
144
0.0
144
0.0
144
0.0
144
0.0
144
0.0208333333333333
144
0.0
144
0.0
144
0.0
144
0.0
144
1.0
144
0.0
144
0.0
144
0.0
144
0.0
144
1.0
147
0.0208333333333333
147
0.0
147
0.0
147
0.0
147
0.0
147
0.0208333333333333
147
0.0
147
0.0
147
0.0
147
0.0
147
1.0
147
0.0
147
0.0
147
0.0
147
0.0
147
1.0
  0
MATERIAL
  5
DFA4
102
{ACAD_XDICTIONARY
360
DFA5
102
}
102
{ACAD_REACTORS
330
DF93
102
}
330
DF93
100
AcDbMaterial
  1
Global
 72
     0
 43
0.0208333333333333
 43
0.0
 43
0.0
 43
0.0
 43
0.0
 43
0.0208333333333333
 43
0.0
 43
0.0
 43
0.0
 43
0.0
 43
1.0
 43
0.0
 43
0.0
 43
0.0
 43
0.0
 43
1.0
 77
     0
 47
0.0208333333333333
 47
0.0
 47
0.0
 47
0.0
 47
0.0
 47
0.0208333333333333
 47
0.0
 47
0.0
 47
0.0
 47
0.0
 47
1.0
 47
0.0
 47
0.0
 47
0.0
 47
0.0
 47
1.0
171
     0
 49
0.0208333333333333
 49
0.0
 49
0.0
 49
0.0
 49
0.0
 49
0.0208333333333333
 49
0.0
 49
0.0
 49
0.0
 49
0.0
 49
1.0
 49
0.0
 49
0.0
 49
0.0
 49
0.0
 49
1.0
175
     0
142
0.0208333333333333
142
0.0
142
0.0
142
0.0
142
0.0
142
0.0208333333333333
142
0.0
142
0.0
142
0.0
142
0.0
142
1.0
142
0.0
142
0.0
142
0.0
142
0.0
142
1.0
179
     0
144
0.0208333333333333
144
0.0
144
0.0
144
0.0
144
0.0
144
0.0208333333333333
144
0.0
144
0.0
144
0.0
144
0.0
144
1.0
144
0.0
144
0.0
144
0.0
144
0.0
144
1.0
147
0.0208333333333333
147
0.0
147
0.0
147
0.0
147
0.0
147
0.0208333333333333
147
0.0
147
0.0
147
0.0
147
0.0
147
1.0
147
0.0
147
0.0
147
0.0
147
0.0
147
1.0
  0
MLEADERSTYLE
  5
DFDC
102
{ACAD_REACTORS
330
DFDB
102
}
330
DFDB
100
AcDbMLeaderStyle
179
     2
170
     2
171
     1
172
     0
 90
        2
 40
0.0
 41
0.0
173
     1
 91
-1056964608
340
11
 92
       -2
290
     1
 42
2.0
291
     1
 43
0.36
  3
Standard
 44
4.0
300

342
F
174
     1
178
     6
175
     1
176
     0
 93
-1056964608
 45
4.0
292
     0
297
     0
 46
4.0
 94
-1056964608
 47
1.0
 49
1.0
140
1.0
293
     1
141
0.0
294
     1
177
     0
142
1.0
295
     1
296
     0
143
0.125
271
     0
272
     9
273
     9
298
     1
  0
MLINESTYLE
  5
1B
102
{ACAD_REACTORS
330
1A
102
}
330
1A
100
AcDbMlineStyle
  2
STANDARD
 70
     0
  3

 62
   256
 51
90.0
 52
90.0
 71
     2
 49
0.5
 62
   256
  6
BYLAYER
 49
-0.5
 62
   256
  6
BYLAYER
  0
ACDBPLACEHOLDER
  5
DF92
102
{ACAD_REACTORS
330
DF91
102
}
330
DF91
  0
SCALE
  5
DFCA
102
{ACAD_REACTORS
330
DFC9
102
}
330
DFC9
100
AcDbScale
 70
     0
300
1:1
140
1.0
141
1.0
290
     1
  0
SCALE
  5
DFCB
102
{ACAD_REACTORS
330
DFC9
102
}
330
DFC9
100
AcDbScale
 70
     0
300
1:2
140
1.0
141
2.0
290
     0
  0
SCALE
  5
DFCC
102
{ACAD_REACTORS
330
DFC9
102
}
330
DFC9
100
AcDbScale
 70
     0
300
1:4
140
1.0
141
4.0
290
     0
  0
SCALE
  5
DFCD
102
{ACAD_REACTORS
330
DFC9
102
}
330
DFC9
100
AcDbScale
 70
     0
300
1:5
140
1.0
141
5.0
290
     0
  0
SCALE
  5
DFCE
102
{ACAD_REACTORS
330
DFC9
102
}
330
DFC9
100
AcDbScale
 70
     0
300
1:8
140
1.0
141
8.0
290
     0
  0
SCALE
  5
DFCF
102
{ACAD_REACTORS
330
DFC9
102
}
330
DFC9
100
AcDbScale
 70
     0
300
1:10
140
1.0
141
10.0
290
     0
  0
SCALE
  5
DFD0
102
{ACAD_REACTORS
330
DFC9
102
}
330
DFC9
100
AcDbScale
 70
     0
300
1:16
140
1.0
141
16.0
290
     0
  0
SCALE
  5
DFD1
102
{ACAD_REACTORS
330
DFC9
102
}
330
DFC9
100
AcDbScale
 70
     0
300
1:20
140
1.0
141
20.0
290
     0
  0
SCALE
  5
DFD2
102
{ACAD_REACTORS
330
DFC9
102
}
330
DFC9
100
AcDbScale
 70
     0
300
1:30
140
1.0
141
30.0
290
     0
  0
SCALE
  5
DFD3
102
{ACAD_REACTORS
330
DFC9
102
}
330
DFC9
100
AcDbScale
 70
     0
300
1:40
140
1.0
141
40.0
290
     0
  0
SCALE
  5
DFD4
102
{ACAD_REACTORS
330
DFC9
102
}
330
DFC9
100
AcDbScale
 70
     0
300
1:50
140
1.0
141
50.0
290
     0
  0
SCALE
  5
DFD5
102
{ACAD_REACTORS
330
DFC9
102
}
330
DFC9
100
AcDbScale
 70
     0
300
1:100
140
1.0
141
100.0
290
     0
  0
SCALE
  5
DFD6
102
{ACAD_REACTORS
330
DFC9
102
}
330
DFC9
100
AcDbScale
 70
     0
300
2:1
140
2.0
141
1.0
290
     0
  0
SCALE
  5
DFD7
102
{ACAD_REACTORS
330
DFC9
102
}
330
DFC9
100
AcDbScale
 70
     0
300
4:1
140
4.0
141
1.0
290
     0
  0
SCALE
  5
DFD8
102
{ACAD_REACTORS
330
DFC9
102
}
330
DFC9
100
AcDbScale
 70
     0
300
8:1
140
8.0
141
1.0
290
     0
  0
SCALE
  5
DFD9
102
{ACAD_REACTORS
330
DFC9
102
}
330
DFC9
100
AcDbScale
 70
     0
300
10:1
140
10.0
141
1.0
290
     0
  0
SCALE
  5
DFDA
102
{ACAD_REACTORS
330
DFC9
102
}
330
DFC9
100
AcDbScale
 70
     0
300
100:1
140
100.0
141
1.0
290
     0
  0
ACDBSECTIONVIEWSTYLE
  5
E07D
102
{ACAD_REACTORS
330
DFDD
102
}
330
DFDD
100
AcDbModelDocViewStyle
 70
     0
  3
Imperial24
290
     0
300
Imperial24
 90
        0
100
AcDbSectionViewStyle
 70
     0
 71
     0
 90
       78
 71
     1
340
F
 62
   256
 40
0.24
340
0
340
0
 62
   256
 40
0.24
300
I, O, Q, S, X, Z
 40
0.48
 90
        3
 40
0.18
 90
        1
 71
     2
340
13
 90
       25
 62
   256
340
13
 90
       50
 62
   256
 40
0.24
 40
0.0
 40
0.24
 71
     3
340
F
 62
   256
 40
0.24
 90
        1
 40
0.75
 90
        1
300
%<\AcVar ViewType \f "%tc1">% %<\AcVar ViewSectionStartId>%-%<\AcVar ViewSectionEndId>%\PSCALE %<\AcVar ViewScale \f "%sn">%
 71
     4
 62
   256
 62
   257
300
ANSI31
 40
1.0
 90
        0
290
     0
290
     0
 90
        6
 40
0.0
 40
1.570796326794896
 40
0.2617993877991494
 40
1.308996938995747
 40
-0.2617993877991494
 40
1.832595714594046
  0
ACDBSECTIONVIEWSTYLE
  5
DFDE
102
{ACAD_REACTORS
330
DFDD
102
}
330
DFDD
100
AcDbModelDocViewStyle
 70
     0
  3
Metric50
290
     1
300
Metric50
 90
        0
100
AcDbSectionViewStyle
 70
     0
 71
     0
 90
      102
 71
     1
340
F
 62
   256
 40
5.0
340
0
340
0
 62
   256
 40
5.0
300
I, O, Q, S, X, Z
 40
10.0
 90
        0
 40
2.5
 90
        0
 71
     2
340
13
 90
       25
 62
   256
340
13
 90
       50
 62
   256
 40
5.0
 40
2.5
 40
5.0
 71
     3
340
F
 62
   256
 40
5.0
 90
        0
 40
15.0
 90
        1
300
%<\AcVar ViewSectionStartId>%-%<\AcVar ViewSectionEndId>% (%<\AcVar ViewScale \f "%sn">%)
 71
     4
 62
   256
 62
   257
300
ANSI31
 40
1.0
 90
        0
290
     0
290
     0
 90
        6
 40
0.0
 40
1.570796326794896
 40
0.2617993877991494
 40
1.308996938995747
 40
-0.2617993877991494
 40
1.832595714594046
  0
TABLESTYLE
  5
DFC8
102
{ACAD_XDICTIONARY
360
E47B
102
}
102
{ACAD_REACTORS
330
DFC7
102
}
330
DFC7
100
AcDbTableStyle
280
     0
  3
Standard
 70
     0
 71
     0
 40
1.5
 41
1.5
280
     0
281
     0
  7
STANDARD
140
4.5
170
     2
 62
     0
 63
     7
283
     0
 90
      512
 91
        0
  1

274
    -2
284
     1
 64
     0
275
    -2
285
     1
 65
     0
276
    -2
286
     1
 66
     0
277
    -2
287
     1
 67
     0
278
    -2
288
     1
 68
     0
279
    -2
289
     1
 69
     0
  7
STANDARD
140
6.0
170
     5
 62
     0
 63
     7
283
     0
 90
      512
 91
        0
  1

274
    -2
284
     1
 64
     0
275
    -2
285
     1
 65
     0
276
    -2
286
     1
 66
     0
277
    -2
287
     1
 67
     0
278
    -2
288
     1
 68
     0
279
    -2
289
     1
 69
     0
  7
STANDARD
140
4.5
170
     5
 62
     0
 63
     7
283
     0
 90
      512
 91
        0
  1

274
    -2
284
     1
 64
     0
275
    -2
285
     1
 65
     0
276
    -2
286
     1
 66
     0
277
    -2
287
     1
 67
     0
278
    -2
288
     1
 68
     0
279
    -2
289
     1
 69
     0
  0
VISUALSTYLE
  5
DFB2
102
{ACAD_REACTORS
330
DFAC
102
}
330
DFAC
100
AcDbVisualStyle
  2
2dWireframe
 70
     4
177
     3
291
     0
 70
    58
 90
        0
176
     1
 90
        2
176
     1
 90
        0
176
     1
 90
        0
176
     1
 40
0.6
176
     1
 40
30.0
176
     1
 62
     7
420
 16777215
176
     1
 90
        1
176
     1
 90
        4
176
     1
 62
     7
176
     1
 62
   257
176
     1
 90
        1
176
     1
 90
        1
176
     1
 40
1.0
176
     1
 90
        0
176
     1
 62
   257
176
     1
 40
1.0
176
     1
 90
        1
176
     1
 90
        6
176
     1
 90
        2
176
     1
 62
     7
176
     1
 90
        5
176
     1
 90
        0
176
     1
 90
        0
176
     1
290
     0
176
     1
 90
        1
176
     1
 40
0.0
176
     1
 90
        0
176
     1
290
     1
176
     1
290
     1
176
     1
290
     0
176
     1
290
     0
176
     1
290
     0
176
     1
290
     0
176
     1
290
     0
176
     1
290
     0
176
     1
290
     0
176
     1
 90
       50
176
     1
 40
0.0
176
     1
 40
1.0
176
     1
 90
        0
176
     1
 62
    18
420
        0
176
     1
 90
       50
176
     1
 90
        3
176
     1
 62
     5
420
      255
176
     1
290
     0
176
     1
 90
       50
176
     1
 90
       50
176
     1
 90
       50
176
     1
290
     0
176
     1
 90
       50
176
     1
 62
   256
176
     0
 40
1.0
176
     0
 90
        2
176
     1
  1
strokes_ogs.tif
176
     1
290
     0
176
     1
 40
1.0
176
     1
 40
1.0
176
     1
  0
VISUALSTYLE
  5
DFB1
102
{ACAD_REACTORS
330
DFAC
102
}
330
DFAC
100
AcDbVisualStyle
  2
Basic
 70
     7
177
     3
291
     1
 70
    58
 90
        1
176
     1
 90
        0
176
     1
 90
        1
176
     1
 90
        0
176
     1
 40
0.6
176
     1
 40
30.0
176
     1
 62
     7
420
 16777215
176
     1
 90
        0
176
     1
 90
        4
176
     1
 62
     7
176
     1
 62
   257
176
     1
 90
        1
176
     1
 90
        1
176
     1
 40
1.0
176
     1
 90
        8
176
     1
 62
     7
176
     1
 40
1.0
176
     1
 90
        1
176
     1
 90
        6
176
     1
 90
        2
176
     1
 62
     7
176
     1
 90
        5
176
     1
 90
        0
176
     1
 90
        0
176
     1
290
     0
176
     1
 90
        1
176
     1
 40
0.0
176
     1
 90
        0
176
     1
290
     0
176
     1
290
     1
176
     1
290
     1
176
     1
290
     0
176
     1
290
     0
176
     1
290
     0
176
     1
290
     0
176
     1
290
     0
176
     1
290
     0
176
     1
 90
       50
176
     1
 40
0.0
176
     1
 40
1.0
176
     1
 90
        0
176
     1
 62
    18
420
        0
176
     1
 90
       50
176
     1
 90
        3
176
     1
 62
     5
420
      255
176
     1
290
     0
176
     1
 90
       50
176
     1
 90
       50
176
     1
 90
       50
176
     1
290
     0
176
     1
 90
       50
176
     1
 62
   256
176
     0
 40
1.0
176
     0
 90
        2
176
     1
  1
strokes_ogs.tif
176
     1
290
     0
176
     1
 40
1.0
176
     1
 40
1.0
176
     1
  0
VISUALSTYLE
  5
DFB8
102
{ACAD_REACTORS
330
DFAC
102
}
330
DFAC
100
AcDbVisualStyle
  2
Brighten
 70
    12
177
     3
291
     1
 70
    58
 90
        2
176
     1
 90
        2
176
     1
 90
        0
176
     1
 90
        0
176
     1
 40
0.6
176
     1
 40
30.0
176
     1
 62
     7
420
 16777215
176
     1
 90
        1
176
     1
 90
        4
176
     1
 62
     7
176
     1
 62
   257
176
     1
 90
        1
176
     1
 90
        1
176
     1
 40
1.0
176
     1
 90
        8
176
     1
 62
     7
176
     1
 40
1.0
176
     1
 90
        1
176
     1
 90
        6
176
     1
 90
        2
176
     1
 62
     7
176
     1
 90
        5
176
     1
 90
        0
176
     1
 90
        0
176
     1
290
     0
176
     1
 90
        1
176
     1
 40
50.0
176
     1
 90
        0
176
     1
290
     0
176
     1
290
     1
176
     1
290
     1
176
     1
290
     0
176
     1
290
     0
176
     1
290
     0
176
     1
290
     0
176
     1
290
     0
176
     1
290
     0
176
     1
 90
       50
176
     1
 40
0.0
176
     1
 40
1.0
176
     1
 90
        0
176
     1
 62
    18
420
        0
176
     1
 90
       50
176
     1
 90
        3
176
     1
 62
     5
420
      255
176
     1
290
     0
176
     1
 90
       50
176
     1
 90
       50
176
     1
 90
       50
176
     1
290
     0
176
     1
 90
       50
176
     1
 62
   256
176
     0
 40
1.0
176
     0
 90
        2
176
     1
  1
strokes_ogs.tif
176
     1
290
     0
176
     1
 40
1.0
176
     1
 40
1.0
176
     1
  0
VISUALSTYLE
  5
DFBC
102
{ACAD_REACTORS
330
DFAC
102
}
330
DFAC
100
AcDbVisualStyle
  2
ColorChange
 70
    16
177
     3
291
     1
 70
    58
 90
        2
176
     1
 90
        2
176
     1
 90
        3
176
     1
 90
        0
176
     1
 40
0.6
176
     1
 40
30.0
176
     1
 62
     8
420
  8421504
176
     1
 90
        1
176
     1
 90
        4
176
     1
 62
     7
176
     1
 62
   257
176
     1
 90
        1
176
     1
 90
        1
176
     1
 40
1.0
176
     1
 90
        8
176
     1
 62
     8
420
  8421504
176
     1
 40
1.0
176
     1
 90
        1
176
     1
 90
        6
176
     1
 90
        2
176
     1
 62
     7
176
     1
 90
        5
176
     1
 90
        0
176
     1
 90
        0
176
     1
290
     0
176
     1
 90
        1
176
     1
 40
0.0
176
     1
 90
        0
176
     1
290
     0
176
     1
290
     1
176
     1
290
     1
176
     1
290
     0
176
     1
290
     0
176
     1
290
     0
176
     1
290
     0
176
     1
290
     0
176
     1
290
     0
176
     1
 90
       50
176
     1
 40
0.0
176
     1
 40
1.0
176
     1
 90
        0
176
     1
 62
    18
420
        0
176
     1
 90
       50
176
     1
 90
        3
176
     1
 62
     5
420
      255
176
     1
290
     0
176
     1
 90
       50
176
     1
 90
       50
176
     1
 90
       50
176
     1
290
     0
176
     1
 90
       50
176
     1
 62
   256
176
     0
 40
1.0
176
     0
 90
        2
176
     1
  1
strokes_ogs.tif
176
     1
290
     0
176
     1
 40
1.0
176
     1
 40
1.0
176
     1
  0
VISUALSTYLE
  5
DFB5
102
{ACAD_REACTORS
330
DFAC
102
}
330
DFAC
100
AcDbVisualStyle
  2
Conceptual
 70
     9
177
     3
291
     0
 70
    58
 90
        3
176
     1
 90
        2
176
     1
 90
        0
176
     1
 90
        0
176
     1
 40
0.6
176
     1
 40
30.0
176
     1
 62
     7
420
 16777215
176
     1
 90
        2
176
     1
 90
        2
176
     1
 62
     7
176
     1
 62
   257
176
     1
 90
        1
176
     1
 90
        1
176
     1
 40
179.0
176
     1
 90
        8
176
     1
 62
     7
176
     1
 40
1.0
176
     1
 90
        1
176
     1
 90
        6
176
     1
 90
        2
176
     1
 62
     7
176
     1
 90
        3
176
     1
 90
        0
176
     1
 90
        0
176
     1
290
     0
176
     1
 90
        1
176
     1
 40
0.0
176
     1
 90
        0
176
     1
290
     0
176
     1
290
     1
176
     1
290
     1
176
     1
290
     0
176
     1
290
     0
176
     1
290
     0
176
     1
290
     0
176
     1
290
     0
176
     1
290
     0
176
     1
 90
       50
176
     1
 40
0.0
176
     1
 40
1.0
176
     1
 90
        0
176
     1
 62
    18
420
        0
176
     1
 90
       50
176
     1
 90
        3
176
     1
 62
     5
420
      255
176
     1
290
     0
176
     1
 90
       50
176
     1
 90
       50
176
     1
 90
       50
176
     1
290
     0
176
     1
 90
       50
176
     1
 62
   256
176
     0
 40
1.0
176
     0
 90
        2
176
     1
  1
strokes_ogs.tif
176
     1
290
     0
176
     1
 40
1.0
176
     1
 40
1.0
176
     1
  0
VISUALSTYLE
  5
DFB7
102
{ACAD_REACTORS
330
DFAC
102
}
330
DFAC
100
AcDbVisualStyle
  2
Dim
 70
    11
177
     3
291
     1
 70
    58
 90
        2
176
     1
 90
        2
176
     1
 90
        0
176
     1
 90
        0
176
     1
 40
0.6
176
     1
 40
30.0
176
     1
 62
     7
420
 16777215
176
     1
 90
        1
176
     1
 90
        4
176
     1
 62
     7
176
     1
 62
   257
176
     1
 90
        1
176
     1
 90
        1
176
     1
 40
1.0
176
     1
 90
        8
176
     1
 62
     7
176
     1
 40
1.0
176
     1
 90
        1
176
     1
 90
        6
176
     1
 90
        2
176
     1
 62
     7
176
     1
 90
        5
176
     1
 90
        0
176
     1
 90
        0
176
     1
290
     0
176
     1
 90
        1
176
     1
 40
-50.0
176
     1
 90
        0
176
     1
290
     0
176
     1
290
     1
176
     1
290
     1
176
     1
290
     0
176
     1
290
     0
176
     1
290
     0
176
     1
290
     0
176
     1
290
     0
176
     1
290
     0
176
     1
 90
       50
176
     1
 40
0.0
176
     1
 40
1.0
176
     1
 90
        0
176
     1
 62
    18
420
        0
176
     1
 90
       50
176
     1
 90
        3
176
     1
 62
     5
420
      255
176
     1
290
     0
176
     1
 90
       50
176
     1
 90
       50
176
     1
 90
       50
176
     1
290
     0
176
     1
 90
       50
176
     1
 62
   256
176
     0
 40
1.0
176
     0
 90
        2
176
     1
  1
strokes_ogs.tif
176
     1
290
     0
176
     1
 40
1.0
176
     1
 40
1.0
176
     1
  0
VISUALSTYLE
  5
DFC4
102
{ACAD_REACTORS
330
DFAC
102
}
330
DFAC
100
AcDbVisualStyle
  2
EdgeColorOff
 70
    22
177
     3
291
     1
 70
    58
 90
        2
176
     0
 90
        2
176
     0
 90
        0
176
     0
 90
        0
176
     0
 40
0.6
176
     0
 40
30.0
176
     0
 62
     7
420
 16777215
176
     0
 90
        1
176
     0
 90
        4
176
     0
 62
     7
176
     0
 62
   257
176
     0
 90
        1
176
     0
 90
        1
176
     0
 40
1.0
176
     0
 90
        8
176
     2
 62
     7
176
     0
 40
1.0
176
     0
 90
        1
176
     0
 90
        6
176
     0
 90
        2
176
     0
 62
     7
176
     0
 90
        5
176
     0
 90
        0
176
     0
 90
        0
176
     0
290
     0
176
     0
 90
        1
176
     0
 40
0.0
176
     0
 90
        0
176
     0
290
     0
176
     0
290
     1
176
     0
290
     1
176
     0
290
     0
176
     0
290
     0
176
     0
290
     0
176
     0
290
     0
176
     0
290
     0
176
     0
290
     0
176
     0
 90
       50
176
     0
 40
0.0
176
     0
 40
1.0
176
     0
 90
        0
176
     0
 62
    18
420
        0
176
     0
 90
       50
176
     0
 90
        3
176
     0
 62
     5
420
      255
176
     0
290
     0
176
     0
 90
       50
176
     0
 90
       50
176
     0
 90
       50
176
     0
290
     0
176
     0
 90
       50
176
     0
 62
   256
176
     0
 40
1.0
176
     0
 90
        2
176
     0
  1
strokes_ogs.tif
176
     0
290
     0
176
     0
 40
1.0
176
     0
 40
1.0
176
     0
  0
VISUALSTYLE
  5
DFBB
102
{ACAD_REACTORS
330
DFAC
102
}
330
DFAC
100
AcDbVisualStyle
  2
Facepattern
 70
    15
177
     3
291
     1
 70
    58
 90
        2
176
     1
 90
        2
176
     1
 90
        0
176
     1
 90
        0
176
     1
 40
0.6
176
     1
 40
30.0
176
     1
 62
     7
420
 16777215
176
     1
 90
        1
176
     1
 90
        4
176
     1
 62
     7
176
     1
 62
   257
176
     1
 90
        1
176
     1
 90
        1
176
     1
 40
1.0
176
     1
 90
        8
176
     1
 62
     7
176
     1
 40
1.0
176
     1
 90
        1
176
     1
 90
        6
176
     1
 90
        2
176
     1
 62
     7
176
     1
 90
        5
176
     1
 90
        0
176
     1
 90
        0
176
     1
290
     0
176
     1
 90
        1
176
     1
 40
0.0
176
     1
 90
        0
176
     1
290
     0
176
     1
290
     1
176
     1
290
     1
176
     1
290
     0
176
     1
290
     0
176
     1
290
     0
176
     1
290
     0
176
     1
290
     0
176
     1
290
     0
176
     1
 90
       50
176
     1
 40
0.0
176
     1
 40
1.0
176
     1
 90
        0
176
     1
 62
    18
420
        0
176
     1
 90
       50
176
     1
 90
        3
176
     1
 62
     5
420
      255
176
     1
290
     0
176
     1
 90
       50
176
     1
 90
       50
176
     1
 90
       50
176
     1
290
     0
176
     1
 90
       50
176
     1
 62
   256
176
     0
 40
1.0
176
     0
 90
        2
176
     1
  1
strokes_ogs.tif
176
     1
290
     0
176
     1
 40
1.0
176
     1
 40
1.0
176
     1
  0
VISUALSTYLE
  5
DFAD
102
{ACAD_REACTORS
330
DFAC
102
}
330
DFAC
100
AcDbVisualStyle
  2
Flat
 70
     0
177
     3
291
     1
 70
    58
 90
        2
176
     1
 90
        1
176
     1
 90
        1
176
     1
 90
        2
176
     1
 40
0.6
176
     1
 40
30.0
176
     1
 62
     7
420
 16777215
176
     1
 90
        0
176
     1
 90
        0
176
     1
 62
     7
176
     1
 62
   257
176
     1
 90
        1
176
     1
 90
        1
176
     1
 40
1.0
176
     1
 90
        8
176
     1
 62
     7
176
     1
 40
1.0
176
     1
 90
        1
176
     1
 90
        6
176
     1
 90
        2
176
     1
 62
     7
176
     1
 90
        5
176
     1
 90
        0
176
     1
 90
        0
176
     1
290
     0
176
     1
 90
       13
176
     1
 40
0.0
176
     1
 90
        0
176
     1
290
     0
176
     1
290
     1
176
     1
290
     1
176
     1
290
     0
176
     1
290
     0
176
     1
290
     0
176
     1
290
     0
176
     1
290
     0
176
     1
290
     0
176
     1
 90
       50
176
     1
 40
0.0
176
     1
 40
1.0
176
     1
 90
        0
176
     1
 62
    18
420
        0
176
     1
 90
       50
176
     1
 90
        3
176
     1
 62
     5
420
      255
176
     1
290
     0
176
     1
 90
       50
176
     1
 90
       50
176
     1
 90
       50
176
     1
290
     0
176
     1
 90
       50
176
     1
 62
   256
176
     0
 40
1.0
176
     0
 90
        2
176
     1
  1
strokes_ogs.tif
176
     1
290
     0
176
     1
 40
1.0
176
     1
 40
1.0
176
     1
  0
VISUALSTYLE
  5
DFAE
102
{ACAD_REACTORS
330
DFAC
102
}
330
DFAC
100
AcDbVisualStyle
  2
FlatWithEdges
 70
     1
177
     3
291
     1
 70
    58
 90
        2
176
     1
 90
        1
176
     1
 90
        1
176
     1
 90
        2
176
     1
 40
0.6
176
     1
 40
30.0
176
     1
 62
     7
420
 16777215
176
     1
 90
        1
176
     1
 90
        0
176
     1
 62
     7
176
     1
 62
   257
176
     1
 90
        1
176
     1
 90
        1
176
     1
 40
1.0
176
     1
 90
        0
176
     1
 62
   257
176
     1
 40
1.0
176
     1
 90
        1
176
     1
 90
        6
176
     1
 90
        2
176
     1
 62
     7
176
     1
 90
        5
176
     1
 90
        0
176
     1
 90
        0
176
     1
290
     0
176
     1
 90
       13
176
     1
 40
0.0
176
     1
 90
        0
176
     1
290
     0
176
     1
290
     1
176
     1
290
     1
176
     1
290
     0
176
     1
290
     0
176
     1
290
     0
176
     1
290
     0
176
     1
290
     0
176
     1
290
     0
176
     1
 90
       50
176
     1
 40
0.0
176
     1
 40
1.0
176
     1
 90
        0
176
     1
 62
    18
420
        0
176
     1
 90
       50
176
     1
 90
        3
176
     1
 62
     5
420
      255
176
     1
290
     0
176
     1
 90
       50
176
     1
 90
       50
176
     1
 90
       50
176
     1
290
     0
176
     1
 90
       50
176
     1
 62
   256
176
     0
 40
1.0
176
     0
 90
        2
176
     1
  1
strokes_ogs.tif
176
     1
290
     0
176
     1
 40
1.0
176
     1
 40
1.0
176
     1
  0
VISUALSTYLE
  5
DFAF
102
{ACAD_REACTORS
330
DFAC
102
}
330
DFAC
100
AcDbVisualStyle
  2
Gouraud
 70
     2
177
     3
291
     1
 70
    58
 90
        2
176
     1
 90
        2
176
     1
 90
        1
176
     1
 90
        2
176
     1
 40
0.6
176
     1
 40
30.0
176
     1
 62
     7
420
 16777215
176
     1
 90
        0
176
     1
 90
        0
176
     1
 62
     7
176
     1
 62
   257
176
     1
 90
        1
176
     1
 90
        1
176
     1
 40
1.0
176
     1
 90
        0
176
     1
 62
     7
176
     1
 40
1.0
176
     1
 90
        1
176
     1
 90
        6
176
     1
 90
        2
176
     1
 62
     7
176
     1
 90
        5
176
     1
 90
        0
176
     1
 90
        0
176
     1
290
     0
176
     1
 90
       13
176
     1
 40
0.0
176
     1
 90
        0
176
     1
290
     0
176
     1
290
     1
176
     1
290
     1
176
     1
290
     0
176
     1
290
     0
176
     1
290
     0
176
     1
290
     0
176
     1
290
     0
176
     1
290
     0
176
     1
 90
       50
176
     1
 40
0.0
176
     1
 40
1.0
176
     1
 90
        0
176
     1
 62
    18
420
        0
176
     1
 90
       50
176
     1
 90
        3
176
     1
 62
     5
420
      255
176
     1
290
     0
176
     1
 90
       50
176
     1
 90
       50
176
     1
 90
       50
176
     1
290
     0
176
     1
 90
       50
176
     1
 62
   256
176
     0
 40
1.0
176
     0
 90
        2
176
     1
  1
strokes_ogs.tif
176
     1
290
     0
176
     1
 40
1.0
176
     1
 40
1.0
176
     1
  0
VISUALSTYLE
  5
DFB0
102
{ACAD_REACTORS
330
DFAC
102
}
330
DFAC
100
AcDbVisualStyle
  2
GouraudWithEdges
 70
     3
177
     3
291
     1
 70
    58
 90
        2
176
     1
 90
        2
176
     1
 90
        1
176
     1
 90
        2
176
     1
 40
0.6
176
     1
 40
30.0
176
     1
 62
     7
420
 16777215
176
     1
 90
        1
176
     1
 90
        0
176
     1
 62
     7
176
     1
 62
   257
176
     1
 90
        1
176
     1
 90
        1
176
     1
 40
1.0
176
     1
 90
        0
176
     1
 62
   257
176
     1
 40
1.0
176
     1
 90
        1
176
     1
 90
        6
176
     1
 90
        2
176
     1
 62
     7
176
     1
 90
        5
176
     1
 90
        0
176
     1
 90
        0
176
     1
290
     0
176
     1
 90
       13
176
     1
 40
0.0
176
     1
 90
        0
176
     1
290
     0
176
     1
290
     1
176
     1
290
     1
176
     1
290
     0
176
     1
290
     0
176
     1
290
     0
176
     1
290
     0
176
     1
290
     0
176
     1
290
     0
176
     1
 90
       50
176
     1
 40
0.0
176
     1
 40
1.0
176
     1
 90
        0
176
     1
 62
    18
420
        0
176
     1
 90
       50
176
     1
 90
        3
176
     1
 62
     5
420
      255
176
     1
290
     0
176
     1
 90
       50
176
     1
 90
       50
176
     1
 90
       50
176
     1
290
     0
176
     1
 90
       50
176
     1
 62
   256
176
     0
 40
1.0
176
     0
 90
        2
176
     1
  1
strokes_ogs.tif
176
     1
290
     0
176
     1
 40
1.0
176
     1
 40
1.0
176
     1
  0
VISUALSTYLE
  5
DFB4
102
{ACAD_REACTORS
330
DFAC
102
}
330
DFAC
100
AcDbVisualStyle
  2
Hidden
 70
     6
177
     3
291
     0
 70
    58
 90
        1
176
     1
 90
        2
176
     1
 90
        2
176
     1
 90
        0
176
     1
 40
0.6
176
     1
 40
30.0
176
     1
 62
     7
420
 16777215
176
     1
 90
        2
176
     1
 90
        2
176
     1
 62
     7
176
     1
 62
   257
176
     1
 90
        2
176
     1
 90
        1
176
     1
 40
40.0
176
     1
 90
        0
176
     1
 62
   257
176
     1
 40
1.0
176
     1
 90
        1
176
     1
 90
        6
176
     1
 90
        2
176
     1
 62
     7
176
     1
 90
        3
176
     1
 90
        0
176
     1
 90
        0
176
     1
290
     0
176
     1
 90
        1
176
     1
 40
0.0
176
     1
 90
        0
176
     1
290
     0
176
     1
290
     1
176
     1
290
     1
176
     1
290
     0
176
     1
290
     0
176
     1
290
     0
176
     1
290
     0
176
     1
290
     0
176
     1
290
     0
176
     1
 90
       50
176
     1
 40
0.0
176
     1
 40
1.0
176
     1
 90
        0
176
     1
 62
    18
420
        0
176
     1
 90
       50
176
     1
 90
        3
176
     1
 62
     5
420
      255
176
     1
290
     0
176
     1
 90
       50
176
     1
 90
       50
176
     1
 90
       50
176
     1
290
     0
176
     1
 90
       50
176
     1
 62
   256
176
     0
 40
1.0
176
     0
 90
        2
176
     1
  1
strokes_ogs.tif
176
     1
290
     0
176
     1
 40
1.0
176
     1
 40
1.0
176
     1
  0
VISUALSTYLE
  5
DFC2
102
{ACAD_REACTORS
330
DFAC
102
}
330
DFAC
100
AcDbVisualStyle
  2
JitterOff
 70
    20
177
     3
291
     1
 70
    58
 90
        2
176
     0
 90
        2
176
     0
 90
        0
176
     0
 90
        0
176
     0
 40
0.6
176
     0
 40
30.0
176
     0
 62
     7
420
 16777215
176
     0
 90
        1
176
     0
 90
        4
176
     0
 62
     7
176
     0
 62
   257
176
     0
 90
        1
176
     0
 90
        1
176
     0
 40
1.0
176
     0
 90
       10
176
     2
 62
     7
176
     0
 40
1.0
176
     0
 90
        1
176
     0
 90
        6
176
     0
 90
        2
176
     0
 62
     7
176
     0
 90
        5
176
     0
 90
        0
176
     0
 90
        0
176
     0
290
     0
176
     0
 90
        1
176
     0
 40
0.0
176
     0
 90
        0
176
     0
290
     0
176
     0
290
     1
176
     0
290
     1
176
     0
290
     0
176
     0
290
     0
176
     0
290
     0
176
     0
290
     0
176
     0
290
     0
176
     0
290
     0
176
     0
 90
       50
176
     0
 40
0.0
176
     0
 40
1.0
176
     0
 90
        0
176
     0
 62
    18
420
        0
176
     0
 90
       50
176
     0
 90
        3
176
     0
 62
     5
420
      255
176
     0
290
     0
176
     0
 90
       50
176
     0
 90
       50
176
     0
 90
       50
176
     0
290
     0
176
     0
 90
       50
176
     0
 62
   256
176
     0
 40
1.0
176
     0
 90
        2
176
     0
  1
strokes_ogs.tif
176
     0
290
     0
176
     0
 40
1.0
176
     0
 40
1.0
176
     0
  0
VISUALSTYLE
  5
DFBA
102
{ACAD_REACTORS
330
DFAC
102
}
330
DFAC
100
AcDbVisualStyle
  2
Linepattern
 70
    14
177
     3
291
     1
 70
    58
 90
        2
176
     1
 90
        2
176
     1
 90
        0
176
     1
 90
        0
176
     1
 40
0.6
176
     1
 40
30.0
176
     1
 62
     7
420
 16777215
176
     1
 90
        1
176
     1
 90
        4
176
     1
 62
     7
176
     1
 62
   257
176
     1
 90
        7
176
     1
 90
        7
176
     1
 40
1.0
176
     1
 90
        8
176
     1
 62
     7
176
     1
 40
1.0
176
     1
 90
        1
176
     1
 90
        6
176
     1
 90
        2
176
     1
 62
     7
176
     1
 90
        5
176
     1
 90
        0
176
     1
 90
        0
176
     1
290
     0
176
     1
 90
        1
176
     1
 40
0.0
176
     1
 90
        0
176
     1
290
     0
176
     1
290
     1
176
     1
290
     1
176
     1
290
     0
176
     1
290
     0
176
     1
290
     0
176
     1
290
     0
176
     1
290
     0
176
     1
290
     0
176
     1
 90
       50
176
     1
 40
0.0
176
     1
 40
1.0
176
     1
 90
        0
176
     1
 62
    18
420
        0
176
     1
 90
       50
176
     1
 90
        3
176
     1
 62
     5
420
      255
176
     1
290
     0
176
     1
 90
       50
176
     1
 90
       50
176
     1
 90
       50
176
     1
290
     0
176
     1
 90
       50
176
     1
 62
   256
176
     0
 40
1.0
176
     0
 90
        2
176
     1
  1
strokes_ogs.tif
176
     1
290
     0
176
     1
 40
1.0
176
     1
 40
1.0
176
     1
  0
VISUALSTYLE
  5
DFC3
102
{ACAD_REACTORS
330
DFAC
102
}
330
DFAC
100
AcDbVisualStyle
  2
OverhangOff
 70
    21
177
     3
291
     1
 70
    58
 90
        2
176
     0
 90
        2
176
     0
 90
        0
176
     0
 90
        0
176
     0
 40
0.6
176
     0
 40
30.0
176
     0
 62
     7
420
 16777215
176
     0
 90
        1
176
     0
 90
        4
176
     0
 62
     7
176
     0
 62
   257
176
     0
 90
        1
176
     0
 90
        1
176
     0
 40
1.0
176
     0
 90
        9
176
     2
 62
     7
176
     0
 40
1.0
176
     0
 90
        1
176
     0
 90
        6
176
     0
 90
        2
176
     0
 62
     7
176
     0
 90
        5
176
     0
 90
        0
176
     0
 90
        0
176
     0
290
     0
176
     0
 90
        1
176
     0
 40
0.0
176
     0
 90
        0
176
     0
290
     0
176
     0
290
     1
176
     0
290
     1
176
     0
290
     0
176
     0
290
     0
176
     0
290
     0
176
     0
290
     0
176
     0
290
     0
176
     0
290
     0
176
     0
 90
       50
176
     0
 40
0.0
176
     0
 40
1.0
176
     0
 90
        0
176
     0
 62
    18
420
        0
176
     0
 90
       50
176
     0
 90
        3
176
     0
 62
     5
420
      255
176
     0
290
     0
176
     0
 90
       50
176
     0
 90
       50
176
     0
 90
       50
176
     0
290
     0
176
     0
 90
       50
176
     0
 62
   256
176
     0
 40
1.0
176
     0
 90
        2
176
     0
  1
strokes_ogs.tif
176
     0
290
     0
176
     0
 40
1.0
176
     0
 40
1.0
176
     0
  0
VISUALSTYLE
  5
DFB6
102
{ACAD_REACTORS
330
DFAC
102
}
330
DFAC
100
AcDbVisualStyle
  2
Realistic
 70
     8
177
     3
291
     0
 70
    58
 90
        2
176
     1
 90
        3
176
     1
 90
        0
176
     1
 90
        2
176
     1
 40
0.6
176
     1
 40
30.0
176
     1
 62
     7
420
 16777215
176
     1
 90
        0
176
     1
 90
        0
176
     1
 62
     7
176
     1
 62
   257
176
     1
 90
        1
176
     1
 90
        1
176
     1
 40
1.0
176
     1
 90
        8
176
     1
 62
   257
176
     1
 40
1.0
176
     1
 90
        1
176
     1
 90
        6
176
     1
 90
        2
176
     1
 62
     7
176
     1
 90
        3
176
     1
 90
        0
176
     1
 90
        0
176
     1
290
     0
176
     1
 90
       13
176
     1
 40
0.0
176
     1
 90
        0
176
     1
290
     0
176
     1
290
     1
176
     1
290
     1
176
     1
290
     0
176
     1
290
     0
176
     1
290
     0
176
     1
290
     0
176
     1
290
     0
176
     1
290
     0
176
     1
 90
       50
176
     1
 40
0.0
176
     1
 40
1.0
176
     1
 90
        0
176
     1
 62
    18
420
        0
176
     1
 90
       50
176
     1
 90
        3
176
     1
 62
     5
420
      255
176
     1
290
     0
176
     1
 90
       50
176
     1
 90
       50
176
     1
 90
       50
176
     1
290
     0
176
     1
 90
       50
176
     1
 62
   256
176
     0
 40
1.0
176
     0
 90
        2
176
     1
  1
strokes_ogs.tif
176
     1
290
     0
176
     1
 40
1.0
176
     1
 40
1.0
176
     1
  0
VISUALSTYLE
  5
DFC1
102
{ACAD_REACTORS
330
DFAC
102
}
330
DFAC
100
AcDbVisualStyle
  2
Shaded
 70
    27
177
     3
291
     0
 70
    58
 90
        2
176
     1
 90
        2
176
     1
 90
        1
176
     1
 90
        2
176
     1
 40
0.6
176
     1
 40
30.0
176
     1
 62
     7
420
 16777215
176
     1
 90
        0
176
     1
 90
        4
176
     1
 62
     7
176
     1
 62
   257
176
     1
 90
        1
176
     1
 90
        1
176
     1
 40
1.0
176
     1
 90
        8
176
     1
 62
   257
176
     1
 40
1.0
176
     1
 90
        1
176
     1
 90
        6
176
     1
 90
        2
176
     1
 62
     8
420
  7895160
176
     1
 90
        3
176
     1
 90
        0
176
     1
 90
        0
176
     1
290
     0
176
     1
 90
        5
176
     1
 40
0.0
176
     1
 90
        0
176
     1
290
     0
176
     1
290
     1
176
     1
290
     1
176
     1
290
     0
176
     1
290
     0
176
     1
290
     0
176
     1
290
     0
176
     1
290
     0
176
     1
290
     0
176
     1
 90
       50
176
     1
 40
0.0
176
     1
 40
1.0
176
     1
 90
        0
176
     1
 62
    18
420
        0
176
     1
 90
       50
176
     1
 90
        3
176
     1
 62
     5
420
      255
176
     1
290
     0
176
     1
 90
       50
176
     1
 90
       50
176
     1
 90
       50
176
     1
290
     0
176
     1
 90
       50
176
     1
 62
   256
176
     0
 40
1.0
176
     0
 90
        2
176
     1
  1
strokes_ogs.tif
176
     1
290
     0
176
     1
 40
1.0
176
     1
 40
1.0
176
     1
  0
VISUALSTYLE
  5
DFC0
102
{ACAD_REACTORS
330
DFAC
102
}
330
DFAC
100
AcDbVisualStyle
  2
Shaded with edges
 70
    26
177
     3
291
     0
 70
    58
 90
        2
176
     1
 90
        2
176
     1
 90
        1
176
     1
 90
        2
176
     1
 40
0.6
176
     1
 40
30.0
176
     1
 62
     7
420
 16777215
176
     1
 90
        1
176
     1
 90
        2
176
     1
 62
     7
176
     1
 62
   257
176
     1
 90
        2
176
     1
 90
        1
176
     1
 40
1.0
176
     1
 90
        8
176
     1
 62
   257
176
     1
 40
1.0
176
     1
 90
        1
176
     1
 90
        6
176
     1
 90
        2
176
     1
 62
     7
176
     1
 90
        3
176
     1
 90
        0
176
     1
 90
        0
176
     1
290
     0
176
     1
 90
        5
176
     1
 40
0.0
176
     1
 90
        0
176
     1
290
     0
176
     1
290
     1
176
     1
290
     1
176
     1
290
     0
176
     1
290
     0
176
     1
290
     0
176
     1
290
     0
176
     1
290
     0
176
     1
290
     0
176
     1
 90
       50
176
     1
 40
0.0
176
     1
 40
1.0
176
     1
 90
        0
176
     1
 62
    18
420
        0
176
     1
 90
       50
176
     1
 90
        3
176
     1
 62
     5
420
      255
176
     1
290
     0
176
     1
 90
       50
176
     1
 90
       50
176
     1
 90
       50
176
     1
290
     0
176
     1
 90
       50
176
     1
 62
   256
176
     0
 40
1.0
176
     0
 90
        2
176
     1
  1
strokes_ogs.tif
176
     1
290
     0
176
     1
 40
1.0
176
     1
 40
1.0
176
     1
  0
VISUALSTYLE
  5
DFBD
102
{ACAD_REACTORS
330
DFAC
102
}
330
DFAC
100
AcDbVisualStyle
  2
Shades of Gray
 70
    23
177
     3
291
     0
 70
    58
 90
        2
176
     1
 90
        2
176
     1
 90
        3
176
     1
 90
        0
176
     1
 40
0.6
176
     1
 40
30.0
176
     1
 62
     7
420
 16777215
176
     1
 90
        2
176
     1
 90
        2
176
     1
 62
     7
176
     1
 62
     7
176
     1
 90
        1
176
     1
 90
        1
176
     1
 40
40.0
176
     1
 90
        8
176
     1
 62
     7
176
     1
 40
1.0
176
     1
 90
        1
176
     1
 90
        6
176
     1
 90
        2
176
     1
 62
     7
176
     1
 90
        3
176
     1
 90
        0
176
     1
 90
        0
176
     1
290
     0
176
     1
 90
        1
176
     1
 40
0.0
176
     1
 90
        0
176
     1
290
     0
176
     1
290
     1
176
     1
290
     1
176
     1
290
     0
176
     1
290
     0
176
     1
290
     0
176
     1
290
     0
176
     1
290
     0
176
     1
290
     0
176
     1
 90
       50
176
     1
 40
0.0
176
     1
 40
1.0
176
     1
 90
        0
176
     1
 62
    18
420
        0
176
     1
 90
       50
176
     1
 90
        3
176
     1
 62
     5
420
      255
176
     1
290
     0
176
     1
 90
       50
176
     1
 90
       50
176
     1
 90
       50
176
     1
290
     0
176
     1
 90
       50
176
     1
 62
   256
176
     0
 40
1.0
176
     0
 90
        2
176
     1
  1
strokes_ogs.tif
176
     1
290
     0
176
     1
 40
1.0
176
     1
 40
1.0
176
     1
  0
VISUALSTYLE
  5
DFBE
102
{ACAD_REACTORS
330
DFAC
102
}
330
DFAC
100
AcDbVisualStyle
  2
Sketchy
 70
    24
177
     3
291
     0
 70
    58
 90
        1
176
     1
 90
        2
176
     1
 90
        2
176
     1
 90
        0
176
     1
 40
0.6
176
     1
 40
30.0
176
     1
 62
     7
420
 16777215
176
     1
 90
        2
176
     1
 90
        2
176
     1
 62
     7
176
     1
 62
     7
176
     1
 90
        1
176
     1
 90
        1
176
     1
 40
40.0
176
     1
 90
       11
176
     1
 62
     7
176
     1
 40
1.0
176
     1
 90
        1
176
     1
 90
        6
176
     1
 90
        2
176
     1
 62
     7
176
     1
 90
        6
176
     1
 90
        0
176
     1
 90
        0
176
     1
290
     0
176
     1
 90
        1
176
     1
 40
0.0
176
     1
 90
        0
176
     1
290
     0
176
     1
290
     1
176
     1
290
     1
176
     1
290
     0
176
     1
290
     0
176
     1
290
     0
176
     1
290
     0
176
     1
290
     0
176
     1
290
     0
176
     1
 90
       50
176
     1
 40
0.0
176
     1
 40
1.0
176
     1
 90
        0
176
     1
 62
    18
420
        0
176
     1
 90
       50
176
     1
 90
        3
176
     1
 62
     5
420
      255
176
     1
290
     0
176
     1
 90
       50
176
     1
 90
       50
176
     1
 90
       50
176
     1
290
     0
176
     1
 90
       50
176
     1
 62
   256
176
     0
 40
1.0
176
     0
 90
        2
176
     1
  1
strokes_ogs.tif
176
     1
290
     0
176
     1
 40
1.0
176
     1
 40
1.0
176
     1
  0
VISUALSTYLE
  5
DFB9
102
{ACAD_REACTORS
330
DFAC
102
}
330
DFAC
100
AcDbVisualStyle
  2
Thicken
 70
    13
177
     3
291
     1
 70
    58
 90
        2
176
     1
 90
        2
176
     1
 90
        0
176
     1
 90
        0
176
     1
 40
0.6
176
     1
 40
30.0
176
     1
 62
     7
420
 16777215
176
     1
 90
        1
176
     1
 90
        4
176
     1
 62
     7
176
     1
 62
   257
176
     1
 90
        1
176
     1
 90
        1
176
     1
 40
1.0
176
     1
 90
       12
176
     1
 62
     7
176
     1
 40
1.0
176
     1
 90
        1
176
     1
 90
        6
176
     1
 90
        2
176
     1
 62
     7
176
     1
 90
        5
176
     1
 90
        0
176
     1
 90
        0
176
     1
290
     0
176
     1
 90
        1
176
     1
 40
0.0
176
     1
 90
        0
176
     1
290
     0
176
     1
290
     1
176
     1
290
     1
176
     1
290
     0
176
     1
290
     0
176
     1
290
     0
176
     1
290
     0
176
     1
290
     0
176
     1
290
     0
176
     1
 90
       50
176
     1
 40
0.0
176
     1
 40
1.0
176
     1
 90
        0
176
     1
 62
    18
420
        0
176
     1
 90
       50
176
     1
 90
        3
176
     1
 62
     5
420
      255
176
     1
290
     0
176
     1
 90
       50
176
     1
 90
       50
176
     1
 90
       50
176
     1
290
     0
176
     1
 90
       50
176
     1
 62
   256
176
     0
 40
1.0
176
     0
 90
        2
176
     1
  1
strokes_ogs.tif
176
     1
290
     0
176
     1
 40
1.0
176
     1
 40
1.0
176
     1
  0
VISUALSTYLE
  5
DFB3
102
{ACAD_REACTORS
330
DFAC
102
}
330
DFAC
100
AcDbVisualStyle
  2
Wireframe
 70
     5
177
     3
291
     0
 70
    58
 90
        0
176
     1
 90
        2
176
     1
 90
        0
176
     1
 90
        0
176
     1
 40
0.6
176
     1
 40
30.0
176
     1
 62
     7
420
 16777215
176
     1
 90
        1
176
     1
 90
        4
176
     1
 62
     7
176
     1
 62
   257
176
     1
 90
        1
176
     1
 90
        1
176
     1
 40
1.0
176
     1
 90
        0
176
     1
 62
   257
176
     1
 40
1.0
176
     1
 90
        1
176
     1
 90
        6
176
     1
 90
        2
176
     1
 62
     7
176
     1
 90
        3
176
     1
 90
        0
176
     1
 90
        0
176
     1
290
     0
176
     1
 90
        1
176
     1
 40
0.0
176
     1
 90
        0
176
     1
290
     0
176
     1
290
     1
176
     1
290
     1
176
     1
290
     0
176
     1
290
     0
176
     1
290
     0
176
     1
290
     0
176
     1
290
     0
176
     1
290
     0
176
     1
 90
       50
176
     1
 40
0.0
176
     1
 40
1.0
176
     1
 90
        0
176
     1
 62
    18
420
        0
176
     1
 90
       50
176
     1
 90
        3
176
     1
 62
     5
420
      255
176
     1
290
     0
176
     1
 90
       50
176
     1
 90
       50
176
     1
 90
       50
176
     1
290
     0
176
     1
 90
       50
176
     1
 62
   256
176
     0
 40
1.0
176
     0
 90
        2
176
     1
  1
strokes_ogs.tif
176
     1
290
     0
176
     1
 40
1.0
176
     1
 40
1.0
176
     1
  0
VISUALSTYLE
  5
DFBF
102
{ACAD_REACTORS
330
DFAC
102
}
330
DFAC
100
AcDbVisualStyle
  2
X-Ray
 70
    25
177
     3
291
     0
 70
    58
 90
        2
176
     1
 90
        2
176
     1
 90
        1
176
     1
 90
        1
176
     1
 40
0.5
176
     1
 40
30.0
176
     1
 62
     7
420
 16777215
176
     1
 90
        1
176
     1
 90
        0
176
     1
 62
     7
176
     1
 62
   257
176
     1
 90
        1
176
     1
 90
        1
176
     1
 40
1.0
176
     1
 90
        8
176
     1
 62
     7
176
     1
 40
1.0
176
     1
 90
        1
176
     1
 90
        6
176
     1
 90
        2
176
     1
 62
     7
176
     1
 90
        3
176
     1
 90
        0
176
     1
 90
        0
176
     1
290
     0
176
     1
 90
       13
176
     1
 40
0.0
176
     1
 90
        0
176
     1
290
     0
176
     1
290
     1
176
     1
290
     1
176
     1
290
     0
176
     1
290
     0
176
     1
290
     0
176
     1
290
     0
176
     1
290
     0
176
     1
290
     0
176
     1
 90
       50
176
     1
 40
0.0
176
     1
 40
1.0
176
     1
 90
        0
176
     1
 62
    18
420
        0
176
     1
 90
       50
176
     1
 90
        3
176
     1
 62
     5
420
      255
176
     1
290
     0
176
     1
 90
       50
176
     1
 90
       50
176
     1
 90
       50
176
     1
290
     0
176
     1
 90
       50
176
     1
 62
   256
176
     0
 40
1.0
176
     0
 90
        2
176
     1
  1
strokes_ogs.tif
176
     1
290
     0
176
     1
 40
1.0
176
     1
 40
1.0
176
     1
  0
DICTIONARYVAR
  5
E477
102
{ACAD_REACTORS
330
51
102
}
330
51
100
DictionaryVariables
280
     0
  1
1:1
  0
DICTIONARYVAR
  5
E473
102
{ACAD_REACTORS
330
51
102
}
330
51
100
DictionaryVariables
280
     0
  1
STANDARD
  0
DICTIONARYVAR
  5
E472
102
{ACAD_REACTORS
330
51
102
}
330
51
100
DictionaryVariables
280
     0
  1
STANDARD
  0
DICTIONARYVAR
  5
E474
102
{ACAD_REACTORS
330
51
102
}
330
51
100
DictionaryVariables
280
     0
  1
Metric50
  0
DICTIONARYVAR
  5
E475
102
{ACAD_REACTORS
330
51
102
}
330
51
100
DictionaryVariables
280
     0
  1
Metric50
  0
DICTIONARYVAR
  5
52
102
{ACAD_REACTORS
330
51
102
}
330
51
100
DictionaryVariables
280
     0
  1
0
  0
DICTIONARYVAR
  5
E479
102
{ACAD_REACTORS
330
51
102
}
330
51
100
DictionaryVariables
280
     0
  1
1
  0
DICTIONARYVAR
  5
E47A
102
{ACAD_REACTORS
330
51
102
}
330
51
100
DictionaryVariables
280
     0
  1
15
  0
DICTIONARYVAR
  5
E478
102
{ACAD_REACTORS
330
51
102
}
330
51
100
DictionaryVariables
280
     0
  1
0
  0
DICTIONARYVAR
  5
E476
102
{ACAD_REACTORS
330
51
102
}
330
51
100
DictionaryVariables
280
     0
  1
0
  0
DICTIONARYVAR
  5
D1FE
102
{ACAD_REACTORS
330
51
102
}
330
51
100
DictionaryVariables
280
     0
  1
96
  0
DICTIONARY
  5
DF9D
330
DF9C
100
AcDbDictionary
280
     1
281
     1
  3
BUMPTILE
360
DF9F
  3
DIFFUSETILE
360
DF9E
  3
OPACITYTILE
360
DFA2
  3
REFLECTIONTILE
360
DFA1
  3
REFRACTIONTILE
360
DFA3
  3
SPECULARTILE
360
DFA0
  0
DICTIONARY
  5
DF95
330
DF94
100
AcDbDictionary
280
     1
281
     1
  3
BUMPTILE
360
DF97
  3
DIFFUSETILE
360
DF96
  3
OPACITYTILE
360
DF9A
  3
REFLECTIONTILE
360
DF99
  3
REFRACTIONTILE
360
DF9B
  3
SPECULARTILE
360
DF98
  0
DICTIONARY
  5
DFA5
330
DFA4
100
AcDbDictionary
280
     1
281
     1
  3
BUMPTILE
360
DFA7
  3
DIFFUSETILE
360
DFA6
  3
OPACITYTILE
360
DFAA
  3
REFLECTIONTILE
360
DFA9
  3
REFRACTIONTILE
360
DFAB
  3
SPECULARTILE
360
DFA8
  0
DICTIONARY
  5
E47B
330
DFC8
100
AcDbDictionary
280
     1
281
     1
  3
ACAD_ROUNDTRIP_2008_TABLESTYLE_CELLSTYLEMAP
360
E47C
  0
XRECORD
  5
DF9F
102
{ACAD_REACTORS
330
DF9D
102
}
330
DF9D
100
AcDbXrecord
280
     1
270
     1
271
     1
  0
XRECORD
  5
DF9E
102
{ACAD_REACTORS
330
DF9D
102
}
330
DF9D
100
AcDbXrecord
280
     1
270
     1
271
     1
  0
XRECORD
  5
DFA2
102
{ACAD_REACTORS
330
DF9D
102
}
330
DF9D
100
AcDbXrecord
280
     1
270
     1
271
     1
  0
XRECORD
  5
DFA1
102
{ACAD_REACTORS
330
DF9D
102
}
330
DF9D
100
AcDbXrecord
280
     1
270
     1
271
     1
  0
XRECORD
  5
DFA3
102
{ACAD_REACTORS
330
DF9D
102
}
330
DF9D
100
AcDbXrecord
280
     1
270
     1
271
     1
  0
XRECORD
  5
DFA0
102
{ACAD_REACTORS
330
DF9D
102
}
330
DF9D
100
AcDbXrecord
280
     1
270
     1
271
     1
  0
XRECORD
  5
DF97
102
{ACAD_REACTORS
330
DF95
102
}
330
DF95
100
AcDbXrecord
280
     1
270
     1
271
     1
  0
XRECORD
  5
DF96
102
{ACAD_REACTORS
330
DF95
102
}
330
DF95
100
AcDbXrecord
280
     1
270
     1
271
     1
  0
XRECORD
  5
DF9A
102
{ACAD_REACTORS
330
DF95
102
}
330
DF95
100
AcDbXrecord
280
     1
270
     1
271
     1
  0
XRECORD
  5
DF99
102
{ACAD_REACTORS
330
DF95
102
}
330
DF95
100
AcDbXrecord
280
     1
270
     1
271
     1
  0
XRECORD
  5
DF9B
102
{ACAD_REACTORS
330
DF95
102
}
330
DF95
100
AcDbXrecord
280
     1
270
     1
271
     1
  0
XRECORD
  5
DF98
102
{ACAD_REACTORS
330
DF95
102
}
330
DF95
100
AcDbXrecord
280
     1
270
     1
271
     1
  0
XRECORD
  5
DFA7
102
{ACAD_REACTORS
330
DFA5
102
}
330
DFA5
100
AcDbXrecord
280
     1
270
     1
271
     1
  0
XRECORD
  5
DFA6
102
{ACAD_REACTORS
330
DFA5
102
}
330
DFA5
100
AcDbXrecord
280
     1
270
     1
271
     1
  0
XRECORD
  5
DFAA
102
{ACAD_REACTORS
330
DFA5
102
}
330
DFA5
100
AcDbXrecord
280
     1
270
     1
271
     1
  0
XRECORD
  5
DFA9
102
{ACAD_REACTORS
330
DFA5
102
}
330
DFA5
100
AcDbXrecord
280
     1
270
     1
271
     1
  0
XRECORD
  5
DFAB
102
{ACAD_REACTORS
330
DFA5
102
}
330
DFA5
100
AcDbXrecord
280
     1
270
     1
271
     1
  0
XRECORD
  5
DFA8
102
{ACAD_REACTORS
330
DFA5
102
}
330
DFA5
100
AcDbXrecord
280
     1
270
     1
271
     1
  0
CELLSTYLEMAP
  5
E47C
102
{ACAD_REACTORS
330
E47B
102
}
330
E47B
100
AcDbCellStyleMap
 90
        3
300
CELLSTYLE
  1
TABLEFORMAT_BEGIN
 90
        5
170
     1
 91
        0
 92
    32768
 62
   257
 93
        1
300
CONTENTFORMAT
  1
CONTENTFORMAT_BEGIN
 90
        0
 91
        0
 92
      512
 93
        0
300

 40
0.0
140
1.0
 94
        5
 62
     0
340
F
144
6.0
309
CONTENTFORMAT_END
171
     1
301
MARGIN
  1
CELLMARGIN_BEGIN
 40
1.5
 40
1.5
 40
1.5
 40
1.5
 40
4.5
 40
4.5
309
CELLMARGIN_END
 94
        6
 95
        1
302
GRIDFORMAT
  1
GRIDFORMAT_BEGIN
 90
        0
 91
        1
 62
     0
 92
       -2
340
0
 93
        0
 40
1.125
309
GRIDFORMAT_END
 95
        2
302
GRIDFORMAT
  1
GRIDFORMAT_BEGIN
 90
        0
 91
        1
 62
     0
 92
       -2
340
0
 93
        0
 40
1.125
309
GRIDFORMAT_END
 95
        4
302
GRIDFORMAT
  1
GRIDFORMAT_BEGIN
 90
        0
 91
        1
 62
     0
 92
       -2
340
0
 93
        0
 40
1.125
309
GRIDFORMAT_END
 95
        8
302
GRIDFORMAT
  1
GRIDFORMAT_BEGIN
 90
        0
 91
        1
 62
     0
 92
       -2
340
0
 93
        0
 40
1.125
309
GRIDFORMAT_END
 95
       16
302
GRIDFORMAT
  1
GRIDFORMAT_BEGIN
 90
        0
 91
        1
 62
     0
 92
       -2
340
0
 93
        0
 40
1.125
309
GRIDFORMAT_END
 95
       32
302
GRIDFORMAT
  1
GRIDFORMAT_BEGIN
 90
        0
 91
        1
 62
     0
 92
       -2
340
0
 93
        0
 40
1.125
309
GRIDFORMAT_END
309
TABLEFORMAT_END
  1
CELLSTYLE_BEGIN
 90
        1
 91
        1
300
_TITLE
309
CELLSTYLE_END
300
CELLSTYLE
  1
TABLEFORMAT_BEGIN
 90
        5
170
     1
 91
        0
 92
        0
 62
   257
 93
        1
300
CONTENTFORMAT
  1
CONTENTFORMAT_BEGIN
 90
        0
 91
        0
 92
      512
 93
        0
300

 40
0.0
140
1.0
 94
        5
 62
     0
340
F
144
4.5
309
CONTENTFORMAT_END
171
     1
301
MARGIN
  1
CELLMARGIN_BEGIN
 40
1.5
 40
1.5
 40
1.5
 40
1.5
 40
4.5
 40
4.5
309
CELLMARGIN_END
 94
        6
 95
        1
302
GRIDFORMAT
  1
GRIDFORMAT_BEGIN
 90
        0
 91
        1
 62
     0
 92
       -2
340
0
 93
        0
 40
1.125
309
GRIDFORMAT_END
 95
        2
302
GRIDFORMAT
  1
GRIDFORMAT_BEGIN
 90
        0
 91
        1
 62
     0
 92
       -2
340
0
 93
        0
 40
1.125
309
GRIDFORMAT_END
 95
        4
302
GRIDFORMAT
  1
GRIDFORMAT_BEGIN
 90
        0
 91
        1
 62
     0
 92
       -2
340
0
 93
        0
 40
1.125
309
GRIDFORMAT_END
 95
        8
302
GRIDFORMAT
  1
GRIDFORMAT_BEGIN
 90
        0
 91
        1
 62
     0
 92
       -2
340
0
 93
        0
 40
1.125
309
GRIDFORMAT_END
 95
       16
302
GRIDFORMAT
  1
GRIDFORMAT_BEGIN
 90
        0
 91
        1
 62
     0
 92
       -2
340
0
 93
        0
 40
1.125
309
GRIDFORMAT_END
 95
       32
302
GRIDFORMAT
  1
GRIDFORMAT_BEGIN
 90
        0
 91
        1
 62
     0
 92
       -2
340
0
 93
        0
 40
1.125
309
GRIDFORMAT_END
309
TABLEFORMAT_END
  1
CELLSTYLE_BEGIN
 90
        2
 91
        1
300
_HEADER
309
CELLSTYLE_END
300
CELLSTYLE
  1
TABLEFORMAT_BEGIN
 90
        5
170
     1
 91
        0
 92
        0
 62
   257
 93
        1
300
CONTENTFORMAT
  1
CONTENTFORMAT_BEGIN
 90
        0
 91
        0
 92
      512
 93
        0
300

 40
0.0
140
1.0
 94
        2
 62
     0
340
F
144
4.5
309
CONTENTFORMAT_END
171
     1
301
MARGIN
  1
CELLMARGIN_BEGIN
 40
1.5
 40
1.5
 40
1.5
 40
1.5
 40
4.5
 40
4.5
309
CELLMARGIN_END
 94
        6
 95
        1
302
GRIDFORMAT
  1
GRIDFORMAT_BEGIN
 90
        0
 91
        1
 62
     0
 92
       -2
340
0
 93
        0
 40
1.125
309
GRIDFORMAT_END
 95
        2
302
GRIDFORMAT
  1
GRIDFORMAT_BEGIN
 90
        0
 91
        1
 62
     0
 92
       -2
340
0
 93
        0
 40
1.125
309
GRIDFORMAT_END
 95
        4
302
GRIDFORMAT
  1
GRIDFORMAT_BEGIN
 90
        0
 91
        1
 62
     0
 92
       -2
340
0
 93
        0
 40
1.125
309
GRIDFORMAT_END
 95
        8
302
GRIDFORMAT
  1
GRIDFORMAT_BEGIN
 90
        0
 91
        1
 62
     0
 92
       -2
340
0
 93
        0
 40
1.125
309
GRIDFORMAT_END
 95
       16
302
GRIDFORMAT
  1
GRIDFORMAT_BEGIN
 90
        0
 91
        1
 62
     0
 92
       -2
340
0
 93
        0
 40
1.125
309
GRIDFORMAT_END
 95
       32
302
GRIDFORMAT
  1
GRIDFORMAT_BEGIN
 90
        0
 91
        1
 62
     0
 92
       -2
340
0
 93
        0
 40
1.125
309
GRIDFORMAT_END
309
TABLEFORMAT_END
  1
CELLSTYLE_BEGIN
 90
        3
 91
        2
300
_DATA
309
CELLSTYLE_END
  0
ENDSEC
  0
SECTION
  2
ACDSDATA
 70
     2
 71
     8
  0
ACDSSCHEMA
 90
        0
  1
AcDb_Thumbnail_Schema
  2
AcDbDs::ID
280
    10
 91
        8
  2
Thumbnail_Data
280
    15
 91
        0
101
ACDSRECORD
 95
        0
 90
        1
  2
AcDbDs::TreatedAsObjectData
280
     1
291
     1
101
ACDSRECORD
 95
        0
 90
        2
  2
AcDbDs::Legacy
280
     1
291
     1
101
ACDSRECORD
  1
AcDbDs::ID
 90
        3
  2
AcDs:Indexable
280
     1
291
     1
101
ACDSRECORD
  1
AcDbDs::ID
 90
        4
  2
AcDbDs::HandleAttribute
280
     7
282
     1
  0
ACDSSCHEMA
 90
        1
  1
AcDbDs::TreatedAsObjectDataSchema
  2
AcDbDs::TreatedAsObjectData
280
     1
 91
        0
  0
ACDSSCHEMA
 90
        2
  1
AcDbDs::LegacySchema
  2
AcDbDs::Legacy
280
     1
 91
        0
  0
ACDSSCHEMA
 90
        3
  1
AcDbDs::IndexedPropertySchema
  2
AcDs:Indexable
280
     1
 91
        0
  0
ACDSSCHEMA
 90
        4
  1
AcDbDs::HandleAttributeSchema
  2
AcDbDs::HandleAttribute
280
     7
 91
        1
284
     1
  0
ACDSRECORD
 90
        0
  2
AcDbDs::ID
280
    10
320
DFE2
  2
Thumbnail_Data
280
    15
 94
     1132
310
89504E470D0A1A0A0000000D4948445200000100000000670803000000D82A6C0200000300504C5445000000FFFFFF0000000000000000000000000000000000000000000000000000000000330000660000990000CC0000FF0033000033330033660033990033CC0033FF0066000066330066660066990066CC0066FF0099
310
000099330099660099990099CC0099FF00CC0000CC3300CC6600CC9900CCCC00CCFF00FF0000FF3300FF6600FF9900FFCC00FFFF3300003300333300663300993300CC3300FF3333003333333333663333993333CC3333FF3366003366333366663366993366CC3366FF3399003399333399663399993399CC3399FF33CC00
310
33CC3333CC6633CC9933CCCC33CCFF33FF0033FF3333FF6633FF9933FFCC33FFFF6600006600336600666600996600CC6600FF6633006633336633666633996633CC6633FF6666006666336666666666996666CC6666FF6699006699336699666699996699CC6699FF66CC0066CC3366CC6666CC9966CCCC66CCFF66FF0066
310
FF3366FF6666FF9966FFCC66FFFF9900009900339900669900999900CC9900FF9933009933339933669933999933CC9933FF9966009966339966669966999966CC9966FF9999009999339999669999999999CC9999FF99CC0099CC3399CC6699CC9999CCCC99CCFF99FF0099FF3399FF6699FF9999FFCC99FFFFCC0000CC00
310
33CC0066CC0099CC00CCCC00FFCC3300CC3333CC3366CC3399CC33CCCC33FFCC6600CC6633CC6666CC6699CC66CCCC66FFCC9900CC9933CC9966CC9999CC99CCCC99FFCCCC00CCCC33CCCC66CCCC99CCCCCCCCCCFFCCFF00CCFF33CCFF66CCFF99CCFFCCCCFFFFFF0000FF0033FF0066FF0099FF00CCFF00FFFF3300FF3333
310
FF3366FF3399FF33CCFF33FFFF6600FF6633FF6666FF6699FF66CCFF66FFFF9900FF9933FF9966FF9999FF99CCFF99FFFFCC00FFCC33FFCC66FFCC99FFCCCCFFCCFFFFFF00FFFF33FFFF66FFFF99FFFFCCFFFFFF0000000D0D0D1A1A1A2828283535354343435050505D5D5D6B6B6B787878868686939393A1A1A1AEAEAEBB
310
BBBBC9C9C9D6D6D6E4E4E4F1F1F1FFFFFF0000000000000000000000000000000000000000000000000000000000003AE5ACE9000001274944415478DAEDDC610E82300C40618ED3FB9F506334C0804440036BBFF7C3081A923EBB3A0A631800000080FF113FA16701B7390801045C26E0338E0F8FE61C029EC1D716301C8E
310
5F0D2080000208208000020820A05B015BFD8DF99ECD2E4802011BBF68AC7D2B165167C880D9BE68DFAD6640D4CB803168026A0A18A63157121031CF83B66E6417F00E3962F9925540AC65C0AB6B367E9049407C2B206B0DA82E2096352096029AAB06D34D0208500308300F3013742EE06C503F800043A05701E59BA2D5AF
310
0BDCE1200410400001170A3875F37B02013131B03F9E0C33C1D9BF7AD413B0311324A0CE10A82C209A8EF7FE3AD8B780C9729171DDC4BE24E83D034E2F8433132480000208208000020820800002BA1350FD19220000000000000000E00E3C0027F478F1895129850000000049454E44AE426082
  0
ENDSEC
  0
EOF
