  0
SECTION
  2
HEADER
  9
$ACADVER
  1
AC1032
  9
$ACADMAINTVER
 90
      233
  9
$DWGCODEPAGE
  3
ANSI_932
  9
$LASTSAVEDBY
  1
taketo.kashima
  9
$REQUIREDVERSIONS
160
                 0
  9
$INSBASE
 10
268.4340021441085
 20
176.78614296069
 30
0.0
  9
$EXTMIN
 10
-20.23439765912917
 20
15.86018167895509
 30
0.0
  9
$EXTMAX
 10
793.563458878969
 20
312.8601816789551
 30
0.0
  9
$LIMMIN
 10
0.0
 20
0.0
  9
$LIMMAX
 10
554.0
 20
395.0
  9
$ORTHOMODE
 70
     1
  9
$REGENMODE
 70
     1
  9
$FILLMODE
 70
     1
  9
$QTEXTMODE
 70
     0
  9
$MIRRTEXT
 70
     1
  9
$LTSCALE
 40
2.0
  9
$ATTMODE
 70
     1
  9
$TEXTSIZE
 40
1.5
  9
$TRACEWID
 40
0.2
  9
$TEXTSTYLE
  7
ｺﾞｼｯｸ
  9
$CLAYER
  8
2寸法線
  9
$CELTYPE
  6
BYLAYER
  9
$CECOLOR
 62
   256
  9
$CELTSCALE
 40
3.0
  9
$DISPSILH
 70
     0
  9
$DIMSCALE
 40
1.0
  9
$DIMASZ
 40
2.0
  9
$DIMEXO
 40
1.0
  9
$DIMDLI
 40
6.0
  9
$DIMRND
 40
0.0
  9
$DIMDLE
 40
0.0
  9
$DIMEXE
 40
1.0
  9
$DIMTP
 40
0.0
  9
$DIMTM
 40
0.0
  9
$DIMTXT
 40
2.5
  9
$DIMCEN
 40
0.0
  9
$DIMTSZ
 40
0.0
  9
$DIMTOL
 70
     0
  9
$DIMLIM
 70
     0
  9
$DIMTIH
 70
     0
  9
$DIMTOH
 70
     0
  9
$DIMSE1
 70
     0
  9
$DIMSE2
 70
     0
  9
$DIMTAD
 70
     1
  9
$DIMZIN
 70
     8
  9
$DIMBLK
  1
2
  9
$DIMASO
 70
     1
  9
$DIMSHO
 70
     1
  9
$DIMPOST
  1

  9
$DIMAPOST
  1

  9
$DIMALT
 70
     0
  9
$DIMALTD
 70
     2
  9
$DIMALTF
 40
25.4
  9
$DIMLFAC
 40
1.0
  9
$DIMTOFL
 70
     1
  9
$DIMTVP
 40
0.0
  9
$DIMTIX
 70
     0
  9
$DIMSOXD
 70
     0
  9
$DIMSAH
 70
     0
  9
$DIMBLK1
  1

  9
$DIMBLK2
  1

  9
$DIMSTYLE
  2
STANDARD
  9
$DIMCLRD
 70
     2
  9
$DIMCLRE
 70
     2
  9
$DIMCLRT
 70
     2
  9
$DIMTFAC
 40
1.0
  9
$DIMGAP
 40
0.8
  9
$DIMJUST
 70
     0
  9
$DIMSD1
 70
     0
  9
$DIMSD2
 70
     0
  9
$DIMTOLJ
 70
     1
  9
$DIMTZIN
 70
     8
  9
$DIMALTZ
 70
     8
  9
$DIMALTTZ
 70
     8
  9
$DIMUPT
 70
     0
  9
$DIMDEC
 70
     1
  9
$DIMTDEC
 70
     1
  9
$DIMALTU
 70
     2
  9
$DIMALTTD
 70
     2
  9
$DIMTXSTY
  7
KANJI
  9
$DIMAUNIT
 70
     0
  9
$DIMADEC
 70
     0
  9
$DIMALTRND
 40
0.0
  9
$DIMAZIN
 70
     0
  9
$DIMDSEP
 70
    46
  9
$DIMATFIT
 70
     3
  9
$DIMFRAC
 70
     0
  9
$DIMLDRBLK
  1
2
  9
$DIMLUNIT
 70
     2
  9
$DIMLWD
 70
    -2
  9
$DIMLWE
 70
    -2
  9
$DIMTMOVE
 70
     0
  9
$DIMFXL
 40
1.0
  9
$DIMFXLON
 70
     0
  9
$DIMJOGANG
 40
0.7853981633974483
  9
$DIMTFILL
 70
     0
  9
$DIMTFILLCLR
 70
     0
  9
$DIMARCSYM
 70
     1
  9
$DIMLTYPE
  6

  9
$DIMLTEX1
  6

  9
$DIMLTEX2
  6

  9
$DIMTXTDIRECTION
 70
     0
  9
$LUNITS
 70
     2
  9
$LUPREC
 70
     4
  9
$SKETCHINC
 40
0.1
  9
$FILLETRAD
 40
0.5
  9
$AUNITS
 70
     0
  9
$AUPREC
 70
     0
  9
$MENU
  1
tcad-s
  9
$ELEVATION
 40
0.0
  9
$PELEVATION
 40
0.0
  9
$THICKNESS
 40
0.0
  9
$LIMCHECK
 70
     0
  9
$CHAMFERA
 40
0.0
  9
$CHAMFERB
 40
0.0
  9
$CHAMFERC
 40
0.0
  9
$CHAMFERD
 40
0.0
  9
$SKPOLY
 70
     0
  9
$TDCREATE
 40
2451271.629780093
  9
$TDUCREATE
 40
2451271.254788878
  9
$TDUPDATE
 40
2460320.693287037
  9
$TDUUPDATE
 40
2460320.318287037
  9
$TDINDWG
 40
32.9236961574
  9
$TDUSRTIMER
 40
32.9236961574
  9
$USRTIMER
 70
     1
  9
$ANGBASE
 50
0.0
  9
$ANGDIR
 70
     0
  9
$PDMODE
 70
     0
  9
$PDSIZE
 40
2.399999999999999
  9
$PLINEWID
 40
0.0
  9
$SPLFRAME
 70
     0
  9
$SPLINETYPE
 70
     6
  9
$SPLINESEGS
 70
     8
  9
$HANDSEED
  5
EA5CE
  9
$SURFTAB1
 70
     6
  9
$SURFTAB2
 70
     6
  9
$SURFTYPE
 70
     6
  9
$SURFU
 70
     6
  9
$SURFV
 70
     6
  9
$UCSBASE
  2

  9
$UCSNAME
  2

  9
$UCSORG
 10
26869.6166704439
 20
-12565.18743385195
 30
0.0
  9
$UCSXDIR
 10
1.0
 20
0.0
 30
0.0
  9
$UCSYDIR
 10
0.0
 20
1.0
 30
0.0
  9
$UCSORTHOREF
  2

  9
$UCSORTHOVIEW
 70
     0
  9
$UCSORGTOP
 10
0.0
 20
0.0
 30
0.0
  9
$UCSORGBOTTOM
 10
0.0
 20
0.0
 30
0.0
  9
$UCSORGLEFT
 10
0.0
 20
0.0
 30
0.0
  9
$UCSORGRIGHT
 10
0.0
 20
0.0
 30
0.0
  9
$UCSORGFRONT
 10
0.0
 20
0.0
 30
0.0
  9
$UCSORGBACK
 10
0.0
 20
0.0
 30
0.0
  9
$PUCSBASE
  2

  9
$PUCSNAME
  2

  9
$PUCSORG
 10
0.0
 20
0.0
 30
0.0
  9
$PUCSXDIR
 10
1.0
 20
0.0
 30
0.0
  9
$PUCSYDIR
 10
0.0
 20
1.0
 30
0.0
  9
$PUCSORTHOREF
  2

  9
$PUCSORTHOVIEW
 70
     0
  9
$PUCSORGTOP
 10
0.0
 20
0.0
 30
0.0
  9
$PUCSORGBOTTOM
 10
0.0
 20
0.0
 30
0.0
  9
$PUCSORGLEFT
 10
0.0
 20
0.0
 30
0.0
  9
$PUCSORGRIGHT
 10
0.0
 20
0.0
 30
0.0
  9
$PUCSORGFRONT
 10
0.0
 20
0.0
 30
0.0
  9
$PUCSORGBACK
 10
0.0
 20
0.0
 30
0.0
  9
$USERI1
 70
     0
  9
$USERI2
 70
     0
  9
$USERI3
 70
     0
  9
$USERI4
 70
     0
  9
$USERI5
 70
     0
  9
$USERR1
 40
0.0
  9
$USERR2
 40
0.0
  9
$USERR3
 40
0.0
  9
$USERR4
 40
0.0
  9
$USERR5
 40
0.0
  9
$WORLDVIEW
 70
     1
  9
$SHADEDGE
 70
     3
  9
$SHADEDIF
 70
    70
  9
$TILEMODE
 70
     1
  9
$MAXACTVP
 70
    16
  9
$PINSBASE
 10
0.0
 20
0.0
 30
0.0
  9
$PLIMCHECK
 70
     0
  9
$PEXTMIN
 10
1.000000000000000E+20
 20
1.000000000000000E+20
 30
1.000000000000000E+20
  9
$PEXTMAX
 10
-1.000000000000000E+20
 20
-1.000000000000000E+20
 30
-1.000000000000000E+20
  9
$PLIMMIN
 10
0.0
 20
0.0
  9
$PLIMMAX
 10
12.0
 20
9.0
  9
$UNITMODE
 70
     0
  9
$VISRETAIN
 70
     0
  9
$PLINEGEN
 70
     0
  9
$PSLTSCALE
 70
     0
  9
$TREEDEPTH
 70
  3020
  9
$CMLSTYLE
  2
STANDARD
  9
$CMLJUST
 70
     0
  9
$CMLSCALE
 40
1.0
  9
$PROXYGRAPHICS
 70
     1
  9
$MEASUREMENT
 70
     1
  9
$CELWEIGHT
370
    -1
  9
$ENDCAPS
280
     0
  9
$JOINSTYLE
280
     0
  9
$LWDISPLAY
290
     0
  9
$INSUNITS
 70
     0
  9
$HYPERLINKBASE
  1

  9
$STYLESHEET
  1
INABA-CAD(IKEBE).ctb
  9
$XEDIT
290
     1
  9
$CEPSNTYPE
380
     0
  9
$PSTYLEMODE
290
     1
  9
$FINGERPRINTGUID
  2
{DCBE599D-1B81-495D-91E2-602DC8087F04}
  9
$VERSIONGUID
  2
{90496C88-D8EF-DF42-8A36-795F965B4B13}
  9
$EXTNAMES
290
     1
  9
$PSVPSCALE
 40
0.0
  9
$OLESTARTUP
290
     0
  9
$SORTENTS
280
   127
  9
$INDEXCTL
280
     0
  9
$HIDETEXT
280
     0
  9
$XCLIPFRAME
280
     2
  9
$HALOGAP
280
     0
  9
$OBSCOLOR
 70
   257
  9
$OBSLTYPE
280
     0
  9
$INTERSECTIONDISPLAY
280
     0
  9
$INTERSECTIONCOLOR
 70
   257
  9
$DIMASSOC
280
     1
  9
$PROJECTNAME
  1

  9
$CAMERADISPLAY
290
     0
  9
$LENSLENGTH
 40
50.0
  9
$CAMERAHEIGHT
 40
0.0
  9
$STEPSPERSEC
 40
2.0
  9
$STEPSIZE
 40
6.0
  9
$3DDWFPREC
 40
2.0
  9
$PSOLWIDTH
 40
0.25
  9
$PSOLHEIGHT
 40
4.0
  9
$LOFTANG1
 40
1.570796326794896
  9
$LOFTANG2
 40
1.570796326794896
  9
$LOFTMAG1
 40
0.0
  9
$LOFTMAG2
 40
0.0
  9
$LOFTPARAM
 70
     7
  9
$LOFTNORMALS
280
     1
  9
$LATITUDE
 40
37.795
  9
$LONGITUDE
 40
-122.394
  9
$NORTHDIRECTION
 40
0.0
  9
$TIMEZONE
 70
 -8000
  9
$LIGHTGLYPHDISPLAY
280
     1
  9
$TILEMODELIGHTSYNCH
280
     1
  9
$CMATERIAL
347
84309
  9
$SOLIDHIST
280
     0
  9
$SHOWHIST
280
     1
  9
$DWFFRAME
280
     2
  9
$DGNFRAME
280
     0
  9
$REALWORLDSCALE
290
     1
  9
$INTERFERECOLOR
 62
     1
  9
$INTERFEREOBJVS
345
84316
  9
$INTERFEREVPVS
346
A8942
  9
$CSHADOW
280
     0
  9
$SHADOWPLANELOCATION
 40
0.0
  0
ENDSEC
  0
SECTION
  2
CLASSES
  0
CLASS
  1
DICTIONARYVAR
  2
AcDbDictionaryVar
  3
ObjectDBX Classes
 90
        0
 91
       18
280
     0
281
     0
  0
CLASS
  1
ACDBDICTIONARYWDFLT
  2
AcDbDictionaryWithDefault
  3
ObjectDBX Classes
 90
        0
 91
        1
280
     0
281
     0
  0
CLASS
  1
TABLESTYLE
  2
AcDbTableStyle
  3
ObjectDBX Classes
 90
     4095
 91
        1
280
     0
281
     0
  0
CLASS
  1
SORTENTSTABLE
  2
AcDbSortentsTable
  3
ObjectDBX Classes
 90
        0
 91
        1
280
     0
281
     0
  0
CLASS
  1
MATERIAL
  2
AcDbMaterial
  3
ObjectDBX Classes
 90
     1153
 91
        3
280
     0
281
     0
  0
CLASS
  1
VISUALSTYLE
  2
AcDbVisualStyle
  3
ObjectDBX Classes
 90
     4095
 91
       26
280
     0
281
     0
  0
CLASS
  1
SCALE
  2
AcDbScale
  3
ObjectDBX Classes
 90
     1153
 91
       17
280
     0
281
     0
  0
CLASS
  1
MLEADERSTYLE
  2
AcDbMLeaderStyle
  3
ACDB_MLEADERSTYLE_CLASS
 90
     4095
 91
        1
280
     0
281
     0
  0
CLASS
  1
CELLSTYLEMAP
  2
AcDbCellStyleMap
  3
ObjectDBX Classes
 90
     1152
 91
        1
280
     0
281
     0
  0
CLASS
  1
ARC_DIMENSION
  2
AcDbArcDimension
  3
ObjectDBX Classes
 90
     1025
 91
        0
280
     0
281
     1
  0
CLASS
  1
ACDBSECTIONVIEWSTYLE
  2
AcDbSectionViewStyle
  3
ObjectDBX Classes
 90
     1025
 91
        1
280
     0
281
     0
  0
CLASS
  1
ACDBDETAILVIEWSTYLE
  2
AcDbDetailViewStyle
  3
ObjectDBX Classes
 90
     1025
 91
        1
280
     0
281
     0
  0
ENDSEC
  0
SECTION
  2
TABLES
  0
TABLE
  2
VPORT
  5
8
102
{ACAD_XDICTIONARY
360
87C2F
102
}
330
0
100
AcDbSymbolTable
 70
     1
  0
VPORT
  5
A893A
330
8
100
AcDbSymbolTableRecord
100
AcDbViewportTableRecord
  2
*Active
 70
     0
 10
0.0
 20
0.0
 11
1.0
 21
1.0
 12
581.8304195336917
 22
215.6658968509585
 13
0.0
 23
0.0
 14
1.0
 24
1.0
 15
0.0
 25
0.0
 16
0.0
 26
0.0
 36
1.0
 17
0.0
 27
0.0
 37
0.0
 40
228.2941288571887
 41
1.92094861660079
 42
50.0
 43
0.0
 44
0.0
 50
0.0
 51
0.0
 71
     0
 72
  1000
 73
     1
 74
     1
 75
     0
 76
     0
 77
     0
 78
     2
281
     0
 65
     1
110
26869.6166704439
120
-12565.18743385195
130
0.0
111
1.0
121
0.0
131
0.0
112
0.0
122
1.0
132
0.0
 79
     0
146
0.0
348
84312
 60
     3
 61
     5
292
     1
282
     1
141
0.0
142
0.0
 63
   250
421
  3355443
1001
ACAD_NAV_VCDISPLAY
1070
     3
  0
ENDTAB
  0
TABLE
  2
LTYPE
  5
5
330
0
100
AcDbSymbolTable
 70
     3
  0
LTYPE
  5
11
330
5
100
AcDbSymbolTableRecord
100
AcDbLinetypeTableRecord
  2
BYBLOCK
 70
     0
  3

 72
    65
 73
     0
 40
0.0
  0
LTYPE
  5
12
330
5
100
AcDbSymbolTableRecord
100
AcDbLinetypeTableRecord
  2
BYLAYER
 70
     0
  3

 72
    65
 73
     0
 40
0.0
  0
LTYPE
  5
13
330
5
100
AcDbSymbolTableRecord
100
AcDbLinetypeTableRecord
  2
CONTINUOUS
 70
     0
  3
Solid line
 72
    65
 73
     0
 40
0.0
  0
LTYPE
  5
3C
330
5
100
AcDbSymbolTableRecord
100
AcDbLinetypeTableRecord
  2
CENTER
 70
     0
  3
____ _ ____ _ ____ _ ____ _ ____ _ ____ _ ____ 
 72
    65
 73
     4
 40
2.0
 49
1.25
 74
     0
 49
-0.25
 74
     0
 49
0.25
 74
     0
 49
-0.25
 74
     0
  0
ENDTAB
  0
TABLE
  2
LAYER
  5
2
102
{ACAD_XDICTIONARY
360
89E4
102
}
330
0
100
AcDbSymbolTable
 70
     8
  0
LAYER
  5
E
102
{ACAD_XDICTIONARY
360
A94E1
102
}
330
2
100
AcDbSymbolTableRecord
100
AcDbLayerTableRecord
  2
0
 70
     0
 62
     7
  6
CONTINUOUS
370
    -3
390
5019
347
8430B
348
0
  0
LAYER
  5
45
102
{ACAD_XDICTIONARY
360
A94E7
102
}
330
2
100
AcDbSymbolTableRecord
100
AcDbLayerTableRecord
  2
C6
 70
     0
 62
     2
  6
CONTINUOUS
370
    -3
390
5019
347
8430B
348
0
  0
LAYER
  5
E1F
330
2
100
AcDbSymbolTableRecord
100
AcDbLayerTableRecord
  2
DEFPOINTS
 70
     0
 62
     7
  6
CONTINUOUS
290
     0
370
    -3
390
5019
347
8430B
348
0
  0
LAYER
  5
30600
102
{ACAD_XDICTIONARY
360
A94EB
102
}
330
2
100
AcDbSymbolTableRecord
100
AcDbLayerTableRecord
  2
WAKU
 70
     0
 62
     5
  6
CONTINUOUS
370
    -3
390
5019
347
8430B
348
0
  0
LAYER
  5
30602
102
{ACAD_XDICTIONARY
360
A94ED
102
}
330
2
100
AcDbSymbolTableRecord
100
AcDbLayerTableRecord
  2
6図枠
 70
     0
 62
     7
  6
CONTINUOUS
370
    -3
390
5019
347
8430B
348
0
  0
LAYER
  5
6AEB6
102
{ACAD_XDICTIONARY
360
A94F9
102
}
330
2
100
AcDbSymbolTableRecord
100
AcDbLayerTableRecord
  2
2寸法線
 70
     0
 62
     2
  6
CONTINUOUS
370
    -3
390
5019
347
8430B
348
0
  0
LAYER
  5
DF18E
102
{ACAD_XDICTIONARY
360
DF18F
102
}
330
2
100
AcDbSymbolTableRecord
100
AcDbLayerTableRecord
  2
1外形線
 70
     0
 62
     3
  6
CONTINUOUS
370
    -3
390
5019
347
8430B
348
0
  0
LAYER
  5
EA070
102
{ACAD_XDICTIONARY
360
EA071
102
}
330
2
100
AcDbSymbolTableRecord
100
AcDbLayerTableRecord
  2
C4
 70
     0
 62
     3
  6
CONTINUOUS
370
    -3
390
5019
347
8430B
348
0
  0
ENDTAB
  0
TABLE
  2
STYLE
  5
3
330
0
100
AcDbSymbolTable
 70
     3
  0
STYLE
  5
F
330
3
100
AcDbSymbolTableRecord
100
AcDbTextStyleTableRecord
  2
STANDARD
 70
     0
 40
0.0
 41
1.0
 50
0.0
 71
     0
 42
0.2
  3
txt
  4

  0
STYLE
  5
3B
330
3
100
AcDbSymbolTableRecord
100
AcDbTextStyleTableRecord
  2
KANJI
 70
     0
 40
0.0
 41
1.0
 50
0.0
 71
     0
 42
5.0
  3
simplex
  4
bigfont
  0
STYLE
  5
44FB
330
3
100
AcDbSymbolTableRecord
100
AcDbTextStyleTableRecord
  2
ｺﾞｼｯｸ
 70
     0
 40
0.0
 41
1.0
 50
0.0
 71
     0
 42
1.5
  3
MS PGothic.ttf
  4

1001
ACAD
1000
MS PGothic
1071
    32818
  0
ENDTAB
  0
TABLE
  2
VIEW
  5
6
330
0
100
AcDbSymbolTable
 70
     6
  0
VIEW
  5
246C5
330
6
100
AcDbSymbolTableRecord
100
AcDbViewTableRecord
  2
OLE1
 70
     0
 40
182.4642232084897
 10
1210.351594008563
 20
-3091.904956150728
 41
248.3141725291389
 11
0.0
 21
0.0
 31
1.0
 12
0.0
 22
0.0
 32
0.0
 42
50.0
 43
0.0
 44
0.0
 50
0.0
 71
     0
281
     0
 72
     0
 73
     0
348
84312
  0
VIEW
  5
25A9F
330
6
100
AcDbSymbolTableRecord
100
AcDbViewTableRecord
  2
OLE2
 70
     0
 40
115.8786694871118
 10
1993.135940149934
 20
-1795.528849735834
 41
157.9176513224629
 11
0.0
 21
0.0
 31
1.0
 12
0.0
 22
0.0
 32
0.0
 42
50.0
 43
0.0
 44
0.0
 50
0.0
 71
     0
281
     0
 72
     0
 73
     0
348
84312
  0
VIEW
  5
3008F
330
6
100
AcDbSymbolTableRecord
100
AcDbViewTableRecord
  2
OLE3
 70
     0
 40
199.6341506271968
 10
-1026.605806097064
 20
-8874.352560884943
 41
281.3152524788238
 11
0.0
 21
0.0
 31
1.0
 12
0.0
 22
0.0
 32
0.0
 42
50.0
 43
0.0
 44
0.0
 50
0.0
 71
     0
281
     0
 72
     0
 73
     0
348
84312
  0
VIEW
  5
37942
330
6
100
AcDbSymbolTableRecord
100
AcDbViewTableRecord
  2
OLE4
 70
     0
 40
179.7850813412587
 10
14070.56790504897
 20
-14452.78839670085
 41
235.0672219902135
 11
0.0
 21
0.0
 31
1.0
 12
0.0
 22
0.0
 32
0.0
 42
50.0
 43
0.0
 44
0.0
 50
0.0
 71
     0
281
     0
 72
     0
 73
     0
348
84312
  0
VIEW
  5
6913D
330
6
100
AcDbSymbolTableRecord
100
AcDbViewTableRecord
  2
OLE5
 70
     0
 40
64.13344255896664
 10
6186.254962722559
 20
-9547.596484313237
 41
80.09719381821737
 11
0.0
 21
0.0
 31
1.0
 12
0.0
 22
0.0
 32
0.0
 42
50.0
 43
0.0
 44
0.0
 50
0.0
 71
     0
281
     0
 72
     0
 73
     0
348
84312
  0
ENDTAB
  0
TABLE
  2
UCS
  5
7
330
0
100
AcDbSymbolTable
 70
     0
  0
ENDTAB
  0
TABLE
  2
APPID
  5
9
330
0
100
AcDbSymbolTable
 70
    14
  0
APPID
  5
10
330
9
100
AcDbSymbolTableRecord
100
AcDbRegAppTableRecord
  2
ACAD
 70
     0
  0
APPID
  5
60B62
330
9
100
AcDbSymbolTableRecord
100
AcDbRegAppTableRecord
  2
ACAD_PSEXT
 70
     0
  0
APPID
  5
61D78
330
9
100
AcDbSymbolTableRecord
100
AcDbRegAppTableRecord
  2
ACAD_DSTYLE_DIMTEXT_FILL
 70
     0
  0
APPID
  5
8801C
330
9
100
AcDbSymbolTableRecord
100
AcDbRegAppTableRecord
  2
ACAD_EXEMPT_FROM_CAD_STANDARDS
 70
     0
  0
APPID
  5
99F5C
330
9
100
AcDbSymbolTableRecord
100
AcDbRegAppTableRecord
  2
AcAecLayerStandard
 70
     0
  0
APPID
  5
A8ACC
330
9
100
AcDbSymbolTableRecord
100
AcDbRegAppTableRecord
  2
ACAD_DSTYLE_DIMRADIAL_EXTENSION
 70
     0
  0
APPID
  5
A95A9
330
9
100
AcDbSymbolTableRecord
100
AcDbRegAppTableRecord
  2
ACAD_MLEADERVER
 70
     0
  0
APPID
  5
A9FFC
330
9
100
AcDbSymbolTableRecord
100
AcDbRegAppTableRecord
  2
GradientColor1ACI
 70
     0
  0
APPID
  5
A9FFD
330
9
100
AcDbSymbolTableRecord
100
AcDbRegAppTableRecord
  2
GradientColor2ACI
 70
     0
  0
APPID
  5
AB1E9
330
9
100
AcDbSymbolTableRecord
100
AcDbRegAppTableRecord
  2
ACAD_NAV_VCDISPLAY
 70
     0
  0
APPID
  5
B0890
330
9
100
AcDbSymbolTableRecord
100
AcDbRegAppTableRecord
  2
ACAD_DSTYLE_DIMJAG
 70
     0
  0
APPID
  5
B0891
330
9
100
AcDbSymbolTableRecord
100
AcDbRegAppTableRecord
  2
ACAD_DSTYLE_DIMTALN
 70
     0
  0
APPID
  5
BCA6D
330
9
100
AcDbSymbolTableRecord
100
AcDbRegAppTableRecord
  2
ACAD_DSTYLE_DIMARC_LENGTH_SYMBOL
 70
     0
  0
APPID
  5
C10CA
330
9
100
AcDbSymbolTableRecord
100
AcDbRegAppTableRecord
  2
ACAD_DSTYLE_DIMFLIPARROW_WHICH_SYMBOL
 70
     0
  0
ENDTAB
  0
TABLE
  2
DIMSTYLE
  5
A
330
0
100
AcDbSymbolTable
 70
     2
100
AcDbDimStyleTable
 71
     1
340
E11
  0
DIMSTYLE
105
E11
330
A
100
AcDbSymbolTableRecord
100
AcDbDimStyleTableRecord
  2
STANDARD
 70
     0
 41
2.0
 42
1.0
 43
6.0
 44
1.0
 73
     0
 74
     0
 77
     1
 78
     8
 90
        1
140
2.5
141
0.0
147
0.8
172
     1
176
     2
177
     2
178
     2
271
     1
272
     1
284
     8
285
     8
286
     8
340
3B
341
6AEB2
342
6AEB2
1001
ACAD_DSTYLE_DIMJAG
1070
   388
1040
1.5
1001
ACAD_DSTYLE_DIMTALN
1070
   392
1070
     0
  0
ENDTAB
  0
TABLE
  2
BLOCK_RECORD
  5
1
330
0
100
AcDbSymbolTable
 70
     8
  0
BLOCK_RECORD
  5
17
102
{ACAD_XDICTIONARY
360
119DA
102
}
330
1
100
AcDbSymbolTableRecord
100
AcDbBlockTableRecord
  2
*MODEL_SPACE
340
501C
 70
     0
280
     1
281
     0
  0
BLOCK_RECORD
  5
14
102
{ACAD_XDICTIONARY
360
119D8
102
}
330
1
100
AcDbSymbolTableRecord
100
AcDbBlockTableRecord
  2
*PAPER_SPACE
340
501D
 70
     0
280
     1
281
     0
  0
BLOCK_RECORD
  5
6AEB2
330
1
100
AcDbSymbolTableRecord
100
AcDbBlockTableRecord
  2
2
340
0
102
{BLKREFS
331
EA36C
331
EA36D
331
EA375
331
EA376
331
EA363
331
EA364
102
}
 70
     0
280
     1
281
     0
  0
BLOCK_RECORD
  5
EA33C
330
1
100
AcDbSymbolTableRecord
100
AcDbBlockTableRecord
  2
*D1
340
0
 70
     0
280
     1
281
     0
  0
BLOCK_RECORD
  5
EA348
330
1
100
AcDbSymbolTableRecord
100
AcDbBlockTableRecord
  2
*D2
340
0
 70
     0
280
     1
281
     0
  0
BLOCK_RECORD
  5
EA354
330
1
100
AcDbSymbolTableRecord
100
AcDbBlockTableRecord
  2
*D3
340
0
 70
     0
280
     1
281
     0
  0
ENDTAB
  0
ENDSEC
  0
SECTION
  2
BLOCKS
  0
BLOCK
  5
4F
330
17
100
AcDbEntity
  8
0
100
AcDbBlockBegin
  2
*MODEL_SPACE
 70
     0
 10
0.0
 20
0.0
 30
0.0
  3
*MODEL_SPACE
  1

  0
ENDBLK
  5
50
330
17
100
AcDbEntity
  8
0
100
AcDbBlockEnd
  0
BLOCK
  5
4D
330
14
100
AcDbEntity
 67
     1
  8
0
100
AcDbBlockBegin
  2
*PAPER_SPACE
 70
     0
 10
0.0
 20
0.0
 30
0.0
  3
*PAPER_SPACE
  1

  0
ENDBLK
  5
4E
330
14
100
AcDbEntity
 67
     1
  8
0
100
AcDbBlockEnd
  0
BLOCK
  5
6AEB3
330
6AEB2
100
AcDbEntity
  8
0
 48
3.0
100
AcDbBlockBegin
  2
2
 70
     0
 10
0.0
 20
0.0
 30
0.0
  3
2
  1

  0
HATCH
  5
6AEB4
330
6AEB2
100
AcDbEntity
  8
0
  6
ByBlock
 62
     0
 48
3.0
380
     1
100
AcDbHatch
 10
0.0
 20
0.0
 30
0.0
210
0.0
220
0.0
230
1.0
  2
SOLID
 70
     1
 71
     0
 91
        1
 92
        1
 93
        3
 72
     1
 10
-0.9999999999983515
 20
0.2679491924306774
 11
0.0
 21
0.0
 72
     1
 10
0.0
 20
0.0
 11
-0.9999999999983515
 21
-0.2679491924306765
 72
     1
 10
-0.9999999999983524
 20
-0.267949192430676
 11
-0.9999999999983524
 21
0.2679491924306774
 97
        0
 75
     0
 76
     1
 98
        1
 10
2.995745117231336
 20
-4.124946096263201
450
        0
451
        0
460
0.0
461
0.0
452
        0
462
0.0
453
        0
470

  0
ENDBLK
  5
6AEB5
330
6AEB2
100
AcDbEntity
  8
0
 48
3.0
100
AcDbBlockEnd
  0
BLOCK
  5
EA33D
330
EA33C
100
AcDbEntity
  8
0
 48
3.0
100
AcDbBlockBegin
  2
*D1
 70
     1
 10
0.0
 20
0.0
 30
0.0
  3
*D1
  1

  0
LINE
  5
EA360
330
EA33C
100
AcDbEntity
  8
1外形線
 62
     2
440
 16777216
 48
3.0
370
    -2
100
AcDbLine
 10
197.067733711825
 20
141.6341005497761
 30
0.0
 11
215.7403346654173
 21
141.6341005497761
 31
0.0
  0
LINE
  5
EA361
330
EA33C
100
AcDbEntity
  8
1外形線
 62
     2
440
 16777216
 48
3.0
370
    -2
100
AcDbLine
 10
197.067733711825
 20
228.2448085583037
 30
0.0
 11
215.7403346654173
 21
228.2448085583037
 31
0.0
  0
LINE
  5
EA362
330
EA33C
100
AcDbEntity
  8
1外形線
 62
     2
440
 16777216
 48
3.0
370
    -2
100
AcDbLine
 10
214.2403346654173
 20
144.6341005497761
 30
0.0
 11
214.2403346654173
 21
225.2448085583037
 31
0.0
  0
INSERT
  5
EA363
330
EA33C
100
AcDbEntity
  8
1外形線
 62
     2
440
 16777216
 48
3.0
370
    -2
100
AcDbBlockReference
  2
2
 10
214.2403346654173
 20
141.6341005497761
 30
0.0
 41
3.0
 42
3.0
 43
3.0
 50
270.0
  0
INSERT
  5
EA364
330
EA33C
100
AcDbEntity
  8
1外形線
 62
     2
440
 16777216
 48
3.0
370
    -2
100
AcDbBlockReference
  2
2
 10
214.2403346654173
 20
228.2448085583037
 30
0.0
 41
3.0
 42
3.0
 43
3.0
 50
90.0
  0
MTEXT
  5
EA365
330
EA33C
100
AcDbEntity
  8
1外形線
 62
     2
440
 16777216
 48
3.0
100
AcDbMText
 10
211.1653346654173
 20
184.9394545540399
 30
0.0
 40
3.75
 41
0.0
 46
0.0
 71
     5
 72
     1
  1
\A1;87
  7
KANJI
 11
0.0000000000000001
 21
1.0
 31
0.0
 73
     1
 44
1.0
  0
POINT
  5
EA366
330
EA33C
100
AcDbEntity
  8
DEFPOINTS
 62
     0
440
 16777216
 48
3.0
100
AcDbPoint
 10
195.567733711825
 20
141.6341005497761
 30
0.0
  0
POINT
  5
EA367
330
EA33C
100
AcDbEntity
  8
DEFPOINTS
 62
     0
440
 16777216
 48
3.0
100
AcDbPoint
 10
195.567733711825
 20
228.2448085583037
 30
0.0
  0
POINT
  5
EA368
330
EA33C
100
AcDbEntity
  8
DEFPOINTS
 62
     0
440
 16777216
 48
3.0
100
AcDbPoint
 10
214.2403346654173
 20
228.2448085583037
 30
0.0
  0
ENDBLK
  5
EA33E
330
EA33C
100
AcDbEntity
  8
0
 48
3.0
100
AcDbBlockEnd
  0
BLOCK
  5
EA349
330
EA348
100
AcDbEntity
  8
0
 48
3.0
100
AcDbBlockBegin
  2
*D2
 70
     1
 10
0.0
 20
0.0
 30
0.0
  3
*D2
  1

  0
LINE
  5
EA369
330
EA348
100
AcDbEntity
  8
1外形線
 62
     2
440
 16777216
 48
3.0
370
    -2
100
AcDbLine
 10
251.1712923802806
 20
144.7833949014411
 30
0.0
 11
251.1712923802806
 21
118.3224952457303
 31
0.0
  0
LINE
  5
EA36A
330
EA348
100
AcDbEntity
  8
1外形線
 62
     2
440
 16777216
 48
3.0
370
    -2
100
AcDbLine
 10
280.2712932385984
 20
144.7833949014411
 30
0.0
 11
280.2712932385984
 21
118.3224952457303
 31
0.0
  0
LINE
  5
EA36B
330
EA348
100
AcDbEntity
  8
1外形線
 62
     2
440
 16777216
 48
3.0
370
    -2
100
AcDbLine
 10
254.1712923802807
 20
119.8224952457303
 30
0.0
 11
277.2712932385985
 21
119.8224952457303
 31
0.0
  0
INSERT
  5
EA36C
330
EA348
100
AcDbEntity
  8
1外形線
 62
     2
440
 16777216
 48
3.0
370
    -2
100
AcDbBlockReference
  2
2
 10
251.1712923802806
 20
119.8224952457303
 30
0.0
 41
3.0
 42
3.0
 43
3.0
 50
180.0
  0
INSERT
  5
EA36D
330
EA348
100
AcDbEntity
  8
1外形線
 62
     2
440
 16777216
 48
3.0
370
    -2
100
AcDbBlockReference
  2
2
 10
280.2712932385984
 20
119.8224952457303
 30
0.0
 41
3.0
 42
3.0
 43
3.0
  0
MTEXT
  5
EA36E
330
EA348
100
AcDbEntity
  8
1外形線
 62
     2
440
 16777216
 48
3.0
100
AcDbMText
 10
265.7212928094395
 20
122.8974952457303
 30
0.0
 40
3.75
 41
0.0
 46
0.0
 71
     5
 72
     1
  1
\A1;29
  7
KANJI
 73
     1
 44
1.0
  0
POINT
  5
EA36F
330
EA348
100
AcDbEntity
  8
DEFPOINTS
 62
     0
440
 16777216
 48
3.0
100
AcDbPoint
 10
251.1712923802806
 20
146.2833949014411
 30
0.0
  0
POINT
  5
EA370
330
EA348
100
AcDbEntity
  8
DEFPOINTS
 62
     0
440
 16777216
 48
3.0
100
AcDbPoint
 10
280.2712932385984
 20
146.2833949014411
 30
0.0
  0
POINT
  5
EA371
330
EA348
100
AcDbEntity
  8
DEFPOINTS
 62
     0
440
 16777216
 48
3.0
100
AcDbPoint
 10
280.2712932385984
 20
119.8224952457303
 30
0.0
  0
ENDBLK
  5
EA34A
330
EA348
100
AcDbEntity
  8
0
 48
3.0
100
AcDbBlockEnd
  0
BLOCK
  5
EA355
330
EA354
100
AcDbEntity
  8
0
 48
3.0
100
AcDbBlockBegin
  2
*D3
 70
     1
 10
0.0
 20
0.0
 30
0.0
  3
*D3
  1

  0
LINE
  5
EA372
330
EA354
100
AcDbEntity
  8
1外形線
 62
     2
440
 16777216
 48
3.0
370
    -2
100
AcDbLine
 10
100.6033621121241
 20
162.3506964866101
 30
0.0
 11
100.6033621121241
 21
118.3224952457303
 31
0.0
  0
LINE
  5
EA373
330
EA354
100
AcDbEntity
  8
1外形線
 62
     2
440
 16777216
 48
3.0
370
    -2
100
AcDbLine
 10
196.2066421198615
 20
140.615552568297
 30
0.0
 11
196.2066421198615
 21
118.3224952457303
 31
0.0
  0
LINE
  5
EA374
330
EA354
100
AcDbEntity
  8
1外形線
 62
     2
440
 16777216
 48
3.0
370
    -2
100
AcDbLine
 10
103.6033621121241
 20
119.8224952457303
 30
0.0
 11
193.2066421198615
 21
119.8224952457303
 31
0.0
  0
INSERT
  5
EA375
330
EA354
100
AcDbEntity
  8
1外形線
 62
     2
440
 16777216
 48
3.0
370
    -2
100
AcDbBlockReference
  2
2
 10
100.6033621121241
 20
119.8224952457303
 30
0.0
 41
3.0
 42
3.0
 43
3.0
 50
180.0
  0
INSERT
  5
EA376
330
EA354
100
AcDbEntity
  8
1外形線
 62
     2
440
 16777216
 48
3.0
370
    -2
100
AcDbBlockReference
  2
2
 10
196.2066421198615
 20
119.8224952457303
 30
0.0
 41
3.0
 42
3.0
 43
3.0
  0
MTEXT
  5
EA377
330
EA354
100
AcDbEntity
  8
1外形線
 62
     2
440
 16777216
 48
3.0
100
AcDbMText
 10
148.4050021159928
 20
122.8974952457303
 30
0.0
 40
3.75
 41
0.0
 46
0.0
 71
     5
 72
     1
  1
\A1;97
  7
KANJI
 73
     1
 44
1.0
  0
POINT
  5
EA378
330
EA354
100
AcDbEntity
  8
DEFPOINTS
 62
     0
440
 16777216
 48
3.0
100
AcDbPoint
 10
100.6033621121241
 20
163.8506964866101
 30
0.0
  0
POINT
  5
EA379
330
EA354
100
AcDbEntity
  8
DEFPOINTS
 62
     0
440
 16777216
 48
3.0
100
AcDbPoint
 10
196.2066421198615
 20
142.115552568297
 30
0.0
  0
POINT
  5
EA37A
330
EA354
100
AcDbEntity
  8
DEFPOINTS
 62
     0
440
 16777216
 48
3.0
100
AcDbPoint
 10
196.2066421198615
 20
119.8224952457303
 30
0.0
  0
ENDBLK
  5
EA356
330
EA354
100
AcDbEntity
  8
0
 48
3.0
100
AcDbBlockEnd
  0
ENDSEC
  0
SECTION
  2
ENTITIES
  0
LINE
  5
EA3D6
330
17
100
AcDbEntity
  8
1外形線
100
AcDbLine
 10
647.4692440462058
 20
188.9394545540408
 30
0.0
 11
646.7692438823068
 21
188.9394545540399
 31
0.0
  0
LINE
  5
EA3D7
330
17
100
AcDbEntity
  8
1外形線
100
AcDbLine
 10
646.7692438823068
 20
180.9394541740403
 30
0.0
 11
647.4692440462058
 21
180.9394541740412
 31
0.0
  0
LINE
  5
EA3D8
330
17
100
AcDbEntity
  8
1外形線
100
AcDbLine
 10
648.2692438514058
 20
191.4394544981414
 30
0.0
 11
647.9692438953061
 21
191.4394544981414
 31
0.0
  0
LINE
  5
EA3D9
330
17
100
AcDbEntity
  8
1外形線
100
AcDbLine
 10
647.9692438953061
 20
178.4394542299414
 30
0.0
 11
648.2692438514058
 21
178.4394542299414
 31
0.0
  0
ARC
  5
EA3DA
330
17
100
AcDbEntity
  8
1外形線
100
AcDbCircle
 10
647.9692439404061
 20
178.939454364041
 30
0.0
 40
0.5
100
AcDbArc
 50
180.0
 51
270.0
  0
ARC
  5
EA3DB
330
17
100
AcDbEntity
  8
1外形線
100
AcDbCircle
 10
647.9692439404061
 20
190.939454364041
 30
0.0
 40
0.5
100
AcDbArc
 50
90.0
 51
180.0
  0
LINE
  5
EA3DC
330
17
100
AcDbEntity
  8
1外形線
100
AcDbLine
 10
646.7692438823068
 20
180.9394541740412
 30
0.0
 11
646.7692438823068
 21
188.9394545540408
 31
0.0
  0
LINE
  5
EA3DD
330
17
100
AcDbEntity
  8
1外形線
100
AcDbLine
 10
647.4692440462058
 20
178.9394543118415
 30
0.0
 11
647.4692440462058
 21
190.9394544161414
 31
0.0
  0
LINE
  5
EA3DE
330
17
100
AcDbEntity
  8
1外形線
100
AcDbLine
 10
602.969244202708
 20
222.4394558541417
 30
0.0
 11
602.969244202708
 21
215.4394547067413
 31
0.0
  0
LINE
  5
EA3DF
330
17
100
AcDbEntity
  8
1外形線
100
AcDbLine
 10
609.9692434874087
 20
215.4394547067413
 30
0.0
 11
609.9692434874087
 21
222.9394531422813
 31
0.0
  0
LINE
  5
EA3E0
330
17
100
AcDbEntity
  8
1外形線
100
AcDbLine
 10
617.9692447987072
 20
215.4394547067413
 30
0.0
 11
609.9692434874087
 21
215.4394547067413
 31
0.0
  0
ARC
  5
EA3E1
330
17
100
AcDbEntity
  8
1外形線
100
AcDbCircle
 10
617.9692439404061
 20
184.939454364041
 30
0.0
 40
30.5
100
AcDbArc
 50
20.43877957610783
 51
90.0
  0
LINE
  5
EA3E2
330
17
100
AcDbEntity
  8
1外形線
100
AcDbLine
 10
651.1692439455073
 20
194.9394541405409
 30
0.0
 11
651.1692439404068
 21
161.4418702729408
 31
0.0
  0
LINE
  5
EA3E3
330
17
100
AcDbEntity
  8
1外形線
100
AcDbLine
 10
648.4692439773062
 20
173.9397260270825
 30
0.0
 11
648.4692439773062
 21
162.9394544832412
 31
0.0
  0
ARC
  5
EA3E4
330
17
100
AcDbEntity
  8
1外形線
100
AcDbCircle
 10
643.9692439404061
 20
162.939454364041
 30
0.0
 40
4.500000000000028
100
AcDbArc
 50
271.8775481602066
 51
0.0
  0
ARC
  5
EA3E5
330
17
100
AcDbEntity
  8
1外形線
100
AcDbCircle
 10
644.6081328293075
 20
143.4499233027409
 30
0.0
 40
14.99999999999999
100
AcDbArc
 50
91.87754816020662
 51
135.4865114627367
  0
ARC
  5
EA3E6
330
17
100
AcDbEntity
  8
1外形線
100
AcDbCircle
 10
633.5553087920088
 20
154.3166192495409
 30
0.0
 40
0.5000000000000053
100
AcDbArc
 50
161.3755173991071
 51
315.4865114627368
  0
ARC
  5
EA3E7
330
17
100
AcDbEntity
  8
1外形線
100
AcDbCircle
 10
607.9692439404062
 20
162.939454364041
 30
0.0
 40
26.5
100
AcDbArc
 50
341.375517399207
 51
342.1306515507221
  0
ARC
  5
EA3E8
330
17
100
AcDbEntity
  8
1外形線
100
AcDbCircle
 10
636.046125425808
 20
153.8874531456413
 30
0.0
 40
2.999999999999987
100
AcDbArc
 50
129.3623626265628
 51
162.130651550722
  0
ARC
  5
EA3E9
330
17
100
AcDbEntity
  8
1外形線
100
AcDbCircle
 10
644.6081328293075
 20
143.4499233027409
 30
0.0
 40
16.49999999999999
100
AcDbArc
 50
91.87754816020662
 51
129.3623626265628
  0
ARC
  5
EA3EA
330
17
100
AcDbEntity
  8
1外形線
100
AcDbCircle
 10
643.9692439404061
 20
162.939454364041
 30
0.0
 40
3.000000000000028
100
AcDbArc
 50
271.8775481602066
 51
0.0
  0
LINE
  5
EA3EB
330
17
100
AcDbEntity
  8
1外形線
100
AcDbLine
 10
646.9692439643076
 20
172.743143568141
 30
0.0
 11
646.9692439643076
 21
162.9394544832412
 31
0.0
  0
ARC
  5
EA3EC
330
17
100
AcDbEntity
  8
1外形線
100
AcDbCircle
 10
646.4692439404061
 20
172.7431434463415
 30
0.0
 40
0.5000000000000134
100
AcDbArc
 50
0.0
 51
156.8319452641518
  0
ARC
  5
EA3ED
330
17
100
AcDbEntity
  8
1外形線
100
AcDbCircle
 10
617.9692439404061
 20
184.939454364041
 30
0.0
 40
30.50000000000003
100
AcDbArc
 50
331.4445844610991
 51
336.8319452641518
  0
ARC
  5
EA3EE
330
17
100
AcDbEntity
  8
1外形線
100
AcDbCircle
 10
644.1003111868085
 20
170.7187010588413
 30
0.0
 40
0.7500000000000319
100
AcDbArc
 50
239.999999999989
 51
331.4445844610991
  0
ARC
  5
EA3EF
330
17
100
AcDbEntity
  8
1外形線
100
AcDbCircle
 10
644.1003111868085
 20
170.7187010588413
 30
0.0
 40
0.7500000000000124
100
AcDbArc
 50
151.4445844610991
 51
239.999999999989
  0
ARC
  5
EA3F0
330
17
100
AcDbEntity
  8
1外形線
100
AcDbCircle
 10
617.9692439404061
 20
184.939454364041
 30
0.0
 40
29.0
100
AcDbArc
 50
331.4445844610991
 51
346.0734420864519
  0
ARC
  5
EA3F1
330
17
100
AcDbEntity
  8
1外形線
100
AcDbCircle
 10
646.6020922095085
 20
177.8394543640415
 30
0.0
 40
0.5
100
AcDbArc
 50
90.0
 51
166.0734420864518
  0
LINE
  5
EA3F2
330
17
100
AcDbEntity
  8
1外形線
100
AcDbLine
 10
646.6020923910073
 20
178.339454399741
 30
0.0
 11
647.9692438953061
 21
178.339454399741
 31
0.0
  0
ARC
  5
EA3F3
330
17
100
AcDbEntity
  8
1外形線
100
AcDbCircle
 10
647.9692439404061
 20
178.8394543640415
 30
0.0
 40
0.5
100
AcDbArc
 50
270.0
 51
0.0
  0
LINE
  5
EA3F4
330
17
100
AcDbEntity
  8
1外形線
100
AcDbLine
 10
648.4692439773062
 20
178.8394544817411
 30
0.0
 11
648.4692439773062
 21
191.0394542462409
 31
0.0
  0
ARC
  5
EA3F5
330
17
100
AcDbEntity
  8
1外形線
100
AcDbCircle
 10
647.9692439404061
 20
191.0394543640413
 30
0.0
 40
0.5
100
AcDbArc
 50
0.0
 51
90.0
  0
LINE
  5
EA3F6
330
17
100
AcDbEntity
  8
1外形線
100
AcDbLine
 10
647.9692438953061
 20
191.5394543282409
 30
0.0
 11
646.6020923910073
 21
191.5394543282409
 31
0.0
  0
ARC
  5
EA3F7
330
17
100
AcDbEntity
  8
1外形線
100
AcDbCircle
 10
646.6020922095085
 20
192.0394543640414
 30
0.0
 40
0.5000000000000095
100
AcDbArc
 50
193.9265579135481
 51
270.0
  0
ARC
  5
EA3F8
330
17
100
AcDbEntity
  8
1外形線
100
AcDbCircle
 10
617.9692439404061
 20
184.939454364041
 30
0.0
 40
29.0
100
AcDbArc
 50
13.92655791354816
 51
90.0
  0
LINE
  5
EA3F9
330
17
100
AcDbEntity
  8
1外形線
100
AcDbLine
 10
603.665094902808
 20
213.9394535295414
 30
0.0
 11
617.9692447987072
 21
213.9394535295414
 31
0.0
  0
ARC
  5
EA3FA
330
17
100
AcDbEntity
  8
1外形線
100
AcDbCircle
 10
603.6650930705072
 20
208.939454364041
 30
0.0
 40
5.0
100
AcDbArc
 50
90.0
 51
107.6382405098332
  0
ARC
  5
EA3FB
330
17
100
AcDbEntity
  8
1外形線
100
AcDbCircle
 10
606.6951531160084
 20
199.4095678945414
 30
0.0
 40
15.00000000000001
100
AcDbArc
 50
107.6382405098332
 51
154.5579621479372
  0
ARC
  5
EA3FC
330
17
100
AcDbEntity
  8
1外形線
100
AcDbCircle
 10
606.9085563272055
 20
200.965967641041
 30
0.0
 40
15.00000000000003
100
AcDbArc
 50
105.2256296794791
 51
160.3638184402295
  0
ARC
  5
EA3FD
330
17
100
AcDbEntity
  8
1外形線
100
AcDbCircle
 10
592.969243940348
 20
205.9394543638155
 30
0.0
 40
0.2
100
AcDbArc
 50
160.3638184401772
 51
334.5579621477537
  0
LINE
  5
EA3FE
330
17
100
AcDbEntity
  8
1外形線
100
AcDbLine
 10
651.1692439455073
 20
174.9394545875411
 30
0.0
 11
649.4692439084064
 21
174.9394545875411
 31
0.0
  0
ARC
  5
EA3FF
330
17
100
AcDbEntity
  8
1外形線
100
AcDbCircle
 10
649.4692439404062
 20
173.939454364041
 30
0.0
 40
1.0
100
AcDbArc
 50
90.00000000041687
 51
180.0
  0
LINE
  5
EA400
330
17
100
AcDbEntity
  8
1外形線
100
AcDbLine
 10
647.4861882963087
 20
194.9394541405409
 30
0.0
 11
651.1692439455073
 21
194.9394541405409
 31
0.0
  0
ARC
  5
EA401
330
17
100
AcDbEntity
  8
1外形線
100
AcDbCircle
 10
647.4861882267068
 20
195.939454364041
 30
0.0
 40
1.0
100
AcDbArc
 50
200.4387795761078
 51
269.9999999995831
  0
ARC
  5
EA402
330
17
100
AcDbEntity
  8
1外形線
100
AcDbCircle
 10
603.9692439404062
 20
222.439454364041
 30
0.0
 40
1.0
100
AcDbArc
 50
90.0
 51
180.0
  0
LINE
  5
EA403
330
17
100
AcDbEntity
  8
1外形線
100
AcDbLine
 10
603.9692425039065
 20
223.4394541554411
 30
0.0
 11
609.4692424741078
 21
223.4394541554411
 31
0.0
  0
SPLINE
  5
EA404
330
17
100
AcDbEntity
  8
1外形線
100
AcDbSpline
210
0.0
220
0.0
230
1.0
 70
     8
 71
     3
 72
    12
 73
     8
 74
     0
 42
0.000000001
 43
0.0000000001
 40
0.0
 40
0.0
 40
0.0
 40
0.0
 40
0.0053938055862073
 40
0.1589857707516709
 40
0.5234342618882514
 40
0.7821776637247968
 40
1.0
 40
1.0
 40
1.0
 40
1.0
 10
609.4692424741515
 20
223.4394541553929
 30
0.0
 10
609.4704606371124
 20
223.4394506712015
 30
0.0
 10
609.5063667472641
 20
223.439347972494
 30
0.0
 10
609.6246414242378
 20
223.4262850266587
 30
0.0
 10
609.7913298401217
 20
223.343322110768
 30
0.0
 10
609.9383944447217
 20
223.1644149505692
 30
0.0
 10
609.9595664627194
 20
223.0100213279711
 30
0.0
 10
609.9692434874305
 20
222.939453142114
 30
0.0
  0
ARC
  5
EA405
330
17
100
AcDbEntity
  8
1外形線
100
AcDbCircle
 10
633.972939244606
 20
156.4550245101409
 30
0.0
 40
0.3000000000000203
100
AcDbArc
 50
165.9979661838086
 51
309.2753017079605
  0
ARC
  5
EA406
330
17
100
AcDbEntity
  8
1外形線
100
AcDbCircle
 10
607.9692439404062
 20
162.939454364041
 30
0.0
 40
26.50000000000002
100
AcDbArc
 50
308.9874422602891
 51
331.9898964607193
  0
ARC
  5
EA407
330
17
100
AcDbEntity
  8
1外形線
100
AcDbCircle
 10
633.6757411474064
 20
164.4356165704412
 30
0.0
 40
0.7500000000000325
100
AcDbArc
 50
95.00000000007501
 51
183.3309548460409
  0
ARC
  5
EA408
330
17
100
AcDbEntity
  8
1外形線
100
AcDbCircle
 10
633.6757411474064
 20
164.4356165704412
 30
0.0
 40
0.7500000000000043
100
AcDbArc
 50
3.330954846040959
 51
95.00000000007501
  0
ARC
  5
EA409
330
17
100
AcDbEntity
  8
1外形線
100
AcDbCircle
 10
607.9692439404062
 20
162.939454364041
 30
0.0
 40
26.50000000000001
100
AcDbArc
 50
345.9979661838086
 51
3.330954846040959
  0
ARC
  5
EA40A
330
17
100
AcDbEntity
  8
1外形線
100
AcDbCircle
 10
607.9692439404062
 20
162.939454364041
 30
0.0
 40
25.0
100
AcDbArc
 50
155.0000000001405
 51
3.330954846040959
  0
ARC
  5
EA40B
330
17
100
AcDbEntity
  8
1外形線
100
AcDbCircle
 10
644.6081328293075
 20
143.4499233027409
 30
0.0
 40
14.99999999999998
100
AcDbArc
 50
135.4865114627367
 51
151.9898964607192
  0
LINE
  5
EA40C
330
17
100
AcDbEntity
  8
1外形線
100
AcDbLine
 10
617.3692420927072
 20
219.239453839441
 30
0.0
 11
609.9692434874087
 21
219.239453839441
 31
0.0
  0
ARC
  5
EA40D
330
17
100
AcDbEntity
  8
1外形線
100
AcDbCircle
 10
617.3692439404076
 20
218.6394543640408
 30
0.0
 40
0.5999999999999944
100
AcDbArc
 50
0.0
 51
90.0
  0
ARC
  5
EA40E
330
17
100
AcDbEntity
  8
1外形線
100
AcDbCircle
 10
617.3692439404076
 20
218.6394543640408
 30
0.0
 40
0.5999999999999944
100
AcDbArc
 50
270.0
 51
0.0
  0
LINE
  5
EA40F
330
17
100
AcDbEntity
  8
1外形線
100
AcDbLine
 10
609.9692434874087
 20
218.0394558779417
 30
0.0
 11
617.3692420927072
 21
218.0394558779417
 31
0.0
  0
ARC
  5
EA410
330
17
100
AcDbEntity
  8
1外形線
100
AcDbCircle
 10
648.1692439404069
 20
161.4418702729408
 30
0.0
 40
3.0
100
AcDbArc
 50
269.9999999995831
 51
0.0
  0
LINE
  5
EA411
330
17
100
AcDbEntity
  8
1外形線
100
AcDbLine
 10
644.1166797523074
 20
158.4418705277412
 30
0.0
 11
648.1692440213082
 21
158.4418705277412
 31
0.0
  0
LINE
  5
EA412
330
17
100
AcDbEntity
  8
1外形線
100
AcDbLine
 10
754.8617452559374
 20
153.8166192010403
 30
0.0
 11
758.1617452380378
 21
153.8166192010403
 31
0.0
  0
LINE
  5
EA413
330
17
100
AcDbEntity
  8
1外形線
100
AcDbLine
 10
736.4617448476383
 20
135.5001353071384
 30
0.0
 11
754.8617452559374
 21
135.5001353071384
 31
0.0
  0
LINE
  5
EA414
330
17
100
AcDbEntity
  8
1外形線
100
AcDbLine
 10
760.2117454809376
 20
150.5307101294402
 30
0.0
 11
750.4382750195364
 21
153.5540514275399
 31
0.0
  0
LINE
  5
EA415
330
17
100
AcDbEntity
  8
1外形線
100
AcDbLine
 10
731.111744622638
 20
219.3481989785405
 30
0.0
 11
740.8852150840357
 21
216.3248576804399
 31
0.0
  0
CIRCLE
  5
EA416
330
17
100
AcDbEntity
  8
1外形線
100
AcDbCircle
 10
745.6617450517369
 20
184.9394545540399
 30
0.0
 40
4.000000000000015
  0
LINE
  5
EA417
330
17
100
AcDbEntity
  8
1外形線
100
AcDbLine
 10
746.661745099238
 20
158.441870717741
 30
0.0
 11
746.661745099238
 21
168.4551995828396
 31
0.0
  0
LINE
  5
EA418
330
17
100
AcDbEntity
  8
1外形線
100
AcDbLine
 10
744.6617450042358
 20
168.5483914449405
 30
0.0
 11
744.6617450042358
 21
158.441870717741
 31
0.0
  0
LINE
  5
EA419
330
17
100
AcDbEntity
  8
1外形線
100
AcDbLine
 10
758.1617452380378
 20
158.4418707177401
 30
0.0
 11
741.1117448647383
 21
158.441870717741
 31
0.0
  0
LINE
  5
EA41A
330
17
100
AcDbEntity
  8
1外形線
100
AcDbLine
 10
758.1617452380378
 20
153.8166192010394
 30
0.0
 11
758.1617452380378
 21
171.4302270539947
 31
0.0
  0
LINE
  5
EA41B
330
17
100
AcDbEntity
  8
1外形線
100
AcDbLine
 10
750.138545152
 20
215.4394548967403
 30
0.0
 11
733.1617448655379
 21
215.4394548967403
 31
0.0
  0
LINE
  5
EA41C
330
17
100
AcDbEntity
  8
1外形線
100
AcDbLine
 10
733.1617448655379
 20
198.4486820539841
 30
0.0
 11
733.1617448655379
 21
218.7140485587943
 31
0.0
  0
LINE
  5
EA41D
330
17
100
AcDbEntity
  8
1外形線
100
AcDbLine
 10
754.8617452559374
 20
152.1856879276502
 30
0.0
 11
754.8617452559374
 21
153.8166192010403
 31
0.0
  0
LINE
  5
EA41F
330
17
100
AcDbEntity
  8
1外形線
100
AcDbLine
 10
749.0588414224184
 20
217.03945404144
 30
0.0
 11
741.1117448647383
 21
217.03945404144
 31
0.0
  0
LINE
  5
EA420
330
17
100
AcDbEntity
  8
1外形線
100
AcDbLine
 10
736.1617453572362
 20
215.4394548967411
 30
0.0
 11
736.1617453572362
 21
217.7828245446399
 31
0.0
  0
LINE
  5
EA424
330
17
100
AcDbEntity
  8
1外形線
100
AcDbLine
 10
760.2117454809376
 20
150.5307101294402
 30
0.0
 11
760.2117454809376
 21
145.6107675569264
 31
0.0
  0
LINE
  5
EA42D
330
17
100
AcDbEntity
  8
1外形線
100
AcDbLine
 10
750.2117452387356
 20
153.2771282479398
 30
0.0
 11
750.2117452387356
 21
152.8001048251399
 31
0.0
  0
LINE
  5
EA42E
330
17
100
AcDbEntity
  8
1外形線
100
AcDbLine
 10
760.2117454809376
 20
150.0206992611402
 30
0.0
 11
750.2117452387356
 21
153.1073406919404
 31
0.0
  0
ARC
  5
EA42F
330
17
100
AcDbEntity
  8
1外形線
100
AcDbCircle
 10
743.9372531506379
 20
155.1324537844402
 30
0.0
 40
2.838212259766443
100
AcDbArc
 50
185.4230938043207
 51
279.2913035703253
  0
LINE
  5
EA430
330
17
100
AcDbEntity
  8
1外形線
100
AcDbLine
 10
750.2117452387356
 20
152.8001048251399
 30
0.0
 11
744.3954939664363
 21
152.3314782068401
 31
0.0
  0
LWPOLYLINE
  5
EA431
330
17
100
AcDbEntity
  8
1外形線
100
AcDbPolyline
 90
        6
 70
   128
 43
0.0
 10
750.2117452387356
 20
153.2771282479398
 10
750.2678294842371
 20
153.3821628078403
 10
750.3202750523378
 20
153.4642905577402
 10
750.3675489862362
 20
153.52111241074
 10
750.4082687375375
 20
153.5509631618397
 10
750.4382750195364
 20
153.5540514275399
  0
ARC
  5
EA432
330
17
100
AcDbEntity
  8
1外形線
100
AcDbCircle
 10
744.4212475704371
 20
195.0052025314398
 30
0.0
 40
26.92158847416474
100
AcDbArc
 50
282.4206618920543
 51
303.9707718008973
  0
LINE
  5
EA433
330
17
100
AcDbEntity
  8
1外形線
100
AcDbLine
 10
744.2763319415389
 20
168.9902853801404
 30
0.0
 11
750.2117452387356
 21
168.7137198284399
 31
0.0
  0
ARC
  5
EA434
330
17
100
AcDbEntity
  8
1外形線
100
AcDbCircle
 10
743.9361831497372
 20
166.1727306618404
 30
0.0
 40
2.838012648167178
100
AcDbArc
 50
83.11629039651014
 51
174.3938662422807
  0
LINE
  5
EA435
330
17
100
AcDbEntity
  8
1外形線
100
AcDbLine
 10
759.7660750326358
 20
172.9334995731397
 30
0.0
 11
731.111744622638
 21
172.9334995731397
 31
0.0
  0
ARC
  5
EA436
330
17
100
AcDbEntity
  8
1外形線
100
AcDbCircle
 10
758.4080383820364
 20
174.2350128993403
 30
0.0
 40
1.881010495072382
100
AcDbArc
 50
304.1594308367498
 51
316.2175219461453
  0
LINE
  5
EA437
330
17
100
AcDbEntity
  8
1外形線
100
AcDbLine
 10
741.1117448647383
 20
154.8642155362358
 30
0.0
 11
741.1117448647383
 21
166.4499745354405
 31
0.0
  0
ARC
  5
EA438
330
17
100
AcDbEntity
  8
1外形線
100
AcDbCircle
 10
743.9187996173386
 20
165.7704520388397
 30
0.0
 40
2.818666484807615
100
AcDbArc
 50
82.71271451342061
 51
174.7974831422196
  0
ARC
  5
EA439
330
17
100
AcDbEntity
  8
1外形線
100
AcDbCircle
 10
744.4212242659378
 20
194.58132074284
 30
0.0
 40
26.92164659849759
100
AcDbArc
 50
282.420685433872
 51
303.9707482590164
  0
LINE
  5
EA43A
330
17
100
AcDbEntity
  8
1外形線
100
AcDbLine
 10
750.2117452387356
 20
168.2897836551401
 30
0.0
 11
744.2763319415389
 21
168.5663510695403
 31
0.0
  0
SPLINE
  5
EA43B
330
17
100
AcDbEntity
  8
1外形線
100
AcDbSpline
210
0.0
220
0.0
230
1.0
 70
     8
 71
     3
 72
     9
 73
     5
 74
     0
 42
0.000000001
 43
0.0000000001
 40
0.0
 40
0.0
 40
0.0
 40
0.0
 40
0.584989891905643
 40
1.0
 40
1.0
 40
1.0
 40
1.0
 10
759.7660750326831
 20
172.5095643311606
 30
0.0
 10
759.8493543084041
 20
172.6114184716561
 30
0.0
 10
759.9917145044892
 20
172.7855311219864
 30
0.0
 10
760.0709003561533
 20
173.0132644647174
 30
0.0
 10
760.1037630949795
 20
173.1635809576828
 30
0.0
  0
SPLINE
  5
EA43C
330
17
100
AcDbEntity
  8
1外形線
100
AcDbSpline
210
0.0
220
0.0
230
1.0
 70
     8
 71
     3
 72
     9
 73
     5
 74
     0
 42
0.000000001
 43
0.0000000001
 40
0.0
 40
0.0
 40
0.0
 40
0.0
 40
0.7340515310068147
 40
1.0
 40
1.0
 40
1.0
 40
1.0
 10
759.9298006099779
 20
173.1635809525714
 30
0.0
 10
759.8931742572531
 20
173.1017370395238
 30
0.0
 10
759.8432780971343
 20
173.0174869420361
 30
0.0
 10
759.7822937313867
 20
172.9511435078957
 30
0.0
 10
759.7660750326831
 20
172.9334995731578
 30
0.0
  0
ARC
  5
EA43D
330
17
100
AcDbEntity
  8
1外形線
100
AcDbCircle
 10
758.4080157179378
 20
173.81109880244
 30
0.0
 40
1.881041488701795
100
AcDbArc
 50
304.1596245048378
 51
316.2175346058557
  0
LINE
  5
EA43F
330
17
100
AcDbEntity
  8
1外形線
100
AcDbLine
 10
760.2117454734296
 20
224.2681416009531
 30
0.0
 11
760.2117450518307
 21
173.8978041392402
 31
0.0
  0
ARC
  5
EA445
330
17
100
AcDbEntity
  8
1外形線
100
AcDbCircle
 10
735.732897433736
 20
223.5714306392601
 30
0.0
 40
4.673377729045389
100
AcDbArc
 50
90.0
 51
171.4263383931227
  0
ARC
  5
EA446
330
17
100
AcDbEntity
  8
1外形線
100
AcDbCircle
 10
735.6529996458375
 20
223.1833683620025
 30
0.0
 40
4.579987987780964
100
AcDbArc
 50
90.0
 51
172.4184646083358
  0
LINE
  5
EA448
330
17
100
AcDbEntity
  8
1外形線
100
AcDbLine
 10
731.111744622638
 20
219.3481989785405
 30
0.0
 11
731.1117446226379
 21
224.2681415512013
 31
0.0
  0
LINE
  5
EA44A
330
17
100
AcDbEntity
  8
1外形線
100
AcDbLine
 10
731.113049405536
 20
223.5765294912744
 30
0.0
 11
760.2104406980361
 21
223.5765294912744
 31
0.0
  0
LINE
  5
EA44B
330
17
100
AcDbEntity
  8
1外形線
100
AcDbLine
 10
741.1117448647383
 20
216.60178086014
 30
0.0
 11
741.1117448647383
 21
217.0788042828399
 31
0.0
  0
LINE
  5
EA44C
330
17
100
AcDbEntity
  8
1外形線
100
AcDbLine
 10
731.111744622638
 20
219.8582098469405
 30
0.0
 11
741.1117448647383
 21
216.7715684160403
 31
0.0
  0
LINE
  5
EA44D
330
17
100
AcDbEntity
  8
1外形線
100
AcDbLine
 10
750.2117452387356
 20
215.0146935716402
 30
0.0
 11
750.2117452387356
 21
203.4289345726575
 31
0.0
  0
ARC
  5
EA44E
330
17
100
AcDbEntity
  8
1外形線
100
AcDbCircle
 10
747.386236952836
 20
214.7464553236405
 30
0.0
 40
2.838212259766461
100
AcDbArc
 50
5.423093804320757
 51
99.29130357032528
  0
LINE
  5
EA44F
330
17
100
AcDbEntity
  8
1外形線
100
AcDbLine
 10
741.1117448647383
 20
217.0788042828399
 30
0.0
 11
746.9279961371394
 21
217.5474309012397
 31
0.0
  0
LWPOLYLINE
  5
EA450
330
17
100
AcDbEntity
  8
1外形線
100
AcDbPolyline
 90
        6
 70
   128
 43
0.0
 10
741.1117448647383
 20
216.60178086014
 10
741.0556606193385
 20
216.4967463001403
 10
741.003215051136
 20
216.4146185502405
 10
740.9559411173359
 20
216.3577966973398
 10
740.9152213660381
 20
216.3279459461401
 10
740.8852150840357
 20
216.3248576804399
  0
ARC
  5
EA451
330
17
100
AcDbEntity
  8
1外形線
100
AcDbCircle
 10
746.9022425331386
 20
174.8737065765399
 30
0.0
 40
26.92158847416475
100
AcDbArc
 50
102.4206618920543
 51
123.9707718008972
  0
LINE
  5
EA452
330
17
100
AcDbEntity
  8
1外形線
100
AcDbLine
 10
747.0471581620367
 20
200.8886237278403
 30
0.0
 11
741.1117448647383
 21
201.1651892796399
 31
0.0
  0
ARC
  5
EA453
330
17
100
AcDbEntity
  8
1外形線
100
AcDbCircle
 10
747.3873069537367
 20
203.7061784461402
 30
0.0
 40
2.838012648167115
100
AcDbArc
 50
263.1162903965101
 51
354.3938662422807
  0
ARC
  5
EA454
330
17
100
AcDbEntity
  8
1外形線
100
AcDbCircle
 10
732.9154517214374
 20
195.6438962087404
 30
0.0
 40
1.881010495072425
100
AcDbArc
 50
124.1594308367498
 51
136.2175219461453
  0
ARC
  5
EA455
330
17
100
AcDbEntity
  8
1外形線
100
AcDbCircle
 10
747.4046904862371
 20
204.1084570692401
 30
0.0
 40
2.818666484807608
100
AcDbArc
 50
262.7127145134206
 51
354.7974831422197
  0
LINE
  5
EA456
330
17
100
AcDbEntity
  8
1外形線
100
AcDbLine
 10
741.1117448647383
 20
201.5891254529406
 30
0.0
 11
747.0471581620367
 21
201.3125580385404
 31
0.0
  0
ARC
  5
EA457
330
17
100
AcDbEntity
  8
1外形線
100
AcDbCircle
 10
746.9022658376379
 20
175.2975883651397
 30
0.0
 40
26.9216465984976
100
AcDbArc
 50
102.420685433872
 51
123.9707482590164
  0
SPLINE
  5
EA458
330
17
100
AcDbEntity
  8
1外形線
100
AcDbSpline
210
0.0
220
0.0
230
1.0
 70
     8
 71
     3
 72
     9
 73
     5
 74
     0
 42
0.000000001
 43
0.0000000001
 40
0.0
 40
0.0
 40
0.0
 40
0.0
 40
0.584989891905643
 40
1.0
 40
1.0
 40
1.0
 40
1.0
 10
731.5574150708634
 20
197.3693447768555
 30
0.0
 10
731.4741357951425
 20
197.2674906363599
 30
0.0
 10
731.3317755990538
 20
197.0933779860306
 30
0.0
 10
731.2525897473933
 20
196.8656446432996
 30
0.0
 10
731.2197270084944
 20
196.7153281502978
 30
0.0
  0
SPLINE
  5
EA459
330
17
100
AcDbEntity
  8
1外形線
100
AcDbSpline
210
0.0
220
0.0
230
1.0
 70
     8
 71
     3
 72
     9
 73
     5
 74
     0
 42
0.000000001
 43
0.0000000001
 40
0.0
 40
0.0
 40
0.0
 40
0.0
 40
0.7340515310068147
 40
1.0
 40
1.0
 40
1.0
 40
1.0
 10
731.3936894935686
 20
196.7153281554447
 30
0.0
 10
731.4303158462934
 20
196.7771720684932
 30
0.0
 10
731.4802120064123
 20
196.86142216598
 30
0.0
 10
731.5411963721599
 20
196.9277656001213
 30
0.0
 10
731.5574150708634
 20
196.9454095348583
 30
0.0
  0
ARC
  5
EA45A
330
17
100
AcDbEntity
  8
1外形線
100
AcDbCircle
 10
732.9154743856379
 20
196.0678103056398
 30
0.0
 40
1.881041488701819
100
AcDbArc
 50
124.1596245048378
 51
136.2175346058557
  0
ELLIPSE
  5
EA45B
330
17
100
AcDbEntity
  8
1外形線
100
AcDbEllipse
 10
758.2117450517362
 20
174.3231716846403
 30
0.0
 11
0.0
 21
-2.26514010137805
 31
0.0
210
0.0
220
0.0
230
1.0
 40
0.8829475929
 41
1.033367565821553
 42
1.570796326794897
  0
ARC
  5
EA45C
330
17
100
AcDbEntity
  8
1外形線
100
AcDbCircle
 10
745.6617450517369
 20
184.9394545540399
 30
0.0
 40
7.100000000000022
100
AcDbArc
 50
180.0
 51
0.0
  0
ELLIPSE
  5
EA45D
330
17
100
AcDbEntity
  8
1外形線
100
AcDbEllipse
 10
758.2117450517362
 20
173.8978041392402
 30
0.0
 11
0.0
 21
-2.26514010137805
 31
0.0
210
0.0
220
0.0
230
1.0
 40
0.8829475929
 41
1.24069351035387
 42
1.570796326794897
  0
ARC
  5
EA45E
330
17
100
AcDbEntity
  8
1外形線
100
AcDbCircle
 10
745.6617450517369
 20
184.9394545540399
 30
0.0
 40
6.500000000000056
100
AcDbArc
 50
180.0
 51
0.0
  0
LINE
  5
EA45F
330
17
100
AcDbEntity
  8
1外形線
100
AcDbLine
 10
731.111744622638
 20
195.5557374864402
 30
0.0
 11
731.1117446226196
 21
145.6107675570004
 31
0.0
  0
ELLIPSE
  5
EA460
330
17
100
AcDbEntity
  8
1外形線
100
AcDbEllipse
 10
733.1117450517377
 20
195.5557374234404
 30
0.0
 11
0.0
 21
2.265140101378079
 31
0.0
210
0.0
220
0.0
230
1.0
 40
0.8829475929
 41
1.033367565821545
 42
1.570796326794897
  0
ARC
  5
EA461
330
17
100
AcDbEntity
  8
1外形線
100
AcDbCircle
 10
745.6617450517369
 20
184.9394545540399
 30
0.0
 40
7.100000000000022
100
AcDbArc
 50
0.0
 51
180.0
  0
ARC
  5
EA462
330
17
100
AcDbEntity
  8
1外形線
100
AcDbCircle
 10
745.6617450517369
 20
184.9394545540399
 30
0.0
 40
6.500000000000056
100
AcDbArc
 50
0.0
 51
180.0
  0
LINE
  5
EA463
330
17
100
AcDbEntity
  8
1外形線
100
AcDbLine
 10
731.111744622638
 20
195.5557374864402
 30
0.0
 11
731.111744622638
 21
195.9811051025399
 31
0.0
  0
ELLIPSE
  5
EA464
330
17
100
AcDbEntity
  8
1外形線
100
AcDbEllipse
 10
733.1117450517377
 20
195.9811049687405
 30
0.0
 11
0.0
 21
2.265140101378079
 31
0.0
210
0.0
220
0.0
230
1.0
 40
0.8829475929
 41
1.240693510353865
 42
1.570796326794897
  0
LINE
  5
EA465
330
17
100
AcDbEntity
  8
1外形線
100
AcDbLine
 10
736.4617450517871
 20
137.642094894285
 30
0.0
 11
754.8617450517886
 21
137.642094894285
 31
0.0
  0
LINE
  5
EA466
330
17
100
AcDbEntity
  8
1外形線
100
AcDbLine
 10
736.4617450517871
 20
136.5082694576404
 30
0.0
 11
754.8617450517886
 21
136.5082694576404
 31
0.0
  0
LINE
  5
EA467
330
17
100
AcDbEntity
  8
1外形線
100
AcDbLine
 10
754.8617450517886
 20
141.2682252388404
 30
0.0
 11
736.4617450517871
 21
141.2682252388404
 31
0.0
  0
LINE
  5
EA468
330
17
100
AcDbEntity
  8
1外形線
100
AcDbLine
 10
754.8617450517886
 20
140.6276041602405
 30
0.0
 11
736.4617450517871
 21
140.6276041602405
 31
0.0
  0
LINE
  5
EA469
330
17
100
AcDbEntity
  8
1外形線
100
AcDbLine
 10
754.8617450517886
 20
139.2521491654406
 30
0.0
 11
736.4617450517871
 21
139.2521491654406
 31
0.0
  0
LINE
  5
EA46A
330
17
100
AcDbEntity
  8
1外形線
100
AcDbLine
 10
754.8617450517886
 20
139.0019707363408
 30
0.0
 11
736.4617450517871
 21
139.0019707363408
 31
0.0
  0
LINE
  5
EA46B
330
17
100
AcDbEntity
  8
1外形線
100
AcDbLine
 10
760.2117454809376
 20
196.9454095348401
 30
0.0
 11
731.5574150709399
 21
196.9454095348401
 31
0.0
  0
LINE
  5
EA47A
330
17
100
AcDbEntity
  8
1外形線
 48
2.0
370
   200
100
AcDbLine
 10
753.1117398910464
 20
220.7669849565191
 30
0.0
 11
753.111650370698
 21
192.0731138914507
 31
0.0
  0
LINE
  5
EA47B
330
17
100
AcDbEntity
  8
1外形線
 48
2.0
370
   200
100
AcDbLine
 10
757.11172208688
 20
220.7669852491144
 30
0.0
 11
757.1116381678876
 21
192.0731138914507
 31
0.0
  0
ARC
  5
EA47C
330
17
100
AcDbEntity
  8
1外形線
 48
3.0
100
AcDbCircle
 10
755.1116442692946
 20
192.0731138914507
 30
0.0
 40
1.999993898593857
100
AcDbArc
 50
180.0
 51
0.0
  0
LINE
  5
EA47D
330
17
100
AcDbEntity
  8
1外形線
 48
2.0
370
   200
100
AcDbLine
 10
738.21175062592
 20
149.1119243550911
 30
0.0
 11
738.2118089844225
 21
177.7978823819812
 31
0.0
  0
LINE
  5
EA47E
330
17
100
AcDbEntity
  8
1外形線
 48
2.0
370
   200
100
AcDbLine
 10
734.2117678004179
 20
149.111923965369
 30
0.0
 11
734.211821187233
 21
177.7978823819812
 31
0.0
  0
ARC
  5
EA47F
330
17
100
AcDbEntity
  8
1外形線
 48
3.0
100
AcDbCircle
 10
736.2118150858296
 20
177.7978823819812
 30
0.0
 40
1.999993898593857
100
AcDbArc
 50
0.0
 51
180.0
  0
ARC
  5
EA480
330
17
100
AcDbEntity
  8
1外形線
 48
3.0
100
AcDbCircle
 10
736.2117588172877
 20
153.1751184952281
 30
0.0
 40
4.528743076730491
100
AcDbArc
 50
243.792599647416
 51
296.207400352584
  0
ARC
  5
EA481
330
17
100
AcDbEntity
  8
1外形線
 48
3.0
100
AcDbCircle
 10
755.1117312861824
 20
216.7037906128517
 30
0.0
 40
4.528743076730491
100
AcDbArc
 50
63.79259964741599
 51
116.207400352584
  0
LINE
  5
EA482
330
17
100
AcDbEntity
  8
1外形線
 48
2.0
370
   200
100
AcDbLine
 10
651.3692439439837
 20
196.9484497001249
 30
0.0
 11
651.3692439439837
 21
172.9304590279607
 31
0.0
  0
ARC
  5
EA483
330
17
100
AcDbEntity
  8
1外形線
 48
2.0
370
   200
100
AcDbCircle
 10
652.669243943983
 20
172.9304590279607
 30
0.0
 40
1.3
100
AcDbArc
 50
180.0
 51
208.0000000000178
  0
LINE
  5
EA484
330
17
100
AcDbEntity
  8
1外形線
 48
2.0
370
   200
100
AcDbLine
 10
651.169243943983
 20
192.2394543640402
 30
0.0
 11
651.169243943983
 21
177.6394543640417
 31
0.0
  0
ARC
  5
EA485
330
17
100
AcDbEntity
  8
1外形線
 48
2.0
370
   200
100
AcDbCircle
 10
651.3692439439837
 20
177.6394543640417
 30
0.0
 40
0.2
100
AcDbArc
 50
180.0
 51
270.0
  0
LINE
  5
EA486
330
17
100
AcDbEntity
  8
1外形線
 48
2.0
370
   200
100
AcDbLine
 10
652.169243943983
 20
196.9484497001249
 30
0.0
 11
652.169243943983
 21
172.9304590279571
 31
0.0
  0
ARC
  5
EA487
330
17
100
AcDbEntity
  8
1外形線
 48
2.0
370
   200
100
AcDbCircle
 10
652.669243943983
 20
172.9304590279571
 30
0.0
 40
0.5
100
AcDbArc
 50
180.0
 51
208.0000000000178
  0
LINE
  5
EA488
330
17
100
AcDbEntity
  8
1外形線
 48
2.0
370
   200
100
AcDbLine
 10
653.1692439439829
 20
178.7978760905753
 30
0.0
 11
653.1692439439829
 21
173.0551230293786
 31
0.0
  0
ARC
  5
EA489
330
17
100
AcDbEntity
  8
1外形線
 48
2.0
370
   200
100
AcDbCircle
 10
652.169243943983
 20
178.7978760905753
 30
0.0
 40
1.0
100
AcDbArc
 50
0.0
 51
90.0
  0
LINE
  5
EA48A
330
17
100
AcDbEntity
  8
1外形線
 48
5.0
100
AcDbLine
 10
672.5284108107298
 20
223.4478907116245
 30
0.0
 11
664.040645020068
 21
222.255011519097
 31
0.0
  0
ARC
  5
EA48B
330
17
100
AcDbEntity
  8
1外形線
 48
5.0
100
AcDbCircle
 10
664.3189915660295
 20
220.2744754299638
 30
0.0
 40
2.0
100
AcDbArc
 50
98.00000995281642
 51
151.7965790191086
  0
ARC
  5
EA48C
330
17
100
AcDbEntity
  8
1外形線
 48
5.0
100
AcDbCircle
 10
672.3892375377472
 20
224.4381587561911
 30
0.0
 40
1.0
100
AcDbArc
 50
278.0000234272927
 51
322.9999529842609
  0
LINE
  5
EA48D
330
17
100
AcDbEntity
  8
1外形線
 48
5.0
100
AcDbLine
 10
663.9293054352711
 20
223.0472233224828
 30
0.0
 11
672.4168685614094
 21
224.2400725288171
 31
0.0
  0
ARC
  5
EA48E
330
17
100
AcDbEntity
  8
1外形線
 48
5.0
100
AcDbCircle
 10
664.3189901179539
 20
220.2744727300087
 30
0.0
 40
2.799999999999999
100
AcDbArc
 50
97.99999999982977
 51
151.796579021721
  0
ARC
  5
EA48F
330
17
100
AcDbEntity
  8
1外形線
 48
5.0
100
AcDbCircle
 10
672.3892397253185
 20
224.4381549546306
 30
0.0
 40
0.2
100
AcDbArc
 50
278.000000000037
 51
323.0000000000469
  0
LINE
  5
EA490
330
17
100
AcDbEntity
  8
1外形線
 48
5.0
100
AcDbLine
 10
672.5489668273257
 20
224.3177919500013
 30
0.0
 11
675.5081859541641
 21
228.2448083683048
 31
0.0
  0
LINE
  5
EA491
330
17
100
AcDbEntity
  8
1外形線
 48
5.0
100
AcDbLine
 10
675.5081859541641
 20
228.2448083683048
 30
0.0
 11
676.1470943622007
 21
227.7633563497839
 31
0.0
  0
LINE
  5
EA492
330
17
100
AcDbEntity
  8
1外形線
 48
5.0
100
AcDbLine
 10
676.1470943622007
 20
227.7633563497839
 30
0.0
 11
673.1878725539608
 21
223.8363430776953
 31
0.0
  0
LINE
  5
EA493
330
17
100
AcDbEntity
  8
1外形線
 48
2.0
370
   200
100
AcDbLine
 10
660.861283837552
 20
218.0586804776103
 30
0.0
 11
661.0238065930279
 21
218.3617406849698
 31
0.0
  0
ARC
  5
EA494
330
17
100
AcDbEntity
  8
1外形線
 48
2.0
370
   200
100
AcDbCircle
 10
659.4512434603566
 20
218.8148458925061
 30
0.0
 40
1.6
100
AcDbArc
 50
246.7965790214544
 51
331.7965790214373
  0
LINE
  5
EA495
330
17
100
AcDbEntity
  8
1外形線
 48
2.0
370
   200
100
AcDbLine
 10
657.4415994817391
 20
213.3746616780336
 30
0.0
 11
659.4985167613304
 21
217.2102462728799
 31
0.0
  0
ARC
  5
EA496
330
17
100
AcDbEntity
  8
1外形線
 48
2.0
370
   200
100
AcDbCircle
 10
661.8479756604719
 20
211.0116447564906
 30
0.0
 40
5.0
100
AcDbArc
 50
151.796579021721
 51
188.0000000000436
  0
LINE
  5
EA497
330
17
100
AcDbEntity
  8
1外形線
 48
3.0
100
AcDbLine
 10
661.5491368448202
 20
221.0340883308527
 30
0.0
 11
661.8514194578637
 21
221.5977622060709
 31
0.0
  0
LINE
  5
EA498
330
17
100
AcDbEntity
  8
1外形線
 48
3.0
100
AcDbLine
 10
661.0238065930279
 20
218.3617406849698
 30
0.0
 11
662.5564410945771
 21
221.2196821986581
 31
0.0
  0
LINE
  5
EA499
330
17
100
AcDbEntity
  8
1外形線
 48
3.0
100
AcDbLine
 10
661.5491368448202
 20
221.0340883308527
 30
0.0
 11
661.8514209059976
 21
221.5977649061388
 31
0.0
  0
LINE
  5
EA49A
330
17
100
AcDbEntity
  8
1外形線
 48
3.0
100
AcDbLine
 10
651.5214120732671
 20
197.5587627317472
 30
0.0
 11
653.6698571412089
 21
201.5994002303669
 31
0.0
  0
ARC
  5
EA49B
330
17
100
AcDbEntity
  8
1外形線
 48
3.0
100
AcDbCircle
 10
652.669243943983
 20
196.9484497001249
 30
0.0
 40
1.3
100
AcDbArc
 50
151.9999999999821
 51
180.0
  0
LINE
  5
EA49C
330
17
100
AcDbEntity
  8
1外形線
 48
3.0
100
AcDbLine
 10
652.2277701475577
 20
197.1831854815173
 30
0.0
 11
654.3762152154958
 21
201.2238229801369
 31
0.0
  0
LINE
  5
EA49D
330
17
100
AcDbEntity
  8
1外形線
 48
3.0
100
AcDbLine
 10
653.6698571412089
 20
201.5994002303669
 30
0.0
 11
656.5502806262775
 21
207.0166889101419
 31
0.0
  0
ARC
  5
EA49E
330
17
100
AcDbEntity
  8
1外形線
 48
3.0
100
AcDbCircle
 10
652.8419007362717
 20
208.988469473843
 30
0.0
 40
4.2
100
AcDbArc
 50
331.9999999999821
 51
8.00000000004371
  0
LINE
  5
EA49F
330
17
100
AcDbEntity
  8
1外形線
 48
3.0
100
AcDbLine
 10
654.3762152154958
 20
201.2238229801369
 30
0.0
 11
657.2566387005681
 21
206.641111659912
 31
0.0
  0
ARC
  5
EA4A0
330
17
100
AcDbEntity
  8
1外形線
 48
3.0
100
AcDbCircle
 10
652.8419007362717
 20
208.988469473843
 30
0.0
 40
5.0
100
AcDbArc
 50
331.9999999999821
 51
8.00000000004371
  0
LINE
  5
EA4A1
330
17
100
AcDbEntity
  8
1外形線
 48
3.0
100
AcDbLine
 10
656.8966353167634
 20
210.3157792516904
 30
0.0
 11
657.0010266249846
 21
209.5729964978746
 31
0.0
  0
LINE
  5
EA4A2
330
17
100
AcDbEntity
  8
1外形線
 48
3.0
100
AcDbLine
 10
657.6888497717554
 20
210.427117732459
 30
0.0
 11
657.7932410799803
 21
209.6843349786432
 31
0.0
  0
ARC
  5
EA4A3
330
17
100
AcDbEntity
  8
1外形線
 48
3.0
100
AcDbCircle
 10
661.8479756604719
 20
211.0116447564906
 30
0.0
 40
4.2
100
AcDbArc
 50
151.796579021721
 51
188.0000000000436
  0
LINE
  5
EA4A4
330
17
100
AcDbEntity
  8
1外形線
 48
2.0
370
   200
100
AcDbLine
 10
658.1466196703368
 20
156.8823297574927
 30
0.0
 11
661.0238065930279
 21
151.5171680431121
 31
0.0
  0
LINE
  5
EA4A5
330
17
100
AcDbEntity
  8
1外形線
 48
2.0
370
   200
100
AcDbLine
 10
659.0278949060848
 20
157.3549331418035
 30
0.0
 11
661.905081828776
 21
151.9897714274229
 31
0.0
  0
LINE
  5
EA4A6
330
17
100
AcDbEntity
  8
1外形線
 48
2.0
370
   200
100
AcDbLine
 10
659.8964269205607
 20
151.9266695258629
 30
0.0
 11
660.318786404423
 21
151.1390853356788
 31
0.0
  0
ARC
  5
EA4A7
330
17
100
AcDbEntity
  8
1外形線
 48
2.0
370
   200
100
AcDbCircle
 10
659.7201718734104
 20
151.8321488490037
 30
0.0
 40
0.2
100
AcDbArc
 50
28.20342097827897
 51
113.2034209785455
  0
ARC
  5
EA4A8
330
17
100
AcDbEntity
  8
1外形線
 48
2.0
370
   200
100
AcDbCircle
 10
661.8479756604719
 20
158.8672639715914
 30
0.0
 40
5.0
100
AcDbArc
 50
171.9999999999563
 51
208.2034209782789
  0
LINE
  5
EA4A9
330
17
100
AcDbEntity
  8
1外形線
 48
3.0
100
AcDbLine
 10
660.318786404423
 20
151.1390853356788
 30
0.0
 11
661.8514194578637
 21
148.2811465220111
 31
0.0
  0
ARC
  5
EA4AA
330
17
100
AcDbEntity
  8
1外形線
 48
3.0
100
AcDbCircle
 10
664.3189901179539
 20
149.6044359980733
 30
0.0
 40
2.799999999999999
100
AcDbArc
 50
208.2034209782789
 51
262.0000000001702
  0
LINE
  5
EA4AB
330
17
100
AcDbEntity
  8
1外形線
 48
3.0
100
AcDbLine
 10
661.0238065930279
 20
151.5171680431121
 30
0.0
 11
662.5564410945807
 21
148.6592265294239
 31
0.0
  0
ARC
  5
EA4AC
330
17
100
AcDbEntity
  8
1外形線
 48
3.0
100
AcDbCircle
 10
664.3189915660295
 20
149.6044332981182
 30
0.0
 40
2.0
100
AcDbArc
 50
208.2034209808914
 51
261.9999900471835
  0
LINE
  5
EA4AD
330
17
100
AcDbEntity
  8
1外形線
 48
3.0
100
AcDbLine
 10
661.9050818287542
 20
151.9897714274593
 30
0.0
 11
662.9720027409821
 21
150.000252776008
 31
0.0
  0
ARC
  5
EA4AE
330
17
100
AcDbEntity
  8
1外形線
 48
3.0
100
AcDbCircle
 10
662.0907275052559
 20
149.5276493916608
 30
0.0
 40
1.0
100
AcDbArc
 50
298.2034209808916
 51
28.20342098089141
  0
LINE
  5
EA4AF
330
17
100
AcDbEntity
  8
1外形線
 48
3.0
100
AcDbLine
 10
651.5214120732671
 20
172.3201459963384
 30
0.0
 11
653.6698571412089
 21
168.2795084977151
 31
0.0
  0
LINE
  5
EA4B0
330
17
100
AcDbEntity
  8
1外形線
 48
3.0
100
AcDbLine
 10
652.2277701475577
 20
172.6957232465647
 30
0.0
 11
654.3762152154958
 21
168.6550857479451
 31
0.0
  0
LINE
  5
EA4B1
330
17
100
AcDbEntity
  8
1外形線
 48
3.0
100
AcDbLine
 10
653.1692439439829
 20
173.0551230293786
 30
0.0
 11
655.2591628083574
 21
169.1245573107299
 31
0.0
  0
LINE
  5
EA4B2
330
17
100
AcDbEntity
  8
1外形線
 48
3.0
100
AcDbLine
 10
653.6698571412089
 20
168.2795084977151
 30
0.0
 11
656.5502806262775
 21
162.86221981794
 31
0.0
  0
ARC
  5
EA4B3
330
17
100
AcDbEntity
  8
1外形線
 48
3.0
100
AcDbCircle
 10
652.8419007362717
 20
160.890439254239
 30
0.0
 40
4.2
100
AcDbArc
 50
351.9999999999563
 51
28.00000000001787
  0
LINE
  5
EA4B4
330
17
100
AcDbEntity
  8
1外形線
 48
3.0
100
AcDbLine
 10
654.3762152154958
 20
168.6550857479451
 30
0.0
 11
657.2566387005681
 21
163.23779706817
 31
0.0
  0
LINE
  5
EA4B5
330
17
100
AcDbEntity
  8
1外形線
 48
3.0
100
AcDbLine
 10
655.2591628083574
 20
169.1245573107299
 30
0.0
 11
658.1395862934259
 21
163.7072686309548
 31
0.0
  0
ARC
  5
EA4B6
330
17
100
AcDbEntity
  8
1外形線
 48
3.0
100
AcDbCircle
 10
652.8419007362717
 20
160.890439254239
 30
0.0
 40
5.0
100
AcDbArc
 50
351.9999999999563
 51
28.00000000001787
  0
ARC
  5
EA4B7
330
17
100
AcDbEntity
  8
1外形線
 48
3.0
100
AcDbCircle
 10
652.8419007362717
 20
160.890439254239
 30
0.0
 40
6.0
100
AcDbArc
 50
351.9999999999563
 51
28.00000000001787
  0
LINE
  5
EA4B8
330
17
100
AcDbEntity
  8
1外形線
 48
3.0
100
AcDbLine
 10
656.8966353167634
 20
159.5631294763916
 30
0.0
 11
657.0010266249846
 21
160.3059122302074
 31
0.0
  0
LINE
  5
EA4B9
330
17
100
AcDbEntity
  8
1外形線
 48
3.0
100
AcDbLine
 10
657.6888497717554
 20
159.451790995623
 30
0.0
 11
657.7932410799803
 21
160.1945737494388
 31
0.0
  0
LINE
  5
EA4BA
330
17
100
AcDbEntity
  8
1外形線
 48
3.0
100
AcDbLine
 10
658.6791178405
 20
159.3126178946622
 30
0.0
 11
658.7835091487213
 21
160.0554006484781
 31
0.0
  0
ARC
  5
EA4BB
330
17
100
AcDbEntity
  8
1外形線
 48
3.0
100
AcDbCircle
 10
661.8479756604683
 20
158.8672639715914
 30
0.0
 40
4.2
100
AcDbArc
 50
171.9999999999563
 51
208.2034209782789
  0
ARC
  5
EA4BC
330
17
100
AcDbEntity
  8
1外形線
 48
3.0
100
AcDbCircle
 10
661.8479756604683
 20
158.8672639715914
 30
0.0
 40
3.2
100
AcDbArc
 50
171.9999999999563
 51
208.2034209782789
  0
LINE
  5
EA4BD
330
17
100
AcDbEntity
  8
1外形線
 48
3.0
100
AcDbLine
 10
653.8187471147685
 20
201.8794215440612
 30
0.0
 11
654.5251051890554
 21
201.5038442938312
 31
0.0
  0
LINE
  5
EA4BE
330
17
100
AcDbEntity
  8
1外形線
 48
3.0
100
AcDbLine
 10
652.169243943983
 20
179.7978760905753
 30
0.0
 11
652.169243943983
 21
179.7978760905753
 31
0.0
  0
LINE
  5
EA4BF
330
17
100
AcDbEntity
  8
1外形線
 48
2.0
370
   200
100
AcDbLine
 10
653.1692439439829
 20
191.0810326375067
 30
0.0
 11
653.1692439439829
 21
196.8237856987034
 31
0.0
  0
ARC
  5
EA4C0
330
17
100
AcDbEntity
  8
1外形線
 48
2.0
370
   200
100
AcDbCircle
 10
652.169243943983
 20
191.0810326375067
 30
0.0
 40
1.0
100
AcDbArc
 50
270.0
 51
0.0
  0
LINE
  5
EA4C1
330
17
100
AcDbEntity
  8
1外形線
 48
2.0
370
   200
100
AcDbLine
 10
659.0278949060848
 20
212.5239755862785
 30
0.0
 11
661.905081828776
 21
217.8891373006591
 31
0.0
  0
LINE
  5
EA4C2
330
17
100
AcDbEntity
  8
1外形線
 48
3.0
100
AcDbLine
 10
661.9050818287542
 20
217.8891373006227
 30
0.0
 11
662.9720027409821
 21
219.878655952074
 31
0.0
  0
ARC
  5
EA4C3
330
17
100
AcDbEntity
  8
1外形線
 48
3.0
100
AcDbCircle
 10
662.0907275052559
 20
220.3512593364212
 30
0.0
 40
1.0
100
AcDbArc
 50
331.7965790191085
 51
61.79657901910839
  0
LINE
  5
EA4C4
330
17
100
AcDbEntity
  8
1外形線
 48
3.0
100
AcDbLine
 10
653.1692439439829
 20
196.8237856987034
 30
0.0
 11
655.2591628083574
 21
200.7543514173522
 31
0.0
  0
LINE
  5
EA4C5
330
17
100
AcDbEntity
  8
1外形線
 48
3.0
100
AcDbLine
 10
655.2591628083574
 20
200.7543514173522
 30
0.0
 11
658.1395862934259
 21
206.1716400971272
 31
0.0
  0
ARC
  5
EA4C6
330
17
100
AcDbEntity
  8
1外形線
 48
3.0
100
AcDbCircle
 10
652.8419007362717
 20
208.988469473843
 30
0.0
 40
6.0
100
AcDbArc
 50
331.9999999999821
 51
8.00000000004371
  0
ARC
  5
EA4C7
330
17
100
AcDbEntity
  8
1外形線
 48
3.0
100
AcDbCircle
 10
661.8479756604683
 20
211.0116447564906
 30
0.0
 40
3.2
100
AcDbArc
 50
151.796579021721
 51
188.0000000000436
  0
LINE
  5
EA4C8
330
17
100
AcDbEntity
  8
1外形線
 48
3.0
100
AcDbLine
 10
658.6791178405
 20
210.5662908334198
 30
0.0
 11
658.7835091487213
 21
209.8235080796039
 31
0.0
  0
LINE
  5
EA4C9
330
17
100
AcDbEntity
  8
1外形線
 48
3.0
100
AcDbLine
 10
651.3692439439837
 20
192.439454364041
 30
0.0
 11
651.3692439439837
 21
192.439454364041
 31
0.0
  0
ARC
  5
EA4CA
330
17
100
AcDbEntity
  8
1外形線
 48
3.0
100
AcDbCircle
 10
651.3692439439837
 20
192.2394543640402
 30
0.0
 40
0.2
100
AcDbArc
 50
90.0
 51
180.0
  0
LINE
  5
EA4CB
330
17
100
AcDbEntity
  8
1外形線
 48
3.0
100
AcDbLine
 10
651.3692439439837
 20
177.439454364041
 30
0.0
 11
651.3692439439837
 21
177.439454364041
 31
0.0
  0
LINE
  5
EA4CC
330
17
100
AcDbEntity
  8
1外形線
 48
5.0
100
AcDbLine
 10
672.5284108107298
 20
146.4310180164575
 30
0.0
 11
664.040645020068
 21
147.623897208985
 31
0.0
  0
ARC
  5
EA4CD
330
17
100
AcDbEntity
  8
1外形線
 48
5.0
100
AcDbCircle
 10
672.3892375377472
 20
145.4407499718909
 30
0.0
 40
1.0
100
AcDbArc
 50
37.00004701573905
 51
81.99997657270733
  0
LINE
  5
EA4CE
330
17
100
AcDbEntity
  8
1外形線
 48
5.0
100
AcDbLine
 10
663.9293054352711
 20
146.8316854055992
 30
0.0
 11
672.4168685614094
 21
145.6388361992649
 31
0.0
  0
ARC
  5
EA4CF
330
17
100
AcDbEntity
  8
1外形線
 48
5.0
100
AcDbCircle
 10
672.3892397253185
 20
145.4407537734514
 30
0.0
 40
0.2
100
AcDbArc
 50
36.99999999995303
 51
81.99999999996304
  0
LINE
  5
EA4D0
330
17
100
AcDbEntity
  8
1外形線
 48
5.0
100
AcDbLine
 10
672.5489668273257
 20
145.5611167780807
 30
0.0
 11
675.5081859541641
 21
141.6341003597772
 31
0.0
  0
LINE
  5
EA4D1
330
17
100
AcDbEntity
  8
1外形線
 48
5.0
100
AcDbLine
 10
675.5081859541641
 20
141.6341003597772
 30
0.0
 11
676.1470943622007
 21
142.1155523782981
 31
0.0
  0
LINE
  5
EA4D2
330
17
100
AcDbEntity
  8
1外形線
 48
5.0
100
AcDbLine
 10
676.1470943622007
 20
142.1155523782981
 30
0.0
 11
673.1878725539608
 21
146.0425656503867
 31
0.0
  0
LINE
  5
EA4D3
330
17
100
AcDbEntity
  8
1外形線
 48
3.0
100
AcDbLine
 10
656.6624197332749
 20
218.2695233319064
 30
0.0
 11
658.8208485995383
 21
217.344266986278
 31
0.0
  0
LINE
  5
EA4D4
330
17
100
AcDbEntity
  8
1外形線
 48
3.0
100
AcDbLine
 10
660.8583954085079
 20
218.0532943524413
 30
0.0
 11
658.1466196703368
 21
212.9965789705893
 31
0.0
  0
LINE
  5
EA4D5
330
17
100
AcDbEntity
  8
1外形線
 48
3.0
100
AcDbLine
 10
656.6624197332749
 20
218.2695233319064
 30
0.0
 11
658.5918494465841
 21
220.3073876447961
 31
0.0
  0
LINE
  5
EA4D6
330
17
100
AcDbEntity
  8
1外形線
 48
3.0
100
AcDbLine
 10
662.513993761906
 20
221.1405296061311
 30
0.0
 11
662.2541570335052
 21
220.6560056233211
 31
0.0
  0
ARC
  5
EA4D7
330
17
100
AcDbEntity
  8
1外形線
 48
3.0
100
AcDbCircle
 10
661.3728817977789
 20
221.1286090076683
 30
0.0
 40
1.0
100
AcDbArc
 50
246.7965790214544
 51
331.7965790191085
  0
LINE
  5
EA4D8
330
17
100
AcDbEntity
  8
1外形線
 48
3.0
100
AcDbLine
 10
661.1850709633909
 20
220.9915167276522
 30
0.0
 11
661.2940824400684
 21
220.9447866444352
 31
0.0
  0
ARC
  5
EA4D9
330
17
100
AcDbEntity
  8
1外形線
 48
3.0
100
AcDbCircle
 10
661.3728817976698
 20
221.1286090077156
 30
0.0
 40
0.2
100
AcDbArc
 50
246.7965790214544
 51
331.796579021721
  0
LINE
  5
EA4DA
330
17
100
AcDbEntity
  8
1外形線
 48
3.0
100
AcDbLine
 10
658.5657186673124
 20
219.8420349695189
 30
0.0
 11
656.6624197332749
 21
218.2695233319064
 31
0.0
  0
ARC
  5
EA4DB
330
17
100
AcDbEntity
  8
1外形線
 48
2.0
370
   200
100
AcDbCircle
 10
659.4512434603566
 20
151.0640628355759
 30
0.0
 40
1.6
100
AcDbArc
 50
88.20342097844894
 51
113.2034209785455
  0
LINE
  5
EA4DC
330
17
100
AcDbEntity
  8
1外形線
 48
3.0
100
AcDbLine
 10
656.4785973698636
 20
151.5305860385197
 30
0.0
 11
658.8208485995383
 21
152.5346417418041
 31
0.0
  0
LINE
  5
EA4DD
330
17
100
AcDbEntity
  8
1外形線
 48
3.0
100
AcDbLine
 10
657.0647797335732
 20
150.9114600286484
 30
0.0
 11
659.641372515809
 21
152.0159712122804
 31
0.0
  0
LINE
  5
EA4DE
330
17
100
AcDbEntity
  8
1外形線
 48
3.0
100
AcDbLine
 10
656.4785973698636
 20
151.5305860385197
 30
0.0
 11
658.4080270833074
 21
149.4927217256845
 31
0.0
  0
LINE
  5
EA4DF
330
17
100
AcDbEntity
  8
1外形線
 48
3.0
100
AcDbLine
 10
661.1850709633909
 20
148.8873920004298
 30
0.0
 11
661.2940824400684
 21
148.9341220836468
 31
0.0
  0
ARC
  5
EA4E0
330
17
100
AcDbEntity
  8
1外形線
 48
3.0
100
AcDbCircle
 10
661.3728817976698
 20
148.7502997203664
 30
0.0
 40
0.2
100
AcDbArc
 50
28.20342097827897
 51
113.2034209785455
  0
LINE
  5
EA4E1
330
17
100
AcDbEntity
  8
1外形線
 48
3.0
100
AcDbLine
 10
657.4415994817391
 20
156.5042470500484
 30
0.0
 11
659.8964269205607
 21
151.9266695258629
 31
0.0
  0
ARC
  5
EA4E2
330
17
100
AcDbEntity
  8
1外形線
 48
3.0
100
AcDbCircle
 10
661.140377056563
 20
155.355076124164
 30
0.0
 40
6.467838546974923
100
AcDbArc
 50
245.0105236932731
 51
270.3959271080733
  0
ARC
  5
EA4E3
330
17
100
AcDbEntity
  8
1外形線
 48
3.0
100
AcDbCircle
 10
660.9230714648329
 20
216.7277124914908
 30
0.0
 40
4.271846240392637
100
AcDbArc
 50
86.48374689820711
 51
123.0737210020418
  0
ARC
  5
EA4E4
330
17
100
AcDbEntity
  8
1外形線
 48
3.0
100
AcDbCircle
 10
660.3028468543307
 20
216.5416164196504
 30
0.0
 40
3.72966177319717
100
AcDbArc
 50
79.55684543170878
 51
117.7594350008377
  0
ARC
  5
EA4E5
330
17
100
AcDbEntity
  8
1外形線
 48
3.0
100
AcDbCircle
 10
652.669243943983
 20
196.9484497001249
 30
0.0
 40
0.5
100
AcDbArc
 50
151.9999999999821
 51
180.0
  0
LINE
  5
EA4E6
330
17
100
AcDbEntity
  8
1外形線
  6
Continuous
370
    15
100
AcDbLine
 10
581.7793762551882
 20
171.0966610325322
 30
0.0
 11
584.1575069294195
 21
173.6604538326337
 31
0.0
  0
SPLINE
  5
EA4E7
330
17
100
AcDbEntity
  8
1外形線
  6
Continuous
370
    15
100
AcDbSpline
210
0.0
220
0.0
230
1.0
 70
     8
 71
     3
 72
    12
 73
     8
 74
     0
 42
0.000000001
 43
0.0000000001
 40
0.0
 40
0.0
 40
0.0
 40
0.0
 40
0.2500000000000018
 40
0.2500000000000018
 40
0.5000000000000037
 40
0.5000000000000037
 40
1.0
 40
1.0
 40
1.0
 40
1.0
 10
584.1575069294667
 20
173.6604538326628
 30
0.0
 10
584.2005805988701
 20
173.7068902899573
 30
0.0
 10
584.2482003576697
 20
173.7410790562317
 30
0.0
 10
584.346884705319
 20
173.791234808139
 30
0.0
 10
584.3984349293496
 20
173.8070621698043
 30
0.0
 10
584.5498273794655
 20
173.8300889372331
 30
0.0
 10
584.6483011230048
 20
173.8141885951882
 30
0.0
 10
584.7353934218189
 20
173.7735767892827
 30
0.0
  0
LINE
  5
EA4E8
330
17
100
AcDbEntity
  8
1外形線
  6
Continuous
370
    15
100
AcDbLine
 10
584.7353934218189
 20
173.7735767892354
 30
0.0
 11
585.3115492644174
 21
173.5049109075353
 31
0.0
  0
LINE
  5
EA4E9
330
17
100
AcDbEntity
  8
1外形線
  6
Continuous
370
    15
100
AcDbLine
 10
597.6909263109192
 20
138.5506236581332
 30
0.0
 11
597.351404454268
 21
137.7449917073081
 31
0.0
  0
ARC
  5
EA4EA
330
17
100
AcDbEntity
  8
1外形線
  6
Continuous
370
    15
100
AcDbCircle
 10
597.2592535380754
 20
137.7838273693323
 30
0.0
 40
0.1
100
AcDbArc
 50
221.2992396348106
 51
337.1477179053189
  0
ARC
  5
EA4EB
330
17
100
AcDbEntity
  8
1外形線
  6
Continuous
370
    15
100
AcDbCircle
 10
589.2039649682192
 20
144.273625114034
 30
0.0
 40
0.3000000000000035
100
AcDbArc
 50
25.99965456168702
 51
134.198340294287
  0
LINE
  5
EA4EC
330
17
100
AcDbEntity
  8
1外形線
  6
Continuous
370
    15
100
AcDbLine
 10
588.9948216675183
 20
144.4887043547332
 30
0.0
 11
588.3680429172564
 21
143.8792239781032
 31
0.0
  0
ARC
  5
EA4ED
330
17
100
AcDbEntity
  8
1外形線
  6
Continuous
370
    15
100
AcDbCircle
 10
588.2983284836955
 20
143.9509170583369
 30
0.0
 40
0.1
100
AcDbArc
 50
198.3498620252835
 51
314.1983402966086
  0
ARC
  5
EA4EE
330
17
100
AcDbEntity
  8
1外形線
  6
Continuous
370
    15
100
AcDbCircle
 10
582.3155938846175
 20
156.4249232750353
 30
0.0
 40
0.3000000000000224
100
AcDbArc
 50
355.4004844146714
 51
103.5991701471841
  0
LINE
  5
EA4EF
330
17
100
AcDbEntity
  8
1外形線
  6
Continuous
370
    15
100
AcDbLine
 10
582.2450554739189
 20
156.716512596935
 30
0.0
 11
581.3953128853317
 21
156.5109512570889
 31
0.0
  0
ARC
  5
EA4F0
330
17
100
AcDbEntity
  8
1外形線
  6
Continuous
370
    15
100
AcDbCircle
 10
581.3718000817716
 20
156.6081476977069
 30
0.0
 40
0.1
100
AcDbArc
 50
167.7506918778948
 51
283.5991701514831
  0
LINE
  5
EA4F1
330
17
100
AcDbEntity
  8
1外形線
  6
Continuous
370
    15
100
AcDbLine
 10
581.2740767149189
 20
156.6293642848595
 30
0.0
 11
581.9698758664162
 21
159.8342075165346
 31
0.0
  0
ARC
  5
EA4F2
330
17
100
AcDbEntity
  8
1外形線
  6
Continuous
370
    15
100
AcDbCircle
 10
581.676705765818
 20
159.8978572779342
 30
0.0
 40
0.300000000000024
100
AcDbArc
 50
347.7506918777943
 51
95.94937761019719
  0
LINE
  5
EA4F3
330
17
100
AcDbEntity
  8
1外形線
  6
Continuous
370
    15
100
AcDbLine
 10
581.6456108453166
 20
160.1962414362333
 30
0.0
 11
580.7760669077469
 21
160.1056253665229
 31
0.0
  0
ARC
  5
EA4F4
330
17
100
AcDbEntity
  8
1外形線
  6
Continuous
370
    15
100
AcDbCircle
 10
580.765701934215
 20
160.2050867526159
 30
0.0
 40
0.1
100
AcDbArc
 50
160.1008993404304
 51
275.9493776122929
  0
LINE
  5
EA4F5
330
17
100
AcDbEntity
  8
1外形線
  6
Continuous
370
    15
100
AcDbLine
 10
580.6716725872502
 20
160.239123231715
 30
0.0
 11
581.787900805517
 21
163.3228208763339
 31
0.0
  0
ARC
  5
EA4F6
330
17
100
AcDbEntity
  8
1外形線
  6
Continuous
370
    15
100
AcDbCircle
 10
581.5058127646189
 20
163.424930313633
 30
0.0
 40
0.3000000000000002
100
AcDbArc
 50
340.1008993409919
 51
88.29958507364525
  0
ARC
  5
EA4F7
330
17
100
AcDbEntity
  8
1外形線
  6
Continuous
370
    15
100
AcDbCircle
 10
581.8059566979172
 20
166.9433621001353
 30
0.0
 40
0.3000000000000032
100
AcDbArc
 50
332.4511068042716
 51
80.6497925368964
  0
LINE
  5
EA4F8
330
17
100
AcDbEntity
  8
1外形線
  6
Continuous
370
    15
100
AcDbLine
 10
604.2214892964548
 20
135.7658729819832
 30
0.0
 11
601.4836381347195
 21
137.5712337807345
 31
0.0
  0
LINE
  5
EA4F9
330
17
100
AcDbEntity
  8
1外形線
  6
Continuous
370
    15
100
AcDbLine
 10
583.8851899819637
 20
149.8090493843665
 30
0.0
 11
583.7106801731169
 21
153.0839086064352
 31
0.0
  0
LINE
  5
EA4FA
330
17
100
AcDbEntity
  8
1外形線
  6
Continuous
370
    15
100
AcDbLine
 10
594.5358147154183
 20
140.1359051720337
 30
0.0
 11
594.0920706129218
 21
139.3826395464402
 31
0.0
  0
ARC
  5
EA4FB
330
17
100
AcDbEntity
  8
1外形線
  6
Continuous
370
    15
100
AcDbCircle
 10
594.0059095346915
 20
139.4333965025944
 30
0.0
 40
0.1
100
AcDbArc
 50
213.6494470996281
 51
329.4979253656507
  0
ARC
  5
EA4FC
330
17
100
AcDbEntity
  8
1外形線
  6
Continuous
370
    15
100
AcDbCircle
 10
608.3140940469165
 20
136.4738171169356
 30
0.0
 40
0.3000000000000211
100
AcDbArc
 50
71.89840978238618
 51
180.0970955148407
  0
LINE
  5
EA4FD
330
17
100
AcDbEntity
  8
1外形線
  6
Continuous
370
    15
100
AcDbLine
 10
611.5244982202348
 20
135.7400176602132
 30
0.0
 11
608.4073048901191
 21
136.758969249533
 31
0.0
  0
ARC
  5
EA4FE
330
17
100
AcDbEntity
  8
1外形線
  6
Continuous
370
    15
100
AcDbCircle
 10
611.5555685012987
 20
135.8350683710705
 30
0.0
 40
0.1
100
AcDbArc
 50
251.8984097823862
 51
7.746888051373312
  0
LINE
  5
EA4FF
330
17
100
AcDbEntity
  8
1外形線
  6
Continuous
370
    15
100
AcDbLine
 10
588.2034132972767
 20
143.9194352002687
 30
0.0
 11
587.1709640173175
 21
147.0321839988337
 31
0.0
  0
ARC
  5
EA500
330
17
100
AcDbEntity
  8
1外形線
  6
Continuous
370
    15
100
AcDbCircle
 10
582.5717951413171
 20
170.3905261657346
 30
0.0
 40
0.3000000000000267
100
AcDbArc
 50
324.8013142674659
 51
72.99999999997075
  0
LINE
  5
EA501
330
17
100
AcDbEntity
  8
1外形線
  6
Continuous
370
    15
100
AcDbLine
 10
580.9265910733993
 20
167.5377275094452
 30
0.0
 11
582.8169425775195
 21
170.2176020941351
 31
0.0
  0
LINE
  5
EA502
330
17
100
AcDbEntity
  8
1外形線
  6
Continuous
370
    15
100
AcDbLine
 10
581.8546972558179
 20
167.2393762180345
 30
0.0
 11
580.9920600328187
 21
167.3814147795892
 31
0.0
  0
ARC
  5
EA503
330
17
100
AcDbEntity
  8
1外形線
  6
Continuous
370
    15
100
AcDbCircle
 10
581.008306885451
 20
167.4800861522344
 30
0.0
 40
0.1
100
AcDbArc
 50
144.801314267218
 51
260.6497925379526
  0
LINE
  5
EA504
330
17
100
AcDbEntity
  8
1外形線
  6
Continuous
370
    15
100
AcDbLine
 10
618.5755059519469
 20
137.642094894285
 30
0.0
 11
615.2999212979193
 21
137.8024126186337
 31
0.0
  0
ARC
  5
EA505
330
17
100
AcDbEntity
  8
1外形線
  6
Continuous
370
    15
100
AcDbCircle
 10
618.5803944243816
 20
137.7419753370031
 30
0.0
 40
0.1
100
AcDbArc
 50
267.1979948572014
 51
23.0464731273131
  0
ARC
  5
EA506
330
17
100
AcDbEntity
  8
1外形線
  6
Continuous
370
    15
100
AcDbCircle
 10
591.8557248353172
 20
141.9417550009329
 30
0.0
 40
0.3000000000000092
100
AcDbArc
 50
33.64944709850071
 51
141.8481328310144
  0
LINE
  5
EA507
330
17
100
AcDbEntity
  8
1外形線
  6
Continuous
370
    15
100
AcDbLine
 10
593.9226652001379
 20
139.3779854859604
 30
0.0
 11
592.1054578389194
 21
142.107988050835
 31
0.0
  0
LINE
  5
EA508
330
17
100
AcDbEntity
  8
1外形線
  6
Continuous
370
    15
100
AcDbLine
 10
621.8486402222479
 20
139.279117323922
 30
0.0
 11
618.5808663856187
 21
139.0019697988337
 31
0.0
  0
LINE
  5
EA509
330
17
100
AcDbEntity
  8
1外形線
  6
Continuous
370
    15
100
AcDbLine
 10
621.4798833115164
 20
140.1815656158342
 30
0.0
 11
621.9261778831314
 21
139.4298082835194
 31
0.0
  0
ARC
  5
EA50A
330
17
100
AcDbEntity
  8
1外形線
  6
Continuous
370
    15
100
AcDbCircle
 10
621.84018932861
 20
139.3787595960584
 30
0.0
 40
0.1
100
AcDbArc
 50
274.8477873925072
 51
30.6962656576073
  0
ARC
  5
EA50B
330
17
100
AcDbEntity
  8
1外形線
  6
Continuous
370
    15
100
AcDbCircle
 10
621.7378489751172
 20
140.3347116782333
 30
0.0
 40
0.3000000000000032
100
AcDbArc
 50
102.4975799294872
 51
210.696265662096
  0
LINE
  5
EA50C
330
17
100
AcDbEntity
  8
1外形線
  6
Continuous
370
    15
100
AcDbLine
 10
624.874727606133
 20
141.3372828985102
 30
0.0
 11
621.6729294620163
 21
140.6276032227342
 31
0.0
  0
ARC
  5
EA50D
330
17
100
AcDbEntity
  8
1外形線
  6
Continuous
370
    15
100
AcDbCircle
 10
624.853087768457
 20
141.4349134133372
 30
0.0
 40
0.1
100
AcDbArc
 50
282.4975799290701
 51
38.34605818981183
  0
ARC
  5
EA50E
330
17
100
AcDbEntity
  8
1外形線
  6
Continuous
370
    15
100
AcDbCircle
 10
624.8304651684193
 20
142.1082465570343
 30
0.0
 40
0.3000000000000115
100
AcDbArc
 50
128.9874422602891
 51
218.346058198863
  0
LINE
  5
EA50F
330
17
100
AcDbEntity
  8
1外形線
  6
Continuous
370
    15
100
AcDbLine
 10
583.3023788561185
 20
153.3475492662346
 30
0.0
 11
582.4875626446046
 21
153.0307015538237
 31
0.0
  0
ARC
  5
EA510
330
17
100
AcDbEntity
  8
1外形線
  6
Continuous
370
    15
100
AcDbCircle
 10
582.4513205281363
 20
153.1239029969128
 30
0.0
 40
0.1
100
AcDbArc
 50
175.4004844155015
 51
291.248962687091
  0
LINE
  5
EA511
330
17
100
AcDbEntity
  8
1外形線
  6
Continuous
370
    15
100
AcDbLine
 10
604.4905815641177
 20
136.7028809489329
 30
0.0
 11
604.3756715221825
 21
135.8362128385997
 31
0.0
  0
ARC
  5
EA512
330
17
100
AcDbEntity
  8
1外形線
  6
Continuous
370
    15
100
AcDbCircle
 10
604.2765390829481
 20
135.849356639108
 30
0.0
 40
0.1
100
AcDbArc
 50
236.5988247089728
 51
352.447302970172
  0
LINE
  5
EA513
330
17
100
AcDbEntity
  8
1外形線
  6
Continuous
370
    15
100
AcDbLine
 10
584.7987611205171
 20
150.1493174458355
 30
0.0
 11
584.033374640836
 21
149.7268231049002
 31
0.0
  0
ARC
  5
EA514
330
17
100
AcDbEntity
  8
1外形線
  6
Continuous
370
    15
100
AcDbCircle
 10
583.9850483045193
 20
149.8143706075407
 30
0.0
 40
0.1
100
AcDbArc
 50
183.0502769508798
 51
298.8987552147936
  0
ARC
  5
EA515
330
17
100
AcDbEntity
  8
1外形線
  6
Continuous
370
    15
100
AcDbCircle
 10
584.9437401294198
 20
149.886674937934
 30
0.0
 40
0.3000000000000385
100
AcDbArc
 50
10.7000694881094
 51
118.8987552207415
  0
LINE
  5
EA516
330
17
100
AcDbEntity
  8
1外形線
  6
Continuous
370
    15
100
AcDbLine
 10
585.8474225032223
 20
146.719891906896
 30
0.0
 11
585.2385239009163
 21
149.9423752800339
 31
0.0
  0
LINE
  5
EA517
330
17
100
AcDbEntity
  8
1外形線
  6
Continuous
370
    15
100
AcDbLine
 10
586.7075673494182
 20
147.1787441950346
 30
0.0
 11
586.0052341299343
 21
146.658123430816
 31
0.0
  0
ARC
  5
EA518
330
17
100
AcDbEntity
  8
1外形線
  6
Continuous
370
    15
100
AcDbCircle
 10
585.9456837603611
 20
146.7384586876069
 30
0.0
 40
0.1
100
AcDbArc
 50
190.70006948852
 51
306.5485477598033
  0
LINE
  5
EA519
330
17
100
AcDbEntity
  8
1外形線
  6
Continuous
370
    15
100
AcDbLine
 10
611.5368090724187
 20
136.7148217542344
 30
0.0
 11
611.6546558233167
 21
135.8485480823146
 31
0.0
  0
LINE
  5
EA51A
330
17
100
AcDbEntity
  8
1外形線
  6
Continuous
370
    15
100
AcDbLine
 10
582.659506652817
 20
170.6774175925329
 30
0.0
 11
581.8234545570085
 21
170.9330243695585
 31
0.0
  0
ARC
  5
EA51B
330
17
100
AcDbEntity
  8
1外形線
  6
Continuous
370
    15
100
AcDbCircle
 10
581.8526917274867
 20
171.0286548451531
 30
0.0
 40
0.1
100
AcDbArc
 50
137.1515217308493
 51
252.9999999975631
  0
LINE
  5
EA51C
330
17
100
AcDbEntity
  8
1外形線
  6
Continuous
370
    15
100
AcDbLine
 10
615.1135850835417
 20
136.4553538576438
 30
0.0
 11
611.8884935162168
 21
137.0502832496331
 31
0.0
  0
LINE
  5
EA51D
330
17
100
AcDbEntity
  8
1外形線
  6
Continuous
370
    15
100
AcDbLine
 10
590.9112268090975
 20
141.457526109134
 30
0.0
 11
589.4736039750169
 21
144.4051348324337
 31
0.0
  0
LINE
  5
EA51E
330
17
100
AcDbEntity
  8
1外形線
  6
Continuous
370
    15
100
AcDbLine
 10
597.1841262488523
 20
137.7178281995347
 30
0.0
 11
595.0196798178185
 21
140.1816318130349
 31
0.0
  0
ARC
  5
EA51F
330
17
100
AcDbEntity
  8
1外形線
  6
Continuous
370
    15
100
AcDbCircle
 10
597.9673790595188
 20
138.4341166721333
 30
0.0
 40
0.2999999999999967
100
AcDbArc
 50
48.94903217210277
 51
157.147717904531
  0
LINE
  5
EA520
330
17
100
AcDbEntity
  8
1外形線
  6
Continuous
370
    15
100
AcDbLine
 10
600.6375574446065
 20
136.5066042883336
 30
0.0
 11
598.1643980973167
 21
138.6603543761339
 31
0.0
  0
LINE
  5
EA521
330
17
100
AcDbEntity
  8
1外形線
  6
Continuous
370
    15
100
AcDbLine
 10
601.0289872448193
 20
137.3994521421355
 30
0.0
 11
600.7997309673337
 21
136.5557937454214
 31
0.0
  0
ARC
  5
EA522
330
17
100
AcDbEntity
  8
1外形線
  6
Continuous
370
    15
100
AcDbCircle
 10
600.703230457213
 20
136.5820168563514
 30
0.0
 40
0.1
100
AcDbArc
 50
228.9490321729498
 51
344.7975104417929
  0
ARC
  5
EA523
330
17
100
AcDbEntity
  8
1外形線
  6
Continuous
370
    15
100
AcDbCircle
 10
601.3184887752177
 20
137.3207828093345
 30
0.0
 40
0.3000000000000184
100
AcDbArc
 50
56.59882470871174
 51
164.7975104413907
  0
ARC
  5
EA524
330
17
100
AcDbEntity
  8
1外形線
  6
Continuous
370
    15
100
AcDbCircle
 10
604.7879788818172
 20
136.6634495475355
 30
0.0
 40
0.3000000000000335
100
AcDbArc
 50
64.24861724551039
 51
172.4473029780568
  0
LINE
  5
EA525
330
17
100
AcDbEntity
  8
1外形線
  6
Continuous
370
    15
100
AcDbLine
 10
608.0140944777195
 20
136.4733087262339
 30
0.0
 11
608.0155760176676
 21
135.5990571969869
 31
0.0
  0
ARC
  5
EA526
330
17
100
AcDbEntity
  8
1外形線
  6
Continuous
370
    15
100
AcDbCircle
 10
607.9155761612565
 20
135.5988877334203
 30
0.0
 40
0.1
100
AcDbArc
 50
244.2486172464211
 51
0.0970955179674442
  0
ARC
  5
EA527
330
17
100
AcDbEntity
  8
1外形線
  6
Continuous
370
    15
100
AcDbCircle
 10
594.7942979501167
 20
139.983634303635
 30
0.0
 40
0.299999999999984
100
AcDbArc
 50
41.29923963518208
 51
149.497925367704
  0
ARC
  5
EA528
330
17
100
AcDbEntity
  8
1外形線
  6
Continuous
370
    15
100
AcDbCircle
 10
615.2852558806189
 20
137.5027712905339
 30
0.0
 40
0.3000000000000118
100
AcDbArc
 50
87.19799485594922
 51
195.3966805884549
  0
ARC
  5
EA529
330
17
100
AcDbEntity
  8
1外形線
  6
Continuous
370
    15
100
AcDbCircle
 10
586.8862184581193
 20
146.9377384246345
 30
0.0
 40
0.2999999999999988
100
AcDbArc
 50
18.34986202492019
 51
126.5485477574914
  0
ARC
  5
EA52A
330
17
100
AcDbEntity
  8
1外形線
  6
Continuous
370
    15
100
AcDbCircle
 10
611.8340710384181
 20
136.7552608879341
 30
0.0
 40
0.3000000000000227
100
AcDbArc
 50
79.54820231915528
 51
187.7468880516823
  0
LINE
  5
EA52B
330
17
100
AcDbEntity
  8
1外形線
  6
Continuous
370
    15
100
AcDbLine
 10
581.5147148094183
 20
163.7247982072349
 30
0.0
 11
580.6408470061942
 21
163.7507403320851
 31
0.0
  0
ARC
  5
EA52C
330
17
100
AcDbEntity
  8
1外形線
  6
Continuous
370
    15
100
AcDbCircle
 10
580.6438143544619
 20
163.8506962966112
 30
0.0
 40
0.1
100
AcDbArc
 50
152.4511068035695
 51
268.2995850769818
  0
LINE
  5
EA52D
330
17
100
AcDbEntity
  8
1外形線
  6
Continuous
370
    15
100
AcDbLine
 10
614.9960226443181
 20
137.4231212117356
 30
0.0
 11
615.2281369882257
 21
136.5802446711441
 31
0.0
  0
ARC
  5
EA52E
330
17
100
AcDbEntity
  8
1外形線
  6
Continuous
370
    15
100
AcDbCircle
 10
615.1317259094794
 20
136.553694644881
 30
0.0
 40
0.1
100
AcDbArc
 50
259.5482023193606
 51
15.39668059614379
  0
ARC
  5
EA52F
330
17
100
AcDbEntity
  8
1外形線
  6
Continuous
370
    15
100
AcDbCircle
 10
618.6062190665179
 20
138.7030429824353
 30
0.0
 40
0.3000000000000376
100
AcDbArc
 50
94.84778739271963
 51
203.0464731251648
  0
LINE
  5
EA530
330
17
100
AcDbEntity
  8
1外形線
  6
Continuous
370
    15
100
AcDbLine
 10
591.6198119974178
 20
142.1270794002339
 30
0.0
 11
591.0797440906426
 21
141.4395878821979
 31
0.0
  0
ARC
  5
EA531
330
17
100
AcDbEntity
  8
1外形線
  6
Continuous
370
    15
100
AcDbCircle
 10
591.0011064780228
 20
141.5013626819254
 30
0.0
 40
0.1
100
AcDbArc
 50
205.9996545622451
 51
321.8481328401878
  0
LINE
  5
EA532
330
17
100
AcDbEntity
  8
1外形線
  6
Continuous
370
    15
100
AcDbLine
 10
580.5551527066272
 20
163.8969468339401
 30
0.0
 11
582.0719416414176
 21
166.8046104881341
 31
0.0
  0
ARC
  5
EA533
330
17
100
AcDbEntity
  8
1外形線
  6
Continuous
370
    15
100
AcDbCircle
 10
583.4111052054177
 20
153.0679449369345
 30
0.0
 40
0.2999999999999888
100
AcDbArc
 50
3.050276951297414
 51
111.2489626839563
  0
LINE
  5
EA534
330
17
100
AcDbEntity
  8
1外形線
  6
Continuous
370
    15
100
AcDbLine
 10
607.872129461819
 20
135.5088189579874
 30
0.0
 11
604.9183189801188
 21
136.9336558737341
 31
0.0
  0
LINE
  5
EA535
330
17
100
AcDbEntity
  8
1外形線
  6
Continuous
370
    15
100
AcDbLine
 10
618.330162779017
 20
138.5855996935333
 30
0.0
 11
618.6724131868905
 21
137.7811230999759
 31
0.0
  0
LINE
  5
EA536
330
17
100
AcDbEntity
  8
1外形線
  6
Continuous
370
    15
100
AcDbLine
 10
582.3516425724883
 20
153.1319220466048
 30
0.0
 11
582.6146277515181
 21
156.4008661260341
 31
0.0
  0
LINE
  5
EA537
330
17
100
AcDbEntity
  8
1外形線
  6
Continuous
370
    15
100
AcDbLine
 10
624.5951817993191
 20
141.9221236508347
 30
0.0
 11
624.9315155581643
 21
141.4969543820716
 31
0.0
  0
LWPOLYLINE
  5
EA57D
330
17
100
AcDbEntity
  8
2寸法線
 48
3.0
100
AcDbPolyline
 90
        4
 70
     1
 43
0.0
 10
547.7530779920198
 20
289.0211918157656
 10
793.563458878969
 20
289.0211918157656
 10
793.563458878969
 20
96.87495171084812
 10
547.7530779920198
 20
96.87495171084812
  0
TEXT
  5
EA581
330
17
100
AcDbEntity
  8
2寸法線
 48
3.0
100
AcDbText
 10
558.1464526028685
 20
270.5745129210372
 30
0.0
 40
10.0
  1
ZB-HSB
  7
KANJI
100
AcDbText
  0
LINE
  5
EA59B
330
17
100
AcDbEntity
  8
1外形線
 48
3.0
100
AcDbLine
 10
736.4617448476383
 20
135.7350683710701
 30
0.0
 11
754.8617452559374
 21
135.7350683710701
 31
0.0
  0
LINE
  5
EA5A4
330
17
100
AcDbEntity
  8
1外形線
 48
3.0
100
AcDbLine
 10
735.732897433736
 20
228.2448083683048
 30
0.0
 11
755.5905926698324
 21
228.2448083683048
 31
0.0
  0
LINE
  5
EA5A6
330
17
100
AcDbEntity
  8
1外形線
 48
3.0
100
AcDbLine
 10
735.6529996458375
 20
227.7633563497839
 30
0.0
 11
755.6704904577308
 21
227.7633563497839
 31
0.0
  0
ARC
  5
EA5A7
330
17
100
AcDbEntity
  8
1外形線
100
AcDbCircle
 10
755.5905926698324
 20
223.5714306392601
 30
0.0
 40
4.673377729045389
100
AcDbArc
 50
8.573662223729273
 51
90.0
  0
ARC
  5
EA5A8
330
17
100
AcDbEntity
  8
1外形線
100
AcDbCircle
 10
755.6704904577308
 20
223.1833683620025
 30
0.0
 40
4.579987987780964
100
AcDbArc
 50
7.456799056701989
 51
90.0
  0
ARC
  5
EA5B9
330
17
100
AcDbEntity
  8
1外形線
100
AcDbCircle
 10
735.732897433736
 20
146.3074784688197
 30
0.0
 40
4.673377729045389
100
AcDbArc
 50
188.5736616068775
 51
270.0
  0
ARC
  5
EA5BA
330
17
100
AcDbEntity
  8
1外形線
100
AcDbCircle
 10
735.6529996458375
 20
146.6955407460773
 30
0.0
 40
4.579987987780964
100
AcDbArc
 50
187.5815353916643
 51
270.0
  0
LINE
  5
EA5BD
330
17
100
AcDbEntity
  8
1外形線
100
AcDbLine
 10
731.113049405536
 20
146.3023796168054
 30
0.0
 11
760.2104406980361
 21
146.3023796168054
 31
0.0
  0
LINE
  5
EA5BE
330
17
100
AcDbEntity
  8
1外形線
 48
3.0
100
AcDbLine
 10
735.732897433736
 20
141.634100739775
 30
0.0
 11
755.5905926698324
 21
141.634100739775
 31
0.0
  0
LINE
  5
EA5BF
330
17
100
AcDbEntity
  8
1外形線
 48
3.0
100
AcDbLine
 10
735.6529996458375
 20
142.1155527582959
 30
0.0
 11
755.6704904577308
 21
142.1155527582959
 31
0.0
  0
ARC
  5
EA5C0
330
17
100
AcDbEntity
  8
1外形線
100
AcDbCircle
 10
755.5905926698324
 20
146.3074784688197
 30
0.0
 40
4.673377729045389
100
AcDbArc
 50
270.0
 51
351.4263377762695
  0
ARC
  5
EA5C1
330
17
100
AcDbEntity
  8
1外形線
100
AcDbCircle
 10
755.6704904577308
 20
146.6955407460773
 30
0.0
 40
4.579987987780964
100
AcDbArc
 50
270.0
 51
352.5432009432968
  0
LINE
  5
EA5C2
330
17
100
AcDbEntity
  8
1外形線
100
AcDbLine
 10
736.4617448476383
 20
141.634100739775
 30
0.0
 11
736.4617448476383
 21
135.5001353071384
 31
0.0
  0
LINE
  5
EA5C3
330
17
100
AcDbEntity
  8
1外形線
100
AcDbLine
 10
754.8617452559374
 20
141.634100739775
 30
0.0
 11
754.8617452559374
 21
135.5001353071384
 31
0.0
  0
ENDSEC
  0
SECTION
  2
OBJECTS
  0
DICTIONARY
  5
C
330
0
100
AcDbDictionary
281
     1
  3
ACAD_CIP_PREVIOUS_PRODUCT_INFO
350
D619C
  3
ACAD_COLOR
350
5D3CD
  3
ACAD_DETAILVIEWSTYLE
350
EA3CE
  3
ACAD_GROUP
350
D
  3
ACAD_LAYOUT
350
501A
  3
ACAD_MATERIAL
350
5D3CC
  3
ACAD_MLEADERSTYLE
350
A895E
  3
ACAD_MLINESTYLE
350
1A
  3
ACAD_PLOTSETTINGS
350
501B
  3
ACAD_PLOTSTYLENAME
350
5018
  3
ACAD_SCALELIST
350
A894C
  3
ACAD_SECTIONVIEWSTYLE
350
EA3CC
  3
ACAD_TABLESTYLE
350
5D3CE
  3
ACAD_VISUALSTYLE
350
8430C
  3
AcadDim
350
1F032
  3
ACDB_RECOMPOSE_DATA
350
EA5CD
  3
ACDBVARIABLEDICTIONARY
350
51
  0
DICTIONARY
  5
87C2F
330
8
100
AcDbDictionary
280
     1
281
     1
  0
DICTIONARY
  5
89E4
330
2
100
AcDbDictionary
280
     1
281
     1
  3
ACAD_LAYERSTATES
360
89E5
  0
DICTIONARY
  5
A94E1
330
E
100
AcDbDictionary
280
     1
281
     1
  3
ADSK_XREC_LAYER_RECONCILED
360
A94E2
  0
DICTIONARY
  5
A94E7
330
45
100
AcDbDictionary
280
     1
281
     1
  3
ADSK_XREC_LAYER_RECONCILED
360
A94E8
  0
DICTIONARY
  5
A94EB
330
30600
100
AcDbDictionary
280
     1
281
     1
  3
ADSK_XREC_LAYER_RECONCILED
360
A94EC
  0
DICTIONARY
  5
A94ED
330
30602
100
AcDbDictionary
280
     1
281
     1
  3
ADSK_XREC_LAYER_RECONCILED
360
A94EE
  0
DICTIONARY
  5
A94F9
330
6AEB6
100
AcDbDictionary
280
     1
281
     1
  3
ADSK_XREC_LAYER_RECONCILED
360
A94FA
  0
DICTIONARY
  5
DF18F
330
DF18E
100
AcDbDictionary
280
     1
281
     1
  0
DICTIONARY
  5
EA071
330
EA070
100
AcDbDictionary
280
     1
281
     1
  0
DICTIONARY
  5
119DA
330
17
100
AcDbDictionary
280
     1
281
     1
  3
ACAD_SORTENTS
360
64FAB
  0
DICTIONARY
  5
119D8
330
14
100
AcDbDictionary
280
     1
281
     1
  0
XRECORD
  5
D619C
102
{ACAD_REACTORS
330
C
102
}
330
C
100
AcDbXrecord
280
     1
300
ACD
300
2023
300

  0
DICTIONARY
  5
5D3CD
102
{ACAD_REACTORS
330
C
102
}
330
C
100
AcDbDictionary
281
     1
  0
DICTIONARY
  5
EA3CE
102
{ACAD_REACTORS
330
C
102
}
330
C
100
AcDbDictionary
281
     1
  3
Metric50
350
EA3CF
  0
DICTIONARY
  5
D
102
{ACAD_REACTORS
330
C
102
}
330
C
100
AcDbDictionary
281
     1
  0
DICTIONARY
  5
501A
102
{ACAD_REACTORS
330
C
102
}
330
C
100
AcDbDictionary
281
     1
  3
Model
350
501C
  3
ﾚｲｱｳﾄ1
350
501D
  0
DICTIONARY
  5
5D3CC
102
{ACAD_REACTORS
330
C
102
}
330
C
100
AcDbDictionary
281
     1
  3
ByBlock
350
8430A
  3
ByLayer
350
84309
  3
Global
350
8430B
  0
DICTIONARY
  5
A895E
102
{ACAD_REACTORS
330
C
102
}
330
C
100
AcDbDictionary
281
     1
  3
Standard
350
A895F
  0
DICTIONARY
  5
1A
102
{ACAD_REACTORS
330
C
102
}
330
C
100
AcDbDictionary
281
     1
  3
STANDARD
350
1B
  0
DICTIONARY
  5
501B
102
{ACAD_REACTORS
330
C
102
}
330
C
100
AcDbDictionary
281
     1
  0
ACDBDICTIONARYWDFLT
  5
5018
102
{ACAD_REACTORS
330
C
102
}
330
C
100
AcDbDictionary
281
     1
  3
Normal
350
5019
100
AcDbDictionaryWithDefault
340
5019
  0
DICTIONARY
  5
A894C
102
{ACAD_REACTORS
330
C
102
}
330
C
100
AcDbDictionary
281
     1
  3
A0
350
A894D
  3
A1
350
A894E
  3
A2
350
A894F
  3
A3
350
A8950
  3
A4
350
A8951
  3
A5
350
A8952
  3
A6
350
A8953
  3
A7
350
A8954
  3
A8
350
A8955
  3
A9
350
A8956
  3
B0
350
A8957
  3
B1
350
A8958
  3
B2
350
A8959
  3
B3
350
A895A
  3
B4
350
A895B
  3
B5
350
A895C
  3
B6
350
A895D
  0
DICTIONARY
  5
EA3CC
102
{ACAD_REACTORS
330
C
102
}
330
C
100
AcDbDictionary
281
     1
  3
Metric50
350
EA3CD
  0
DICTIONARY
  5
5D3CE
102
{ACAD_REACTORS
330
C
102
}
330
C
100
AcDbDictionary
281
     1
  3
Standard
350
5D3CF
  0
DICTIONARY
  5
8430C
102
{ACAD_REACTORS
330
C
102
}
330
C
100
AcDbDictionary
281
     1
  3
2dWireframe
350
84312
  3
3D Hidden
350
84314
  3
3dWireframe
350
84313
  3
Basic
350
84311
  3
Brighten
350
84318
  3
ColorChange
350
8431C
  3
Conceptual
350
84315
  3
Dim
350
84317
  3
EdgeColorOff
350
A894B
  3
Facepattern
350
8431B
  3
Flat
350
8430D
  3
FlatWithEdges
350
8430E
  3
Gouraud
350
8430F
  3
GouraudWithEdges
350
84310
  3
Hidden
350
A8943
  3
JitterOff
350
A8949
  3
Linepattern
350
8431A
  3
OverhangOff
350
A894A
  3
Realistic
350
84316
  3
Shaded
350
A8948
  3
Shaded with edges
350
A8947
  3
Shades of Gray
350
A8944
  3
Sketchy
350
A8945
  3
Thicken
350
84319
  3
Wireframe
350
A8942
  3
X-Ray
350
A8946
  0
XRECORD
  5
1F032
102
{ACAD_REACTORS
330
C
102
}
330
C
100
AcDbXrecord
280
     1
 90
   990106
  3

 60
     0
 61
     0
 62
     1
 63
     3
 64
     0
 65
     0
 66
     0
 67
     3
 68
     1
 69
     0
 70
     0
 71
     0
 72
     0
 40
0.0
170
     0
  0
XRECORD
  5
EA5CD
102
{ACAD_REACTORS
330
C
102
}
330
C
100
AcDbXrecord
280
     1
 90
        1
330
5D3CF
  0
DICTIONARY
  5
51
102
{ACAD_REACTORS
330
C
102
}
330
C
100
AcDbDictionary
281
     1
  3
CANNOSCALE
350
A95B1
  3
CMLEADERSTYLE
350
A95B0
  3
CTABLESTYLE
350
5DA8C
  3
CVIEWDETAILSTYLE
350
EA589
  3
CVIEWSECTIONSTYLE
350
EA58A
  3
DIMADEC
350
52
  3
DIMASSOC
350
212DC
  3
HPCOLOR
350
B4EDE
  3
INDEXCTL
350
87C65
  3
LAYEREVAL
350
D62C5
  3
LAYERNOTIFY
350
D62C6
  3
LIGHTINGUNITS
350
D62C4
  3
MSLTSCALE
350
D62C3
  3
PROJECTNAME
350
6CFD4
  3
SORTENTS
350
F9A8
  0
DICTIONARY
  5
89E5
102
{ACAD_REACTORS
330
89E4
102
}
330
89E4
100
AcDbDictionary
281
     1
  0
XRECORD
  5
A94E2
102
{ACAD_REACTORS
330
A94E1
102
}
330
A94E1
100
AcDbXrecord
280
     1
290
     1
  0
XRECORD
  5
A94E8
102
{ACAD_REACTORS
330
A94E7
102
}
330
A94E7
100
AcDbXrecord
280
     1
290
     1
  0
XRECORD
  5
A94EC
102
{ACAD_REACTORS
330
A94EB
102
}
330
A94EB
100
AcDbXrecord
280
     1
290
     1
  0
XRECORD
  5
A94EE
102
{ACAD_REACTORS
330
A94ED
102
}
330
A94ED
100
AcDbXrecord
280
     1
290
     1
  0
XRECORD
  5
A94FA
102
{ACAD_REACTORS
330
A94F9
102
}
330
A94F9
100
AcDbXrecord
280
     1
290
     1
  0
SORTENTSTABLE
  5
64FAB
102
{ACAD_REACTORS
330
119DA
102
}
330
119DA
100
AcDbSortentsTable
330
17
331
EA41F
  5
EA420
331
EA420
  5
EA424
331
EA424
  5
EA42D
331
EA42D
  5
EA42E
331
EA42E
  5
EA42F
331
EA42F
  5
EA430
331
EA430
  5
EA431
331
EA431
  5
EA432
331
EA432
  5
EA433
331
EA433
  5
EA434
331
EA434
  5
EA435
331
EA435
  5
EA436
331
EA436
  5
EA437
331
EA437
  5
EA438
331
EA438
  5
EA439
331
EA439
  5
EA43A
331
EA43A
  5
EA43B
331
EA43B
  5
EA43C
331
EA43C
  5
EA43D
331
EA43D
  5
EA43F
331
EA43F
  5
EA445
331
EA445
  5
EA446
331
EA446
  5
EA448
331
EA448
  5
EA44A
331
EA44A
  5
EA44B
331
EA44B
  5
EA44C
331
EA44C
  5
EA44D
331
EA44D
  5
EA44E
331
EA44E
  5
EA44F
331
EA44F
  5
EA450
331
EA450
  5
EA451
331
EA451
  5
EA452
331
EA452
  5
EA453
331
EA453
  5
EA454
331
EA454
  5
EA455
331
EA455
  5
EA456
331
EA456
  5
EA457
331
EA457
  5
EA458
331
EA458
  5
EA459
331
EA459
  5
EA45A
331
EA45A
  5
EA45B
331
EA45B
  5
EA45C
331
EA45C
  5
EA45D
331
EA45D
  5
EA45E
331
EA45E
  5
EA45F
331
EA45F
  5
EA460
331
EA460
  5
EA461
331
EA461
  5
EA462
331
EA462
  5
EA463
331
EA463
  5
EA464
331
EA464
  5
EA465
331
EA465
  5
EA466
331
EA466
  5
EA467
331
EA467
  5
EA468
331
EA468
  5
EA469
331
EA469
  5
EA46A
331
EA46A
  5
EA46B
331
EA46B
  5
EA476
331
EA47A
  5
EA47C
331
EA47B
  5
EA47D
331
EA47C
  5
EA47E
331
EA47D
  5
EA47F
331
EA47E
  5
EA480
331
EA47F
  5
EA481
331
EA480
  5
EA482
331
EA481
  5
EA483
331
EA482
  5
EA484
331
EA483
  5
EA485
331
EA484
  5
EA486
331
EA485
  5
EA487
331
EA486
  5
EA488
331
EA487
  5
EA489
331
EA488
  5
EA48A
331
EA489
  5
EA48B
331
EA48A
  5
EA48C
331
EA48B
  5
EA48D
331
EA48C
  5
EA48E
331
EA48D
  5
EA48F
331
EA48E
  5
EA490
331
EA48F
  5
EA491
331
EA490
  5
EA492
331
EA491
  5
EA493
331
EA492
  5
EA494
331
EA493
  5
EA495
331
EA494
  5
EA496
331
EA495
  5
EA497
331
EA496
  5
EA498
331
EA497
  5
EA499
331
EA498
  5
EA49A
331
EA499
  5
EA49B
331
EA49A
  5
EA49C
331
EA49B
  5
EA49D
331
EA49C
  5
EA49E
331
EA49D
  5
EA49F
331
EA49E
  5
EA4A0
331
EA49F
  5
EA4A1
331
EA4A0
  5
EA4A2
331
EA4A1
  5
EA4A3
331
EA4A2
  5
EA4A4
331
EA4A3
  5
EA4A5
331
EA4A4
  5
EA4A6
331
EA4A5
  5
EA4A7
331
EA4A6
  5
EA4A8
331
EA4A7
  5
EA4A9
331
EA4A8
  5
EA4AA
331
EA4A9
  5
EA4AB
331
EA4AA
  5
EA4AC
331
EA4AB
  5
EA4AD
331
EA4AC
  5
EA4AE
331
EA4AD
  5
EA4AF
331
EA4AE
  5
EA4B0
331
EA4AF
  5
EA4B1
331
EA4B0
  5
EA4B2
331
EA4B1
  5
EA4B3
331
EA4B2
  5
EA4B4
331
EA4B3
  5
EA4B5
331
EA4B4
  5
EA4B6
331
EA4B5
  5
EA4B7
331
EA4B6
  5
EA4B8
331
EA4B7
  5
EA4B9
331
EA4B8
  5
EA4BA
331
EA4B9
  5
EA4BB
331
EA4BA
  5
EA4BC
331
EA4BB
  5
EA4BD
331
EA4BC
  5
EA4BE
331
EA4BD
  5
EA4BF
331
EA4BE
  5
EA4C0
331
EA4BF
  5
EA4C1
331
EA4C0
  5
EA4C2
331
EA4C1
  5
EA4C3
331
EA4C2
  5
EA4C4
331
EA4C3
  5
EA4C5
331
EA4C4
  5
EA4C6
331
EA4C5
  5
EA4C7
331
EA4C6
  5
EA4C8
331
EA4C7
  5
EA4C9
331
EA4C8
  5
EA4CA
331
EA4C9
  5
EA4CB
331
EA4CA
  5
EA4CC
331
EA4CB
  5
EA4CD
331
EA4CC
  5
EA4CE
331
EA4CD
  5
EA4CF
331
EA4CE
  5
EA4D0
331
EA4CF
  5
EA4D1
331
EA4D0
  5
EA4D2
331
EA4D1
  5
EA4D3
331
EA4D2
  5
EA4D4
331
EA4D3
  5
EA4D5
331
EA4D4
  5
EA4D6
331
EA4D5
  5
EA4D7
331
EA4D6
  5
EA4D8
331
EA4D7
  5
EA4D9
331
EA4D8
  5
EA4DA
331
EA4D9
  5
EA4DB
331
EA4DA
  5
EA4DC
331
EA4DB
  5
EA4DD
331
EA4DC
  5
EA4DE
331
EA4DD
  5
EA4DF
331
EA4DE
  5
EA4E0
331
EA4DF
  5
EA4E1
331
EA4E0
  5
EA4E2
331
EA4E1
  5
EA4E3
331
EA4E2
  5
EA4E4
331
EA4E3
  5
EA4E5
331
EA4E4
  5
EA4E6
331
EA4E5
  5
EA4E7
331
EA4E6
  5
EA4E8
331
EA4E7
  5
EA4E9
331
EA4E8
  5
EA4EA
331
EA4E9
  5
EA4EB
331
EA4EA
  5
EA4EC
331
EA4EB
  5
EA4ED
331
EA4EC
  5
EA4EE
331
EA4ED
  5
EA4EF
331
EA4EE
  5
EA4F0
331
EA4EF
  5
EA4F1
331
EA4F0
  5
EA4F2
331
EA4F1
  5
EA4F3
331
EA4F2
  5
EA4F4
331
EA4F3
  5
EA4F5
331
EA4F4
  5
EA4F6
331
EA4F5
  5
EA4F7
331
EA4F6
  5
EA4F8
331
EA4F7
  5
EA4F9
331
EA4F8
  5
EA4FA
331
EA4F9
  5
EA4FB
331
EA4FA
  5
EA4FC
331
EA4FB
  5
EA4FD
331
EA4FC
  5
EA4FE
331
EA4FD
  5
EA4FF
331
EA4FE
  5
EA500
331
EA4FF
  5
EA501
331
EA500
  5
EA502
331
EA501
  5
EA503
331
EA502
  5
EA504
331
EA503
  5
EA505
331
EA504
  5
EA506
331
EA505
  5
EA507
331
EA506
  5
EA508
331
EA507
  5
EA509
331
EA508
  5
EA50A
331
EA509
  5
EA50B
331
EA50A
  5
EA50C
331
EA50B
  5
EA50D
331
EA50C
  5
EA50E
331
EA50D
  5
EA50F
331
EA50E
  5
EA510
331
EA50F
  5
EA511
331
EA510
  5
EA512
331
EA511
  5
EA513
331
EA512
  5
EA514
331
EA513
  5
EA515
331
EA514
  5
EA516
331
EA515
  5
EA517
331
EA516
  5
EA518
331
EA517
  5
EA519
331
EA518
  5
EA51A
331
EA519
  5
EA51B
331
EA51A
  5
EA51C
331
EA51B
  5
EA51D
331
EA51C
  5
EA51E
331
EA51D
  5
EA51F
331
EA51E
  5
EA520
331
EA51F
  5
EA521
331
EA520
  5
EA522
331
EA521
  5
EA523
331
EA522
  5
EA524
331
EA523
  5
EA525
331
EA524
  5
EA526
331
EA525
  5
EA527
331
EA526
  5
EA528
331
EA527
  5
EA529
331
EA528
  5
EA52A
331
EA529
  5
EA52B
331
EA52A
  5
EA52C
331
EA52B
  5
EA52D
331
EA52C
  5
EA52E
331
EA52D
  5
EA52F
331
EA52E
  5
EA530
331
EA52F
  5
EA531
331
EA530
  5
EA532
331
EA531
  5
EA533
331
EA532
  5
EA534
331
EA533
  5
EA535
331
EA534
  5
EA536
331
EA535
  5
EA537
331
EA536
  5
EA57D
331
EA537
  5
EA581
331
EA57D
  5
EA59B
331
EA581
  5
EA5A4
331
EA59B
  5
EA5A6
331
EA5A4
  5
EA5A7
331
EA5A6
  5
EA5A8
331
EA5A7
  5
EA5B9
331
EA5A8
  5
EA5BA
331
EA5B9
  5
EA5BD
331
EA5BA
  5
EA5BE
331
EA5BD
  5
EA5BF
331
EA5BE
  5
EA5C0
331
EA5BF
  5
EA5C1
331
EA5C0
  5
EA5C2
331
EA5C1
  5
EA5C3
331
EA5C2
  5
EA41F
331
EA5C3
  5
EA47B
  0
ACDBDETAILVIEWSTYLE
  5
EA3CF
102
{ACAD_REACTORS
330
EA3CE
102
}
330
EA3CE
100
AcDbModelDocViewStyle
 70
     0
  3
Metric50
290
     1
300
Metric50
 90
        0
100
AcDbDetailViewStyle
 70
     0
 71
     0
 90
        3
 71
     1
340
F
 62
   256
 40
5.0
340
0
 62
   256
 40
5.0
300

 40
0.0
280
     1
 71
     2
340
13
 90
       25
 62
   256
 71
     3
340
F
 62
   256
 40
5.0
 90
        0
 40
15.0
 90
        1
300
%<\AcVar ViewDetailId>% (%<\AcVar ViewScale \f "%sn">%)
 71
     4
340
13
 90
       25
 62
   256
340
13
 90
       25
 62
   256
280
     0
  0
LAYOUT
  5
501C
102
{ACAD_REACTORS
330
501A
102
}
330
501A
100
AcDbPlotSettings
  1

  2
PrimoPDF
  4
A3
  6
OLE1
 40
3.174999952316284
 41
3.174999952316284
 42
3.17498779296875
 43
3.17498779296875
 44
297.0106506347656
 45
419.9889831542968
 46
-3.169668555259704
 47
-3.180502295494079
 48
2565.84136964141
 49
-5112.967985257725
140
2985.84136964141
141
-4815.967985257724
142
1.0
143
1.0
 70
 11940
 72
     1
 73
     1
 74
     4
  7
INABA-CAD(IKEBE).ctb
 75
     0
147
0.9786554306043116
 76
     0
 77
     2
 78
   300
148
-2565.84136964141
149
5112.967985257725
100
AcDbLayout
  1
Model
 70
     1
 71
     0
 10
0.0
 20
0.0
 11
12.0
 21
9.0
 12
0.0
 22
0.0
 32
0.0
 14
0.0
 24
0.0
 34
0.0
 15
0.0
 25
0.0
 35
0.0
146
0.0
 13
0.0
 23
0.0
 33
0.0
 16
1.0
 26
0.0
 36
0.0
 17
0.0
 27
1.0
 37
0.0
 76
     0
330
17
331
A893A
1001
ACAD_PSEXT
1000
PrimoPDF
1000
PrimoPDF
1000
PrimoPort:
1000

1070
     0
  0
LAYOUT
  5
501D
102
{ACAD_REACTORS
330
501A
102
}
330
501A
100
AcDbPlotSettings
  1

  2
C:\Program Files\AutoCAD LT 2000i\plotters\NSCC 3350-INABA_CAD.pc3
  4

  6

 40
0.0
 41
0.0
 42
0.0
 43
0.0
 44
0.0
 45
0.0
 46
0.0
 47
0.0
 48
0.0
 49
0.0
140
0.0
141
0.0
142
1.0
143
1.0
 70
   688
 72
     0
 73
     0
 74
     5
  7
INABA-CAD(IKEBE).ctb
 75
    16
147
1.0
 76
     0
 77
     2
 78
   300
148
0.0
149
0.0
100
AcDbLayout
  1
ﾚｲｱｳﾄ1
 70
     0
 71
     1
 10
0.0
 20
0.0
 11
12.0
 21
9.0
 12
0.0
 22
0.0
 32
0.0
 14
1.000000000000000E+20
 24
1.000000000000000E+20
 34
1.000000000000000E+20
 15
-1.000000000000000E+20
 25
-1.000000000000000E+20
 35
-1.000000000000000E+20
146
0.0
 13
0.0
 23
0.0
 33
0.0
 16
1.0
 26
0.0
 36
0.0
 17
0.0
 27
1.0
 37
0.0
 76
     0
330
14
  0
MATERIAL
  5
8430A
102
{ACAD_REACTORS
330
5D3CC
102
}
330
5D3CC
100
AcDbMaterial
  1
ByBlock
 73
     1
 78
     1
172
     1
176
     1
270
     1
274
     1
 94
       63
  0
MATERIAL
  5
84309
102
{ACAD_REACTORS
330
5D3CC
102
}
330
5D3CC
100
AcDbMaterial
  1
ByLayer
 73
     1
 78
     1
172
     1
176
     1
270
     1
274
     1
 94
       63
  0
MATERIAL
  5
8430B
102
{ACAD_REACTORS
330
5D3CC
102
}
330
5D3CC
100
AcDbMaterial
  1
Global
 73
     1
 78
     1
172
     1
176
     1
270
     1
274
     1
 94
       63
  0
MLEADERSTYLE
  5
A895F
102
{ACAD_REACTORS
330
A895E
102
}
330
A895E
100
AcDbMLeaderStyle
179
     2
170
     2
171
     1
172
     0
 90
        2
 40
0.0
 41
0.0
173
     1
 91
-1056964608
340
11
 92
       -2
290
     1
 42
2.0
291
     1
 43
0.36
  3
Standard
 44
4.0
300

342
F
174
     1
178
     6
175
     1
176
     0
 93
-1056964608
 45
4.0
292
     0
297
     0
 46
4.0
 94
-1056964608
 47
1.0
 49
1.0
140
1.0
293
     1
141
0.0
294
     1
177
     0
142
1.0
295
     0
296
     0
143
0.125
271
     0
272
     9
273
     9
298
     0
  0
MLINESTYLE
  5
1B
102
{ACAD_REACTORS
330
1A
102
}
330
1A
100
AcDbMlineStyle
  2
STANDARD
 70
     0
  3

 62
   256
 51
90.0
 52
90.0
 71
     2
 49
0.5
 62
   256
  6
BYLAYER
 49
-0.5
 62
   256
  6
BYLAYER
  0
ACDBPLACEHOLDER
  5
5019
102
{ACAD_REACTORS
330
5018
102
}
330
5018
  0
SCALE
  5
A894D
102
{ACAD_REACTORS
330
A894C
102
}
330
A894C
100
AcDbScale
 70
     0
300
1:1
140
1.0
141
1.0
290
     1
  0
SCALE
  5
A894E
102
{ACAD_REACTORS
330
A894C
102
}
330
A894C
100
AcDbScale
 70
     0
300
1:2
140
1.0
141
2.0
290
     0
  0
SCALE
  5
A894F
102
{ACAD_REACTORS
330
A894C
102
}
330
A894C
100
AcDbScale
 70
     0
300
1:4
140
1.0
141
4.0
290
     0
  0
SCALE
  5
A8950
102
{ACAD_REACTORS
330
A894C
102
}
330
A894C
100
AcDbScale
 70
     0
300
1:5
140
1.0
141
5.0
290
     0
  0
SCALE
  5
A8951
102
{ACAD_REACTORS
330
A894C
102
}
330
A894C
100
AcDbScale
 70
     0
300
1:8
140
1.0
141
8.0
290
     0
  0
SCALE
  5
A8952
102
{ACAD_REACTORS
330
A894C
102
}
330
A894C
100
AcDbScale
 70
     0
300
1:10
140
1.0
141
10.0
290
     0
  0
SCALE
  5
A8953
102
{ACAD_REACTORS
330
A894C
102
}
330
A894C
100
AcDbScale
 70
     0
300
1:16
140
1.0
141
16.0
290
     0
  0
SCALE
  5
A8954
102
{ACAD_REACTORS
330
A894C
102
}
330
A894C
100
AcDbScale
 70
     0
300
1:20
140
1.0
141
20.0
290
     0
  0
SCALE
  5
A8955
102
{ACAD_REACTORS
330
A894C
102
}
330
A894C
100
AcDbScale
 70
     0
300
1:30
140
1.0
141
30.0
290
     0
  0
SCALE
  5
A8956
102
{ACAD_REACTORS
330
A894C
102
}
330
A894C
100
AcDbScale
 70
     0
300
1:40
140
1.0
141
40.0
290
     0
  0
SCALE
  5
A8957
102
{ACAD_REACTORS
330
A894C
102
}
330
A894C
100
AcDbScale
 70
     0
300
1:50
140
1.0
141
50.0
290
     0
  0
SCALE
  5
A8958
102
{ACAD_REACTORS
330
A894C
102
}
330
A894C
100
AcDbScale
 70
     0
300
1:100
140
1.0
141
100.0
290
     0
  0
SCALE
  5
A8959
102
{ACAD_REACTORS
330
A894C
102
}
330
A894C
100
AcDbScale
 70
     0
300
2:1
140
2.0
141
1.0
290
     0
  0
SCALE
  5
A895A
102
{ACAD_REACTORS
330
A894C
102
}
330
A894C
100
AcDbScale
 70
     0
300
4:1
140
4.0
141
1.0
290
     0
  0
SCALE
  5
A895B
102
{ACAD_REACTORS
330
A894C
102
}
330
A894C
100
AcDbScale
 70
     0
300
8:1
140
8.0
141
1.0
290
     0
  0
SCALE
  5
A895C
102
{ACAD_REACTORS
330
A894C
102
}
330
A894C
100
AcDbScale
 70
     0
300
10:1
140
10.0
141
1.0
290
     0
  0
SCALE
  5
A895D
102
{ACAD_REACTORS
330
A894C
102
}
330
A894C
100
AcDbScale
 70
     0
300
100:1
140
100.0
141
1.0
290
     0
  0
ACDBSECTIONVIEWSTYLE
  5
EA3CD
102
{ACAD_REACTORS
330
EA3CC
102
}
330
EA3CC
100
AcDbModelDocViewStyle
 70
     0
  3
Metric50
290
     1
300
Metric50
 90
        0
100
AcDbSectionViewStyle
 70
     0
 71
     0
 90
      102
 71
     1
340
F
 62
   256
 40
5.0
340
0
340
0
 62
   256
 40
5.0
300
I, O, Q, S, X, Z
 40
10.0
 90
        0
 40
2.5
 90
        0
 71
     2
340
13
 90
       25
 62
   256
340
13
 90
       50
 62
   256
 40
5.0
 40
2.5
 40
5.0
 71
     3
340
F
 62
   256
 40
5.0
 90
        0
 40
15.0
 90
        1
300
%<\AcVar ViewSectionStartId>%-%<\AcVar ViewSectionEndId>% (%<\AcVar ViewScale \f "%sn">%)
 71
     4
 62
   256
 62
   257
300
ANSI31
 40
1.0
 90
        0
290
     0
290
     0
 90
        6
 40
0.0
 40
1.570796326794896
 40
0.2617993877991494
 40
1.308996938995747
 40
-0.2617993877991494
 40
1.832595714594046
  0
TABLESTYLE
  5
5D3CF
102
{ACAD_XDICTIONARY
360
A9559
102
}
102
{ACAD_REACTORS
330
5D3CE
102
}
330
5D3CE
100
AcDbTableStyle
280
     0
  3
Standard
 70
     0
 71
     0
 40
1.5
 41
1.5
280
     0
281
     0
  7
STANDARD
140
4.5
170
     2
 62
     0
 63
     7
283
     0
 90
        4
 91
        0
  1

274
    -2
284
     1
 64
     0
275
    -2
285
     1
 65
     0
276
    -2
286
     1
 66
     0
277
    -2
287
     1
 67
     0
278
    -2
288
     1
 68
     0
279
    -2
289
     1
 69
     0
  7
STANDARD
140
6.0
170
     5
 62
     0
 63
     7
283
     0
 90
        4
 91
        0
  1

274
    -2
284
     1
 64
     0
275
    -2
285
     1
 65
     0
276
    -2
286
     1
 66
     0
277
    -2
287
     1
 67
     0
278
    -2
288
     1
 68
     0
279
    -2
289
     1
 69
     0
  7
STANDARD
140
4.5
170
     5
 62
     0
 63
     7
283
     0
 90
        4
 91
        0
  1

274
    -2
284
     1
 64
     0
275
    -2
285
     1
 65
     0
276
    -2
286
     1
 66
     0
277
    -2
287
     1
 67
     0
278
    -2
288
     1
 68
     0
279
    -2
289
     1
 69
     0
  0
VISUALSTYLE
  5
84312
102
{ACAD_REACTORS
330
8430C
102
}
330
8430C
100
AcDbVisualStyle
  2
2dWireframe
 70
     4
177
     3
291
     0
 70
    58
 90
        0
176
     1
 90
        2
176
     1
 90
        0
176
     1
 90
        0
176
     1
 40
0.6
176
     1
 40
30.0
176
     1
 62
     7
176
     1
 90
        1
176
     1
 90
        4
176
     1
 62
     7
176
     1
 62
   257
176
     1
 90
        1
176
     1
 90
        1
176
     1
 40
1.0
176
     1
 90
        0
176
     1
 62
   257
176
     1
 40
1.0
176
     1
 90
        1
176
     1
 90
        6
176
     1
 90
        2
176
     1
 62
     7
176
     1
 90
        5
176
     1
 90
        0
176
     1
 90
        0
176
     1
290
     0
176
     1
 90
        1
176
     1
 40
0.0
176
     1
 90
        0
176
     1
290
     1
176
     1
290
     1
176
     1
290
     0
176
     1
290
     0
176
     1
290
     0
176
     1
290
     0
176
     1
290
     0
176
     1
290
     0
176
     1
290
     0
176
     1
 90
       50
176
     1
 40
0.0
176
     1
 40
1.0
176
     1
 90
        0
176
     1
 62
    18
420
        0
176
     1
 90
       50
176
     1
 90
        3
176
     1
 62
     5
420
      255
176
     1
290
     0
176
     1
 90
       50
176
     1
 90
       50
176
     1
 90
       50
176
     1
290
     0
176
     1
 90
       50
176
     1
 62
   256
176
     0
 40
1.0
176
     0
 90
        2
176
     1
  1
strokes_ogs.tif
176
     1
290
     0
176
     1
 40
1.0
176
     1
 40
1.0
176
     1
1001
ACAD
1000
AcRTDxfName
1000
VISUALSTYLE
1000
AcRTDxfName
1000
VISUALSTYLE
1000
AcRTDxfName
1000
VISUALSTYLE
1000
AcRTDxfName
1000
VISUALSTYLE
1000
AcRTDxfName
1000
VISUALSTYLE
1000
AcRTDxfName
1000
VISUALSTYLE
1000
AcRTDxfName
1000
VISUALSTYLE
  0
VISUALSTYLE
  5
84314
102
{ACAD_REACTORS
330
8430C
102
}
330
8430C
100
AcDbVisualStyle
  2
3D Hidden
 70
     6
177
     3
291
     0
 70
    58
 90
        1
176
     1
 90
        2
176
     1
 90
        2
176
     1
 90
        0
176
     1
 40
0.6
176
     1
 40
30.0
176
     1
 62
     7
176
     1
 90
        2
176
     1
 90
        2
176
     1
 62
     7
176
     1
 62
   257
176
     1
 90
        2
176
     1
 90
        1
176
     1
 40
40.0
176
     1
 90
        0
176
     1
 62
   257
176
     1
 40
1.0
176
     1
 90
        1
176
     1
 90
        6
176
     1
 90
        2
176
     1
 62
     7
176
     1
 90
        3
176
     1
 90
        0
176
     1
 90
        0
176
     1
290
     0
176
     1
 90
        1
176
     1
 40
0.0
176
     1
 90
        0
176
     1
290
     0
176
     1
290
     1
176
     1
290
     1
176
     1
290
     0
176
     1
290
     0
176
     1
290
     0
176
     1
290
     0
176
     1
290
     0
176
     1
290
     0
176
     1
 90
       50
176
     1
 40
0.0
176
     1
 40
1.0
176
     1
 90
        0
176
     1
 62
    18
420
        0
176
     1
 90
       50
176
     1
 90
        3
176
     1
 62
     5
420
      255
176
     1
290
     0
176
     1
 90
       50
176
     1
 90
       50
176
     1
 90
       50
176
     1
290
     0
176
     1
 90
       50
176
     1
 62
   256
176
     0
 40
1.0
176
     0
 90
        2
176
     1
  1
strokes_ogs.tif
176
     1
290
     0
176
     1
 40
1.0
176
     1
 40
1.0
176
     1
1001
ACAD
1000
AcRTDxfName
1000
VISUALSTYLE
1000
AcRTDxfName
1000
VISUALSTYLE
1000
AcRTDxfName
1000
VISUALSTYLE
1000
AcRTDxfName
1000
VISUALSTYLE
1000
AcRTDxfName
1000
VISUALSTYLE
1000
AcRTDxfName
1000
VISUALSTYLE
1000
AcRTDxfName
1000
VISUALSTYLE
  0
VISUALSTYLE
  5
84313
102
{ACAD_REACTORS
330
8430C
102
}
330
8430C
100
AcDbVisualStyle
  2
3dWireframe
 70
     5
177
     3
291
     0
 70
    58
 90
        0
176
     1
 90
        2
176
     1
 90
        0
176
     1
 90
        0
176
     1
 40
0.6
176
     1
 40
30.0
176
     1
 62
     7
176
     1
 90
        1
176
     1
 90
        4
176
     1
 62
     7
176
     1
 62
   257
176
     1
 90
        1
176
     1
 90
        1
176
     1
 40
1.0
176
     1
 90
        0
176
     1
 62
   257
176
     1
 40
1.0
176
     1
 90
        1
176
     1
 90
        6
176
     1
 90
        2
176
     1
 62
     7
176
     1
 90
        5
176
     1
 90
        0
176
     1
 90
        0
176
     1
290
     0
176
     1
 90
        1
176
     1
 40
0.0
176
     1
 90
        0
176
     1
290
     0
176
     1
290
     1
176
     1
290
     1
176
     1
290
     0
176
     1
290
     0
176
     1
290
     0
176
     1
290
     0
176
     1
290
     0
176
     1
290
     0
176
     1
 90
       50
176
     1
 40
0.0
176
     1
 40
1.0
176
     1
 90
        0
176
     1
 62
    18
420
        0
176
     1
 90
       50
176
     1
 90
        3
176
     1
 62
     5
420
      255
176
     1
290
     0
176
     1
 90
       50
176
     1
 90
       50
176
     1
 90
       50
176
     1
290
     0
176
     1
 90
       50
176
     1
 62
   256
176
     0
 40
1.0
176
     0
 90
        2
176
     1
  1
strokes_ogs.tif
176
     1
290
     0
176
     1
 40
1.0
176
     1
 40
1.0
176
     1
1001
ACAD
1000
AcRTDxfName
1000
VISUALSTYLE
1000
AcRTDxfName
1000
VISUALSTYLE
1000
AcRTDxfName
1000
VISUALSTYLE
1000
AcRTDxfName
1000
VISUALSTYLE
1000
AcRTDxfName
1000
VISUALSTYLE
1000
AcRTDxfName
1000
VISUALSTYLE
1000
AcRTDxfName
1000
VISUALSTYLE
  0
VISUALSTYLE
  5
84311
102
{ACAD_REACTORS
330
8430C
102
}
330
8430C
100
AcDbVisualStyle
  2
Basic
 70
     7
177
     3
291
     1
 70
    58
 90
        1
176
     1
 90
        0
176
     1
 90
        1
176
     1
 90
        0
176
     1
 40
0.6
176
     1
 40
30.0
176
     1
 62
     7
176
     1
 90
        0
176
     1
 90
        4
176
     1
 62
     7
176
     1
 62
   257
176
     1
 90
        1
176
     1
 90
        1
176
     1
 40
1.0
176
     1
 90
        8
176
     1
 62
     7
176
     1
 40
1.0
176
     1
 90
        1
176
     1
 90
        6
176
     1
 90
        2
176
     1
 62
     7
176
     1
 90
        5
176
     1
 90
        0
176
     1
 90
        0
176
     1
290
     0
176
     1
 90
        1
176
     1
 40
0.0
176
     1
 90
        0
176
     1
290
     0
176
     1
290
     1
176
     1
290
     1
176
     1
290
     0
176
     1
290
     0
176
     1
290
     0
176
     1
290
     0
176
     1
290
     0
176
     1
290
     0
176
     1
 90
       50
176
     1
 40
0.0
176
     1
 40
1.0
176
     1
 90
        0
176
     1
 62
    18
420
        0
176
     1
 90
       50
176
     1
 90
        3
176
     1
 62
     5
420
      255
176
     1
290
     0
176
     1
 90
       50
176
     1
 90
       50
176
     1
 90
       50
176
     1
290
     0
176
     1
 90
       50
176
     1
 62
   256
176
     0
 40
1.0
176
     0
 90
        2
176
     1
  1
strokes_ogs.tif
176
     1
290
     0
176
     1
 40
1.0
176
     1
 40
1.0
176
     1
1001
ACAD
1000
AcRTDxfName
1000
VISUALSTYLE
1000
AcRTDxfName
1000
VISUALSTYLE
1000
AcRTDxfName
1000
VISUALSTYLE
1000
AcRTDxfName
1000
VISUALSTYLE
1000
AcRTDxfName
1000
VISUALSTYLE
1000
AcRTDxfName
1000
VISUALSTYLE
1000
AcRTDxfName
1000
VISUALSTYLE
  0
VISUALSTYLE
  5
84318
102
{ACAD_REACTORS
330
8430C
102
}
330
8430C
100
AcDbVisualStyle
  2
Brighten
 70
    12
177
     3
291
     1
 70
    58
 90
        2
176
     1
 90
        2
176
     1
 90
        0
176
     1
 90
        0
176
     1
 40
0.6
176
     1
 40
30.0
176
     1
 62
     7
176
     1
 90
        1
176
     1
 90
        4
176
     1
 62
     7
176
     1
 62
   257
176
     1
 90
        1
176
     1
 90
        1
176
     1
 40
1.0
176
     1
 90
        8
176
     1
 62
     7
176
     1
 40
1.0
176
     1
 90
        1
176
     1
 90
        6
176
     1
 90
        2
176
     1
 62
     7
176
     1
 90
        5
176
     1
 90
        0
176
     1
 90
        0
176
     1
290
     0
176
     1
 90
        1
176
     1
 40
50.0
176
     1
 90
        0
176
     1
290
     0
176
     1
290
     1
176
     1
290
     1
176
     1
290
     0
176
     1
290
     0
176
     1
290
     0
176
     1
290
     0
176
     1
290
     0
176
     1
290
     0
176
     1
 90
       50
176
     1
 40
0.0
176
     1
 40
1.0
176
     1
 90
        0
176
     1
 62
    18
420
        0
176
     1
 90
       50
176
     1
 90
        3
176
     1
 62
     5
420
      255
176
     1
290
     0
176
     1
 90
       50
176
     1
 90
       50
176
     1
 90
       50
176
     1
290
     0
176
     1
 90
       50
176
     1
 62
   256
176
     0
 40
1.0
176
     0
 90
        2
176
     1
  1
strokes_ogs.tif
176
     1
290
     0
176
     1
 40
1.0
176
     1
 40
1.0
176
     1
1001
ACAD
1000
AcRTDxfName
1000
VISUALSTYLE
1000
AcRTDxfName
1000
VISUALSTYLE
1000
AcRTDxfName
1000
VISUALSTYLE
1000
AcRTDxfName
1000
VISUALSTYLE
1000
AcRTDxfName
1000
VISUALSTYLE
1000
AcRTDxfName
1000
VISUALSTYLE
1000
AcRTDxfName
1000
VISUALSTYLE
  0
VISUALSTYLE
  5
8431C
102
{ACAD_REACTORS
330
8430C
102
}
330
8430C
100
AcDbVisualStyle
  2
ColorChange
 70
    16
177
     3
291
     1
 70
    58
 90
        2
176
     1
 90
        2
176
     1
 90
        3
176
     1
 90
        0
176
     1
 40
0.6
176
     1
 40
30.0
176
     1
 62
     8
176
     1
 90
        1
176
     1
 90
        4
176
     1
 62
     7
176
     1
 62
   257
176
     1
 90
        1
176
     1
 90
        1
176
     1
 40
1.0
176
     1
 90
        8
176
     1
 62
     8
176
     1
 40
1.0
176
     1
 90
        1
176
     1
 90
        6
176
     1
 90
        2
176
     1
 62
     7
176
     1
 90
        5
176
     1
 90
        0
176
     1
 90
        0
176
     1
290
     0
176
     1
 90
        1
176
     1
 40
0.0
176
     1
 90
        0
176
     1
290
     0
176
     1
290
     1
176
     1
290
     1
176
     1
290
     0
176
     1
290
     0
176
     1
290
     0
176
     1
290
     0
176
     1
290
     0
176
     1
290
     0
176
     1
 90
       50
176
     1
 40
0.0
176
     1
 40
1.0
176
     1
 90
        0
176
     1
 62
    18
420
        0
176
     1
 90
       50
176
     1
 90
        3
176
     1
 62
     5
420
      255
176
     1
290
     0
176
     1
 90
       50
176
     1
 90
       50
176
     1
 90
       50
176
     1
290
     0
176
     1
 90
       50
176
     1
 62
   256
176
     0
 40
1.0
176
     0
 90
        2
176
     1
  1
strokes_ogs.tif
176
     1
290
     0
176
     1
 40
1.0
176
     1
 40
1.0
176
     1
1001
ACAD
1000
AcRTDxfName
1000
VISUALSTYLE
1000
AcRTDxfName
1000
VISUALSTYLE
1000
AcRTDxfName
1000
VISUALSTYLE
1000
AcRTDxfName
1000
VISUALSTYLE
1000
AcRTDxfName
1000
VISUALSTYLE
1000
AcRTDxfName
1000
VISUALSTYLE
1000
AcRTDxfName
1000
VISUALSTYLE
  0
VISUALSTYLE
  5
84315
102
{ACAD_REACTORS
330
8430C
102
}
330
8430C
100
AcDbVisualStyle
  2
Conceptual
 70
     9
177
     3
291
     0
 70
    58
 90
        3
176
     1
 90
        2
176
     1
 90
        0
176
     1
 90
        0
176
     1
 40
0.6
176
     1
 40
30.0
176
     1
 62
     7
176
     1
 90
        2
176
     1
 90
        2
176
     1
 62
     7
176
     1
 62
   257
176
     1
 90
        1
176
     1
 90
        1
176
     1
 40
40.0
176
     1
 90
        8
176
     1
 62
     7
176
     1
 40
1.0
176
     1
 90
        1
176
     1
 90
        6
176
     1
 90
        2
176
     1
 62
     7
176
     1
 90
        3
176
     1
 90
        0
176
     1
 90
        0
176
     1
290
     0
176
     1
 90
        1
176
     1
 40
0.0
176
     1
 90
        0
176
     1
290
     0
176
     1
290
     1
176
     1
290
     1
176
     1
290
     0
176
     1
290
     0
176
     1
290
     0
176
     1
290
     0
176
     1
290
     0
176
     1
290
     0
176
     1
 90
       50
176
     1
 40
0.0
176
     1
 40
1.0
176
     1
 90
        0
176
     1
 62
    18
420
        0
176
     1
 90
       50
176
     1
 90
        3
176
     1
 62
     5
420
      255
176
     1
290
     0
176
     1
 90
       50
176
     1
 90
       50
176
     1
 90
       50
176
     1
290
     0
176
     1
 90
       50
176
     1
 62
   256
176
     0
 40
1.0
176
     0
 90
        2
176
     1
  1
strokes_ogs.tif
176
     1
290
     0
176
     1
 40
1.0
176
     1
 40
1.0
176
     1
1001
ACAD
1000
AcRTDxfName
1000
VISUALSTYLE
1000
AcRTDxfName
1000
VISUALSTYLE
1000
AcRTDxfName
1000
VISUALSTYLE
1000
AcRTDxfName
1000
VISUALSTYLE
1000
AcRTDxfName
1000
VISUALSTYLE
1000
AcRTDxfName
1000
VISUALSTYLE
1000
AcRTDxfName
1000
VISUALSTYLE
  0
VISUALSTYLE
  5
84317
102
{ACAD_REACTORS
330
8430C
102
}
330
8430C
100
AcDbVisualStyle
  2
Dim
 70
    11
177
     3
291
     1
 70
    58
 90
        2
176
     1
 90
        2
176
     1
 90
        0
176
     1
 90
        0
176
     1
 40
0.6
176
     1
 40
30.0
176
     1
 62
     7
176
     1
 90
        1
176
     1
 90
        4
176
     1
 62
     7
176
     1
 62
   257
176
     1
 90
        1
176
     1
 90
        1
176
     1
 40
1.0
176
     1
 90
        8
176
     1
 62
     7
176
     1
 40
1.0
176
     1
 90
        1
176
     1
 90
        6
176
     1
 90
        2
176
     1
 62
     7
176
     1
 90
        5
176
     1
 90
        0
176
     1
 90
        0
176
     1
290
     0
176
     1
 90
        1
176
     1
 40
-50.0
176
     1
 90
        0
176
     1
290
     0
176
     1
290
     1
176
     1
290
     1
176
     1
290
     0
176
     1
290
     0
176
     1
290
     0
176
     1
290
     0
176
     1
290
     0
176
     1
290
     0
176
     1
 90
       50
176
     1
 40
0.0
176
     1
 40
1.0
176
     1
 90
        0
176
     1
 62
    18
420
        0
176
     1
 90
       50
176
     1
 90
        3
176
     1
 62
     5
420
      255
176
     1
290
     0
176
     1
 90
       50
176
     1
 90
       50
176
     1
 90
       50
176
     1
290
     0
176
     1
 90
       50
176
     1
 62
   256
176
     0
 40
1.0
176
     0
 90
        2
176
     1
  1
strokes_ogs.tif
176
     1
290
     0
176
     1
 40
1.0
176
     1
 40
1.0
176
     1
1001
ACAD
1000
AcRTDxfName
1000
VISUALSTYLE
1000
AcRTDxfName
1000
VISUALSTYLE
1000
AcRTDxfName
1000
VISUALSTYLE
1000
AcRTDxfName
1000
VISUALSTYLE
1000
AcRTDxfName
1000
VISUALSTYLE
1000
AcRTDxfName
1000
VISUALSTYLE
1000
AcRTDxfName
1000
VISUALSTYLE
  0
VISUALSTYLE
  5
A894B
102
{ACAD_REACTORS
330
8430C
102
}
330
8430C
100
AcDbVisualStyle
  2
EdgeColorOff
 70
    22
177
     3
291
     1
 70
    58
 90
        2
176
     0
 90
        2
176
     0
 90
        0
176
     0
 90
        0
176
     0
 40
0.6
176
     0
 40
30.0
176
     0
 62
     7
176
     0
 90
        1
176
     0
 90
        4
176
     0
 62
     7
176
     0
 62
   257
176
     0
 90
        1
176
     0
 90
        1
176
     0
 40
1.0
176
     0
 90
        8
176
     2
 62
     7
176
     0
 40
1.0
176
     0
 90
        1
176
     0
 90
        6
176
     0
 90
        2
176
     0
 62
     7
176
     0
 90
        5
176
     0
 90
        0
176
     0
 90
        0
176
     0
290
     0
176
     0
 90
        1
176
     0
 40
0.0
176
     0
 90
        0
176
     0
290
     0
176
     1
290
     1
176
     1
290
     1
176
     1
290
     0
176
     1
290
     0
176
     1
290
     0
176
     1
290
     0
176
     1
290
     0
176
     1
290
     0
176
     1
 90
       50
176
     1
 40
0.0
176
     1
 40
1.0
176
     1
 90
        0
176
     1
 62
    18
420
        0
176
     1
 90
       50
176
     1
 90
        3
176
     1
 62
     5
420
      255
176
     1
290
     0
176
     1
 90
       50
176
     1
 90
       50
176
     1
 90
       50
176
     1
290
     0
176
     1
 90
       50
176
     1
 62
   256
176
     0
 40
1.0
176
     0
 90
        2
176
     1
  1
strokes_ogs.tif
176
     1
290
     0
176
     1
 40
1.0
176
     1
 40
1.0
176
     1
  0
VISUALSTYLE
  5
8431B
102
{ACAD_REACTORS
330
8430C
102
}
330
8430C
100
AcDbVisualStyle
  2
Facepattern
 70
    15
177
     3
291
     1
 70
    58
 90
        2
176
     1
 90
        2
176
     1
 90
        0
176
     1
 90
        0
176
     1
 40
0.6
176
     1
 40
30.0
176
     1
 62
     7
176
     1
 90
        1
176
     1
 90
        4
176
     1
 62
     7
176
     1
 62
   257
176
     1
 90
        1
176
     1
 90
        1
176
     1
 40
1.0
176
     1
 90
        8
176
     1
 62
     7
176
     1
 40
1.0
176
     1
 90
        1
176
     1
 90
        6
176
     1
 90
        2
176
     1
 62
     7
176
     1
 90
        5
176
     1
 90
        0
176
     1
 90
        0
176
     1
290
     0
176
     1
 90
        1
176
     1
 40
0.0
176
     1
 90
        0
176
     1
290
     0
176
     1
290
     1
176
     1
290
     1
176
     1
290
     0
176
     1
290
     0
176
     1
290
     0
176
     1
290
     0
176
     1
290
     0
176
     1
290
     0
176
     1
 90
       50
176
     1
 40
0.0
176
     1
 40
1.0
176
     1
 90
        0
176
     1
 62
    18
420
        0
176
     1
 90
       50
176
     1
 90
        3
176
     1
 62
     5
420
      255
176
     1
290
     0
176
     1
 90
       50
176
     1
 90
       50
176
     1
 90
       50
176
     1
290
     0
176
     1
 90
       50
176
     1
 62
   256
176
     0
 40
1.0
176
     0
 90
        2
176
     1
  1
strokes_ogs.tif
176
     1
290
     0
176
     1
 40
1.0
176
     1
 40
1.0
176
     1
1001
ACAD
1000
AcRTDxfName
1000
VISUALSTYLE
1000
AcRTDxfName
1000
VISUALSTYLE
1000
AcRTDxfName
1000
VISUALSTYLE
1000
AcRTDxfName
1000
VISUALSTYLE
1000
AcRTDxfName
1000
VISUALSTYLE
1000
AcRTDxfName
1000
VISUALSTYLE
1000
AcRTDxfName
1000
VISUALSTYLE
  0
VISUALSTYLE
  5
8430D
102
{ACAD_REACTORS
330
8430C
102
}
330
8430C
100
AcDbVisualStyle
  2
Flat
 70
     0
177
     3
291
     1
 70
    58
 90
        2
176
     1
 90
        1
176
     1
 90
        1
176
     1
 90
        2
176
     1
 40
0.6
176
     1
 40
30.0
176
     1
 62
     7
176
     1
 90
        0
176
     1
 90
        4
176
     1
 62
     7
176
     1
 62
   257
176
     1
 90
        1
176
     1
 90
        1
176
     1
 40
1.0
176
     1
 90
        8
176
     1
 62
     7
176
     1
 40
1.0
176
     1
 90
        1
176
     1
 90
        6
176
     1
 90
        2
176
     1
 62
     7
176
     1
 90
        5
176
     1
 90
        0
176
     1
 90
        0
176
     1
290
     0
176
     1
 90
       13
176
     1
 40
0.0
176
     1
 90
        0
176
     1
290
     0
176
     1
290
     1
176
     1
290
     1
176
     1
290
     0
176
     1
290
     0
176
     1
290
     0
176
     1
290
     0
176
     1
290
     0
176
     1
290
     0
176
     1
 90
       50
176
     1
 40
0.0
176
     1
 40
1.0
176
     1
 90
        0
176
     1
 62
    18
420
        0
176
     1
 90
       50
176
     1
 90
        3
176
     1
 62
     5
420
      255
176
     1
290
     0
176
     1
 90
       50
176
     1
 90
       50
176
     1
 90
       50
176
     1
290
     0
176
     1
 90
       50
176
     1
 62
   256
176
     0
 40
1.0
176
     0
 90
        2
176
     1
  1
strokes_ogs.tif
176
     1
290
     0
176
     1
 40
1.0
176
     1
 40
1.0
176
     1
1001
ACAD
1000
AcRTDxfName
1000
VISUALSTYLE
1000
AcRTDxfName
1000
VISUALSTYLE
1000
AcRTDxfName
1000
VISUALSTYLE
1000
AcRTDxfName
1000
VISUALSTYLE
1000
AcRTDxfName
1000
VISUALSTYLE
1000
AcRTDxfName
1000
VISUALSTYLE
1000
AcRTDxfName
1000
VISUALSTYLE
  0
VISUALSTYLE
  5
8430E
102
{ACAD_REACTORS
330
8430C
102
}
330
8430C
100
AcDbVisualStyle
  2
FlatWithEdges
 70
     1
177
     3
291
     1
 70
    58
 90
        2
176
     1
 90
        1
176
     1
 90
        1
176
     1
 90
        2
176
     1
 40
0.6
176
     1
 40
30.0
176
     1
 62
     7
176
     1
 90
        1
176
     1
 90
        4
176
     1
 62
     7
176
     1
 62
   257
176
     1
 90
        1
176
     1
 90
        1
176
     1
 40
1.0
176
     1
 90
        0
176
     1
 62
   257
176
     1
 40
1.0
176
     1
 90
        1
176
     1
 90
        6
176
     1
 90
        2
176
     1
 62
     7
176
     1
 90
        5
176
     1
 90
        0
176
     1
 90
        0
176
     1
290
     0
176
     1
 90
       13
176
     1
 40
0.0
176
     1
 90
        0
176
     1
290
     0
176
     1
290
     1
176
     1
290
     1
176
     1
290
     0
176
     1
290
     0
176
     1
290
     0
176
     1
290
     0
176
     1
290
     0
176
     1
290
     0
176
     1
 90
       50
176
     1
 40
0.0
176
     1
 40
1.0
176
     1
 90
        0
176
     1
 62
    18
420
        0
176
     1
 90
       50
176
     1
 90
        3
176
     1
 62
     5
420
      255
176
     1
290
     0
176
     1
 90
       50
176
     1
 90
       50
176
     1
 90
       50
176
     1
290
     0
176
     1
 90
       50
176
     1
 62
   256
176
     0
 40
1.0
176
     0
 90
        2
176
     1
  1
strokes_ogs.tif
176
     1
290
     0
176
     1
 40
1.0
176
     1
 40
1.0
176
     1
1001
ACAD
1000
AcRTDxfName
1000
VISUALSTYLE
1000
AcRTDxfName
1000
VISUALSTYLE
1000
AcRTDxfName
1000
VISUALSTYLE
1000
AcRTDxfName
1000
VISUALSTYLE
1000
AcRTDxfName
1000
VISUALSTYLE
1000
AcRTDxfName
1000
VISUALSTYLE
1000
AcRTDxfName
1000
VISUALSTYLE
  0
VISUALSTYLE
  5
8430F
102
{ACAD_REACTORS
330
8430C
102
}
330
8430C
100
AcDbVisualStyle
  2
Gouraud
 70
     2
177
     3
291
     1
 70
    58
 90
        2
176
     1
 90
        2
176
     1
 90
        1
176
     1
 90
        2
176
     1
 40
0.6
176
     1
 40
30.0
176
     1
 62
     7
176
     1
 90
        0
176
     1
 90
        4
176
     1
 62
     7
176
     1
 62
   257
176
     1
 90
        1
176
     1
 90
        1
176
     1
 40
1.0
176
     1
 90
        0
176
     1
 62
     7
176
     1
 40
1.0
176
     1
 90
        1
176
     1
 90
        6
176
     1
 90
        2
176
     1
 62
     7
176
     1
 90
        5
176
     1
 90
        0
176
     1
 90
        0
176
     1
290
     0
176
     1
 90
       13
176
     1
 40
0.0
176
     1
 90
        0
176
     1
290
     0
176
     1
290
     1
176
     1
290
     1
176
     1
290
     0
176
     1
290
     0
176
     1
290
     0
176
     1
290
     0
176
     1
290
     0
176
     1
290
     0
176
     1
 90
       50
176
     1
 40
0.0
176
     1
 40
1.0
176
     1
 90
        0
176
     1
 62
    18
420
        0
176
     1
 90
       50
176
     1
 90
        3
176
     1
 62
     5
420
      255
176
     1
290
     0
176
     1
 90
       50
176
     1
 90
       50
176
     1
 90
       50
176
     1
290
     0
176
     1
 90
       50
176
     1
 62
   256
176
     0
 40
1.0
176
     0
 90
        2
176
     1
  1
strokes_ogs.tif
176
     1
290
     0
176
     1
 40
1.0
176
     1
 40
1.0
176
     1
1001
ACAD
1000
AcRTDxfName
1000
VISUALSTYLE
1000
AcRTDxfName
1000
VISUALSTYLE
1000
AcRTDxfName
1000
VISUALSTYLE
1000
AcRTDxfName
1000
VISUALSTYLE
1000
AcRTDxfName
1000
VISUALSTYLE
1000
AcRTDxfName
1000
VISUALSTYLE
1000
AcRTDxfName
1000
VISUALSTYLE
  0
VISUALSTYLE
  5
84310
102
{ACAD_REACTORS
330
8430C
102
}
330
8430C
100
AcDbVisualStyle
  2
GouraudWithEdges
 70
     3
177
     3
291
     1
 70
    58
 90
        2
176
     1
 90
        2
176
     1
 90
        1
176
     1
 90
        2
176
     1
 40
0.6
176
     1
 40
30.0
176
     1
 62
     7
176
     1
 90
        1
176
     1
 90
        4
176
     1
 62
     7
176
     1
 62
   257
176
     1
 90
        1
176
     1
 90
        1
176
     1
 40
1.0
176
     1
 90
        0
176
     1
 62
   257
176
     1
 40
1.0
176
     1
 90
        1
176
     1
 90
        6
176
     1
 90
        2
176
     1
 62
     7
176
     1
 90
        5
176
     1
 90
        0
176
     1
 90
        0
176
     1
290
     0
176
     1
 90
       13
176
     1
 40
0.0
176
     1
 90
        0
176
     1
290
     0
176
     1
290
     1
176
     1
290
     1
176
     1
290
     0
176
     1
290
     0
176
     1
290
     0
176
     1
290
     0
176
     1
290
     0
176
     1
290
     0
176
     1
 90
       50
176
     1
 40
0.0
176
     1
 40
1.0
176
     1
 90
        0
176
     1
 62
    18
420
        0
176
     1
 90
       50
176
     1
 90
        3
176
     1
 62
     5
420
      255
176
     1
290
     0
176
     1
 90
       50
176
     1
 90
       50
176
     1
 90
       50
176
     1
290
     0
176
     1
 90
       50
176
     1
 62
   256
176
     0
 40
1.0
176
     0
 90
        2
176
     1
  1
strokes_ogs.tif
176
     1
290
     0
176
     1
 40
1.0
176
     1
 40
1.0
176
     1
1001
ACAD
1000
AcRTDxfName
1000
VISUALSTYLE
1000
AcRTDxfName
1000
VISUALSTYLE
1000
AcRTDxfName
1000
VISUALSTYLE
1000
AcRTDxfName
1000
VISUALSTYLE
1000
AcRTDxfName
1000
VISUALSTYLE
1000
AcRTDxfName
1000
VISUALSTYLE
1000
AcRTDxfName
1000
VISUALSTYLE
  0
VISUALSTYLE
  5
A8943
102
{ACAD_REACTORS
330
8430C
102
}
330
8430C
100
AcDbVisualStyle
  2
Hidden
 70
     6
177
     3
291
     0
 70
    58
 90
        1
176
     1
 90
        2
176
     1
 90
        2
176
     1
 90
        0
176
     1
 40
0.6
176
     1
 40
30.0
176
     1
 62
     7
176
     1
 90
        2
176
     1
 90
        2
176
     1
 62
     7
176
     1
 62
   257
176
     1
 90
        2
176
     1
 90
        1
176
     1
 40
40.0
176
     1
 90
        0
176
     1
 62
   257
176
     1
 40
1.0
176
     1
 90
        1
176
     1
 90
        6
176
     1
 90
        2
176
     1
 62
     7
176
     1
 90
        3
176
     1
 90
        0
176
     1
 90
        0
176
     1
290
     0
176
     1
 90
        1
176
     1
 40
0.0
176
     1
 90
        0
176
     1
290
     0
176
     1
290
     1
176
     1
290
     1
176
     1
290
     0
176
     1
290
     0
176
     1
290
     0
176
     1
290
     0
176
     1
290
     0
176
     1
290
     0
176
     1
 90
       50
176
     1
 40
0.0
176
     1
 40
1.0
176
     1
 90
        0
176
     1
 62
    18
420
        0
176
     1
 90
       50
176
     1
 90
        3
176
     1
 62
     5
420
      255
176
     1
290
     0
176
     1
 90
       50
176
     1
 90
       50
176
     1
 90
       50
176
     1
290
     0
176
     1
 90
       50
176
     1
 62
   256
176
     0
 40
1.0
176
     0
 90
        2
176
     1
  1
strokes_ogs.tif
176
     1
290
     0
176
     1
 40
1.0
176
     1
 40
1.0
176
     1
  0
VISUALSTYLE
  5
A8949
102
{ACAD_REACTORS
330
8430C
102
}
330
8430C
100
AcDbVisualStyle
  2
JitterOff
 70
    20
177
     3
291
     1
 70
    58
 90
        2
176
     0
 90
        2
176
     0
 90
        0
176
     0
 90
        0
176
     0
 40
0.6
176
     0
 40
30.0
176
     0
 62
     7
176
     0
 90
        1
176
     0
 90
        4
176
     0
 62
     7
176
     0
 62
   257
176
     0
 90
        1
176
     0
 90
        1
176
     0
 40
1.0
176
     0
 90
       10
176
     2
 62
     7
176
     0
 40
1.0
176
     0
 90
        1
176
     0
 90
        6
176
     0
 90
        2
176
     0
 62
     7
176
     0
 90
        5
176
     0
 90
        0
176
     0
 90
        0
176
     0
290
     0
176
     0
 90
        1
176
     0
 40
0.0
176
     0
 90
        0
176
     0
290
     0
176
     1
290
     1
176
     1
290
     1
176
     1
290
     0
176
     1
290
     0
176
     1
290
     0
176
     1
290
     0
176
     1
290
     0
176
     1
290
     0
176
     1
 90
       50
176
     1
 40
0.0
176
     1
 40
1.0
176
     1
 90
        0
176
     1
 62
    18
420
        0
176
     1
 90
       50
176
     1
 90
        3
176
     1
 62
     5
420
      255
176
     1
290
     0
176
     1
 90
       50
176
     1
 90
       50
176
     1
 90
       50
176
     1
290
     0
176
     1
 90
       50
176
     1
 62
   256
176
     0
 40
1.0
176
     0
 90
        2
176
     1
  1
strokes_ogs.tif
176
     1
290
     0
176
     1
 40
1.0
176
     1
 40
1.0
176
     1
  0
VISUALSTYLE
  5
8431A
102
{ACAD_REACTORS
330
8430C
102
}
330
8430C
100
AcDbVisualStyle
  2
Linepattern
 70
    14
177
     3
291
     1
 70
    58
 90
        2
176
     1
 90
        2
176
     1
 90
        0
176
     1
 90
        0
176
     1
 40
0.6
176
     1
 40
30.0
176
     1
 62
     7
176
     1
 90
        1
176
     1
 90
        4
176
     1
 62
     7
176
     1
 62
   257
176
     1
 90
        7
176
     1
 90
        7
176
     1
 40
1.0
176
     1
 90
        8
176
     1
 62
     7
176
     1
 40
1.0
176
     1
 90
        1
176
     1
 90
        6
176
     1
 90
        2
176
     1
 62
     7
176
     1
 90
        5
176
     1
 90
        0
176
     1
 90
        0
176
     1
290
     0
176
     1
 90
        1
176
     1
 40
0.0
176
     1
 90
        0
176
     1
290
     0
176
     1
290
     1
176
     1
290
     1
176
     1
290
     0
176
     1
290
     0
176
     1
290
     0
176
     1
290
     0
176
     1
290
     0
176
     1
290
     0
176
     1
 90
       50
176
     1
 40
0.0
176
     1
 40
1.0
176
     1
 90
        0
176
     1
 62
    18
420
        0
176
     1
 90
       50
176
     1
 90
        3
176
     1
 62
     5
420
      255
176
     1
290
     0
176
     1
 90
       50
176
     1
 90
       50
176
     1
 90
       50
176
     1
290
     0
176
     1
 90
       50
176
     1
 62
   256
176
     0
 40
1.0
176
     0
 90
        2
176
     1
  1
strokes_ogs.tif
176
     1
290
     0
176
     1
 40
1.0
176
     1
 40
1.0
176
     1
1001
ACAD
1000
AcRTDxfName
1000
VISUALSTYLE
1000
AcRTDxfName
1000
VISUALSTYLE
1000
AcRTDxfName
1000
VISUALSTYLE
1000
AcRTDxfName
1000
VISUALSTYLE
1000
AcRTDxfName
1000
VISUALSTYLE
1000
AcRTDxfName
1000
VISUALSTYLE
1000
AcRTDxfName
1000
VISUALSTYLE
  0
VISUALSTYLE
  5
A894A
102
{ACAD_REACTORS
330
8430C
102
}
330
8430C
100
AcDbVisualStyle
  2
OverhangOff
 70
    21
177
     3
291
     1
 70
    58
 90
        2
176
     0
 90
        2
176
     0
 90
        0
176
     0
 90
        0
176
     0
 40
0.6
176
     0
 40
30.0
176
     0
 62
     7
176
     0
 90
        1
176
     0
 90
        4
176
     0
 62
     7
176
     0
 62
   257
176
     0
 90
        1
176
     0
 90
        1
176
     0
 40
1.0
176
     0
 90
        9
176
     2
 62
     7
176
     0
 40
1.0
176
     0
 90
        1
176
     0
 90
        6
176
     0
 90
        2
176
     0
 62
     7
176
     0
 90
        5
176
     0
 90
        0
176
     0
 90
        0
176
     0
290
     0
176
     0
 90
        1
176
     0
 40
0.0
176
     0
 90
        0
176
     0
290
     0
176
     1
290
     1
176
     1
290
     1
176
     1
290
     0
176
     1
290
     0
176
     1
290
     0
176
     1
290
     0
176
     1
290
     0
176
     1
290
     0
176
     1
 90
       50
176
     1
 40
0.0
176
     1
 40
1.0
176
     1
 90
        0
176
     1
 62
    18
420
        0
176
     1
 90
       50
176
     1
 90
        3
176
     1
 62
     5
420
      255
176
     1
290
     0
176
     1
 90
       50
176
     1
 90
       50
176
     1
 90
       50
176
     1
290
     0
176
     1
 90
       50
176
     1
 62
   256
176
     0
 40
1.0
176
     0
 90
        2
176
     1
  1
strokes_ogs.tif
176
     1
290
     0
176
     1
 40
1.0
176
     1
 40
1.0
176
     1
  0
VISUALSTYLE
  5
84316
102
{ACAD_REACTORS
330
8430C
102
}
330
8430C
100
AcDbVisualStyle
  2
Realistic
 70
     8
177
     3
291
     0
 70
    58
 90
        2
176
     1
 90
        2
176
     1
 90
        0
176
     1
 90
        0
176
     1
 40
0.6
176
     1
 40
30.0
176
     1
 62
     7
176
     1
 90
        1
176
     1
 90
        0
176
     1
 62
     7
176
     1
 62
   257
176
     1
 90
        1
176
     1
 90
        1
176
     1
 40
1.0
176
     1
 90
        8
176
     1
 62
     8
176
     1
 40
1.0
176
     1
 90
        1
176
     1
 90
        6
176
     1
 90
        2
176
     1
 62
     7
176
     1
 90
        5
176
     1
 90
        0
176
     1
 90
        0
176
     1
290
     0
176
     1
 90
       13
176
     1
 40
0.0
176
     1
 90
        0
176
     1
290
     0
176
     1
290
     1
176
     1
290
     1
176
     1
290
     0
176
     1
290
     0
176
     1
290
     0
176
     1
290
     0
176
     1
290
     0
176
     1
290
     0
176
     1
 90
       50
176
     1
 40
0.0
176
     1
 40
1.0
176
     1
 90
        0
176
     1
 62
    18
420
        0
176
     1
 90
       50
176
     1
 90
        3
176
     1
 62
     5
420
      255
176
     1
290
     0
176
     1
 90
       50
176
     1
 90
       50
176
     1
 90
       50
176
     1
290
     0
176
     1
 90
       50
176
     1
 62
   256
176
     0
 40
1.0
176
     0
 90
        2
176
     1
  1
strokes_ogs.tif
176
     1
290
     0
176
     1
 40
1.0
176
     1
 40
1.0
176
     1
1001
ACAD
1000
AcRTDxfName
1000
VISUALSTYLE
1000
AcRTDxfName
1000
VISUALSTYLE
1000
AcRTDxfName
1000
VISUALSTYLE
1000
AcRTDxfName
1000
VISUALSTYLE
1000
AcRTDxfName
1000
VISUALSTYLE
1000
AcRTDxfName
1000
VISUALSTYLE
1000
AcRTDxfName
1000
VISUALSTYLE
  0
VISUALSTYLE
  5
A8948
102
{ACAD_REACTORS
330
8430C
102
}
330
8430C
100
AcDbVisualStyle
  2
Shaded
 70
    27
177
     3
291
     0
 70
    58
 90
        2
176
     1
 90
        2
176
     1
 90
        1
176
     1
 90
        2
176
     1
 40
0.6
176
     1
 40
30.0
176
     1
 62
     7
176
     1
 90
        0
176
     1
 90
        4
176
     1
 62
     7
176
     1
 62
   257
176
     1
 90
        1
176
     1
 90
        1
176
     1
 40
1.0
176
     1
 90
        8
176
     1
 62
   257
176
     1
 40
1.0
176
     1
 90
        1
176
     1
 90
        6
176
     1
 90
        2
176
     1
 62
     8
176
     1
 90
        3
176
     1
 90
        0
176
     1
 90
        0
176
     1
290
     0
176
     1
 90
        5
176
     1
 40
0.0
176
     1
 90
        0
176
     1
290
     0
176
     1
290
     1
176
     1
290
     1
176
     1
290
     0
176
     1
290
     0
176
     1
290
     0
176
     1
290
     0
176
     1
290
     0
176
     1
290
     0
176
     1
 90
       50
176
     1
 40
0.0
176
     1
 40
1.0
176
     1
 90
        0
176
     1
 62
    18
420
        0
176
     1
 90
       50
176
     1
 90
        3
176
     1
 62
     5
420
      255
176
     1
290
     0
176
     1
 90
       50
176
     1
 90
       50
176
     1
 90
       50
176
     1
290
     0
176
     1
 90
       50
176
     1
 62
   256
176
     0
 40
1.0
176
     0
 90
        2
176
     1
  1
strokes_ogs.tif
176
     1
290
     0
176
     1
 40
1.0
176
     1
 40
1.0
176
     1
  0
VISUALSTYLE
  5
A8947
102
{ACAD_REACTORS
330
8430C
102
}
330
8430C
100
AcDbVisualStyle
  2
Shaded with edges
 70
    26
177
     3
291
     0
 70
    58
 90
        2
176
     1
 90
        2
176
     1
 90
        1
176
     1
 90
        2
176
     1
 40
0.6
176
     1
 40
30.0
176
     1
 62
     7
176
     1
 90
        1
176
     1
 90
        2
176
     1
 62
     7
176
     1
 62
   257
176
     1
 90
        2
176
     1
 90
        1
176
     1
 40
1.0
176
     1
 90
        8
176
     1
 62
   257
176
     1
 40
1.0
176
     1
 90
        1
176
     1
 90
        6
176
     1
 90
        2
176
     1
 62
     7
176
     1
 90
        3
176
     1
 90
        0
176
     1
 90
        0
176
     1
290
     0
176
     1
 90
        5
176
     1
 40
0.0
176
     1
 90
        0
176
     1
290
     0
176
     1
290
     1
176
     1
290
     1
176
     1
290
     0
176
     1
290
     0
176
     1
290
     0
176
     1
290
     0
176
     1
290
     0
176
     1
290
     0
176
     1
 90
       50
176
     1
 40
0.0
176
     1
 40
1.0
176
     1
 90
        0
176
     1
 62
    18
420
        0
176
     1
 90
       50
176
     1
 90
        3
176
     1
 62
     5
420
      255
176
     1
290
     0
176
     1
 90
       50
176
     1
 90
       50
176
     1
 90
       50
176
     1
290
     0
176
     1
 90
       50
176
     1
 62
   256
176
     0
 40
1.0
176
     0
 90
        2
176
     1
  1
strokes_ogs.tif
176
     1
290
     0
176
     1
 40
1.0
176
     1
 40
1.0
176
     1
  0
VISUALSTYLE
  5
A8944
102
{ACAD_REACTORS
330
8430C
102
}
330
8430C
100
AcDbVisualStyle
  2
Shades of Gray
 70
    23
177
     3
291
     0
 70
    58
 90
        2
176
     1
 90
        2
176
     1
 90
        3
176
     1
 90
        0
176
     1
 40
0.6
176
     1
 40
30.0
176
     1
 62
     7
176
     1
 90
        2
176
     1
 90
        2
176
     1
 62
     7
176
     1
 62
     7
176
     1
 90
        1
176
     1
 90
        1
176
     1
 40
40.0
176
     1
 90
        8
176
     1
 62
     7
176
     1
 40
1.0
176
     1
 90
        1
176
     1
 90
        6
176
     1
 90
        2
176
     1
 62
     7
176
     1
 90
        3
176
     1
 90
        0
176
     1
 90
        0
176
     1
290
     0
176
     1
 90
        1
176
     1
 40
0.0
176
     1
 90
        0
176
     1
290
     0
176
     1
290
     1
176
     1
290
     1
176
     1
290
     0
176
     1
290
     0
176
     1
290
     0
176
     1
290
     0
176
     1
290
     0
176
     1
290
     0
176
     1
 90
       50
176
     1
 40
0.0
176
     1
 40
1.0
176
     1
 90
        0
176
     1
 62
    18
420
        0
176
     1
 90
       50
176
     1
 90
        3
176
     1
 62
     5
420
      255
176
     1
290
     0
176
     1
 90
       50
176
     1
 90
       50
176
     1
 90
       50
176
     1
290
     0
176
     1
 90
       50
176
     1
 62
   256
176
     0
 40
1.0
176
     0
 90
        2
176
     1
  1
strokes_ogs.tif
176
     1
290
     0
176
     1
 40
1.0
176
     1
 40
1.0
176
     1
  0
VISUALSTYLE
  5
A8945
102
{ACAD_REACTORS
330
8430C
102
}
330
8430C
100
AcDbVisualStyle
  2
Sketchy
 70
    24
177
     3
291
     0
 70
    58
 90
        1
176
     1
 90
        2
176
     1
 90
        2
176
     1
 90
        0
176
     1
 40
0.6
176
     1
 40
30.0
176
     1
 62
     7
176
     1
 90
        2
176
     1
 90
        2
176
     1
 62
     7
176
     1
 62
     7
176
     1
 90
        1
176
     1
 90
        1
176
     1
 40
40.0
176
     1
 90
       11
176
     1
 62
     7
176
     1
 40
1.0
176
     1
 90
        1
176
     1
 90
        6
176
     1
 90
        2
176
     1
 62
     7
176
     1
 90
        6
176
     1
 90
        0
176
     1
 90
        0
176
     1
290
     0
176
     1
 90
        1
176
     1
 40
0.0
176
     1
 90
        0
176
     1
290
     0
176
     1
290
     1
176
     1
290
     1
176
     1
290
     0
176
     1
290
     0
176
     1
290
     0
176
     1
290
     0
176
     1
290
     0
176
     1
290
     0
176
     1
 90
       50
176
     1
 40
0.0
176
     1
 40
1.0
176
     1
 90
        0
176
     1
 62
    18
420
        0
176
     1
 90
       50
176
     1
 90
        3
176
     1
 62
     5
420
      255
176
     1
290
     0
176
     1
 90
       50
176
     1
 90
       50
176
     1
 90
       50
176
     1
290
     0
176
     1
 90
       50
176
     1
 62
   256
176
     0
 40
1.0
176
     0
 90
        2
176
     1
  1
strokes_ogs.tif
176
     1
290
     0
176
     1
 40
1.0
176
     1
 40
1.0
176
     1
  0
VISUALSTYLE
  5
84319
102
{ACAD_REACTORS
330
8430C
102
}
330
8430C
100
AcDbVisualStyle
  2
Thicken
 70
    13
177
     3
291
     1
 70
    58
 90
        2
176
     1
 90
        2
176
     1
 90
        0
176
     1
 90
        0
176
     1
 40
0.6
176
     1
 40
30.0
176
     1
 62
     7
176
     1
 90
        1
176
     1
 90
        4
176
     1
 62
     7
176
     1
 62
   257
176
     1
 90
        1
176
     1
 90
        1
176
     1
 40
1.0
176
     1
 90
       12
176
     1
 62
     7
176
     1
 40
1.0
176
     1
 90
        1
176
     1
 90
        6
176
     1
 90
        2
176
     1
 62
     7
176
     1
 90
        5
176
     1
 90
        0
176
     1
 90
        0
176
     1
290
     0
176
     1
 90
        1
176
     1
 40
0.0
176
     1
 90
        0
176
     1
290
     0
176
     1
290
     1
176
     1
290
     1
176
     1
290
     0
176
     1
290
     0
176
     1
290
     0
176
     1
290
     0
176
     1
290
     0
176
     1
290
     0
176
     1
 90
       50
176
     1
 40
0.0
176
     1
 40
1.0
176
     1
 90
        0
176
     1
 62
    18
420
        0
176
     1
 90
       50
176
     1
 90
        3
176
     1
 62
     5
420
      255
176
     1
290
     0
176
     1
 90
       50
176
     1
 90
       50
176
     1
 90
       50
176
     1
290
     0
176
     1
 90
       50
176
     1
 62
   256
176
     0
 40
1.0
176
     0
 90
        2
176
     1
  1
strokes_ogs.tif
176
     1
290
     0
176
     1
 40
1.0
176
     1
 40
1.0
176
     1
1001
ACAD
1000
AcRTDxfName
1000
VISUALSTYLE
1000
AcRTDxfName
1000
VISUALSTYLE
1000
AcRTDxfName
1000
VISUALSTYLE
1000
AcRTDxfName
1000
VISUALSTYLE
1000
AcRTDxfName
1000
VISUALSTYLE
1000
AcRTDxfName
1000
VISUALSTYLE
1000
AcRTDxfName
1000
VISUALSTYLE
  0
VISUALSTYLE
  5
A8942
102
{ACAD_REACTORS
330
8430C
102
}
330
8430C
100
AcDbVisualStyle
  2
Wireframe
 70
     5
177
     3
291
     0
 70
    58
 90
        0
176
     1
 90
        2
176
     1
 90
        0
176
     1
 90
        0
176
     1
 40
0.6
176
     1
 40
30.0
176
     1
 62
     7
176
     1
 90
        1
176
     1
 90
        4
176
     1
 62
     7
176
     1
 62
   257
176
     1
 90
        1
176
     1
 90
        1
176
     1
 40
1.0
176
     1
 90
        0
176
     1
 62
   257
176
     1
 40
1.0
176
     1
 90
        1
176
     1
 90
        6
176
     1
 90
        2
176
     1
 62
     7
176
     1
 90
        3
176
     1
 90
        0
176
     1
 90
        0
176
     1
290
     0
176
     1
 90
        1
176
     1
 40
0.0
176
     1
 90
        0
176
     1
290
     0
176
     1
290
     1
176
     1
290
     1
176
     1
290
     0
176
     1
290
     0
176
     1
290
     0
176
     1
290
     0
176
     1
290
     0
176
     1
290
     0
176
     1
 90
       50
176
     1
 40
0.0
176
     1
 40
1.0
176
     1
 90
        0
176
     1
 62
    18
420
        0
176
     1
 90
       50
176
     1
 90
        3
176
     1
 62
     5
420
      255
176
     1
290
     0
176
     1
 90
       50
176
     1
 90
       50
176
     1
 90
       50
176
     1
290
     0
176
     1
 90
       50
176
     1
 62
   256
176
     0
 40
1.0
176
     0
 90
        2
176
     1
  1
strokes_ogs.tif
176
     1
290
     0
176
     1
 40
1.0
176
     1
 40
1.0
176
     1
  0
VISUALSTYLE
  5
A8946
102
{ACAD_REACTORS
330
8430C
102
}
330
8430C
100
AcDbVisualStyle
  2
X-Ray
 70
    25
177
     3
291
     0
 70
    58
 90
        2
176
     1
 90
        2
176
     1
 90
        1
176
     1
 90
        1
176
     1
 40
0.5
176
     1
 40
30.0
176
     1
 62
     7
176
     1
 90
        1
176
     1
 90
        0
176
     1
 62
     7
176
     1
 62
   257
176
     1
 90
        1
176
     1
 90
        1
176
     1
 40
1.0
176
     1
 90
        8
176
     1
 62
     7
176
     1
 40
1.0
176
     1
 90
        1
176
     1
 90
        6
176
     1
 90
        2
176
     1
 62
     7
176
     1
 90
        3
176
     1
 90
        0
176
     1
 90
        0
176
     1
290
     0
176
     1
 90
       13
176
     1
 40
0.0
176
     1
 90
        0
176
     1
290
     0
176
     1
290
     1
176
     1
290
     1
176
     1
290
     0
176
     1
290
     0
176
     1
290
     0
176
     1
290
     0
176
     1
290
     0
176
     1
290
     0
176
     1
 90
       50
176
     1
 40
0.0
176
     1
 40
1.0
176
     1
 90
        0
176
     1
 62
    18
420
        0
176
     1
 90
       50
176
     1
 90
        3
176
     1
 62
     5
420
      255
176
     1
290
     0
176
     1
 90
       50
176
     1
 90
       50
176
     1
 90
       50
176
     1
290
     0
176
     1
 90
       50
176
     1
 62
   256
176
     0
 40
1.0
176
     0
 90
        2
176
     1
  1
strokes_ogs.tif
176
     1
290
     0
176
     1
 40
1.0
176
     1
 40
1.0
176
     1
  0
DICTIONARYVAR
  5
A95B1
102
{ACAD_REACTORS
330
51
102
}
330
51
100
DictionaryVariables
280
     0
  1
1:1
  0
DICTIONARYVAR
  5
A95B0
102
{ACAD_REACTORS
330
51
102
}
330
51
100
DictionaryVariables
280
     0
  1
STANDARD
  0
DICTIONARYVAR
  5
5DA8C
102
{ACAD_REACTORS
330
51
102
}
330
51
100
DictionaryVariables
280
     0
  1
STANDARD
  0
DICTIONARYVAR
  5
EA589
102
{ACAD_REACTORS
330
51
102
}
330
51
100
DictionaryVariables
280
     0
  1
Metric50
  0
DICTIONARYVAR
  5
EA58A
102
{ACAD_REACTORS
330
51
102
}
330
51
100
DictionaryVariables
280
     0
  1
Metric50
  0
DICTIONARYVAR
  5
52
102
{ACAD_REACTORS
330
51
102
}
330
51
100
DictionaryVariables
280
     0
  1
0
  0
DICTIONARYVAR
  5
212DC
102
{ACAD_REACTORS
330
51
102
}
330
51
100
DictionaryVariables
280
     0
  1
1
  0
DICTIONARYVAR
  5
B4EDE
102
{ACAD_REACTORS
330
51
102
}
330
51
100
DictionaryVariables
280
     0
  1
1
  0
DICTIONARYVAR
  5
87C65
102
{ACAD_REACTORS
330
51
102
}
330
51
100
DictionaryVariables
280
     0
  1
0
  0
DICTIONARYVAR
  5
D62C5
102
{ACAD_REACTORS
330
51
102
}
330
51
100
DictionaryVariables
280
     0
  1
1
  0
DICTIONARYVAR
  5
D62C6
102
{ACAD_REACTORS
330
51
102
}
330
51
100
DictionaryVariables
280
     0
  1
15
  0
DICTIONARYVAR
  5
D62C4
102
{ACAD_REACTORS
330
51
102
}
330
51
100
DictionaryVariables
280
     0
  1
0
  0
DICTIONARYVAR
  5
D62C3
102
{ACAD_REACTORS
330
51
102
}
330
51
100
DictionaryVariables
280
     0
  1
0
  0
DICTIONARYVAR
  5
6CFD4
102
{ACAD_REACTORS
330
51
102
}
330
51
100
DictionaryVariables
280
     0
  1

  0
DICTIONARYVAR
  5
F9A8
102
{ACAD_REACTORS
330
51
102
}
330
51
100
DictionaryVariables
280
     0
  1
127
  0
DICTIONARY
  5
A9559
330
5D3CF
100
AcDbDictionary
280
     1
281
     1
  3
ACAD_ROUNDTRIP_2008_TABLESTYLE_CELLSTYLEMAP
360
EA5CC
  0
CELLSTYLEMAP
  5
EA5CC
102
{ACAD_REACTORS
330
A9559
102
}
330
A9559
100
AcDbCellStyleMap
 90
        3
300
CELLSTYLE
  1
TABLEFORMAT_BEGIN
 90
        5
170
     1
 91
        0
 92
    32768
 62
   257
 93
        1
300
CONTENTFORMAT
  1
CONTENTFORMAT_BEGIN
 90
        0
 91
        0
 92
        4
 93
        0
300

 40
0.0
140
1.0
 94
        5
 62
     0
340
F
144
6.0
309
CONTENTFORMAT_END
171
     1
301
MARGIN
  1
CELLMARGIN_BEGIN
 40
1.5
 40
1.5
 40
1.5
 40
1.5
 40
0.18
 40
0.18
309
CELLMARGIN_END
 94
        6
 95
        1
302
GRIDFORMAT
  1
GRIDFORMAT_BEGIN
 90
        0
 91
        1
 62
     0
 92
       -2
340
0
 93
        0
 40
0.045
309
GRIDFORMAT_END
 95
        2
302
GRIDFORMAT
  1
GRIDFORMAT_BEGIN
 90
        0
 91
        1
 62
     0
 92
       -2
340
0
 93
        0
 40
0.045
309
GRIDFORMAT_END
 95
        4
302
GRIDFORMAT
  1
GRIDFORMAT_BEGIN
 90
        0
 91
        1
 62
     0
 92
       -2
340
0
 93
        0
 40
0.045
309
GRIDFORMAT_END
 95
        8
302
GRIDFORMAT
  1
GRIDFORMAT_BEGIN
 90
        0
 91
        1
 62
     0
 92
       -2
340
0
 93
        0
 40
0.045
309
GRIDFORMAT_END
 95
       16
302
GRIDFORMAT
  1
GRIDFORMAT_BEGIN
 90
        0
 91
        1
 62
     0
 92
       -2
340
0
 93
        0
 40
0.045
309
GRIDFORMAT_END
 95
       32
302
GRIDFORMAT
  1
GRIDFORMAT_BEGIN
 90
        0
 91
        1
 62
     0
 92
       -2
340
0
 93
        0
 40
0.045
309
GRIDFORMAT_END
309
TABLEFORMAT_END
  1
CELLSTYLE_BEGIN
 90
        1
 91
        1
300
_TITLE
309
CELLSTYLE_END
300
CELLSTYLE
  1
TABLEFORMAT_BEGIN
 90
        5
170
     1
 91
        0
 92
        0
 62
   257
 93
        1
300
CONTENTFORMAT
  1
CONTENTFORMAT_BEGIN
 90
        0
 91
        0
 92
        4
 93
        0
300

 40
0.0
140
1.0
 94
        5
 62
     0
340
F
144
4.5
309
CONTENTFORMAT_END
171
     1
301
MARGIN
  1
CELLMARGIN_BEGIN
 40
1.5
 40
1.5
 40
1.5
 40
1.5
 40
0.18
 40
0.18
309
CELLMARGIN_END
 94
        6
 95
        1
302
GRIDFORMAT
  1
GRIDFORMAT_BEGIN
 90
        0
 91
        1
 62
     0
 92
       -2
340
0
 93
        0
 40
0.045
309
GRIDFORMAT_END
 95
        2
302
GRIDFORMAT
  1
GRIDFORMAT_BEGIN
 90
        0
 91
        1
 62
     0
 92
       -2
340
0
 93
        0
 40
0.045
309
GRIDFORMAT_END
 95
        4
302
GRIDFORMAT
  1
GRIDFORMAT_BEGIN
 90
        0
 91
        1
 62
     0
 92
       -2
340
0
 93
        0
 40
0.045
309
GRIDFORMAT_END
 95
        8
302
GRIDFORMAT
  1
GRIDFORMAT_BEGIN
 90
        0
 91
        1
 62
     0
 92
       -2
340
0
 93
        0
 40
0.045
309
GRIDFORMAT_END
 95
       16
302
GRIDFORMAT
  1
GRIDFORMAT_BEGIN
 90
        0
 91
        1
 62
     0
 92
       -2
340
0
 93
        0
 40
0.045
309
GRIDFORMAT_END
 95
       32
302
GRIDFORMAT
  1
GRIDFORMAT_BEGIN
 90
        0
 91
        1
 62
     0
 92
       -2
340
0
 93
        0
 40
0.045
309
GRIDFORMAT_END
309
TABLEFORMAT_END
  1
CELLSTYLE_BEGIN
 90
        2
 91
        1
300
_HEADER
309
CELLSTYLE_END
300
CELLSTYLE
  1
TABLEFORMAT_BEGIN
 90
        5
170
     1
 91
        0
 92
        0
 62
   257
 93
        1
300
CONTENTFORMAT
  1
CONTENTFORMAT_BEGIN
 90
        0
 91
        0
 92
        4
 93
        0
300

 40
0.0
140
1.0
 94
        2
 62
     0
340
F
144
4.5
309
CONTENTFORMAT_END
171
     1
301
MARGIN
  1
CELLMARGIN_BEGIN
 40
1.5
 40
1.5
 40
1.5
 40
1.5
 40
0.18
 40
0.18
309
CELLMARGIN_END
 94
        6
 95
        1
302
GRIDFORMAT
  1
GRIDFORMAT_BEGIN
 90
        0
 91
        1
 62
     0
 92
       -2
340
0
 93
        0
 40
0.045
309
GRIDFORMAT_END
 95
        2
302
GRIDFORMAT
  1
GRIDFORMAT_BEGIN
 90
        0
 91
        1
 62
     0
 92
       -2
340
0
 93
        0
 40
0.045
309
GRIDFORMAT_END
 95
        4
302
GRIDFORMAT
  1
GRIDFORMAT_BEGIN
 90
        0
 91
        1
 62
     0
 92
       -2
340
0
 93
        0
 40
0.045
309
GRIDFORMAT_END
 95
        8
302
GRIDFORMAT
  1
GRIDFORMAT_BEGIN
 90
        0
 91
        1
 62
     0
 92
       -2
340
0
 93
        0
 40
0.045
309
GRIDFORMAT_END
 95
       16
302
GRIDFORMAT
  1
GRIDFORMAT_BEGIN
 90
        0
 91
        1
 62
     0
 92
       -2
340
0
 93
        0
 40
0.045
309
GRIDFORMAT_END
 95
       32
302
GRIDFORMAT
  1
GRIDFORMAT_BEGIN
 90
        0
 91
        1
 62
     0
 92
       -2
340
0
 93
        0
 40
0.045
309
GRIDFORMAT_END
309
TABLEFORMAT_END
  1
CELLSTYLE_BEGIN
 90
        3
 91
        2
300
_DATA
309
CELLSTYLE_END
  0
ENDSEC
  0
SECTION
  2
ACDSDATA
 70
     2
 71
     8
  0
ACDSSCHEMA
 90
        0
  1
AcDb_Thumbnail_Schema
  2
AcDbDs::ID
280
    10
 91
        8
  2
Thumbnail_Data
280
    15
 91
        0
101
ACDSRECORD
 95
        0
 90
        1
  2
AcDbDs::TreatedAsObjectData
280
     1
291
     1
101
ACDSRECORD
 95
        0
 90
        2
  2
AcDbDs::Legacy
280
     1
291
     1
101
ACDSRECORD
  1
AcDbDs::ID
 90
        3
  2
AcDs:Indexable
280
     1
291
     1
101
ACDSRECORD
  1
AcDbDs::ID
 90
        4
  2
AcDbDs::HandleAttribute
280
     7
282
     1
  0
ACDSSCHEMA
 90
        1
  1
AcDbDs::TreatedAsObjectDataSchema
  2
AcDbDs::TreatedAsObjectData
280
     1
 91
        0
  0
ACDSSCHEMA
 90
        2
  1
AcDbDs::LegacySchema
  2
AcDbDs::Legacy
280
     1
 91
        0
  0
ACDSSCHEMA
 90
        3
  1
AcDbDs::IndexedPropertySchema
  2
AcDs:Indexable
280
     1
 91
        0
  0
ACDSSCHEMA
 90
        4
  1
AcDbDs::HandleAttributeSchema
  2
AcDbDs::HandleAttribute
280
     7
 91
        1
284
     1
  0
ACDSRECORD
 90
        0
  2
AcDbDs::ID
280
    10
320
501C
  2
Thumbnail_Data
280
    15
 94
     1467
310
89504E470D0A1A0A0000000D494844520000010000000085080300000083A6D68B00000300504C5445000000FFFFFF0000000000000000000000000000000000000000000000000000000000330000660000990000CC0000FF0033000033330033660033990033CC0033FF0066000066330066660066990066CC0066FF0099
310
000099330099660099990099CC0099FF00CC0000CC3300CC6600CC9900CCCC00CCFF00FF0000FF3300FF6600FF9900FFCC00FFFF3300003300333300663300993300CC3300FF3333003333333333663333993333CC3333FF3366003366333366663366993366CC3366FF3399003399333399663399993399CC3399FF33CC00
310
33CC3333CC6633CC9933CCCC33CCFF33FF0033FF3333FF6633FF9933FFCC33FFFF6600006600336600666600996600CC6600FF6633006633336633666633996633CC6633FF6666006666336666666666996666CC6666FF6699006699336699666699996699CC6699FF66CC0066CC3366CC6666CC9966CCCC66CCFF66FF0066
310
FF3366FF6666FF9966FFCC66FFFF9900009900339900669900999900CC9900FF9933009933339933669933999933CC9933FF9966009966339966669966999966CC9966FF9999009999339999669999999999CC9999FF99CC0099CC3399CC6699CC9999CCCC99CCFF99FF0099FF3399FF6699FF9999FFCC99FFFFCC0000CC00
310
33CC0066CC0099CC00CCCC00FFCC3300CC3333CC3366CC3399CC33CCCC33FFCC6600CC6633CC6666CC6699CC66CCCC66FFCC9900CC9933CC9966CC9999CC99CCCC99FFCCCC00CCCC33CCCC66CCCC99CCCCCCCCCCFFCCFF00CCFF33CCFF66CCFF99CCFFCCCCFFFFFF0000FF0033FF0066FF0099FF00CCFF00FFFF3300FF3333
310
FF3366FF3399FF33CCFF33FFFF6600FF6633FF6666FF6699FF66CCFF66FFFF9900FF9933FF9966FF9999FF99CCFF99FFFFCC00FFCC33FFCC66FFCC99FFCCCCFFCCFFFFFF00FFFF33FFFF66FFFF99FFFFCCFFFFFF0000000D0D0D1A1A1A2828283535354343435050505D5D5D6B6B6B787878868686939393A1A1A1AEAEAEBB
310
BBBBC9C9C9D6D6D6E4E4E4F1F1F1FFFFFF0000000000000000000000000000000000000000000000000000000000003AE5ACE9000002764944415478DAEDDC4D72E3201086E13E4E6F72FFCB700DEF53C12A902D1490698BBFF75B649294276E3DD3B4903CB10821841042082184104208218410420821841042082173E751
310
9F79690A1F376F732C0150DFFF8FA547880300000000F8E82F7E2F83007CB3240000180260BF64E3976EA50E701200EC66D84000CE13C876D8BE090CEA670930040100000000000000000000000000000000E04234A4338074459AAED7191C7FB9802940F279CFEBF902C0F6A7B401481EA8FF66BA1C4DBB557540606DD301
310
4783FF6AF134961D107AAA59078826044A96AC1540ACA301407A0469AE5C9905202EF5178265005E9F321C94AE03701C884D005A0EC104806600CC87A05F885D006CC568C123E6D909A6CE8AD7CB35D809760220993AEC778261F1750120B956D4F4EEB11240B731D0C3D560410724CAAD03D806CF2800A9720D3A40C6EA00
310
43008D2BAB931990ADF7586ED55940B397603D0D418D7730CCF60125AD670F707EC7AB6885BC3E6EC08D50FAACA3251D60BD11DA7EDACD37454F4EBBA500A633E0E249C00840CFCE4892DB0B9B0FC14E00B632D60588BBBC0600F7BF30729C0127CBFB8E2128221D0CC1DD3D41BD731FD0AA03F41420F3BA80FD4B636D7682
310
EF2DA02F009ADF080D7F47E84D400F45DDD2012E8ABABB01F602AA655745BB3631028823E06E80FD00D6B36DC1790BC8F8009F8DE0E4E3470508573F2AED00AEFF90A9FE8B0C00003C7F7309806501629419B022C087CF0600000000000000159B8E35DF4566960000000000000000000000000000000C7A04D5D79E33BDB5
310
76BCA1E0DE3E75D376C0F1BDC2DDDF47B7FB3400FCEC332BC0C339FFC1E7F98DC9013C823CFFC1D34B606B839F632600F8052F14A35AB2ED06DC0000000049454E44AE426082
  0
ENDSEC
  0
EOF
