  0
SECTION
  2
HEADER
  9
$ACADVER
  1
AC1032
  9
$ACADMAINTVER
 90
      233
  9
$DWGCODEPAGE
  3
ANSI_932
  9
$LASTSAVEDBY
  1
taketo.kashima
  9
$REQUIREDVERSIONS
160
                 0
  9
$INSBASE
 10
268.4340021441085
 20
176.78614296069
 30
0.0
  9
$EXTMIN
 10
541.2009921300376
 20
137.739419665224
 30
0.0
  9
$EXTMAX
 10
689.1699488291486
 20
279.2515336545148
 30
0.0
  9
$LIMMIN
 10
0.0
 20
0.0
  9
$LIMMAX
 10
554.0
 20
395.0
  9
$ORTHOMODE
 70
     0
  9
$REGENMODE
 70
     1
  9
$FILLMODE
 70
     1
  9
$QTEXTMODE
 70
     0
  9
$MIRRTEXT
 70
     1
  9
$LTSCALE
 40
2.0
  9
$ATTMODE
 70
     1
  9
$TEXTSIZE
 40
4.062847975340506
  9
$TRACEWID
 40
0.2
  9
$TEXTSTYLE
  7
ｺﾞｼｯｸ
  9
$CLAYER
  8
2寸法線
  9
$CELTYPE
  6
BYLAYER
  9
$CECOLOR
 62
   256
  9
$CELTSCALE
 40
3.0
  9
$DISPSILH
 70
     0
  9
$DIMSCALE
 40
1.0
  9
$DIMASZ
 40
2.0
  9
$DIMEXO
 40
1.0
  9
$DIMDLI
 40
6.0
  9
$DIMRND
 40
0.0
  9
$DIMDLE
 40
0.0
  9
$DIMEXE
 40
1.0
  9
$DIMTP
 40
0.0
  9
$DIMTM
 40
0.0
  9
$DIMTXT
 40
2.5
  9
$DIMCEN
 40
0.0
  9
$DIMTSZ
 40
0.0
  9
$DIMTOL
 70
     0
  9
$DIMLIM
 70
     0
  9
$DIMTIH
 70
     0
  9
$DIMTOH
 70
     0
  9
$DIMSE1
 70
     0
  9
$DIMSE2
 70
     0
  9
$DIMTAD
 70
     1
  9
$DIMZIN
 70
     8
  9
$DIMBLK
  1
2
  9
$DIMASO
 70
     1
  9
$DIMSHO
 70
     1
  9
$DIMPOST
  1

  9
$DIMAPOST
  1

  9
$DIMALT
 70
     0
  9
$DIMALTD
 70
     2
  9
$DIMALTF
 40
25.4
  9
$DIMLFAC
 40
1.0
  9
$DIMTOFL
 70
     1
  9
$DIMTVP
 40
0.0
  9
$DIMTIX
 70
     0
  9
$DIMSOXD
 70
     0
  9
$DIMSAH
 70
     0
  9
$DIMBLK1
  1

  9
$DIMBLK2
  1

  9
$DIMSTYLE
  2
STANDARD
  9
$DIMCLRD
 70
     2
  9
$DIMCLRE
 70
     2
  9
$DIMCLRT
 70
     2
  9
$DIMTFAC
 40
1.0
  9
$DIMGAP
 40
0.8
  9
$DIMJUST
 70
     0
  9
$DIMSD1
 70
     0
  9
$DIMSD2
 70
     0
  9
$DIMTOLJ
 70
     1
  9
$DIMTZIN
 70
     8
  9
$DIMALTZ
 70
     8
  9
$DIMALTTZ
 70
     8
  9
$DIMUPT
 70
     0
  9
$DIMDEC
 70
     1
  9
$DIMTDEC
 70
     1
  9
$DIMALTU
 70
     2
  9
$DIMALTTD
 70
     2
  9
$DIMTXSTY
  7
KANJI
  9
$DIMAUNIT
 70
     0
  9
$DIMADEC
 70
     0
  9
$DIMALTRND
 40
0.0
  9
$DIMAZIN
 70
     0
  9
$DIMDSEP
 70
    46
  9
$DIMATFIT
 70
     3
  9
$DIMFRAC
 70
     0
  9
$DIMLDRBLK
  1
2
  9
$DIMLUNIT
 70
     2
  9
$DIMLWD
 70
    -2
  9
$DIMLWE
 70
    -2
  9
$DIMTMOVE
 70
     0
  9
$DIMFXL
 40
1.0
  9
$DIMFXLON
 70
     0
  9
$DIMJOGANG
 40
0.7853981633974483
  9
$DIMTFILL
 70
     0
  9
$DIMTFILLCLR
 70
     0
  9
$DIMARCSYM
 70
     1
  9
$DIMLTYPE
  6

  9
$DIMLTEX1
  6

  9
$DIMLTEX2
  6

  9
$DIMTXTDIRECTION
 70
     0
  9
$LUNITS
 70
     2
  9
$LUPREC
 70
     4
  9
$SKETCHINC
 40
0.1
  9
$FILLETRAD
 40
0.0
  9
$AUNITS
 70
     0
  9
$AUPREC
 70
     0
  9
$MENU
  1
tcad-s
  9
$ELEVATION
 40
0.0
  9
$PELEVATION
 40
0.0
  9
$THICKNESS
 40
0.0
  9
$LIMCHECK
 70
     0
  9
$CHAMFERA
 40
0.0
  9
$CHAMFERB
 40
0.0
  9
$CHAMFERC
 40
0.0
  9
$CHAMFERD
 40
0.0
  9
$SKPOLY
 70
     0
  9
$TDCREATE
 40
2451271.629780093
  9
$TDUCREATE
 40
2451271.254788878
  9
$TDUPDATE
 40
2460320.695520833
  9
$TDUUPDATE
 40
2460320.320520833
  9
$TDINDWG
 40
31.5578804977
  9
$TDUSRTIMER
 40
31.5578804977
  9
$USRTIMER
 70
     1
  9
$ANGBASE
 50
0.0
  9
$ANGDIR
 70
     0
  9
$PDMODE
 70
     0
  9
$PDSIZE
 40
2.399999999999999
  9
$PLINEWID
 40
0.0
  9
$SPLFRAME
 70
     0
  9
$SPLINETYPE
 70
     6
  9
$SPLINESEGS
 70
     8
  9
$HANDSEED
  5
DEE8B
  9
$SURFTAB1
 70
     6
  9
$SURFTAB2
 70
     6
  9
$SURFTYPE
 70
     6
  9
$SURFU
 70
     6
  9
$SURFV
 70
     6
  9
$UCSBASE
  2

  9
$UCSNAME
  2

  9
$UCSORG
 10
26869.6166704439
 20
-12565.18743385195
 30
0.0
  9
$UCSXDIR
 10
1.0
 20
0.0
 30
0.0
  9
$UCSYDIR
 10
0.0
 20
1.0
 30
0.0
  9
$UCSORTHOREF
  2

  9
$UCSORTHOVIEW
 70
     0
  9
$UCSORGTOP
 10
0.0
 20
0.0
 30
0.0
  9
$UCSORGBOTTOM
 10
0.0
 20
0.0
 30
0.0
  9
$UCSORGLEFT
 10
0.0
 20
0.0
 30
0.0
  9
$UCSORGRIGHT
 10
0.0
 20
0.0
 30
0.0
  9
$UCSORGFRONT
 10
0.0
 20
0.0
 30
0.0
  9
$UCSORGBACK
 10
0.0
 20
0.0
 30
0.0
  9
$PUCSBASE
  2

  9
$PUCSNAME
  2

  9
$PUCSORG
 10
0.0
 20
0.0
 30
0.0
  9
$PUCSXDIR
 10
1.0
 20
0.0
 30
0.0
  9
$PUCSYDIR
 10
0.0
 20
1.0
 30
0.0
  9
$PUCSORTHOREF
  2

  9
$PUCSORTHOVIEW
 70
     0
  9
$PUCSORGTOP
 10
0.0
 20
0.0
 30
0.0
  9
$PUCSORGBOTTOM
 10
0.0
 20
0.0
 30
0.0
  9
$PUCSORGLEFT
 10
0.0
 20
0.0
 30
0.0
  9
$PUCSORGRIGHT
 10
0.0
 20
0.0
 30
0.0
  9
$PUCSORGFRONT
 10
0.0
 20
0.0
 30
0.0
  9
$PUCSORGBACK
 10
0.0
 20
0.0
 30
0.0
  9
$USERI1
 70
     0
  9
$USERI2
 70
     0
  9
$USERI3
 70
     0
  9
$USERI4
 70
     0
  9
$USERI5
 70
     0
  9
$USERR1
 40
0.0
  9
$USERR2
 40
0.0
  9
$USERR3
 40
0.0
  9
$USERR4
 40
0.0
  9
$USERR5
 40
0.0
  9
$WORLDVIEW
 70
     1
  9
$SHADEDGE
 70
     3
  9
$SHADEDIF
 70
    70
  9
$TILEMODE
 70
     1
  9
$MAXACTVP
 70
    16
  9
$PINSBASE
 10
0.0
 20
0.0
 30
0.0
  9
$PLIMCHECK
 70
     0
  9
$PEXTMIN
 10
1.000000000000000E+20
 20
1.000000000000000E+20
 30
1.000000000000000E+20
  9
$PEXTMAX
 10
-1.000000000000000E+20
 20
-1.000000000000000E+20
 30
-1.000000000000000E+20
  9
$PLIMMIN
 10
0.0
 20
0.0
  9
$PLIMMAX
 10
12.0
 20
9.0
  9
$UNITMODE
 70
     0
  9
$VISRETAIN
 70
     0
  9
$PLINEGEN
 70
     0
  9
$PSLTSCALE
 70
     0
  9
$TREEDEPTH
 70
  3020
  9
$CMLSTYLE
  2
STANDARD
  9
$CMLJUST
 70
     0
  9
$CMLSCALE
 40
1.0
  9
$PROXYGRAPHICS
 70
     1
  9
$MEASUREMENT
 70
     1
  9
$CELWEIGHT
370
    -1
  9
$ENDCAPS
280
     0
  9
$JOINSTYLE
280
     0
  9
$LWDISPLAY
290
     0
  9
$INSUNITS
 70
     0
  9
$HYPERLINKBASE
  1

  9
$STYLESHEET
  1
INABA-CAD(IKEBE).CTB
  9
$XEDIT
290
     1
  9
$CEPSNTYPE
380
     0
  9
$PSTYLEMODE
290
     1
  9
$FINGERPRINTGUID
  2
{DCBE599D-1B81-495D-91E2-602DC8087F04}
  9
$VERSIONGUID
  2
{CE49B323-B489-CA4A-8EC1-3BB5596DBD84}
  9
$EXTNAMES
290
     1
  9
$PSVPSCALE
 40
0.0
  9
$OLESTARTUP
290
     0
  9
$SORTENTS
280
   127
  9
$INDEXCTL
280
     0
  9
$HIDETEXT
280
     0
  9
$XCLIPFRAME
280
     2
  9
$HALOGAP
280
     0
  9
$OBSCOLOR
 70
   257
  9
$OBSLTYPE
280
     0
  9
$INTERSECTIONDISPLAY
280
     0
  9
$INTERSECTIONCOLOR
 70
   257
  9
$DIMASSOC
280
     1
  9
$PROJECTNAME
  1

  9
$CAMERADISPLAY
290
     0
  9
$LENSLENGTH
 40
50.0
  9
$CAMERAHEIGHT
 40
0.0
  9
$STEPSPERSEC
 40
2.0
  9
$STEPSIZE
 40
6.0
  9
$3DDWFPREC
 40
2.0
  9
$PSOLWIDTH
 40
0.25
  9
$PSOLHEIGHT
 40
4.0
  9
$LOFTANG1
 40
1.570796326794896
  9
$LOFTANG2
 40
1.570796326794896
  9
$LOFTMAG1
 40
0.0
  9
$LOFTMAG2
 40
0.0
  9
$LOFTPARAM
 70
     7
  9
$LOFTNORMALS
280
     1
  9
$LATITUDE
 40
37.795
  9
$LONGITUDE
 40
-122.394
  9
$NORTHDIRECTION
 40
0.0
  9
$TIMEZONE
 70
 -8000
  9
$LIGHTGLYPHDISPLAY
280
     1
  9
$TILEMODELIGHTSYNCH
280
     1
  9
$CMATERIAL
347
84309
  9
$SOLIDHIST
280
     0
  9
$SHOWHIST
280
     1
  9
$DWFFRAME
280
     2
  9
$DGNFRAME
280
     0
  9
$REALWORLDSCALE
290
     1
  9
$INTERFERECOLOR
 62
     1
  9
$INTERFEREOBJVS
345
84316
  9
$INTERFEREVPVS
346
A8942
  9
$CSHADOW
280
     0
  9
$SHADOWPLANELOCATION
 40
0.0
  0
ENDSEC
  0
SECTION
  2
CLASSES
  0
CLASS
  1
DICTIONARYVAR
  2
AcDbDictionaryVar
  3
ObjectDBX Classes
 90
        0
 91
       16
280
     0
281
     0
  0
CLASS
  1
ACDBDICTIONARYWDFLT
  2
AcDbDictionaryWithDefault
  3
ObjectDBX Classes
 90
        0
 91
        1
280
     0
281
     0
  0
CLASS
  1
TABLESTYLE
  2
AcDbTableStyle
  3
ObjectDBX Classes
 90
     4095
 91
        1
280
     0
281
     0
  0
CLASS
  1
SORTENTSTABLE
  2
AcDbSortentsTable
  3
ObjectDBX Classes
 90
        0
 91
        1
280
     0
281
     0
  0
CLASS
  1
MATERIAL
  2
AcDbMaterial
  3
ObjectDBX Classes
 90
     1153
 91
        3
280
     0
281
     0
  0
CLASS
  1
VISUALSTYLE
  2
AcDbVisualStyle
  3
ObjectDBX Classes
 90
     4095
 91
       26
280
     0
281
     0
  0
CLASS
  1
SCALE
  2
AcDbScale
  3
ObjectDBX Classes
 90
     1153
 91
       17
280
     0
281
     0
  0
CLASS
  1
MLEADERSTYLE
  2
AcDbMLeaderStyle
  3
ACDB_MLEADERSTYLE_CLASS
 90
     4095
 91
        1
280
     0
281
     0
  0
CLASS
  1
CELLSTYLEMAP
  2
AcDbCellStyleMap
  3
ObjectDBX Classes
 90
     1152
 91
        2
280
     0
281
     0
  0
CLASS
  1
ARC_DIMENSION
  2
AcDbArcDimension
  3
ObjectDBX Classes
 90
     1025
 91
        0
280
     0
281
     1
  0
CLASS
  1
ACDBSECTIONVIEWSTYLE
  2
AcDbSectionViewStyle
  3
ObjectDBX Classes
 90
     1025
 91
        1
280
     0
281
     0
  0
CLASS
  1
ACDBDETAILVIEWSTYLE
  2
AcDbDetailViewStyle
  3
ObjectDBX Classes
 90
     1025
 91
        1
280
     0
281
     0
  0
ENDSEC
  0
SECTION
  2
TABLES
  0
TABLE
  2
VPORT
  5
8
102
{ACAD_XDICTIONARY
360
87C2F
102
}
330
0
100
AcDbSymbolTable
 70
     1
  0
VPORT
  5
A893A
330
8
100
AcDbSymbolTableRecord
100
AcDbViewportTableRecord
  2
*Active
 70
     0
 10
0.0
 20
0.0
 11
1.0
 21
1.0
 12
649.8480047128453
 22
198.6031261241225
 13
0.0
 23
0.0
 14
1.0
 24
1.0
 15
0.0
 25
0.0
 16
0.0
 26
0.0
 36
1.0
 17
0.0
 27
0.0
 37
0.0
 40
216.0440358811669
 41
1.92094861660079
 42
50.0
 43
0.0
 44
0.0
 50
0.0
 51
0.0
 71
     0
 72
  1000
 73
     1
 74
     1
 75
     0
 76
     0
 77
     0
 78
     2
281
     0
 65
     1
110
26869.6166704439
120
-12565.18743385195
130
0.0
111
1.0
121
0.0
131
0.0
112
0.0
122
1.0
132
0.0
 79
     0
146
0.0
348
84312
 60
     3
 61
     5
292
     1
282
     1
141
0.0
142
0.0
 63
   250
421
  3355443
1001
ACAD_NAV_VCDISPLAY
1070
     3
  0
ENDTAB
  0
TABLE
  2
LTYPE
  5
5
330
0
100
AcDbSymbolTable
 70
     2
  0
LTYPE
  5
11
330
5
100
AcDbSymbolTableRecord
100
AcDbLinetypeTableRecord
  2
BYBLOCK
 70
     0
  3

 72
    65
 73
     0
 40
0.0
  0
LTYPE
  5
12
330
5
100
AcDbSymbolTableRecord
100
AcDbLinetypeTableRecord
  2
BYLAYER
 70
     0
  3

 72
    65
 73
     0
 40
0.0
  0
LTYPE
  5
13
330
5
100
AcDbSymbolTableRecord
100
AcDbLinetypeTableRecord
  2
CONTINUOUS
 70
     0
  3
Solid line
 72
    65
 73
     0
 40
0.0
  0
LTYPE
  5
3C
330
5
100
AcDbSymbolTableRecord
100
AcDbLinetypeTableRecord
  2
CENTER
 70
     0
  3
____ _ ____ _ ____ _ ____ _ ____ _ ____ _ ____ 
 72
    65
 73
     4
 40
2.0
 49
1.25
 74
     0
 49
-0.25
 74
     0
 49
0.25
 74
     0
 49
-0.25
 74
     0
  0
ENDTAB
  0
TABLE
  2
LAYER
  5
2
102
{ACAD_XDICTIONARY
360
89E4
102
}
330
0
100
AcDbSymbolTable
 70
     9
  0
LAYER
  5
E
102
{ACAD_XDICTIONARY
360
A94E1
102
}
330
2
100
AcDbSymbolTableRecord
100
AcDbLayerTableRecord
  2
0
 70
     0
 62
     7
  6
CONTINUOUS
370
    -3
390
5019
347
8430B
348
0
  0
LAYER
  5
43
102
{ACAD_XDICTIONARY
360
A94E3
102
}
330
2
100
AcDbSymbolTableRecord
100
AcDbLayerTableRecord
  2
C4
 70
     0
 62
     3
  6
CONTINUOUS
370
    -3
390
5019
347
8430B
348
0
  0
LAYER
  5
44
102
{ACAD_XDICTIONARY
360
A94E5
102
}
330
2
100
AcDbSymbolTableRecord
100
AcDbLayerTableRecord
  2
C5
 70
     0
 62
     4
  6
CONTINUOUS
370
    -3
390
5019
347
8430B
348
0
  0
LAYER
  5
45
102
{ACAD_XDICTIONARY
360
A94E7
102
}
330
2
100
AcDbSymbolTableRecord
100
AcDbLayerTableRecord
  2
C6
 70
     0
 62
     2
  6
CONTINUOUS
370
    -3
390
5019
347
8430B
348
0
  0
LAYER
  5
E1F
330
2
100
AcDbSymbolTableRecord
100
AcDbLayerTableRecord
  2
DEFPOINTS
 70
     0
 62
     7
  6
CONTINUOUS
290
     0
370
    -3
390
5019
347
8430B
348
0
  0
LAYER
  5
30602
102
{ACAD_XDICTIONARY
360
A94ED
102
}
330
2
100
AcDbSymbolTableRecord
100
AcDbLayerTableRecord
  2
6図枠
 70
     0
 62
     7
  6
CONTINUOUS
370
    -3
390
5019
347
8430B
348
0
  0
LAYER
  5
6AEB6
102
{ACAD_XDICTIONARY
360
A94F9
102
}
330
2
100
AcDbSymbolTableRecord
100
AcDbLayerTableRecord
  2
2寸法線
 70
     0
 62
     2
  6
CONTINUOUS
370
    -3
390
5019
347
8430B
348
0
  0
LAYER
  5
7C06B
102
{ACAD_XDICTIONARY
360
A94FB
102
}
330
2
100
AcDbSymbolTableRecord
100
AcDbLayerTableRecord
  2
CENTER
 70
     0
 62
     1
  6
CENTER
370
    -3
390
5019
347
8430B
348
0
  0
LAYER
  5
DE062
102
{ACAD_XDICTIONARY
360
DE063
102
}
330
2
100
AcDbSymbolTableRecord
100
AcDbLayerTableRecord
  2
WAKU
 70
     0
 62
     7
  6
CONTINUOUS
370
    -3
390
5019
347
8430B
348
0
  0
ENDTAB
  0
TABLE
  2
STYLE
  5
3
330
0
100
AcDbSymbolTable
 70
     3
  0
STYLE
  5
F
330
3
100
AcDbSymbolTableRecord
100
AcDbTextStyleTableRecord
  2
STANDARD
 70
     0
 40
0.0
 41
1.0
 50
0.0
 71
     0
 42
0.2
  3
txt
  4

  0
STYLE
  5
3B
330
3
100
AcDbSymbolTableRecord
100
AcDbTextStyleTableRecord
  2
KANJI
 70
     0
 40
0.0
 41
1.0
 50
0.0
 71
     0
 42
5.0
  3
simplex
  4
bigfont
  0
STYLE
  5
44FB
330
3
100
AcDbSymbolTableRecord
100
AcDbTextStyleTableRecord
  2
ｺﾞｼｯｸ
 70
     0
 40
0.0
 41
1.0
 50
0.0
 71
     0
 42
4.062847975340506
  3

  4

1001
ACAD
1000
MS PGothic
1071
    32818
  0
ENDTAB
  0
TABLE
  2
VIEW
  5
6
330
0
100
AcDbSymbolTable
 70
     5
  0
VIEW
  5
246C5
330
6
100
AcDbSymbolTableRecord
100
AcDbViewTableRecord
  2
OLE1
 70
     0
 40
182.4642232084897
 10
1210.351594008563
 20
-3091.904956150728
 41
248.3141725291389
 11
0.0
 21
0.0
 31
1.0
 12
0.0
 22
0.0
 32
0.0
 42
50.0
 43
0.0
 44
0.0
 50
0.0
 71
     0
281
     0
 72
     0
 73
     0
348
84312
  0
VIEW
  5
25A9F
330
6
100
AcDbSymbolTableRecord
100
AcDbViewTableRecord
  2
OLE2
 70
     0
 40
115.8786694871118
 10
1993.135940149934
 20
-1795.528849735834
 41
157.9176513224629
 11
0.0
 21
0.0
 31
1.0
 12
0.0
 22
0.0
 32
0.0
 42
50.0
 43
0.0
 44
0.0
 50
0.0
 71
     0
281
     0
 72
     0
 73
     0
348
84312
  0
VIEW
  5
3008F
330
6
100
AcDbSymbolTableRecord
100
AcDbViewTableRecord
  2
OLE3
 70
     0
 40
199.6341506271968
 10
-1026.605806097064
 20
-8874.352560884943
 41
281.3152524788238
 11
0.0
 21
0.0
 31
1.0
 12
0.0
 22
0.0
 32
0.0
 42
50.0
 43
0.0
 44
0.0
 50
0.0
 71
     0
281
     0
 72
     0
 73
     0
348
84312
  0
VIEW
  5
37942
330
6
100
AcDbSymbolTableRecord
100
AcDbViewTableRecord
  2
OLE4
 70
     0
 40
179.7850813412587
 10
14070.56790504897
 20
-14452.78839670085
 41
235.0672219902135
 11
0.0
 21
0.0
 31
1.0
 12
0.0
 22
0.0
 32
0.0
 42
50.0
 43
0.0
 44
0.0
 50
0.0
 71
     0
281
     0
 72
     0
 73
     0
348
84312
  0
VIEW
  5
6913D
330
6
100
AcDbSymbolTableRecord
100
AcDbViewTableRecord
  2
OLE5
 70
     0
 40
64.13344255896664
 10
6186.254962722559
 20
-9547.596484313237
 41
80.09719381821737
 11
0.0
 21
0.0
 31
1.0
 12
0.0
 22
0.0
 32
0.0
 42
50.0
 43
0.0
 44
0.0
 50
0.0
 71
     0
281
     0
 72
     0
 73
     0
348
84312
  0
ENDTAB
  0
TABLE
  2
UCS
  5
7
330
0
100
AcDbSymbolTable
 70
     0
  0
ENDTAB
  0
TABLE
  2
APPID
  5
9
330
0
100
AcDbSymbolTable
 70
    14
  0
APPID
  5
10
330
9
100
AcDbSymbolTableRecord
100
AcDbRegAppTableRecord
  2
ACAD
 70
     0
  0
APPID
  5
60B62
330
9
100
AcDbSymbolTableRecord
100
AcDbRegAppTableRecord
  2
ACAD_PSEXT
 70
     0
  0
APPID
  5
61D78
330
9
100
AcDbSymbolTableRecord
100
AcDbRegAppTableRecord
  2
ACAD_DSTYLE_DIMTEXT_FILL
 70
     0
  0
APPID
  5
8801C
330
9
100
AcDbSymbolTableRecord
100
AcDbRegAppTableRecord
  2
ACAD_EXEMPT_FROM_CAD_STANDARDS
 70
     0
  0
APPID
  5
99F5C
330
9
100
AcDbSymbolTableRecord
100
AcDbRegAppTableRecord
  2
AcAecLayerStandard
 70
     0
  0
APPID
  5
A8ACC
330
9
100
AcDbSymbolTableRecord
100
AcDbRegAppTableRecord
  2
ACAD_DSTYLE_DIMRADIAL_EXTENSION
 70
     0
  0
APPID
  5
A95A9
330
9
100
AcDbSymbolTableRecord
100
AcDbRegAppTableRecord
  2
ACAD_MLEADERVER
 70
     0
  0
APPID
  5
A9FFC
330
9
100
AcDbSymbolTableRecord
100
AcDbRegAppTableRecord
  2
GradientColor1ACI
 70
     0
  0
APPID
  5
A9FFD
330
9
100
AcDbSymbolTableRecord
100
AcDbRegAppTableRecord
  2
GradientColor2ACI
 70
     0
  0
APPID
  5
AB1E9
330
9
100
AcDbSymbolTableRecord
100
AcDbRegAppTableRecord
  2
ACAD_NAV_VCDISPLAY
 70
     0
  0
APPID
  5
B0890
330
9
100
AcDbSymbolTableRecord
100
AcDbRegAppTableRecord
  2
ACAD_DSTYLE_DIMJAG
 70
     0
  0
APPID
  5
B0891
330
9
100
AcDbSymbolTableRecord
100
AcDbRegAppTableRecord
  2
ACAD_DSTYLE_DIMTALN
 70
     0
  0
APPID
  5
BCA6D
330
9
100
AcDbSymbolTableRecord
100
AcDbRegAppTableRecord
  2
ACAD_DSTYLE_DIMARC_LENGTH_SYMBOL
 70
     0
  0
APPID
  5
C10CA
330
9
100
AcDbSymbolTableRecord
100
AcDbRegAppTableRecord
  2
ACAD_DSTYLE_DIMFLIPARROW_WHICH_SYMBOL
 70
     0
  0
ENDTAB
  0
TABLE
  2
DIMSTYLE
  5
A
330
0
100
AcDbSymbolTable
 70
     2
100
AcDbDimStyleTable
 71
     1
340
E11
  0
DIMSTYLE
105
E11
330
A
100
AcDbSymbolTableRecord
100
AcDbDimStyleTableRecord
  2
STANDARD
 70
     0
 41
2.0
 42
1.0
 43
6.0
 44
1.0
 73
     0
 74
     0
 77
     1
 78
     8
 90
        1
140
2.5
141
0.0
147
0.8
172
     1
176
     2
177
     2
178
     2
271
     1
272
     1
284
     8
285
     8
286
     8
340
3B
341
6AEB2
342
6AEB2
1001
ACAD_DSTYLE_DIMJAG
1070
   388
1040
1.5
1001
ACAD_DSTYLE_DIMTALN
1070
   392
1070
     0
  0
DIMSTYLE
105
B559A
330
A
100
AcDbSymbolTableRecord
100
AcDbDimStyleTableRecord
  2
Standard$3
 70
     0
 41
2.0
 42
1.5
 44
1.0
 73
     0
 74
     0
 77
     1
 78
     8
 79
     2
140
2.5
141
0.0
147
1.0
172
     1
176
     2
177
     2
178
     2
179
     2
271
     2
272
     2
340
3B
341
B54A8
342
6AEB2
371
    -1
372
    -1
1001
ACAD_DSTYLE_DIMJAG
1070
   388
1040
1.5
1001
ACAD_DSTYLE_DIMTALN
1070
   392
1070
     0
  0
ENDTAB
  0
TABLE
  2
BLOCK_RECORD
  5
1
330
0
100
AcDbSymbolTable
 70
    10
  0
BLOCK_RECORD
  5
17
102
{ACAD_XDICTIONARY
360
119DA
102
}
330
1
100
AcDbSymbolTableRecord
100
AcDbBlockTableRecord
  2
*MODEL_SPACE
340
501C
 70
     0
280
     1
281
     0
  0
BLOCK_RECORD
  5
14
102
{ACAD_XDICTIONARY
360
119D8
102
}
330
1
100
AcDbSymbolTableRecord
100
AcDbBlockTableRecord
  2
*PAPER_SPACE
340
501D
 70
     0
280
     1
281
     0
  0
BLOCK_RECORD
  5
6AEB2
330
1
100
AcDbSymbolTableRecord
100
AcDbBlockTableRecord
  2
2
340
0
102
{BLKREFS
331
DECBB
331
DECBC
331
DECC2
331
DECC3
331
DECCB
331
DECCC
331
DECD4
331
DECD5
331
DEE4B
331
DEE4C
331
DEE54
331
DEE55
331
DEE5E
331
DEE5F
331
DEE65
331
DEE66
102
}
 70
     0
280
     1
281
     0
  0
BLOCK_RECORD
  5
B54A8
330
1
100
AcDbSymbolTableRecord
100
AcDbBlockTableRecord
  2
_Open
340
0
 70
     0
280
     1
281
     0
  0
BLOCK_RECORD
  5
DE92F
330
1
100
AcDbSymbolTableRecord
100
AcDbBlockTableRecord
  2
*D2
340
0
 70
     0
280
     1
281
     0
  0
BLOCK_RECORD
  5
DE98D
330
1
100
AcDbSymbolTableRecord
100
AcDbBlockTableRecord
  2
*D3
340
0
 70
     0
280
     1
281
     0
  0
BLOCK_RECORD
  5
DEA4F
330
1
100
AcDbSymbolTableRecord
100
AcDbBlockTableRecord
  2
*D4
340
0
 70
     0
280
     1
281
     0
  0
BLOCK_RECORD
  5
DEA5C
330
1
100
AcDbSymbolTableRecord
100
AcDbBlockTableRecord
  2
*D5
340
0
 70
     0
280
     1
281
     0
  0
BLOCK_RECORD
  5
DEE19
330
1
100
AcDbSymbolTableRecord
100
AcDbBlockTableRecord
  2
*D6
340
0
 70
     0
280
     1
281
     0
  0
BLOCK_RECORD
  5
DEE25
330
1
100
AcDbSymbolTableRecord
100
AcDbBlockTableRecord
  2
*D7
340
0
 70
     0
280
     1
281
     0
  0
BLOCK_RECORD
  5
DEE31
330
1
100
AcDbSymbolTableRecord
100
AcDbBlockTableRecord
  2
*D8
340
0
 70
     0
280
     1
281
     0
  0
BLOCK_RECORD
  5
DEE3C
330
1
100
AcDbSymbolTableRecord
100
AcDbBlockTableRecord
  2
*D9
340
0
 70
     0
280
     1
281
     0
  0
ENDTAB
  0
ENDSEC
  0
SECTION
  2
BLOCKS
  0
BLOCK
  5
4F
330
17
100
AcDbEntity
  8
0
100
AcDbBlockBegin
  2
*MODEL_SPACE
 70
     0
 10
0.0
 20
0.0
 30
0.0
  3
*MODEL_SPACE
  1

  0
ENDBLK
  5
50
330
17
100
AcDbEntity
  8
0
100
AcDbBlockEnd
  0
BLOCK
  5
4D
330
14
100
AcDbEntity
 67
     1
  8
0
100
AcDbBlockBegin
  2
*PAPER_SPACE
 70
     0
 10
0.0
 20
0.0
 30
0.0
  3
*PAPER_SPACE
  1

  0
ENDBLK
  5
4E
330
14
100
AcDbEntity
 67
     1
  8
0
100
AcDbBlockEnd
  0
BLOCK
  5
6AEB3
330
6AEB2
100
AcDbEntity
  8
0
 48
3.0
100
AcDbBlockBegin
  2
2
 70
     0
 10
0.0
 20
0.0
 30
0.0
  3
2
  1

  0
HATCH
  5
6AEB4
330
6AEB2
100
AcDbEntity
  8
0
  6
ByBlock
 62
     0
 48
3.0
380
     1
100
AcDbHatch
 10
0.0
 20
0.0
 30
0.0
210
0.0
220
0.0
230
1.0
  2
SOLID
 70
     1
 71
     0
 91
        1
 92
        1
 93
        3
 72
     1
 10
-0.9999999999983517
 20
0.2679491924306774
 11
0.0
 21
0.0
 72
     1
 10
0.0
 20
0.0
 11
-0.9999999999983517
 21
-0.2679491924306765
 72
     1
 10
-0.9999999999983524
 20
-0.267949192430676
 11
-0.9999999999983524
 21
0.2679491924306774
 97
        0
 75
     0
 76
     1
 98
        1
 10
2.995745117231336
 20
-4.124946096263201
450
        0
451
        0
460
0.0
461
0.0
452
        0
462
0.0
453
        0
470

  0
ENDBLK
  5
6AEB5
330
6AEB2
100
AcDbEntity
  8
0
 48
3.0
100
AcDbBlockEnd
  0
BLOCK
  5
B54A9
330
B54A8
100
AcDbEntity
  8
0
100
AcDbBlockBegin
  2
_Open
 70
     0
 10
0.0
 20
0.0
 30
0.0
  3
_Open
  1

  0
LINE
  5
B54AA
330
B54A8
100
AcDbEntity
  8
0
 62
     0
370
    -2
100
AcDbLine
 10
-1.0
 20
0.1666666666666666
 30
0.0
 11
0.0
 21
0.0
 31
0.0
  0
LINE
  5
B54AB
330
B54A8
100
AcDbEntity
  8
0
 62
     0
370
    -2
100
AcDbLine
 10
-1.0
 20
-0.1666666666666666
 30
0.0
 11
0.0
 21
0.0
 31
0.0
  0
LINE
  5
B54AC
330
B54A8
100
AcDbEntity
  8
0
 62
     0
370
    -2
100
AcDbLine
 10
0.0
 20
0.0
 30
0.0
 11
-1.0
 21
0.0
 31
0.0
  0
ENDBLK
  5
B54AD
330
B54A8
100
AcDbEntity
  8
0
100
AcDbBlockEnd
  0
BLOCK
  5
DE930
330
DE92F
100
AcDbEntity
  8
0
 48
3.0
100
AcDbBlockBegin
  2
*D2
 70
     1
 10
0.0
 20
0.0
 30
0.0
  3
*D2
  1

  0
LINE
  5
DECB7
330
DE92F
100
AcDbEntity
  8
2寸法線
 62
     2
440
 16777216
 48
3.0
100
AcDbLine
 10
313.8882491510476
 20
251.4862595649742
 30
0.0
 11
309.0545774842665
 21
245.3523961536096
 31
0.0
  0
LINE
  5
DECB8
330
DE92F
100
AcDbEntity
  8
2寸法線
 62
     2
440
 16777216
 48
3.0
100
AcDbLine
 10
301.0082825755393
 20
235.1417576700575
 30
0.0
 11
299.7703910511198
 21
233.5708902110495
 31
0.0
  0
MTEXT
  5
DECB9
102
{ACAD_XDICTIONARY
360
DED81
102
}
330
DE92F
100
AcDbEntity
  8
2寸法線
 62
     2
440
 16777216
 48
3.0
100
AcDbMText
 10
310.323133188483
 20
250.5973895537679
 30
0.0
 40
2.5
 41
0.0
 46
0.0
 71
     5
 72
     1
  1
\A1;∅9
  7
KANJI
 11
0.6189457622097768
 21
0.7854337295039973
 31
0.0
 73
     1
 44
1.0
  0
LINE
  5
DECBA
330
DE92F
100
AcDbEntity
  8
2寸法線
 62
     2
440
 16777216
 48
3.0
100
AcDbLine
 10
302.2461740999589
 20
236.7126251290654
 30
0.0
 11
307.816685959847
 21
243.7815286946016
 31
0.0
  0
INSERT
  5
DECBB
330
DE92F
100
AcDbEntity
  8
2寸法線
 62
     2
440
 16777216
 48
3.0
100
AcDbBlockReference
  2
2
 10
302.2461740999589
 20
236.7126251290654
 30
0.0
 41
2.0
 42
2.0
 43
2.0
 50
51.76081074877188
  0
INSERT
  5
DECBC
330
DE92F
100
AcDbEntity
  8
2寸法線
 62
     2
440
 16777216
 48
3.0
100
AcDbBlockReference
  2
2
 10
307.816685959847
 20
243.7815286946016
 30
0.0
 41
2.0
 42
2.0
 43
2.0
 50
231.7608107487719
  0
POINT
  5
DECBD
330
DE92F
100
AcDbEntity
  8
DEFPOINTS
 62
     0
440
 16777216
 48
3.0
100
AcDbPoint
 10
307.816685959847
 20
243.7815286946016
 30
0.0
  0
POINT
  5
DECBE
330
DE92F
100
AcDbEntity
  8
DEFPOINTS
 62
     0
440
 16777216
 48
3.0
100
AcDbPoint
 10
302.2461740999589
 20
236.7126251290654
 30
0.0
  0
ENDBLK
  5
DE931
330
DE92F
100
AcDbEntity
  8
0
 48
3.0
100
AcDbBlockEnd
  0
BLOCK
  5
DE98E
330
DE98D
100
AcDbEntity
  8
0
 48
3.0
100
AcDbBlockBegin
  2
*D3
 70
     1
 10
0.0
 20
0.0
 30
0.0
  3
*D3
  1

  0
LINE
  5
DECBF
330
DE98D
100
AcDbEntity
  8
2寸法線
 62
     2
440
 16777216
 48
3.0
370
    -2
100
AcDbLine
 10
331.040424489096
 20
155.1696994743652
 30
0.0
 11
343.8831527786788
 21
155.1696994743652
 31
0.0
  0
LINE
  5
DECC0
330
DE98D
100
AcDbEntity
  8
2寸法線
 62
     2
440
 16777216
 48
3.0
370
    -2
100
AcDbLine
 10
331.040424489096
 20
185.1696994742886
 30
0.0
 11
343.8831527786788
 21
185.1696994742886
 31
0.0
  0
LINE
  5
DECC1
330
DE98D
100
AcDbEntity
  8
2寸法線
 62
     2
440
 16777216
 48
3.0
370
    -2
100
AcDbLine
 10
342.8831527786788
 20
157.1696994743652
 30
0.0
 11
342.8831527786788
 21
183.1696994742888
 31
0.0
  0
INSERT
  5
DECC2
330
DE98D
100
AcDbEntity
  8
2寸法線
 62
     2
440
 16777216
 48
3.0
370
    -2
100
AcDbBlockReference
  2
2
 10
342.8831527786788
 20
155.1696994743652
 30
0.0
 41
2.0
 42
2.0
 43
2.0
 50
270.0
  0
INSERT
  5
DECC3
330
DE98D
100
AcDbEntity
  8
2寸法線
 62
     2
440
 16777216
 48
3.0
370
    -2
100
AcDbBlockReference
  2
2
 10
342.8831527786788
 20
185.1696994742886
 30
0.0
 41
2.0
 42
2.0
 43
2.0
 50
90.0
  0
MTEXT
  5
DECC4
330
DE98D
100
AcDbEntity
  8
2寸法線
 62
     2
440
 16777216
 48
3.0
100
AcDbMText
 10
340.8331527786787
 20
170.169699474327
 30
0.0
 40
2.5
 41
0.0
 46
0.0
 71
     5
 72
     1
  1
\A1;30
  7
KANJI
 11
0.0000000000000001
 21
1.0
 31
0.0
 73
     1
 44
1.0
  0
POINT
  5
DECC5
330
DE98D
100
AcDbEntity
  8
DEFPOINTS
 62
     0
440
 16777216
 48
3.0
100
AcDbPoint
 10
330.040424489096
 20
155.1696994743652
 30
0.0
  0
POINT
  5
DECC6
330
DE98D
100
AcDbEntity
  8
DEFPOINTS
 62
     0
440
 16777216
 48
3.0
100
AcDbPoint
 10
330.040424489096
 20
185.1696994742886
 30
0.0
  0
POINT
  5
DECC7
330
DE98D
100
AcDbEntity
  8
DEFPOINTS
 62
     0
440
 16777216
 48
3.0
100
AcDbPoint
 10
342.8831527786788
 20
185.1696994742886
 30
0.0
  0
ENDBLK
  5
DE98F
330
DE98D
100
AcDbEntity
  8
0
 48
3.0
100
AcDbBlockEnd
  0
BLOCK
  5
DEA50
330
DEA4F
100
AcDbEntity
  8
0
 48
3.0
100
AcDbBlockBegin
  2
*D4
 70
     1
 10
0.0
 20
0.0
 30
0.0
  3
*D4
  1

  0
LINE
  5
DECC8
330
DEA4F
100
AcDbEntity
  8
2寸法線
 62
     2
440
 16777216
 48
3.0
370
    -2
100
AcDbLine
 10
279.7609683424998
 20
214.1657799749346
 30
0.0
 11
279.7609683424998
 21
201.2531622916431
 31
0.0
  0
LINE
  5
DECC9
330
DEA4F
100
AcDbEntity
  8
2寸法線
 62
     2
440
 16777216
 48
3.0
370
    -2
100
AcDbLine
 10
330.3018917174013
 20
214.1657799749346
 30
0.0
 11
330.3018917174013
 21
201.2531622916431
 31
0.0
  0
LINE
  5
DECCA
330
DEA4F
100
AcDbEntity
  8
2寸法線
 62
     2
440
 16777216
 48
3.0
370
    -2
100
AcDbLine
 10
281.7609683424998
 20
202.2531622916431
 30
0.0
 11
328.3018917174013
 21
202.2531622916431
 31
0.0
  0
INSERT
  5
DECCB
330
DEA4F
100
AcDbEntity
  8
2寸法線
 62
     2
440
 16777216
 48
3.0
370
    -2
100
AcDbBlockReference
  2
2
 10
279.7609683424998
 20
202.2531622916431
 30
0.0
 41
2.0
 42
2.0
 43
2.0
 50
180.0
  0
INSERT
  5
DECCC
330
DEA4F
100
AcDbEntity
  8
2寸法線
 62
     2
440
 16777216
 48
3.0
370
    -2
100
AcDbBlockReference
  2
2
 10
330.3018917174013
 20
202.2531622916431
 30
0.0
 41
2.0
 42
2.0
 43
2.0
  0
MTEXT
  5
DECCD
330
DEA4F
100
AcDbEntity
  8
2寸法線
 62
     2
440
 16777216
 48
3.0
100
AcDbMText
 10
305.0314300299506
 20
204.3031622916431
 30
0.0
 40
2.5
 41
0.0
 46
0.0
 71
     5
 72
     1
  1
\A1;50.5
  7
KANJI
 73
     1
 44
1.0
  0
POINT
  5
DECCE
330
DEA4F
100
AcDbEntity
  8
DEFPOINTS
 62
     0
440
 16777216
 48
3.0
100
AcDbPoint
 10
279.7609683424998
 20
215.1657799749346
 30
0.0
  0
POINT
  5
DECCF
330
DEA4F
100
AcDbEntity
  8
DEFPOINTS
 62
     0
440
 16777216
 48
3.0
100
AcDbPoint
 10
330.3018917174013
 20
215.1657799749346
 30
0.0
  0
POINT
  5
DECD0
330
DEA4F
100
AcDbEntity
  8
DEFPOINTS
 62
     0
440
 16777216
 48
3.0
100
AcDbPoint
 10
330.3018917174013
 20
202.2531622916431
 30
0.0
  0
ENDBLK
  5
DEA51
330
DEA4F
100
AcDbEntity
  8
0
 48
3.0
100
AcDbBlockEnd
  0
BLOCK
  5
DEA5D
330
DEA5C
100
AcDbEntity
  8
0
 48
3.0
100
AcDbBlockBegin
  2
*D5
 70
     1
 10
0.0
 20
0.0
 30
0.0
  3
*D5
  1

  0
LINE
  5
DECD1
330
DEA5C
100
AcDbEntity
  8
2寸法線
 62
     2
440
 16777216
 48
3.0
370
    -2
100
AcDbLine
 10
330.5049359588993
 20
215.0960553807345
 30
0.0
 11
350.3111430282006
 21
215.0960553807345
 31
0.0
  0
LINE
  5
DECD2
330
DEA5C
100
AcDbEntity
  8
2寸法線
 62
     2
440
 16777216
 48
3.0
370
    -2
100
AcDbLine
 10
306.0314300298996
 20
245.5470769118347
 30
0.0
 11
350.3111430282006
 21
245.5470769118346
 31
0.0
  0
LINE
  5
DECD3
330
DEA5C
100
AcDbEntity
  8
2寸法線
 62
     2
440
 16777216
 48
3.0
370
    -2
100
AcDbLine
 10
349.3111430282006
 20
217.0960553807345
 30
0.0
 11
349.3111430282006
 21
243.5470769118346
 31
0.0
  0
INSERT
  5
DECD4
330
DEA5C
100
AcDbEntity
  8
2寸法線
 62
     2
440
 16777216
 48
3.0
370
    -2
100
AcDbBlockReference
  2
2
 10
349.3111430282006
 20
215.0960553807345
 30
0.0
 41
2.0
 42
2.0
 43
2.0
 50
270.0
  0
INSERT
  5
DECD5
330
DEA5C
100
AcDbEntity
  8
2寸法線
 62
     2
440
 16777216
 48
3.0
370
    -2
100
AcDbBlockReference
  2
2
 10
349.3111430282006
 20
245.5470769118346
 30
0.0
 41
2.0
 42
2.0
 43
2.0
 50
90.0
  0
MTEXT
  5
DECD6
330
DEA5C
100
AcDbEntity
  8
2寸法線
 62
     2
440
 16777216
 48
3.0
100
AcDbMText
 10
347.2611430282005
 20
230.3215661462846
 30
0.0
 40
2.5
 41
0.0
 46
0.0
 71
     5
 72
     1
  1
\A1;30.5
  7
KANJI
 11
0.0000000000000001
 21
1.0
 31
0.0
 73
     1
 44
1.0
  0
POINT
  5
DECD7
330
DEA5C
100
AcDbEntity
  8
DEFPOINTS
 62
     0
440
 16777216
 48
3.0
100
AcDbPoint
 10
329.5049359588993
 20
215.0960553807345
 30
0.0
  0
POINT
  5
DECD8
330
DEA5C
100
AcDbEntity
  8
DEFPOINTS
 62
     0
440
 16777216
 48
3.0
100
AcDbPoint
 10
305.0314300298996
 20
245.5470769118347
 30
0.0
  0
POINT
  5
DECD9
330
DEA5C
100
AcDbEntity
  8
DEFPOINTS
 62
     0
440
 16777216
 48
3.0
100
AcDbPoint
 10
349.3111430282006
 20
245.5470769118346
 30
0.0
  0
ENDBLK
  5
DEA5E
330
DEA5C
100
AcDbEntity
  8
0
 48
3.0
100
AcDbBlockEnd
  0
BLOCK
  5
DEE1A
330
DEE19
100
AcDbEntity
  8
0
 48
3.0
100
AcDbBlockBegin
  2
*D6
 70
     1
 10
0.0
 20
0.0
 30
0.0
  3
*D6
  1

  0
LINE
  5
DEE48
330
DEE19
100
AcDbEntity
  8
2寸法線
 62
     2
440
 16777216
 48
3.0
370
    -2
100
AcDbLine
 10
566.2231685495388
 20
214.1657799749346
 30
0.0
 11
566.2231685495388
 21
201.2531622916431
 31
0.0
  0
LINE
  5
DEE49
330
DEE19
100
AcDbEntity
  8
2寸法線
 62
     2
440
 16777216
 48
3.0
370
    -2
100
AcDbLine
 10
616.7640919244404
 20
214.1657799749346
 30
0.0
 11
616.7640919244404
 21
201.2531622916431
 31
0.0
  0
LINE
  5
DEE4A
330
DEE19
100
AcDbEntity
  8
2寸法線
 62
     2
440
 16777216
 48
3.0
370
    -2
100
AcDbLine
 10
568.223168549539
 20
202.2531622916431
 30
0.0
 11
614.7640919244404
 21
202.2531622916431
 31
0.0
  0
INSERT
  5
DEE4B
330
DEE19
100
AcDbEntity
  8
2寸法線
 62
     2
440
 16777216
 48
3.0
370
    -2
100
AcDbBlockReference
  2
2
 10
566.2231685495388
 20
202.2531622916431
 30
0.0
 41
2.0
 42
2.0
 43
2.0
 50
180.0
  0
INSERT
  5
DEE4C
330
DEE19
100
AcDbEntity
  8
2寸法線
 62
     2
440
 16777216
 48
3.0
370
    -2
100
AcDbBlockReference
  2
2
 10
616.7640919244404
 20
202.2531622916431
 30
0.0
 41
2.0
 42
2.0
 43
2.0
  0
MTEXT
  5
DEE4D
330
DEE19
100
AcDbEntity
  8
2寸法線
 62
     2
440
 16777216
 48
3.0
100
AcDbMText
 10
591.4936302369897
 20
204.3031622916431
 30
0.0
 40
2.5
 41
0.0
 46
0.0
 71
     5
 72
     1
  1
\A1;50.5
  7
KANJI
 73
     1
 44
1.0
  0
POINT
  5
DEE4E
330
DEE19
100
AcDbEntity
  8
DEFPOINTS
 62
     0
440
 16777216
 48
3.0
100
AcDbPoint
 10
566.2231685495388
 20
215.1657799749346
 30
0.0
  0
POINT
  5
DEE4F
330
DEE19
100
AcDbEntity
  8
DEFPOINTS
 62
     0
440
 16777216
 48
3.0
100
AcDbPoint
 10
616.7640919244404
 20
215.1657799749346
 30
0.0
  0
POINT
  5
DEE50
330
DEE19
100
AcDbEntity
  8
DEFPOINTS
 62
     0
440
 16777216
 48
3.0
100
AcDbPoint
 10
616.7640919244404
 20
202.2531622916431
 30
0.0
  0
ENDBLK
  5
DEE1B
330
DEE19
100
AcDbEntity
  8
0
 48
3.0
100
AcDbBlockEnd
  0
BLOCK
  5
DEE26
330
DEE25
100
AcDbEntity
  8
0
 48
3.0
100
AcDbBlockBegin
  2
*D7
 70
     1
 10
0.0
 20
0.0
 30
0.0
  3
*D7
  1

  0
LINE
  5
DEE51
330
DEE25
100
AcDbEntity
  8
2寸法線
 62
     2
440
 16777216
 48
3.0
370
    -2
100
AcDbLine
 10
616.9671361659387
 20
215.0960553807346
 30
0.0
 11
636.7733432352401
 21
215.0960553807346
 31
0.0
  0
LINE
  5
DEE52
330
DEE25
100
AcDbEntity
  8
2寸法線
 62
     2
440
 16777216
 48
3.0
370
    -2
100
AcDbLine
 10
592.4936302369388
 20
245.5470769118349
 30
0.0
 11
636.7733432352401
 21
245.5470769118349
 31
0.0
  0
LINE
  5
DEE53
330
DEE25
100
AcDbEntity
  8
2寸法線
 62
     2
440
 16777216
 48
3.0
370
    -2
100
AcDbLine
 10
635.77334323524
 20
217.0960553807346
 30
0.0
 11
635.77334323524
 21
243.5470769118349
 31
0.0
  0
INSERT
  5
DEE54
330
DEE25
100
AcDbEntity
  8
2寸法線
 62
     2
440
 16777216
 48
3.0
370
    -2
100
AcDbBlockReference
  2
2
 10
635.77334323524
 20
215.0960553807346
 30
0.0
 41
2.0
 42
2.0
 43
2.0
 50
270.0
  0
INSERT
  5
DEE55
330
DEE25
100
AcDbEntity
  8
2寸法線
 62
     2
440
 16777216
 48
3.0
370
    -2
100
AcDbBlockReference
  2
2
 10
635.77334323524
 20
245.5470769118349
 30
0.0
 41
2.0
 42
2.0
 43
2.0
 50
90.0
  0
MTEXT
  5
DEE56
330
DEE25
100
AcDbEntity
  8
2寸法線
 62
     2
440
 16777216
 48
3.0
100
AcDbMText
 10
633.72334323524
 20
230.3215661462845
 30
0.0
 40
2.5
 41
0.0
 46
0.0
 71
     5
 72
     1
  1
\A1;30.5
  7
KANJI
 11
0.0000000000000001
 21
1.0
 31
0.0
 73
     1
 44
1.0
  0
POINT
  5
DEE57
330
DEE25
100
AcDbEntity
  8
DEFPOINTS
 62
     0
440
 16777216
 48
3.0
100
AcDbPoint
 10
615.9671361659386
 20
215.0960553807346
 30
0.0
  0
POINT
  5
DEE58
330
DEE25
100
AcDbEntity
  8
DEFPOINTS
 62
     0
440
 16777216
 48
3.0
100
AcDbPoint
 10
591.4936302369389
 20
245.5470769118349
 30
0.0
  0
POINT
  5
DEE59
330
DEE25
100
AcDbEntity
  8
DEFPOINTS
 62
     0
440
 16777216
 48
3.0
100
AcDbPoint
 10
635.77334323524
 20
245.5470769118349
 30
0.0
  0
ENDBLK
  5
DEE27
330
DEE25
100
AcDbEntity
  8
0
 48
3.0
100
AcDbBlockEnd
  0
BLOCK
  5
DEE32
330
DEE31
100
AcDbEntity
  8
0
 48
3.0
100
AcDbBlockBegin
  2
*D8
 70
     1
 10
0.0
 20
0.0
 30
0.0
  3
*D8
  1

  0
LINE
  5
DEE5A
330
DEE31
100
AcDbEntity
  8
2寸法線
 62
     2
440
 16777216
 48
3.0
100
AcDbLine
 10
600.3504493580869
 20
251.4862595649741
 30
0.0
 11
595.5167776913056
 21
245.3523961536095
 31
0.0
  0
LINE
  5
DEE5B
330
DEE31
100
AcDbEntity
  8
2寸法線
 62
     2
440
 16777216
 48
3.0
100
AcDbLine
 10
587.4704827825785
 20
235.1417576700576
 30
0.0
 11
586.2325912581589
 21
233.5708902110495
 31
0.0
  0
MTEXT
  5
DEE5C
330
DEE31
100
AcDbEntity
  8
2寸法線
 62
     2
440
 16777216
 48
3.0
100
AcDbMText
 10
596.7853333955222
 20
250.5973895537678
 30
0.0
 40
2.5
 41
0.0
 46
0.0
 71
     5
 72
     1
  1
\A1;∅9
  7
KANJI
 11
0.6189457622097845
 21
0.7854337295039913
 31
0.0
 73
     1
 44
1.0
  0
LINE
  5
DEE5D
330
DEE31
100
AcDbEntity
  8
2寸法線
 62
     2
440
 16777216
 48
3.0
100
AcDbLine
 10
588.7083743069979
 20
236.7126251290655
 30
0.0
 11
594.2788861668861
 21
243.7815286946016
 31
0.0
  0
INSERT
  5
DEE5E
330
DEE31
100
AcDbEntity
  8
2寸法線
 62
     2
440
 16777216
 48
3.0
100
AcDbBlockReference
  2
2
 10
588.7083743069979
 20
236.7126251290655
 30
0.0
 41
2.0
 42
2.0
 43
2.0
 50
51.76081074877131
  0
INSERT
  5
DEE5F
330
DEE31
100
AcDbEntity
  8
2寸法線
 62
     2
440
 16777216
 48
3.0
100
AcDbBlockReference
  2
2
 10
594.2788861668861
 20
243.7815286946016
 30
0.0
 41
2.0
 42
2.0
 43
2.0
 50
231.7608107487714
  0
POINT
  5
DEE60
330
DEE31
100
AcDbEntity
  8
DEFPOINTS
 62
     0
440
 16777216
 48
3.0
100
AcDbPoint
 10
594.2788861668861
 20
243.7815286946016
 30
0.0
  0
POINT
  5
DEE61
330
DEE31
100
AcDbEntity
  8
DEFPOINTS
 62
     0
440
 16777216
 48
3.0
100
AcDbPoint
 10
588.7083743069979
 20
236.7126251290655
 30
0.0
  0
ENDBLK
  5
DEE33
330
DEE31
100
AcDbEntity
  8
0
 48
3.0
100
AcDbBlockEnd
  0
BLOCK
  5
DEE3D
330
DEE3C
100
AcDbEntity
  8
0
 48
3.0
100
AcDbBlockBegin
  2
*D9
 70
     1
 10
0.0
 20
0.0
 30
0.0
  3
*D9
  1

  0
LINE
  5
DEE62
330
DEE3C
100
AcDbEntity
  8
2寸法線
 62
     2
440
 16777216
 48
3.0
370
    -2
100
AcDbLine
 10
617.5026246961354
 20
155.1696994743652
 30
0.0
 11
630.3453529857182
 21
155.1696994743652
 31
0.0
  0
LINE
  5
DEE63
330
DEE3C
100
AcDbEntity
  8
2寸法線
 62
     2
440
 16777216
 48
3.0
370
    -2
100
AcDbLine
 10
617.5026246961354
 20
185.1696994742888
 30
0.0
 11
630.3453529857182
 21
185.1696994742888
 31
0.0
  0
LINE
  5
DEE64
330
DEE3C
100
AcDbEntity
  8
2寸法線
 62
     2
440
 16777216
 48
3.0
370
    -2
100
AcDbLine
 10
629.3453529857182
 20
157.1696994743652
 30
0.0
 11
629.3453529857182
 21
183.1696994742888
 31
0.0
  0
INSERT
  5
DEE65
330
DEE3C
100
AcDbEntity
  8
2寸法線
 62
     2
440
 16777216
 48
3.0
370
    -2
100
AcDbBlockReference
  2
2
 10
629.3453529857182
 20
155.1696994743652
 30
0.0
 41
2.0
 42
2.0
 43
2.0
 50
270.0
  0
INSERT
  5
DEE66
330
DEE3C
100
AcDbEntity
  8
2寸法線
 62
     2
440
 16777216
 48
3.0
370
    -2
100
AcDbBlockReference
  2
2
 10
629.3453529857182
 20
185.1696994742888
 30
0.0
 41
2.0
 42
2.0
 43
2.0
 50
90.0
  0
MTEXT
  5
DEE67
330
DEE3C
100
AcDbEntity
  8
2寸法線
 62
     2
440
 16777216
 48
3.0
100
AcDbMText
 10
627.2953529857182
 20
170.1696994743268
 30
0.0
 40
2.5
 41
0.0
 46
0.0
 71
     5
 72
     1
  1
\A1;30
  7
KANJI
 11
0.0000000000000001
 21
1.0
 31
0.0
 73
     1
 44
1.0
  0
POINT
  5
DEE68
330
DEE3C
100
AcDbEntity
  8
DEFPOINTS
 62
     0
440
 16777216
 48
3.0
100
AcDbPoint
 10
616.5026246961352
 20
155.1696994743652
 30
0.0
  0
POINT
  5
DEE69
330
DEE3C
100
AcDbEntity
  8
DEFPOINTS
 62
     0
440
 16777216
 48
3.0
100
AcDbPoint
 10
616.5026246961352
 20
185.1696994742888
 30
0.0
  0
POINT
  5
DEE6A
330
DEE3C
100
AcDbEntity
  8
DEFPOINTS
 62
     0
440
 16777216
 48
3.0
100
AcDbPoint
 10
629.3453529857182
 20
185.1696994742888
 30
0.0
  0
ENDBLK
  5
DEE3E
330
DEE3C
100
AcDbEntity
  8
0
 48
3.0
100
AcDbBlockEnd
  0
ENDSEC
  0
SECTION
  2
ENTITIES
  0
LINE
  5
DED8F
330
17
100
AcDbEntity
  8
C4
  6
Continuous
370
    15
100
AcDbLine
 10
587.1983767397396
 20
155.169699474377
 30
0.0
 11
587.1983767397396
 21
163.169699474377
 31
0.0
  0
LINE
  5
DED90
330
17
100
AcDbEntity
  8
C4
  6
Continuous
370
    15
100
AcDbLine
 10
595.7888837341397
 20
185.169699474377
 30
0.0
 11
595.7888837341397
 21
177.169699474377
 31
0.0
  0
LINE
  5
DED91
330
17
100
AcDbEntity
  8
C4
  6
Continuous
370
    15
100
AcDbLine
 10
595.7888837341397
 20
163.169699474377
 30
0.0
 11
595.7888837341397
 21
155.169699474377
 31
0.0
  0
LINE
  5
DED92
330
17
100
AcDbEntity
  8
C4
  6
Continuous
370
    15
100
AcDbLine
 10
587.1983767397396
 20
177.169699474377
 30
0.0
 11
587.1983767397396
 21
185.169699474377
 31
0.0
  0
LINE
  5
DED93
330
17
100
AcDbEntity
  8
C4
  6
Continuous
370
    15
100
AcDbLine
 10
586.1936302369395
 20
163.2711712497767
 30
0.0
 11
586.1936302369395
 21
163.1842717127765
 31
0.0
  0
LINE
  5
DED94
330
17
100
AcDbEntity
  8
C4
  6
Continuous
370
    15
100
AcDbLine
 10
586.1936302369395
 20
177.1551272358765
 30
0.0
 11
586.1936302369395
 21
177.0614744943768
 31
0.0
  0
LINE
  5
DED95
330
17
100
AcDbEntity
  8
C4
  6
Continuous
370
    15
100
AcDbLine
 10
596.7936302369397
 20
177.0682276988773
 30
0.0
 11
596.7936302369397
 21
177.1551272358765
 31
0.0
  0
LINE
  5
DED96
330
17
100
AcDbEntity
  8
C4
  6
Continuous
370
    15
100
AcDbLine
 10
596.7936302369397
 20
163.1842717127765
 30
0.0
 11
596.7936302369397
 21
163.2779244542771
 31
0.0
  0
ARC
  5
DED97
330
17
100
AcDbEntity
  8
C4
  6
Continuous
370
    15
100
AcDbCircle
 10
575.8215096634394
 20
182.9140023816771
 30
0.0
 40
8.832800857757449
100
AcDbArc
 50
165.2040551768424
 51
184.8338060357724
  0
ARC
  5
DED98
330
17
100
AcDbEntity
  8
C4
  6
Continuous
370
    15
100
AcDbCircle
 10
575.0245539049392
 20
182.9140023816771
 30
0.0
 40
8.832800857756547
100
AcDbArc
 50
165.2040551768424
 51
184.8338060357724
  0
ARC
  5
DED99
330
17
100
AcDbEntity
  8
C4
  6
Continuous
370
    15
100
AcDbCircle
 10
575.8215096634394
 20
157.4253965669768
 30
0.0
 40
8.832800857757439
100
AcDbArc
 50
175.1661939641232
 51
194.7959448231575
  0
LINE
  5
DED9A
330
17
100
AcDbEntity
  8
C4
  6
Continuous
370
    15
100
AcDbLine
 10
567.0201243079389
 20
158.169699474377
 30
0.0
 11
567.0201243079389
 21
182.169699474377
 31
0.0
  0
ARC
  5
DED9B
330
17
100
AcDbEntity
  8
C4
  6
Continuous
370
    15
100
AcDbCircle
 10
607.9627065689393
 20
182.9140023816771
 30
0.0
 40
8.832800857757783
100
AcDbArc
 50
355.1661939641232
 51
14.79594482315757
  0
ARC
  5
DED9C
330
17
100
AcDbEntity
  8
C4
  6
Continuous
370
    15
100
AcDbCircle
 10
607.165750810439
 20
182.9140023816771
 30
0.0
 40
8.832800857757783
100
AcDbArc
 50
355.1661939641232
 51
14.79594482315757
  0
LINE
  5
DED9D
330
17
100
AcDbEntity
  8
C4
  6
Continuous
370
    15
100
AcDbLine
 10
615.9671361659392
 20
158.169699474377
 30
0.0
 11
615.9671361659392
 21
182.169699474377
 31
0.0
  0
ARC
  5
DED9E
330
17
100
AcDbEntity
  8
C4
  6
Continuous
370
    15
100
AcDbCircle
 10
607.165750810439
 20
157.4253965669768
 30
0.0
 40
8.832800857757769
100
AcDbArc
 50
345.2040551768424
 51
4.833806035876816
  0
LINE
  5
DED9F
330
17
100
AcDbEntity
  8
C4
  6
Continuous
370
    15
100
AcDbLine
 10
616.7640919244393
 20
158.169699474377
 30
0.0
 11
616.7640919244393
 21
182.169699474377
 31
0.0
  0
ARC
  5
DEDA0
330
17
100
AcDbEntity
  8
C4
  6
Continuous
370
    15
100
AcDbCircle
 10
575.0245539049392
 20
157.4253965669768
 30
0.0
 40
8.832800857756561
100
AcDbArc
 50
175.1661939641232
 51
194.7959448231575
  0
LINE
  5
DEDA1
330
17
100
AcDbEntity
  8
C4
  6
Continuous
370
    15
100
AcDbLine
 10
566.2231685495397
 20
158.169699474377
 30
0.0
 11
566.2231685495397
 21
182.169699474377
 31
0.0
  0
ARC
  5
DEDA2
330
17
100
AcDbEntity
  8
C4
  6
Continuous
370
    15
100
AcDbCircle
 10
607.9627065689393
 20
157.4253965669768
 30
0.0
 40
8.832800857757783
100
AcDbArc
 50
345.2040551768424
 51
4.833806035876816
  0
LINE
  5
DEDA3
330
17
100
AcDbEntity
  8
C4
  6
Continuous
370
    15
100
AcDbLine
 10
568.0905150171392
 20
182.169699474377
 30
0.0
 11
568.0905150171392
 21
158.169699474377
 31
0.0
  0
LINE
  5
DEDA4
330
17
100
AcDbEntity
  8
C4
  6
Continuous
370
    15
100
AcDbLine
 10
614.8967454567391
 20
158.169699474377
 30
0.0
 11
614.8967454567391
 21
182.169699474377
 31
0.0
  0
ARC
  5
DEDA5
330
17
100
AcDbEntity
  8
C4
  6
Continuous
370
    15
100
AcDbCircle
 10
586.4053483251391
 20
166.2408882078771
 30
0.0
 40
3.073469313018991
100
AcDbArc
 50
249.3571236242418
 51
259.4187785483243
  0
ARC
  5
DEDA6
330
17
100
AcDbEntity
  8
C4
  6
Continuous
370
    15
100
AcDbCircle
 10
586.4053483251391
 20
174.0985107407768
 30
0.0
 40
3.073469313013939
100
AcDbArc
 50
100.5812214516757
 51
110.6428763757582
  0
LINE
  5
DEDA7
330
17
100
AcDbEntity
  8
C4
  6
Continuous
370
    15
100
AcDbLine
 10
585.3218211992397
 20
176.9746509643773
 30
0.0
 11
575.241860945639
 21
173.1875237942768
 31
0.0
  0
ARC
  5
DEDA8
330
17
100
AcDbEntity
  8
C4
  6
Continuous
370
    15
100
AcDbCircle
 10
576.4225822051392
 20
170.0621192125773
 30
0.0
 40
3.340996332197353
100
AcDbArc
 50
110.6956570756859
 51
122.3583258739918
  0
LINE
  5
DEDA9
330
17
100
AcDbEntity
  8
C4
  6
Continuous
370
    15
100
AcDbLine
 10
574.612930578939
 20
172.8707463328765
 30
0.0
 11
574.6344391028396
 21
172.8843170684768
 31
0.0
  0
ARC
  5
DEDAA
330
17
100
AcDbEntity
  8
C4
  6
Continuous
370
    15
100
AcDbCircle
 10
576.6729369156393
 20
170.169699474377
 30
0.0
 40
3.396951609817214
100
AcDbArc
 50
127.3316648707204
 51
232.6683351292795
  0
LINE
  5
DEDAB
330
17
100
AcDbEntity
  8
C4
  6
Continuous
370
    15
100
AcDbLine
 10
574.6344391028396
 20
167.4550818802772
 30
0.0
 11
574.612930578939
 21
167.4686526157766
 31
0.0
  0
ARC
  5
DEDAC
330
17
100
AcDbEntity
  8
C4
  6
Continuous
370
    15
100
AcDbCircle
 10
576.4225822051392
 20
170.2772797360767
 30
0.0
 40
3.340996332201253
100
AcDbArc
 50
237.6416741260081
 51
249.3043429243141
  0
LINE
  5
DEDAD
330
17
100
AcDbEntity
  8
C4
  6
Continuous
370
    15
100
AcDbLine
 10
575.241860945639
 20
167.1518751543772
 30
0.0
 11
585.3218211992397
 21
163.3647479842766
 31
0.0
  0
ARC
  5
DEDAE
330
17
100
AcDbEntity
  8
C4
  6
Continuous
370
    15
100
AcDbCircle
 10
596.5819121487392
 20
174.0985107407768
 30
0.0
 40
3.073469313013048
100
AcDbArc
 50
69.3571236242418
 51
79.41877854832433
  0
ARC
  5
DEDAF
330
17
100
AcDbEntity
  8
C4
  6
Continuous
370
    15
100
AcDbCircle
 10
596.5819121487392
 20
166.2408882078771
 30
0.0
 40
3.073469313018888
100
AcDbArc
 50
280.5812214516757
 51
290.6428763757583
  0
LINE
  5
DEDB0
330
17
100
AcDbEntity
  8
C4
  6
Continuous
370
    15
100
AcDbLine
 10
597.6654392746395
 20
163.3647479842766
 30
0.0
 11
607.7453995282393
 21
167.1518751543772
 31
0.0
  0
ARC
  5
DEDB1
330
17
100
AcDbEntity
  8
C4
  6
Continuous
370
    15
100
AcDbCircle
 10
606.564678268739
 20
170.2772797360767
 30
0.0
 40
3.340996332198053
100
AcDbArc
 50
290.6956570756859
 51
302.3583258739918
  0
LINE
  5
DEDB2
330
17
100
AcDbEntity
  8
C4
  6
Continuous
370
    15
100
AcDbLine
 10
608.3743298949392
 20
167.4686526157766
 30
0.0
 11
608.3528213710397
 21
167.4550818802772
 31
0.0
  0
ARC
  5
DEDB3
330
17
100
AcDbEntity
  8
C4
  6
Continuous
370
    15
100
AcDbCircle
 10
606.3143235582392
 20
170.169699474377
 30
0.0
 40
3.396951609817187
100
AcDbArc
 50
307.3316648707205
 51
52.66833512927957
  0
LINE
  5
DEDB4
330
17
100
AcDbEntity
  8
C4
  6
Continuous
370
    15
100
AcDbLine
 10
608.3528213710397
 20
172.8843170684768
 30
0.0
 11
608.3743298949392
 21
172.8707463328765
 31
0.0
  0
ARC
  5
DEDB5
330
17
100
AcDbEntity
  8
C4
  6
Continuous
370
    15
100
AcDbCircle
 10
606.564678268739
 20
170.0621192125773
 30
0.0
 40
3.340996332198238
100
AcDbArc
 50
57.64167412600812
 51
69.30434292431404
  0
LINE
  5
DEDB6
330
17
100
AcDbEntity
  8
C4
  6
Continuous
370
    15
100
AcDbLine
 10
607.7453995282393
 20
173.1875237942768
 30
0.0
 11
597.6654392746395
 21
176.9746509643773
 31
0.0
  0
LINE
  5
DEDB7
330
17
100
AcDbEntity
  8
C4
  6
Continuous
370
    15
100
AcDbLine
 10
566.4846357777422
 20
155.169699474377
 30
0.0
 11
616.5026246961351
 21
155.1696994743652
 31
0.0
  0
LINE
  5
DEDB8
330
17
100
AcDbEntity
  8
C4
  6
Continuous
370
    15
100
AcDbLine
 10
566.4846357777677
 20
185.169699474377
 30
0.0
 11
616.5026246961351
 21
185.1696994742886
 31
0.0
  0
SPLINE
  5
DEDB9
330
17
100
AcDbEntity
  8
C4
  6
Continuous
370
    15
100
AcDbSpline
210
0.0
220
0.0
230
1.0
 70
     8
 71
     3
 72
     8
 73
     4
 74
     0
 42
0.000000001
 43
0.0000000001
 40
0.0
 40
0.0
 40
0.0
 40
0.0
 40
1.0
 40
1.0
 40
1.0
 40
1.0
 10
597.1462908173235
 20
163.2196814395993
 30
0.0
 10
596.9655592814997
 20
163.1860696381409
 30
0.0
 10
596.799456361784
 20
163.1696994743297
 30
0.0
 10
596.6484990953204
 20
163.1696994743297
 30
0.0
  0
SPLINE
  5
DEDBA
330
17
100
AcDbEntity
  8
C4
  6
Continuous
370
    15
100
AcDbSpline
210
0.0
220
0.0
230
1.0
 70
     8
 71
     3
 72
     8
 73
     4
 74
     0
 42
0.000000001
 43
0.0000000001
 40
0.0
 40
0.0
 40
0.0
 40
0.0
 40
1.0
 40
1.0
 40
1.0
 40
1.0
 10
596.6484990953204
 20
177.1696994743297
 30
0.0
 10
596.799456361784
 20
177.1696994743297
 30
0.0
 10
596.9655592814997
 20
177.1533293105176
 30
0.0
 10
597.1462908173235
 20
177.1197175090591
 30
0.0
  0
SPLINE
  5
DEDBB
330
17
100
AcDbEntity
  8
C4
  6
Continuous
370
    15
100
AcDbSpline
210
0.0
220
0.0
230
1.0
 70
     8
 71
     3
 72
     8
 73
     4
 74
     0
 42
0.000000001
 43
0.0000000001
 40
0.0
 40
0.0
 40
0.0
 40
0.0
 40
1.0
 40
1.0
 40
1.0
 40
1.0
 10
586.3387613785662
 20
163.1696994743297
 30
0.0
 10
586.1878041121026
 20
163.1696994743297
 30
0.0
 10
586.0217011923869
 20
163.1860696381409
 30
0.0
 10
585.840969656563
 20
163.2196814395993
 30
0.0
  0
SPLINE
  5
DEDBC
330
17
100
AcDbEntity
  8
C4
  6
Continuous
370
    15
100
AcDbSpline
210
0.0
220
0.0
230
1.0
 70
     8
 71
     3
 72
     8
 73
     4
 74
     0
 42
0.000000001
 43
0.0000000001
 40
0.0
 40
0.0
 40
0.0
 40
0.0
 40
1.0
 40
1.0
 40
1.0
 40
1.0
 10
585.840969656563
 20
177.1197175090591
 30
0.0
 10
586.0217011923869
 20
177.1533293105176
 30
0.0
 10
586.1878041121026
 20
177.1696994743297
 30
0.0
 10
586.3387613785662
 20
177.1696994743297
 30
0.0
  0
LINE
  5
DEDBD
330
17
100
AcDbEntity
  8
C4
  6
Continuous
370
    15
100
AcDbLine
 10
586.3387613785397
 20
163.169699474377
 30
0.0
 11
587.1983767397396
 21
163.169699474377
 31
0.0
  0
LINE
  5
DEDBE
330
17
100
AcDbEntity
  8
C4
  6
Continuous
370
    15
100
AcDbLine
 10
595.7888837341397
 20
177.169699474377
 30
0.0
 11
596.6484990953395
 21
177.169699474377
 31
0.0
  0
LINE
  5
DEDBF
330
17
100
AcDbEntity
  8
C4
  6
Continuous
370
    15
100
AcDbLine
 10
595.7888837341397
 20
163.169699474377
 30
0.0
 11
596.6484990953395
 21
163.169699474377
 31
0.0
  0
LINE
  5
DEDC0
330
17
100
AcDbEntity
  8
C4
  6
Continuous
370
    15
100
AcDbLine
 10
586.3387613785397
 20
177.169699474377
 30
0.0
 11
587.1983767397396
 21
177.169699474377
 31
0.0
  0
SPLINE
  5
DEDC1
330
17
100
AcDbEntity
  8
C4
  6
Continuous
370
    15
100
AcDbSpline
210
0.0
220
0.0
230
1.0
 70
     8
 71
     3
 72
    20
 73
    16
 74
     0
 42
0.000000001
 43
0.0000000001
 40
0.0
 40
0.0
 40
0.0
 40
0.0
 40
0.1249999999999999
 40
0.1249999999999999
 40
0.2499999999999999
 40
0.2499999999999999
 40
0.3749999999999998
 40
0.3749999999999998
 40
0.5
 40
0.5
 40
0.75
 40
0.75
 40
0.8749999999999998
 40
0.8749999999999998
 40
1.0
 40
1.0
 40
1.0
 40
1.0
 10
586.2350770464034
 20
163.1696994743297
 30
0.0
 10
586.2183513385335
 20
163.1696994743297
 30
0.0
 10
586.2069191763501
 20
163.1811577131711
 30
0.0
 10
586.1938018812252
 20
163.2280750114223
 30
0.0
 10
586.1921871994544
 20
163.2641770855362
 30
0.0
 10
586.1976492453313
 20
163.3602500982497
 30
0.0
 10
586.2045782951853
 20
163.4197908622836
 30
0.0
 10
586.2244119439382
 20
163.562583067157
 30
0.0
 10
586.2374143161814
 20
163.6463849608253
 30
0.0
 10
586.2793866466217
 20
163.9228222239217
 30
0.0
 10
586.3120198415989
 20
164.1478342403707
 30
0.0
 10
586.3475580383181
 20
164.51359009112
 30
0.0
 10
586.3574293848432
 20
164.6423673413092
 30
0.0
 10
586.370721053333
 20
164.9033482588456
 30
0.0
 10
586.3742233576111
 20
165.0356161941909
 30
0.0
 10
586.3742233576111
 20
165.1696994743297
 30
0.0
  0
SPLINE
  5
DEDC2
330
17
100
AcDbEntity
  8
C4
  6
Continuous
370
    15
100
AcDbSpline
210
0.0
220
0.0
230
1.0
 70
     8
 71
     3
 72
    20
 73
    16
 74
     0
 42
0.000000001
 43
0.0000000001
 40
0.0
 40
0.0
 40
0.0
 40
0.0
 40
0.1249999999999998
 40
0.1249999999999998
 40
0.2499999999999997
 40
0.2499999999999997
 40
0.3749999999999995
 40
0.3749999999999995
 40
0.4999999999999993
 40
0.4999999999999993
 40
0.7499999999999996
 40
0.7499999999999996
 40
0.8749999999999998
 40
0.8749999999999998
 40
1.0
 40
1.0
 40
1.0
 40
1.0
 10
596.6130371162752
 20
165.1696994743297
 30
0.0
 10
596.6130371162752
 20
165.0356090817404
 30
0.0
 10
596.6165381723057
 20
164.9037889819192
 30
0.0
 10
596.6297011633196
 20
164.6445063298479
 30
0.0
 10
596.63952263388
 20
164.5156562297516
 30
0.0
 10
596.663286460155
 20
164.2706524381137
 30
0.0
 10
596.6771321108089
 20
164.154565728294
 30
0.0
 10
596.706313545973
 20
163.9351969966737
 30
0.0
 10
596.7216956969122
 20
163.8318042373685
 30
0.0
 10
596.7636692597287
 20
163.5553131866099
 30
0.0
 10
596.7867961028304
 20
163.4086791979171
 30
0.0
 10
596.79506135921
 20
163.2649246774872
 30
0.0
 10
596.7935501141299
 20
163.2286475034216
 30
0.0
 10
596.7804102671416
 20
163.1811622247787
 30
0.0
 10
596.7689156645465
 20
163.1696994743297
 30
0.0
 10
596.752183427483
 20
163.1696994743297
 30
0.0
  0
LINE
  5
DEDC3
330
17
100
AcDbEntity
  8
C4
  6
Continuous
370
    15
100
AcDbLine
 10
596.6130371162399
 20
175.169699474377
 30
0.0
 11
596.6130371162399
 21
165.169699474377
 31
0.0
  0
SPLINE
  5
DEDC4
330
17
100
AcDbEntity
  8
C4
  6
Continuous
370
    15
100
AcDbSpline
210
0.0
220
0.0
230
1.0
 70
     8
 71
     3
 72
    20
 73
    16
 74
     0
 42
0.000000001
 43
0.0000000001
 40
0.0
 40
0.0
 40
0.0
 40
0.0
 40
0.1249999999999999
 40
0.1249999999999999
 40
0.2499999999999998
 40
0.2499999999999998
 40
0.3749999999999997
 40
0.3749999999999997
 40
0.4999999999999999
 40
0.4999999999999999
 40
0.7500000000000001
 40
0.7500000000000001
 40
0.875
 40
0.875
 40
1.0
 40
1.0
 40
1.0
 40
1.0
 10
596.752183427483
 20
177.1696994743297
 30
0.0
 10
596.768909135353
 20
177.1696994743297
 30
0.0
 10
596.7803412975362
 20
177.1582412354883
 30
0.0
 10
596.7934585926623
 20
177.1113239372371
 30
0.0
 10
596.7950732744319
 20
177.0752218631223
 30
0.0
 10
596.7896112285552
 20
176.9791488504097
 30
0.0
 10
596.7826821787013
 20
176.9196080863748
 30
0.0
 10
596.7628485299483
 20
176.7768158815024
 30
0.0
 10
596.7498461577052
 20
176.6930139878332
 30
0.0
 10
596.7078738272647
 20
176.4165767247368
 30
0.0
 10
596.6752406322875
 20
176.1915647082878
 30
0.0
 10
596.6397024355682
 20
175.8258088575385
 30
0.0
 10
596.6298310890443
 20
175.6970316073493
 30
0.0
 10
596.6165394205545
 20
175.4360506898128
 30
0.0
 10
596.6130371162752
 20
175.3037827544676
 30
0.0
 10
596.6130371162752
 20
175.1696994743297
 30
0.0
  0
SPLINE
  5
DEDC5
330
17
100
AcDbEntity
  8
C4
  6
Continuous
370
    15
100
AcDbSpline
210
0.0
220
0.0
230
1.0
 70
     8
 71
     3
 72
    20
 73
    16
 74
     0
 42
0.000000001
 43
0.0000000001
 40
0.0
 40
0.0
 40
0.0
 40
0.0
 40
0.1249999999999998
 40
0.1249999999999998
 40
0.2499999999999997
 40
0.2499999999999997
 40
0.3749999999999995
 40
0.3749999999999995
 40
0.4999999999999993
 40
0.4999999999999993
 40
0.7499999999999996
 40
0.7499999999999996
 40
0.8749999999999998
 40
0.8749999999999998
 40
1.0
 40
1.0
 40
1.0
 40
1.0
 10
586.3742233576111
 20
175.1696994743297
 30
0.0
 10
586.3742233576111
 20
175.3037898669181
 30
0.0
 10
586.3707223015807
 20
175.4356099667393
 30
0.0
 10
586.357559310567
 20
175.6948926188115
 30
0.0
 10
586.3477378400066
 20
175.8237427189069
 30
0.0
 10
586.3239740137315
 20
176.0687465105448
 30
0.0
 10
586.3101283630776
 20
176.1848332203653
 30
0.0
 10
586.2809469279135
 20
176.4042019519846
 30
0.0
 10
586.2655647769742
 20
176.50759471129
 30
0.0
 10
586.2235912141577
 20
176.7840857620485
 30
0.0
 10
586.2004643710561
 20
176.9307197507414
 30
0.0
 10
586.1921991146763
 20
177.0744742711713
 30
0.0
 10
586.1937103597564
 20
177.1107514452369
 30
0.0
 10
586.2068502067459
 20
177.1582367238807
 30
0.0
 10
586.2183448093401
 20
177.1696994743297
 30
0.0
 10
586.2350770464034
 20
177.1696994743297
 30
0.0
  0
LINE
  5
DEDC6
330
17
100
AcDbEntity
  8
C4
  6
Continuous
370
    15
100
AcDbLine
 10
586.3742233576394
 20
175.169699474377
 30
0.0
 11
586.3742233576394
 21
165.169699474377
 31
0.0
  0
SPLINE
  5
DEDC7
330
17
100
AcDbEntity
  8
C4
  6
Continuous
370
    15
100
AcDbSpline
210
0.0
220
0.0
230
1.0
 70
     8
 71
     3
 72
    20
 73
    16
 74
     0
 42
0.000000001
 43
0.0000000001
 40
0.0
 40
0.0
 40
0.0
 40
0.0
 40
0.1249999999999999
 40
0.1249999999999999
 40
0.2499999999999998
 40
0.2499999999999998
 40
0.3749999999999997
 40
0.3749999999999997
 40
0.4999999999999998
 40
0.4999999999999998
 40
0.7499999999999993
 40
0.7499999999999993
 40
0.8749999999999996
 40
0.8749999999999996
 40
1.0
 40
1.0
 40
1.0
 40
1.0
 10
587.0822206580977
 20
177.1696994743297
 30
0.0
 10
587.055593559131
 20
177.1696994743297
 30
0.0
 10
587.0352994378598
 20
177.1588349087151
 30
0.0
 10
587.0064608287257
 20
177.1134839555251
 30
0.0
 10
586.9979292999731
 20
177.0783462526606
 30
0.0
 10
586.991924352058
 20
176.9840516330978
 30
0.0
 10
586.9942669848823
 20
176.9252938890959
 30
0.0
 10
587.0068157436763
 20
176.7834407294294
 30
0.0
 10
587.0171238878456
 20
176.6999181849796
 30
0.0
 10
587.0533417699324
 20
176.4235199979021
 30
0.0
 10
587.0849881458878
 20
176.1976921540099
 30
0.0
 10
587.1201371245306
 20
175.8295832598196
 30
0.0
 10
587.1300548204926
 20
175.6997795428124
 30
0.0
 10
587.143407277218
 20
175.4376508798987
 30
0.0
 10
587.1469640186424
 20
175.3046630359121
 30
0.0
 10
587.1469640186424
 20
175.1696994743297
 30
0.0
  0
ELLIPSE
  5
DEDC8
330
17
100
AcDbEntity
  8
C4
  6
Continuous
370
    15
100
AcDbEllipse
 10
591.3327890906976
 20
158.596018940224
 30
0.0
 11
4.486128001799087
 21
-0.3530659307753063
 31
0.0
210
0.0
220
0.0
230
0.9999999999999998
 40
0.5
 41
1.145971899316008
 42
1.570796326794897
  0
ELLIPSE
  5
DEDC9
330
17
100
AcDbEntity
  8
C4
  6
Continuous
370
    15
100
AcDbEllipse
 10
591.3327890906976
 20
158.596018940224
 30
0.0
 11
4.486128001799087
 21
-0.3530659307753063
 31
0.0
210
0.0
220
0.0
230
0.9999999999999998
 40
0.5
 41
1.570796326794897
 42
1.995620754273782
  0
ELLIPSE
  5
DEDCA
330
17
100
AcDbEntity
  8
C4
  6
Continuous
370
    15
100
AcDbEllipse
 10
591.6544713831817
 20
162.6833800085296
 30
0.0
 11
4.486128001799087
 21
-0.3530659307753063
 31
0.0
210
0.0
220
0.0
230
0.9999999999999998
 40
0.5
 41
4.287564552905807
 42
4.712388980384697
  0
ELLIPSE
  5
DEDCB
330
17
100
AcDbEntity
  8
C4
  6
Continuous
370
    15
100
AcDbEllipse
 10
591.6544713831817
 20
162.6833800085296
 30
0.0
 11
4.486128001799087
 21
-0.3530659307753063
 31
0.0
210
0.0
220
0.0
230
0.9999999999999998
 40
0.5
 41
4.712388980384697
 42
5.137213407863592
  0
SPLINE
  5
DEDCC
330
17
100
AcDbEntity
  8
C4
  6
Continuous
370
    15
100
AcDbSpline
210
0.0
220
0.0
230
1.0
 70
     8
 71
     3
 72
    20
 73
    16
 74
     0
 42
0.000000001
 43
0.0000000001
 40
0.0
 40
0.0
 40
0.0
 40
0.0
 40
0.1250000000000001
 40
0.1250000000000001
 40
0.2500000000000002
 40
0.2500000000000002
 40
0.3750000000000003
 40
0.3750000000000003
 40
0.5000000000000006
 40
0.5000000000000006
 40
0.7500000000000002
 40
0.7500000000000002
 40
0.8750000000000001
 40
0.8750000000000001
 40
1.0
 40
1.0
 40
1.0
 40
1.0
 10
595.8402964552442
 20
175.1696994743297
 30
0.0
 10
595.8402964552442
 20
175.3046675307159
 30
0.0
 10
595.8438520743064
 20
175.4373369716686
 30
0.0
 10
595.8571136278013
 20
175.6982627770194
 30
0.0
 10
595.8669814673357
 20
175.8279294069907
 30
0.0
 10
595.8904628683167
 20
176.0741800962414
 30
0.0
 10
595.9039909034072
 20
176.190805846938
 30
0.0
 10
595.9316822852579
 20
176.4110450507232
 30
0.0
 10
595.9458502622692
 20
176.5146114070448
 30
0.0
 10
595.9820766977847
 20
176.7909697110508
 30
0.0
 10
595.9982675528326
 20
176.9365002448576
 30
0.0
 10
595.9894199328364
 20
177.0777055239032
 30
0.0
 10
595.9809951018587
 20
177.1130338939147
 30
0.0
 10
595.9520537315037
 20
177.1588304169454
 30
0.0
 10
595.9316785075397
 20
177.1696994743297
 30
0.0
 10
595.9050398157887
 20
177.1696994743297
 30
0.0
  0
LINE
  5
DEDCD
330
17
100
AcDbEntity
  8
C4
  6
Continuous
370
    15
100
AcDbLine
 10
595.8402964552397
 20
175.169699474377
 30
0.0
 11
595.8402964552397
 21
165.169699474377
 31
0.0
  0
SPLINE
  5
DEDCE
330
17
100
AcDbEntity
  8
C4
  6
Continuous
370
    15
100
AcDbSpline
210
0.0
220
0.0
230
1.0
 70
     8
 71
     3
 72
    20
 73
    16
 74
     0
 42
0.000000001
 43
0.0000000001
 40
0.0
 40
0.0
 40
0.0
 40
0.0
 40
0.1249999999999998
 40
0.1249999999999998
 40
0.2499999999999996
 40
0.2499999999999996
 40
0.3749999999999994
 40
0.3749999999999994
 40
0.4999999999999993
 40
0.4999999999999993
 40
0.7499999999999996
 40
0.7499999999999996
 40
0.8749999999999998
 40
0.8749999999999998
 40
1.0
 40
1.0
 40
1.0
 40
1.0
 10
595.9050398157887
 20
163.1696994743297
 30
0.0
 10
595.9316669147556
 20
163.1696994743297
 30
0.0
 10
595.9519610360275
 20
163.1805640399434
 30
0.0
 10
595.9807996451616
 20
163.2259149931333
 30
0.0
 10
595.9893311739143
 20
163.2610526959988
 30
0.0
 10
595.9953361218286
 20
163.3553473155607
 30
0.0
 10
595.9929934890043
 20
163.4141050595635
 30
0.0
 10
595.9804447302103
 20
163.55595821923
 30
0.0
 10
595.970136586041
 20
163.6394807636798
 30
0.0
 10
595.9339187039542
 20
163.9158789507564
 30
0.0
 10
595.9022723279995
 20
164.1417067946486
 30
0.0
 10
595.867123349356
 20
164.5098156888389
 30
0.0
 10
595.8572056533938
 20
164.6396194058461
 30
0.0
 10
595.8438531966684
 20
164.9017480687606
 30
0.0
 10
595.8402964552442
 20
165.0347359127463
 30
0.0
 10
595.8402964552442
 20
165.1696994743297
 30
0.0
  0
SPLINE
  5
DEDCF
330
17
100
AcDbEntity
  8
C4
  6
Continuous
370
    15
100
AcDbSpline
210
0.0
220
0.0
230
1.0
 70
     8
 71
     3
 72
    20
 73
    16
 74
     0
 42
0.000000001
 43
0.0000000001
 40
0.0
 40
0.0
 40
0.0
 40
0.0
 40
0.1250000000000001
 40
0.1250000000000001
 40
0.2500000000000003
 40
0.2500000000000003
 40
0.3750000000000004
 40
0.3750000000000004
 40
0.5000000000000006
 40
0.5000000000000006
 40
0.7500000000000002
 40
0.7500000000000002
 40
0.8750000000000001
 40
0.8750000000000001
 40
1.0
 40
1.0
 40
1.0
 40
1.0
 10
587.1469640186424
 20
165.1696994743297
 30
0.0
 10
587.1469640186424
 20
165.0347314179425
 30
0.0
 10
587.1434083995808
 20
164.9020619769899
 30
0.0
 10
587.1301468460851
 20
164.6411361716391
 30
0.0
 10
587.1202790065517
 20
164.5114695416678
 30
0.0
 10
587.0967976055697
 20
164.2652188524171
 30
0.0
 10
587.0832695704794
 20
164.1485931017205
 30
0.0
 10
587.0555781886287
 20
163.9283538979362
 30
0.0
 10
587.0414102116174
 20
163.8247875416136
 30
0.0
 10
587.0051837761019
 20
163.5484292376077
 30
0.0
 10
586.988992921054
 20
163.4028987038009
 30
0.0
 10
586.9978405410511
 20
163.2616934247562
 30
0.0
 10
587.0062653720286
 20
163.2263650547438
 30
0.0
 10
587.0352067423826
 20
163.180568531713
 30
0.0
 10
587.0555819663467
 20
163.1696994743297
 30
0.0
 10
587.0822206580977
 20
163.1696994743297
 30
0.0
  0
LINE
  5
DEDD0
330
17
100
AcDbEntity
  8
C4
  6
Continuous
370
    15
100
AcDbLine
 10
587.1469640186395
 20
175.169699474377
 30
0.0
 11
587.1469640186395
 21
165.169699474377
 31
0.0
  0
ELLIPSE
  5
DEDD1
330
17
100
AcDbEntity
  8
C4
  6
Continuous
370
    15
100
AcDbEllipse
 10
591.3327890906976
 20
177.6560189402234
 30
0.0
 11
4.486128001799087
 21
-0.3530659307753063
 31
0.0
210
0.0
220
0.0
230
0.9999999999999998
 40
0.5
 41
1.145971899316008
 42
1.570796326794897
  0
ELLIPSE
  5
DEDD2
330
17
100
AcDbEntity
  8
C4
  6
Continuous
370
    15
100
AcDbEllipse
 10
591.3327890906976
 20
177.6560189402234
 30
0.0
 11
4.486128001799087
 21
-0.3530659307753063
 31
0.0
210
0.0
220
0.0
230
0.9999999999999998
 40
0.5
 41
1.570796326794897
 42
1.995620754273782
  0
ELLIPSE
  5
DEDD3
330
17
100
AcDbEntity
  8
C4
  6
Continuous
370
    15
100
AcDbEllipse
 10
591.6544713831817
 20
181.74338000853
 30
0.0
 11
4.486128001799087
 21
-0.3530659307753063
 31
0.0
210
0.0
220
0.0
230
0.9999999999999998
 40
0.5
 41
4.287564552905807
 42
4.712388980384697
  0
ELLIPSE
  5
DEDD4
330
17
100
AcDbEntity
  8
C4
  6
Continuous
370
    15
100
AcDbEllipse
 10
591.6544713831817
 20
181.74338000853
 30
0.0
 11
4.486128001799087
 21
-0.3530659307753063
 31
0.0
210
0.0
220
0.0
230
0.9999999999999998
 40
0.5
 41
4.712388980384697
 42
5.137213407863592
  0
LINE
  5
DEDD5
330
17
100
AcDbEntity
  8
C4
  6
Continuous
370
    15
100
AcDbLine
 10
593.3426364418574
 20
160.4941795301211
 30
0.0
 11
589.644624032021
 21
160.7852194186334
 31
0.0
  0
LINE
  5
DEDD6
330
17
100
AcDbEntity
  8
C4
  6
Continuous
370
    15
100
AcDbLine
 10
593.3426364418574
 20
179.5541795301214
 30
0.0
 11
589.644624032021
 21
179.8452194186338
 31
0.0
  0
LINE
  5
DEDD7
330
17
100
AcDbEntity
  8
C4
  6
Continuous
370
    15
100
AcDbLine
 10
672.8017552296151
 20
179.7996994743771
 30
0.0
 11
672.8017552296151
 21
185.169699474377
 31
0.0
  0
LINE
  5
DEDD8
330
17
100
AcDbEntity
  8
C4
  6
Continuous
370
    15
100
AcDbLine
 10
672.8017552296151
 20
160.7396994743767
 30
0.0
 11
672.8017552296151
 21
179.5996994743773
 31
0.0
  0
LINE
  5
DEDD9
330
17
100
AcDbEntity
  8
C4
  6
Continuous
370
    15
100
AcDbLine
 10
672.8017552296151
 20
155.169699474377
 30
0.0
 11
672.8017552296151
 21
160.5396994743769
 31
0.0
  0
ARC
  5
DEDDA
330
17
100
AcDbEntity
  8
C4
  6
Continuous
370
    15
100
AcDbCircle
 10
645.4147612416153
 20
182.1753965669768
 30
0.0
 40
2.994308368628696
100
AcDbArc
 50
90.10942975482365
 51
180.109013341083
  0
LINE
  5
DEDDB
330
17
100
AcDbEntity
  8
C4
  6
Continuous
370
    15
100
AcDbLine
 10
646.5761570737148
 20
158.169699474377
 30
0.0
 11
646.5761570737148
 21
182.169699474377
 31
0.0
  0
ARC
  5
DEDDC
330
17
100
AcDbEntity
  8
C4
  6
Continuous
370
    15
100
AcDbCircle
 10
645.4147612416153
 20
158.1640023816771
 30
0.0
 40
2.994308368628696
100
AcDbArc
 50
179.890986658917
 51
269.8905702450721
  0
LINE
  5
DEDDD
330
17
100
AcDbEntity
  8
C4
  6
Continuous
370
    15
100
AcDbLine
 10
642.420458292715
 20
158.169699474377
 30
0.0
 11
642.420458292715
 21
182.169699474377
 31
0.0
  0
ARC
  5
DEDDE
330
17
100
AcDbEntity
  8
C4
  6
Continuous
370
    15
100
AcDbCircle
 10
645.3450366474152
 20
182.1753965669768
 30
0.0
 40
2.994308368628696
100
AcDbArc
 50
90.10942975482365
 51
180.109013341083
  0
ARC
  5
DEDDF
330
17
100
AcDbEntity
  8
C4
  6
Continuous
370
    15
100
AcDbCircle
 10
645.3450366474152
 20
158.1640023816771
 30
0.0
 40
2.994308368628693
100
AcDbArc
 50
179.890986658917
 51
269.8905702450721
  0
LINE
  5
DEDE0
330
17
100
AcDbEntity
  8
C4
  6
Continuous
370
    15
100
AcDbLine
 10
642.3507336985148
 20
158.169699474377
 30
0.0
 11
642.3507336985148
 21
182.169699474377
 31
0.0
  0
ARC
  5
DEDE1
330
17
100
AcDbEntity
  8
C4
  6
Continuous
370
    15
100
AcDbCircle
 10
655.5720549761153
 20
169.5714054290765
 30
0.0
 40
2.655495852051981
100
AcDbArc
 50
232.8407613159893
 51
245.663462927472
  0
LINE
  5
DEDE2
330
17
100
AcDbEntity
  8
C4
  6
Continuous
370
    15
100
AcDbLine
 10
662.9358280969153
 20
163.3647479842766
 30
0.0
 11
654.4777371658157
 21
167.1518751543772
 31
0.0
  0
ARC
  5
DEDE3
330
17
100
AcDbEntity
  8
C4
  6
Continuous
370
    15
100
AcDbCircle
 10
663.8656331950151
 20
165.4302539175769
 30
0.0
 40
2.265138468418088
100
AcDbArc
 50
245.7647019969731
 51
257.3983626680582
  0
ARC
  5
DEDE4
330
17
100
AcDbEntity
  8
C4
  6
Continuous
370
    15
100
AcDbCircle
 10
663.8656331950151
 20
174.909145031077
 30
0.0
 40
2.26513846841399
100
AcDbArc
 50
102.6016373319418
 51
114.2352980030268
  0
LINE
  5
DEDE5
330
17
100
AcDbEntity
  8
C4
  6
Continuous
370
    15
100
AcDbLine
 10
654.4777371658157
 20
173.1875237942768
 30
0.0
 11
662.9358280969153
 21
176.9746509643773
 31
0.0
  0
ARC
  5
DEDE6
330
17
100
AcDbEntity
  8
C4
  6
Continuous
370
    15
100
AcDbCircle
 10
655.5720549761153
 20
170.7679935195765
 30
0.0
 40
2.65549585205123
100
AcDbArc
 50
114.3365370725278
 51
127.1592386840107
  0
LINE
  5
DEDE7
330
17
100
AcDbEntity
  8
C4
  6
Continuous
370
    15
100
AcDbLine
 10
653.9680497216148
 20
172.8843170684768
 30
0.0
 11
653.9500019270152
 21
172.8707463328765
 31
0.0
  0
ARC
  5
DEDE8
330
17
100
AcDbEntity
  8
C4
  6
Continuous
370
    15
100
AcDbCircle
 10
656.5832247127153
 20
170.169699474377
 30
0.0
 40
3.772203118952397
100
AcDbArc
 50
134.2715359375936
 51
225.7284640624063
  0
LINE
  5
DEDE9
330
17
100
AcDbEntity
  8
C4
  6
Continuous
370
    15
100
AcDbLine
 10
653.9500019270152
 20
167.4686526157766
 30
0.0
 11
653.9680497216148
 21
167.4550818802772
 31
0.0
  0
LINE
  5
DEDEA
330
17
100
AcDbEntity
  8
C4
  6
Continuous
370
    15
100
AcDbLine
 10
645.3393177928266
 20
185.169699474356
 30
0.0
 11
672.8017552296151
 21
185.169699474377
 31
0.0
  0
LINE
  5
DEDEB
330
17
100
AcDbEntity
  8
C4
  6
Continuous
370
    15
100
AcDbLine
 10
645.3393177928266
 20
155.1696994742979
 30
0.0
 11
672.8017552296151
 21
155.169699474377
 31
0.0
  0
SPLINE
  5
DEDEC
330
17
100
AcDbEntity
  8
C4
  6
Continuous
370
    15
100
AcDbSpline
210
0.0
220
0.0
230
1.0
 70
     8
 71
     3
 72
     8
 73
     4
 74
     0
 42
0.000000001
 43
0.0000000001
 40
0.0
 40
0.0
 40
0.0
 40
0.0
 40
1.0
 40
1.0
 40
1.0
 40
1.0
 10
663.8891430815847
 20
163.1696994743297
 30
0.0
 10
663.6963081335708
 20
163.1696994743297
 30
0.0
 10
663.5239121359517
 20
163.1858890042513
 30
0.0
 10
663.3714453759567
 20
163.2196814395993
 30
0.0
  0
SPLINE
  5
DEDED
330
17
100
AcDbEntity
  8
C4
  6
Continuous
370
    15
100
AcDbSpline
210
0.0
220
0.0
230
1.0
 70
     8
 71
     3
 72
     8
 73
     4
 74
     0
 42
0.000000001
 43
0.0000000001
 40
0.0
 40
0.0
 40
0.0
 40
0.0
 40
1.0
 40
1.0
 40
1.0
 40
1.0
 10
663.3714453759567
 20
177.1197175090591
 30
0.0
 10
663.5239121359517
 20
177.1535099444081
 30
0.0
 10
663.6963081335708
 20
177.1696994743297
 30
0.0
 10
663.8891430815847
 20
177.1696994743297
 30
0.0
  0
LINE
  5
DEDEE
330
17
100
AcDbEntity
  8
C4
  6
Continuous
370
    15
100
AcDbLine
 10
666.3318111840152
 20
177.9696994743772
 30
0.0
 11
666.3318111840152
 21
184.3696994743768
 31
0.0
  0
LINE
  5
DEDEF
330
17
100
AcDbEntity
  8
C4
  6
Continuous
370
    15
100
AcDbLine
 10
663.8891430816157
 20
177.169699474377
 30
0.0
 11
666.8402279495713
 21
177.169699474377
 31
0.0
  0
LINE
  5
DEDF0
330
17
100
AcDbEntity
  8
C4
  6
Continuous
370
    15
100
AcDbLine
 10
663.8891430816157
 20
163.169699474377
 30
0.0
 11
666.8402279495713
 21
163.1696994743288
 31
0.0
  0
LINE
  5
DEDF1
330
17
100
AcDbEntity
  8
C4
  6
Continuous
370
    15
100
AcDbLine
 10
666.3318111840152
 20
155.9696994743772
 30
0.0
 11
666.3318111840152
 21
162.3696994743768
 31
0.0
  0
SPLINE
  5
DEDF2
330
17
100
AcDbEntity
  8
C4
  6
Continuous
370
    15
100
AcDbSpline
210
0.0
220
0.0
230
1.0
 70
     8
 71
     3
 72
    20
 73
    16
 74
     0
 42
0.000000001
 43
0.0000000001
 40
0.0
 40
0.0
 40
0.0
 40
0.0
 40
0.1249999999999998
 40
0.1249999999999998
 40
0.2499999999999997
 40
0.2499999999999997
 40
0.3749999999999995
 40
0.3749999999999995
 40
0.4999999999999993
 40
0.4999999999999993
 40
0.7499999999999996
 40
0.7499999999999996
 40
0.8749999999999998
 40
0.8749999999999998
 40
1.0
 40
1.0
 40
1.0
 40
1.0
 10
668.8734961686722
 20
165.1696994743297
 30
0.0
 10
668.8734961686722
 20
165.0356090817404
 30
0.0
 10
668.8606144906644
 20
164.9037889819192
 30
0.0
 10
668.8099829027587
 20
164.6445063298479
 30
0.0
 10
668.7715810947947
 20
164.5156562297516
 30
0.0
 10
668.6710801727048
 20
164.2706524381137
 30
0.0
 10
668.6094095207281
 20
164.154565728294
 30
0.0
 10
668.4627559708997
 20
163.9351969966737
 30
0.0
 10
668.3771599358451
 20
163.8318042373685
 30
0.0
 10
668.0956374669848
 20
163.5553131866099
 30
0.0
 10
667.8666856726578
 20
163.4086791979171
 30
0.0
 10
667.496976749816
 20
163.2649246774872
 30
0.0
 10
667.3673654117537
 20
163.2286475034216
 30
0.0
 10
667.1053107315601
 20
163.1811622247787
 30
0.0
 10
666.9732343443858
 20
163.1696994743297
 30
0.0
 10
666.8402279495702
 20
163.1696994743297
 30
0.0
  0
LINE
  5
DEDF3
330
17
100
AcDbEntity
  8
C4
  6
Continuous
370
    15
100
AcDbLine
 10
668.8734961687149
 20
175.169699474377
 30
0.0
 11
668.8734961687149
 21
165.169699474377
 31
0.0
  0
SPLINE
  5
DEDF4
330
17
100
AcDbEntity
  8
C4
  6
Continuous
370
    15
100
AcDbSpline
210
0.0
220
0.0
230
1.0
 70
     8
 71
     3
 72
    20
 73
    16
 74
     0
 42
0.000000001
 43
0.0000000001
 40
0.0
 40
0.0
 40
0.0
 40
0.0
 40
0.1249999999999999
 40
0.1249999999999999
 40
0.2499999999999998
 40
0.2499999999999998
 40
0.3749999999999997
 40
0.3749999999999997
 40
0.4999999999999999
 40
0.4999999999999999
 40
0.7500000000000001
 40
0.7500000000000001
 40
0.875
 40
0.875
 40
1.0
 40
1.0
 40
1.0
 40
1.0
 10
666.8402279495702
 20
177.1696994743297
 30
0.0
 10
666.9731824431083
 20
177.1696994743297
 30
0.0
 10
667.1047236419198
 20
177.1582412354883
 30
0.0
 10
667.3647613620532
 20
177.1113239372371
 30
0.0
 10
667.494737639944
 20
177.0752218631223
 30
0.0
 10
667.7424476947962
 20
176.9791488504097
 30
0.0
 10
667.8601468561446
 20
176.9196080863748
 30
0.0
 10
668.0830069661688
 20
176.7768158815024
 30
0.0
 10
668.1882110742162
 20
176.6930139878332
 30
0.0
 10
668.4701422957123
 20
176.4165767247368
 30
0.0
 10
668.6204711024064
 20
176.1915647082878
 30
0.0
 10
668.7708469520138
 20
175.8258088575385
 30
0.0
 10
668.809477952158
 20
175.6970316073493
 30
0.0
 10
668.8606148281933
 20
175.4360506898128
 30
0.0
 10
668.8734961686722
 20
175.3037827544676
 30
0.0
 10
668.8734961686722
 20
175.1696994743297
 30
0.0
  0
LINE
  5
DEDF5
330
17
100
AcDbEntity
  8
C4
  6
Continuous
370
    15
100
AcDbLine
 10
672.8017552296151
 20
179.7996994743771
 30
0.0
 11
672.6017552296152
 21
179.6996994743766
 31
0.0
  0
LINE
  5
DEDF6
330
17
100
AcDbEntity
  8
C4
  6
Continuous
370
    15
100
AcDbLine
 10
672.6017552296152
 20
179.6996994743766
 30
0.0
 11
672.8017552296151
 21
179.5996994743773
 31
0.0
  0
LINE
  5
DEDF7
330
17
100
AcDbEntity
  8
C4
  6
Continuous
370
    15
100
AcDbLine
 10
672.6017552296152
 20
160.6396994743772
 30
0.0
 11
672.8017552296151
 21
160.5396994743769
 31
0.0
  0
LINE
  5
DEDF8
330
17
100
AcDbEntity
  8
C4
  6
Continuous
370
    15
100
AcDbLine
 10
672.8017552296151
 20
160.7396994743767
 30
0.0
 11
672.6017552296152
 21
160.6396994743772
 31
0.0
  0
SPLINE
  5
DEDF9
330
17
100
AcDbEntity
  8
C4
  6
Continuous
370
    15
100
AcDbSpline
210
0.0
220
0.0
230
1.0
 70
     8
 71
     3
 72
    20
 73
    16
 74
     0
 42
0.000000001
 43
0.0000000001
 40
0.0
 40
0.0
 40
0.0
 40
0.0
 40
0.1249999999999998
 40
0.1249999999999998
 40
0.2499999999999996
 40
0.2499999999999996
 40
0.3749999999999994
 40
0.3749999999999994
 40
0.4999999999999993
 40
0.4999999999999993
 40
0.7499999999999996
 40
0.7499999999999996
 40
0.8749999999999998
 40
0.8749999999999998
 40
1.0
 40
1.0
 40
1.0
 40
1.0
 10
666.6132365029433
 20
163.1696994743297
 30
0.0
 10
666.7454374750932
 20
163.1696994743297
 30
0.0
 10
666.876850362667
 20
163.1805640399434
 30
0.0
 10
667.1377081052569
 20
163.2259149931333
 30
0.0
 10
667.2686908397272
 20
163.2610526959988
 30
0.0
 10
667.5187860989207
 20
163.3553473155607
 30
0.0
 10
667.6379787397999
 20
163.4141050595635
 30
0.0
 10
667.8641393100297
 20
163.55595821923
 30
0.0
 10
667.9709543814777
 20
163.6394807636798
 30
0.0
 10
668.2573120310352
 20
163.9158789507564
 30
0.0
 10
668.4099273549946
 20
164.1417067946486
 30
0.0
 10
668.5625489983504
 20
164.5098156888389
 30
0.0
 10
668.6017196481542
 20
164.6396194058461
 30
0.0
 10
668.6533942085416
 20
164.9017480687606
 30
0.0
 10
668.6664409325904
 20
165.0347359127463
 30
0.0
 10
668.6664409325904
 20
165.1696994743297
 30
0.0
  0
SPLINE
  5
DEDFA
330
17
100
AcDbEntity
  8
C4
  6
Continuous
370
    15
100
AcDbSpline
210
0.0
220
0.0
230
1.0
 70
     8
 71
     3
 72
    20
 73
    16
 74
     0
 42
0.000000001
 43
0.0000000001
 40
0.0
 40
0.0
 40
0.0
 40
0.0
 40
0.1250000000000001
 40
0.1250000000000001
 40
0.2500000000000002
 40
0.2500000000000002
 40
0.3750000000000003
 40
0.3750000000000003
 40
0.5000000000000006
 40
0.5000000000000006
 40
0.7500000000000002
 40
0.7500000000000002
 40
0.8750000000000001
 40
0.8750000000000001
 40
1.0
 40
1.0
 40
1.0
 40
1.0
 10
668.6664409325904
 20
175.1696994743297
 30
0.0
 10
668.6664409325904
 20
175.3046675307159
 30
0.0
 10
668.6533941550406
 20
175.4373369716686
 30
0.0
 10
668.6020801573184
 20
175.6982627770194
 30
0.0
 10
668.5631378320595
 20
175.8279294069907
 30
0.0
 10
668.4612326002852
 20
176.0741800962414
 30
0.0
 10
668.3986710556563
 20
176.190805846938
 30
0.0
 10
668.2497079177819
 20
176.4110450507232
 30
0.0
 10
668.1627865804429
 20
176.5146114070448
 30
0.0
 10
667.8769228866276
 20
176.7909697110508
 30
0.0
 10
667.6443195023657
 20
176.9365002448576
 30
0.0
 10
667.2706805875832
 20
177.0777055239032
 30
0.0
 10
667.1398284224432
 20
177.1130338939147
 30
0.0
 10
666.8773399929605
 20
177.1588304169454
 30
0.0
 10
666.7454950321443
 20
177.1696994743297
 30
0.0
 10
666.6132365029433
 20
177.1696994743297
 30
0.0
  0
LINE
  5
DEDFB
330
17
100
AcDbEntity
  8
C4
  6
Continuous
370
    15
100
AcDbLine
 10
668.6664409326149
 20
175.169699474377
 30
0.0
 11
668.6664409326149
 21
165.169699474377
 31
0.0
  0
ARC
  5
DEDFC
330
17
100
AcDbEntity
  8
C4
  6
Continuous
370
    15
100
AcDbCircle
 10
569.3760902365392
 20
219.0774426762346
 30
0.0
 40
2.800000000000009
100
AcDbArc
 50
130.0000000000124
 51
174.9999999999247
  0
LINE
  5
DEDFD
330
17
100
AcDbEntity
  8
C4
  6
Continuous
370
    15
100
AcDbLine
 10
585.3267395688399
 20
236.1167670581344
 30
0.0
 11
567.576284929396
 21
221.2223671169995
 31
0.0
  0
ARC
  5
DEDFE
330
17
100
AcDbEntity
  8
C4
  6
Continuous
370
    15
100
AcDbCircle
 10
583.3983767397394
 20
238.4149003875346
 30
0.0
 40
3.000000000000001
100
AcDbArc
 50
310.0000000000123
 51
12.75274481390412
  0
ARC
  5
DEDFF
330
17
100
AcDbEntity
  8
C4
  6
Continuous
370
    15
100
AcDbCircle
 10
599.5888837341388
 20
238.4149003875346
 30
0.0
 40
3.000000000000001
100
AcDbArc
 50
167.2472551860959
 51
229.9999999999876
  0
LINE
  5
DEE00
330
17
100
AcDbEntity
  8
C4
  6
Continuous
370
    15
100
AcDbLine
 10
615.4109755444395
 20
221.222367117035
 30
0.0
 11
597.6605209050458
 21
236.1167670581299
 31
0.0
  0
ARC
  5
DEE01
330
17
100
AcDbEntity
  8
C4
  6
Continuous
370
    15
100
AcDbCircle
 10
613.6111702373391
 20
219.0774426762346
 30
0.0
 40
2.800000000000011
100
AcDbArc
 50
4.999999999973367
 51
49.9999999999876
  0
ARC
  5
DEE02
330
17
100
AcDbEntity
  8
C4
  6
Continuous
370
    15
100
AcDbCircle
 10
613.6111702373391
 20
219.0774426762346
 30
0.0
 40
2.000000000000015
100
AcDbArc
 50
4.999999999973367
 51
49.9999999999876
  0
LINE
  5
DEE03
330
17
100
AcDbEntity
  8
C4
  6
Continuous
370
    15
100
AcDbLine
 10
597.1462908173151
 20
235.5039315036547
 30
0.0
 11
614.8967454567508
 21
220.6095315625244
 31
0.0
  0
ARC
  5
DEE04
330
17
100
AcDbEntity
  8
C4
  6
Continuous
370
    15
100
AcDbCircle
 10
599.5888837341388
 20
238.4149003875346
 30
0.0
 40
3.800000000000011
100
AcDbArc
 50
167.2472551860959
 51
229.9999999999876
  0
ARC
  5
DEE05
330
17
100
AcDbEntity
  8
C4
  6
Continuous
370
    15
100
AcDbCircle
 10
591.4936302369397
 20
240.2470769118345
 30
0.0
 40
4.500000000000006
100
AcDbArc
 50
347.2472551861959
 51
192.7527448139041
  0
ARC
  5
DEE06
330
17
100
AcDbEntity
  8
C4
  6
Continuous
370
    15
100
AcDbCircle
 10
583.3983767397394
 20
238.4149003875346
 30
0.0
 40
3.800000000000001
100
AcDbArc
 50
310.0000000000123
 51
12.75274481390412
  0
LINE
  5
DEE07
330
17
100
AcDbEntity
  8
C4
  6
Continuous
370
    15
100
AcDbLine
 10
568.0905150171392
 20
220.6095315625343
 30
0.0
 11
585.8409696565395
 21
235.5039315036347
 31
0.0
  0
ARC
  5
DEE08
330
17
100
AcDbEntity
  8
C4
  6
Continuous
370
    15
100
AcDbCircle
 10
569.3760902365392
 20
219.0774426762346
 30
0.0
 40
2.000000000000006
100
AcDbArc
 50
130.0000000000124
 51
174.9999999999247
  0
ARC
  5
DEE09
330
17
100
AcDbEntity
  8
C4
  6
Continuous
370
    15
100
AcDbCircle
 10
591.4936302369397
 20
240.2470769118345
 30
0.0
 40
5.300000000000016
100
AcDbArc
 50
347.2472551861959
 51
192.7527448139041
  0
LINE
  5
DEE0A
330
17
100
AcDbEntity
  8
C4
  6
Continuous
370
    15
100
AcDbLine
 10
567.0201243079389
 20
215.0960553807345
 30
0.0
 11
566.2231685495397
 21
215.1657799749346
 31
0.0
  0
LINE
  5
DEE0B
330
17
100
AcDbEntity
  8
C4
  6
Continuous
370
    15
100
AcDbLine
 10
566.2231685495397
 20
215.1657799749346
 30
0.0
 11
566.5867450818377
 21
219.3214787558891
 31
0.0
  0
LINE
  5
DEE0C
330
17
100
AcDbEntity
  8
C4
  6
Continuous
370
    15
100
AcDbLine
 10
567.3837008403842
 20
219.2517541617645
 30
0.0
 11
567.0201243079389
 21
215.0960553807345
 31
0.0
  0
LINE
  5
DEE0D
330
17
100
AcDbEntity
  8
C4
  6
Continuous
370
    15
100
AcDbLine
 10
616.7640919244393
 20
215.1657799749346
 30
0.0
 11
615.9671361659392
 21
215.0960553807345
 31
0.0
  0
LINE
  5
DEE0E
330
17
100
AcDbEntity
  8
C4
  6
Continuous
370
    15
100
AcDbLine
 10
616.4005153919942
 20
219.3214787559791
 30
0.0
 11
616.7640919244393
 21
215.1657799749346
 31
0.0
  0
LINE
  5
DEE0F
330
17
100
AcDbEntity
  8
C4
  6
Continuous
370
    15
100
AcDbLine
 10
615.9671361659392
 20
215.0960553807345
 30
0.0
 11
615.603559633495
 21
219.2517541617645
 31
0.0
  0
LINE
  5
DEE10
330
17
100
AcDbEntity
  8
C4
  6
Continuous
370
    15
100
AcDbLine
 10
593.3483539360395
 20
244.3470769118349
 30
0.0
 11
589.6389065378397
 21
244.3470769118349
 31
0.0
  0
LINE
  5
DEE13
330
17
100
AcDbEntity
  8
C5
  6
CENTER
 62
     4
 48
3.0
100
AcDbLine
 10
591.4936302369388
 20
247.9343226116053
 30
0.0
 11
591.4936302369351
 21
210.4851541745766
 31
0.0
  0
LINE
  5
DEE14
330
17
100
AcDbEntity
  8
C5
  6
CENTER
 62
     4
 48
3.0
100
AcDbLine
 10
597.4936302369424
 20
240.2470769118345
 30
0.0
 11
585.4936302369424
 21
240.2470769118345
 31
0.0
  0
LINE
  5
DEE16
330
17
100
AcDbEntity
  8
C5
  6
CENTER
 62
     4
 48
3.0
100
AcDbLine
 10
591.4936302369532
 20
191.4257470536931
 30
0.0
 11
591.4936302369495
 21
149.5528538265171
 31
0.0
  0
LWPOLYLINE
  5
DEE71
330
17
100
AcDbEntity
  8
2寸法線
 48
3.0
100
AcDbPolyline
 90
        4
 70
     1
 43
0.0
 10
541.2009921300376
 20
279.2515336545148
 10
689.1699488291486
 20
279.2515336545148
 10
689.1699488291486
 20
137.739419665224
 10
541.2009921300376
 20
137.739419665224
  0
TEXT
  5
DEE73
330
17
100
AcDbEntity
  8
2寸法線
 48
3.0
100
AcDbText
 10
548.4342921606803
 20
265.9216922146006
 30
0.0
 40
7.0
  1
ZB-VF
  7
KANJI
100
AcDbText
  0
ENDSEC
  0
SECTION
  2
OBJECTS
  0
DICTIONARY
  5
C
330
0
100
AcDbDictionary
281
     1
  3
ACAD_CIP_PREVIOUS_PRODUCT_INFO
350
D619C
  3
ACAD_COLOR
350
5D3CD
  3
ACAD_DETAILVIEWSTYLE
350
DED87
  3
ACAD_GROUP
350
D
  3
ACAD_LAYOUT
350
501A
  3
ACAD_MATERIAL
350
5D3CC
  3
ACAD_MLEADERSTYLE
350
A895E
  3
ACAD_MLINESTYLE
350
1A
  3
ACAD_PLOTSETTINGS
350
501B
  3
ACAD_PLOTSTYLENAME
350
5018
  3
ACAD_SCALELIST
350
A894C
  3
ACAD_SECTIONVIEWSTYLE
350
DED85
  3
ACAD_TABLESTYLE
350
5D3CE
  3
ACAD_VISUALSTYLE
350
8430C
  3
AcadDim
350
1F032
  3
ACDB_RECOMPOSE_DATA
350
DEE8A
  3
ACDBVARIABLEDICTIONARY
350
51
  0
DICTIONARY
  5
87C2F
330
8
100
AcDbDictionary
280
     1
281
     1
  0
DICTIONARY
  5
89E4
330
2
100
AcDbDictionary
280
     1
281
     1
  3
ACAD_LAYERSTATES
360
89E5
  0
DICTIONARY
  5
A94E1
330
E
100
AcDbDictionary
280
     1
281
     1
  3
ADSK_XREC_LAYER_RECONCILED
360
A94E2
  0
DICTIONARY
  5
A94E3
330
43
100
AcDbDictionary
280
     1
281
     1
  3
ADSK_XREC_LAYER_RECONCILED
360
A94E4
  0
DICTIONARY
  5
A94E5
330
44
100
AcDbDictionary
280
     1
281
     1
  3
ADSK_XREC_LAYER_RECONCILED
360
A94E6
  0
DICTIONARY
  5
A94E7
330
45
100
AcDbDictionary
280
     1
281
     1
  3
ADSK_XREC_LAYER_RECONCILED
360
A94E8
  0
DICTIONARY
  5
A94ED
330
30602
100
AcDbDictionary
280
     1
281
     1
  3
ADSK_XREC_LAYER_RECONCILED
360
A94EE
  0
DICTIONARY
  5
A94F9
330
6AEB6
100
AcDbDictionary
280
     1
281
     1
  3
ADSK_XREC_LAYER_RECONCILED
360
A94FA
  0
DICTIONARY
  5
A94FB
330
7C06B
100
AcDbDictionary
280
     1
281
     1
  3
ADSK_XREC_LAYER_RECONCILED
360
A94FC
  0
DICTIONARY
  5
DE063
330
DE062
100
AcDbDictionary
280
     1
281
     1
  0
DICTIONARY
  5
119DA
330
17
100
AcDbDictionary
280
     1
281
     1
  3
ACAD_SORTENTS
360
64FAB
  0
DICTIONARY
  5
119D8
330
14
100
AcDbDictionary
280
     1
281
     1
  0
DICTIONARY
  5
DED81
330
DECB9
100
AcDbDictionary
280
     1
281
     1
  0
XRECORD
  5
D619C
102
{ACAD_REACTORS
330
C
102
}
330
C
100
AcDbXrecord
280
     1
300
ACD
300
2023
300

  0
DICTIONARY
  5
5D3CD
102
{ACAD_REACTORS
330
C
102
}
330
C
100
AcDbDictionary
281
     1
  0
DICTIONARY
  5
DED87
102
{ACAD_REACTORS
330
C
102
}
330
C
100
AcDbDictionary
281
     1
  3
Metric50
350
DED88
  0
DICTIONARY
  5
D
102
{ACAD_REACTORS
330
C
102
}
330
C
100
AcDbDictionary
281
     1
  0
DICTIONARY
  5
501A
102
{ACAD_REACTORS
330
C
102
}
330
C
100
AcDbDictionary
281
     1
  3
Model
350
501C
  3
ﾚｲｱｳﾄ1
350
501D
  0
DICTIONARY
  5
5D3CC
102
{ACAD_REACTORS
330
C
102
}
330
C
100
AcDbDictionary
281
     1
  3
ByBlock
350
8430A
  3
ByLayer
350
84309
  3
Global
350
8430B
  0
DICTIONARY
  5
A895E
102
{ACAD_REACTORS
330
C
102
}
330
C
100
AcDbDictionary
281
     1
  3
Standard
350
A895F
  0
DICTIONARY
  5
1A
102
{ACAD_REACTORS
330
C
102
}
330
C
100
AcDbDictionary
281
     1
  3
STANDARD
350
1B
  0
DICTIONARY
  5
501B
102
{ACAD_REACTORS
330
C
102
}
330
C
100
AcDbDictionary
281
     1
  0
ACDBDICTIONARYWDFLT
  5
5018
102
{ACAD_REACTORS
330
C
102
}
330
C
100
AcDbDictionary
281
     1
  3
Normal
350
5019
100
AcDbDictionaryWithDefault
340
5019
  0
DICTIONARY
  5
A894C
102
{ACAD_REACTORS
330
C
102
}
330
C
100
AcDbDictionary
281
     1
  3
A0
350
A894D
  3
A1
350
A894E
  3
A2
350
A894F
  3
A3
350
A8950
  3
A4
350
A8951
  3
A5
350
A8952
  3
A6
350
A8953
  3
A7
350
A8954
  3
A8
350
A8955
  3
A9
350
A8956
  3
B0
350
A8957
  3
B1
350
A8958
  3
B2
350
A8959
  3
B3
350
A895A
  3
B4
350
A895B
  3
B5
350
A895C
  3
B6
350
A895D
  0
DICTIONARY
  5
DED85
102
{ACAD_REACTORS
330
C
102
}
330
C
100
AcDbDictionary
281
     1
  3
Metric50
350
DED86
  0
DICTIONARY
  5
5D3CE
102
{ACAD_REACTORS
330
C
102
}
330
C
100
AcDbDictionary
281
     1
  3
Standard
350
5D3CF
  0
DICTIONARY
  5
8430C
102
{ACAD_REACTORS
330
C
102
}
330
C
100
AcDbDictionary
281
     1
  3
2dWireframe
350
84312
  3
3D Hidden
350
84314
  3
3dWireframe
350
84313
  3
Basic
350
84311
  3
Brighten
350
84318
  3
ColorChange
350
8431C
  3
Conceptual
350
84315
  3
Dim
350
84317
  3
EdgeColorOff
350
A894B
  3
Facepattern
350
8431B
  3
Flat
350
8430D
  3
FlatWithEdges
350
8430E
  3
Gouraud
350
8430F
  3
GouraudWithEdges
350
84310
  3
Hidden
350
A8943
  3
JitterOff
350
A8949
  3
Linepattern
350
8431A
  3
OverhangOff
350
A894A
  3
Realistic
350
84316
  3
Shaded
350
A8948
  3
Shaded with edges
350
A8947
  3
Shades of Gray
350
A8944
  3
Sketchy
350
A8945
  3
Thicken
350
84319
  3
Wireframe
350
A8942
  3
X-Ray
350
A8946
  0
XRECORD
  5
1F032
102
{ACAD_REACTORS
330
C
102
}
330
C
100
AcDbXrecord
280
     1
 90
   990106
  3

 60
     0
 61
     0
 62
     1
 63
     3
 64
     0
 65
     0
 66
     0
 67
     3
 68
     1
 69
     0
 70
     0
 71
     0
 72
     0
 40
0.0
170
     0
  0
XRECORD
  5
DEE8A
102
{ACAD_REACTORS
330
C
102
}
330
C
100
AcDbXrecord
280
     1
 90
        1
330
5D3CF
  0
DICTIONARY
  5
51
102
{ACAD_REACTORS
330
C
102
}
330
C
100
AcDbDictionary
281
     1
  3
CANNOSCALE
350
A95B1
  3
CMLEADERSTYLE
350
A95B0
  3
CTABLESTYLE
350
5DA8C
  3
CVIEWDETAILSTYLE
350
DEE7E
  3
CVIEWSECTIONSTYLE
350
DEE7F
  3
DIMADEC
350
52
  3
DIMASSOC
350
212DC
  3
HPCOLOR
350
B4EDE
  3
INDEXCTL
350
87C65
  3
LAYEREVAL
350
D62C5
  3
LAYERNOTIFY
350
D62C6
  3
LIGHTINGUNITS
350
D62C4
  3
MSLTSCALE
350
D62C3
  3
PROJECTNAME
350
6CFD4
  3
SORTENTS
350
F9A8
  0
DICTIONARY
  5
89E5
102
{ACAD_REACTORS
330
89E4
102
}
330
89E4
100
AcDbDictionary
281
     1
  0
XRECORD
  5
A94E2
102
{ACAD_REACTORS
330
A94E1
102
}
330
A94E1
100
AcDbXrecord
280
     1
290
     1
  0
XRECORD
  5
A94E4
102
{ACAD_REACTORS
330
A94E3
102
}
330
A94E3
100
AcDbXrecord
280
     1
290
     1
  0
XRECORD
  5
A94E6
102
{ACAD_REACTORS
330
A94E5
102
}
330
A94E5
100
AcDbXrecord
280
     1
290
     1
  0
XRECORD
  5
A94E8
102
{ACAD_REACTORS
330
A94E7
102
}
330
A94E7
100
AcDbXrecord
280
     1
290
     1
  0
XRECORD
  5
A94EE
102
{ACAD_REACTORS
330
A94ED
102
}
330
A94ED
100
AcDbXrecord
280
     1
290
     1
  0
XRECORD
  5
A94FA
102
{ACAD_REACTORS
330
A94F9
102
}
330
A94F9
100
AcDbXrecord
280
     1
290
     1
  0
XRECORD
  5
A94FC
102
{ACAD_REACTORS
330
A94FB
102
}
330
A94FB
100
AcDbXrecord
280
     1
290
     1
  0
SORTENTSTABLE
  5
64FAB
102
{ACAD_REACTORS
330
119DA
102
}
330
119DA
100
AcDbSortentsTable
330
17
  0
ACDBDETAILVIEWSTYLE
  5
DED88
102
{ACAD_REACTORS
330
DED87
102
}
330
DED87
100
AcDbModelDocViewStyle
 70
     0
  3
Metric50
290
     0
300
Metric50
 90
        0
100
AcDbDetailViewStyle
 70
     0
 71
     0
 90
        3
 71
     1
340
F
 62
   256
 40
5.0
340
0
 62
   256
 40
5.0
300

 40
0.0
280
     1
 71
     2
340
13
 90
       25
 62
   256
 71
     3
340
F
 62
   256
 40
5.0
 90
        0
 40
15.0
 90
        1
300
%<\AcVar ViewDetailId>% (%<\AcVar ViewScale \f "%sn">%)
 71
     4
340
13
 90
       25
 62
   256
340
13
 90
       25
 62
   256
280
     0
  0
LAYOUT
  5
501C
102
{ACAD_REACTORS
330
501A
102
}
330
501A
100
AcDbPlotSettings
  1

  2
PrimoPDF
  4
A4
  6
OLE1
 40
3.174999952316283
 41
3.174999952316283
 42
3.175003051757812
 43
3.17498779296875
 44
210.0156707763672
 45
297.0106506347656
 46
-3.167166113853453
 47
-3.169668555259703
 48
4587.588082640988
 49
-5484.927304857365
140
4797.588082640988
141
-5187.927304857363
142
1.0
143
1.0
 70
 11940
 72
     1
 73
     0
 74
     4
  7
INABA-CAD(IKEBE).ctb
 75
     0
147
0.6674270854654539
 76
     0
 77
     2
 78
   300
148
-4587.588082640988
149
5484.927304857365
100
AcDbLayout
  1
Model
 70
     1
 71
     0
 10
0.0
 20
0.0
 11
12.0
 21
9.0
 12
0.0
 22
0.0
 32
0.0
 14
0.0
 24
0.0
 34
0.0
 15
0.0
 25
0.0
 35
0.0
146
0.0
 13
0.0
 23
0.0
 33
0.0
 16
1.0
 26
0.0
 36
0.0
 17
0.0
 27
1.0
 37
0.0
 76
     0
330
17
331
A893A
1001
ACAD_PSEXT
1000
PrimoPDF
1000
PrimoPDF
1000
PrimoPort:
1000

1070
     0
  0
LAYOUT
  5
501D
102
{ACAD_REACTORS
330
501A
102
}
330
501A
100
AcDbPlotSettings
  1

  2
C:\Program Files\AutoCAD LT 2000i\plotters\NSCC 3350-INABA_CAD.pc3
  4

  6

 40
0.0
 41
0.0
 42
0.0
 43
0.0
 44
0.0
 45
0.0
 46
0.0
 47
0.0
 48
0.0
 49
0.0
140
0.0
141
0.0
142
1.0
143
1.0
 70
   688
 72
     0
 73
     0
 74
     5
  7
INABA-CAD(IKEBE).ctb
 75
    16
147
1.0
 76
     0
 77
     2
 78
   300
148
0.0
149
0.0
100
AcDbLayout
  1
ﾚｲｱｳﾄ1
 70
     0
 71
     1
 10
0.0
 20
0.0
 11
12.0
 21
9.0
 12
0.0
 22
0.0
 32
0.0
 14
1.000000000000000E+20
 24
1.000000000000000E+20
 34
1.000000000000000E+20
 15
-1.000000000000000E+20
 25
-1.000000000000000E+20
 35
-1.000000000000000E+20
146
0.0
 13
0.0
 23
0.0
 33
0.0
 16
1.0
 26
0.0
 36
0.0
 17
0.0
 27
1.0
 37
0.0
 76
     0
330
14
  0
MATERIAL
  5
8430A
102
{ACAD_REACTORS
330
5D3CC
102
}
330
5D3CC
100
AcDbMaterial
  1
ByBlock
 73
     1
 78
     1
172
     1
176
     1
270
     1
274
     1
 94
       63
  0
MATERIAL
  5
84309
102
{ACAD_REACTORS
330
5D3CC
102
}
330
5D3CC
100
AcDbMaterial
  1
ByLayer
 73
     1
 78
     1
172
     1
176
     1
270
     1
274
     1
 94
       63
  0
MATERIAL
  5
8430B
102
{ACAD_REACTORS
330
5D3CC
102
}
330
5D3CC
100
AcDbMaterial
  1
Global
 73
     1
 78
     1
172
     1
176
     1
270
     1
274
     1
 94
       63
  0
MLEADERSTYLE
  5
A895F
102
{ACAD_REACTORS
330
A895E
102
}
330
A895E
100
AcDbMLeaderStyle
179
     2
170
     2
171
     1
172
     0
 90
        2
 40
0.0
 41
0.0
173
     1
 91
-1056964608
340
11
 92
       -2
290
     1
 42
2.0
291
     1
 43
0.36
  3
Standard
 44
4.0
300

342
F
174
     1
178
     6
175
     1
176
     0
 93
-1056964608
 45
4.0
292
     0
297
     0
 46
4.0
 94
-1056964608
 47
1.0
 49
1.0
140
1.0
293
     1
141
0.0
294
     1
177
     0
142
1.0
295
     0
296
     0
143
0.125
271
     0
272
     9
273
     9
298
     0
  0
MLINESTYLE
  5
1B
102
{ACAD_REACTORS
330
1A
102
}
330
1A
100
AcDbMlineStyle
  2
STANDARD
 70
     0
  3

 62
   256
 51
90.0
 52
90.0
 71
     2
 49
0.5
 62
   256
  6
BYLAYER
 49
-0.5
 62
   256
  6
BYLAYER
  0
ACDBPLACEHOLDER
  5
5019
102
{ACAD_REACTORS
330
5018
102
}
330
5018
  0
SCALE
  5
A894D
102
{ACAD_REACTORS
330
A894C
102
}
330
A894C
100
AcDbScale
 70
     0
300
1:1
140
1.0
141
1.0
290
     1
  0
SCALE
  5
A894E
102
{ACAD_REACTORS
330
A894C
102
}
330
A894C
100
AcDbScale
 70
     0
300
1:2
140
1.0
141
2.0
290
     0
  0
SCALE
  5
A894F
102
{ACAD_REACTORS
330
A894C
102
}
330
A894C
100
AcDbScale
 70
     0
300
1:4
140
1.0
141
4.0
290
     0
  0
SCALE
  5
A8950
102
{ACAD_REACTORS
330
A894C
102
}
330
A894C
100
AcDbScale
 70
     0
300
1:5
140
1.0
141
5.0
290
     0
  0
SCALE
  5
A8951
102
{ACAD_REACTORS
330
A894C
102
}
330
A894C
100
AcDbScale
 70
     0
300
1:8
140
1.0
141
8.0
290
     0
  0
SCALE
  5
A8952
102
{ACAD_REACTORS
330
A894C
102
}
330
A894C
100
AcDbScale
 70
     0
300
1:10
140
1.0
141
10.0
290
     0
  0
SCALE
  5
A8953
102
{ACAD_REACTORS
330
A894C
102
}
330
A894C
100
AcDbScale
 70
     0
300
1:16
140
1.0
141
16.0
290
     0
  0
SCALE
  5
A8954
102
{ACAD_REACTORS
330
A894C
102
}
330
A894C
100
AcDbScale
 70
     0
300
1:20
140
1.0
141
20.0
290
     0
  0
SCALE
  5
A8955
102
{ACAD_REACTORS
330
A894C
102
}
330
A894C
100
AcDbScale
 70
     0
300
1:30
140
1.0
141
30.0
290
     0
  0
SCALE
  5
A8956
102
{ACAD_REACTORS
330
A894C
102
}
330
A894C
100
AcDbScale
 70
     0
300
1:40
140
1.0
141
40.0
290
     0
  0
SCALE
  5
A8957
102
{ACAD_REACTORS
330
A894C
102
}
330
A894C
100
AcDbScale
 70
     0
300
1:50
140
1.0
141
50.0
290
     0
  0
SCALE
  5
A8958
102
{ACAD_REACTORS
330
A894C
102
}
330
A894C
100
AcDbScale
 70
     0
300
1:100
140
1.0
141
100.0
290
     0
  0
SCALE
  5
A8959
102
{ACAD_REACTORS
330
A894C
102
}
330
A894C
100
AcDbScale
 70
     0
300
2:1
140
2.0
141
1.0
290
     0
  0
SCALE
  5
A895A
102
{ACAD_REACTORS
330
A894C
102
}
330
A894C
100
AcDbScale
 70
     0
300
4:1
140
4.0
141
1.0
290
     0
  0
SCALE
  5
A895B
102
{ACAD_REACTORS
330
A894C
102
}
330
A894C
100
AcDbScale
 70
     0
300
8:1
140
8.0
141
1.0
290
     0
  0
SCALE
  5
A895C
102
{ACAD_REACTORS
330
A894C
102
}
330
A894C
100
AcDbScale
 70
     0
300
10:1
140
10.0
141
1.0
290
     0
  0
SCALE
  5
A895D
102
{ACAD_REACTORS
330
A894C
102
}
330
A894C
100
AcDbScale
 70
     0
300
100:1
140
100.0
141
1.0
290
     0
  0
ACDBSECTIONVIEWSTYLE
  5
DED86
102
{ACAD_REACTORS
330
DED85
102
}
330
DED85
100
AcDbModelDocViewStyle
 70
     0
  3
Metric50
290
     0
300
Metric50
 90
        0
100
AcDbSectionViewStyle
 70
     0
 71
     0
 90
      102
 71
     1
340
F
 62
   256
 40
5.0
340
0
340
0
 62
   256
 40
5.0
300
I, O, Q, S, X, Z
 40
10.0
 90
        0
 40
2.5
 90
        0
 71
     2
340
13
 90
       25
 62
   256
340
13
 90
       50
 62
   256
 40
5.0
 40
2.5
 40
5.0
 71
     3
340
F
 62
   256
 40
5.0
 90
        0
 40
15.0
 90
        1
300
%<\AcVar ViewSectionStartId>%-%<\AcVar ViewSectionEndId>% (%<\AcVar ViewScale \f "%sn">%)
 71
     4
 62
   256
 62
   257
300
ANSI31
 40
1.0
 90
        0
290
     0
290
     0
 90
        6
 40
0.0
 40
1.570796326794896
 40
0.2617993877991494
 40
1.308996938995747
 40
-0.2617993877991494
 40
1.832595714594045
  0
TABLESTYLE
  5
5D3CF
102
{ACAD_XDICTIONARY
360
A9559
102
}
102
{ACAD_REACTORS
330
5D3CE
102
}
330
5D3CE
100
AcDbTableStyle
280
     0
  3
Standard
 70
     0
 71
     0
 40
1.5
 41
1.5
280
     0
281
     0
  7
STANDARD
140
4.5
170
     2
 62
     0
 63
     7
283
     0
 90
        4
 91
        0
  1

274
    -2
284
     1
 64
     0
275
    -2
285
     1
 65
     0
276
    -2
286
     1
 66
     0
277
    -2
287
     1
 67
     0
278
    -2
288
     1
 68
     0
279
    -2
289
     1
 69
     0
  7
STANDARD
140
6.0
170
     5
 62
     0
 63
     7
283
     0
 90
        4
 91
        0
  1

274
    -2
284
     1
 64
     0
275
    -2
285
     1
 65
     0
276
    -2
286
     1
 66
     0
277
    -2
287
     1
 67
     0
278
    -2
288
     1
 68
     0
279
    -2
289
     1
 69
     0
  7
STANDARD
140
4.5
170
     5
 62
     0
 63
     7
283
     0
 90
        4
 91
        0
  1

274
    -2
284
     1
 64
     0
275
    -2
285
     1
 65
     0
276
    -2
286
     1
 66
     0
277
    -2
287
     1
 67
     0
278
    -2
288
     1
 68
     0
279
    -2
289
     1
 69
     0
  0
VISUALSTYLE
  5
84312
102
{ACAD_REACTORS
330
8430C
102
}
330
8430C
100
AcDbVisualStyle
  2
2dWireframe
 70
     4
177
     3
291
     0
 70
    58
 90
        0
176
     1
 90
        2
176
     1
 90
        0
176
     1
 90
        0
176
     1
 40
0.6
176
     1
 40
30.0
176
     1
 62
     7
176
     1
 90
        1
176
     1
 90
        4
176
     1
 62
     7
176
     1
 62
   257
176
     1
 90
        1
176
     1
 90
        1
176
     1
 40
1.0
176
     1
 90
        0
176
     1
 62
   257
176
     1
 40
1.0
176
     1
 90
        1
176
     1
 90
        6
176
     1
 90
        2
176
     1
 62
     7
176
     1
 90
        5
176
     1
 90
        0
176
     1
 90
        0
176
     1
290
     0
176
     1
 90
        1
176
     1
 40
0.0
176
     1
 90
        0
176
     1
290
     1
176
     1
290
     1
176
     1
290
     0
176
     1
290
     0
176
     1
290
     0
176
     1
290
     0
176
     1
290
     0
176
     1
290
     0
176
     1
290
     0
176
     1
 90
       50
176
     1
 40
0.0
176
     1
 40
1.0
176
     1
 90
        0
176
     1
 62
    18
176
     1
 90
       50
176
     1
 90
        3
176
     1
 62
     5
420
      255
176
     1
290
     0
176
     1
 90
       50
176
     1
 90
       50
176
     1
 90
       50
176
     1
290
     0
176
     1
 90
       50
176
     1
 62
   256
176
     0
 40
1.0
176
     0
 90
        2
176
     1
  1
strokes_ogs.tif
176
     1
290
     0
176
     1
 40
1.0
176
     1
 40
1.0
176
     1
1001
ACAD
1000
AcRTDxfName
1000
VISUALSTYLE
1000
AcRTDxfName
1000
VISUALSTYLE
1000
AcRTDxfName
1000
VISUALSTYLE
1000
AcRTDxfName
1000
VISUALSTYLE
1000
AcRTDxfName
1000
VISUALSTYLE
1000
AcRTDxfName
1000
VISUALSTYLE
1000
AcRTDxfName
1000
VISUALSTYLE
  0
VISUALSTYLE
  5
84314
102
{ACAD_REACTORS
330
8430C
102
}
330
8430C
100
AcDbVisualStyle
  2
3D Hidden
 70
     6
177
     3
291
     0
 70
    58
 90
        1
176
     1
 90
        2
176
     1
 90
        2
176
     1
 90
        0
176
     1
 40
0.6
176
     1
 40
30.0
176
     1
 62
     7
176
     1
 90
        2
176
     1
 90
        2
176
     1
 62
     7
176
     1
 62
   257
176
     1
 90
        2
176
     1
 90
        1
176
     1
 40
40.0
176
     1
 90
        0
176
     1
 62
   257
176
     1
 40
1.0
176
     1
 90
        1
176
     1
 90
        6
176
     1
 90
        2
176
     1
 62
     7
176
     1
 90
        3
176
     1
 90
        0
176
     1
 90
        0
176
     1
290
     0
176
     1
 90
        1
176
     1
 40
0.0
176
     1
 90
        0
176
     1
290
     0
176
     1
290
     1
176
     1
290
     1
176
     1
290
     0
176
     1
290
     0
176
     1
290
     0
176
     1
290
     0
176
     1
290
     0
176
     1
290
     0
176
     1
 90
       50
176
     1
 40
0.0
176
     1
 40
1.0
176
     1
 90
        0
176
     1
 62
    18
176
     1
 90
       50
176
     1
 90
        3
176
     1
 62
     5
420
      255
176
     1
290
     0
176
     1
 90
       50
176
     1
 90
       50
176
     1
 90
       50
176
     1
290
     0
176
     1
 90
       50
176
     1
 62
   256
176
     0
 40
1.0
176
     0
 90
        2
176
     1
  1
strokes_ogs.tif
176
     1
290
     0
176
     1
 40
1.0
176
     1
 40
1.0
176
     1
1001
ACAD
1000
AcRTDxfName
1000
VISUALSTYLE
1000
AcRTDxfName
1000
VISUALSTYLE
1000
AcRTDxfName
1000
VISUALSTYLE
1000
AcRTDxfName
1000
VISUALSTYLE
1000
AcRTDxfName
1000
VISUALSTYLE
1000
AcRTDxfName
1000
VISUALSTYLE
1000
AcRTDxfName
1000
VISUALSTYLE
  0
VISUALSTYLE
  5
84313
102
{ACAD_REACTORS
330
8430C
102
}
330
8430C
100
AcDbVisualStyle
  2
3dWireframe
 70
     5
177
     3
291
     0
 70
    58
 90
        0
176
     1
 90
        2
176
     1
 90
        0
176
     1
 90
        0
176
     1
 40
0.6
176
     1
 40
30.0
176
     1
 62
     7
176
     1
 90
        1
176
     1
 90
        4
176
     1
 62
     7
176
     1
 62
   257
176
     1
 90
        1
176
     1
 90
        1
176
     1
 40
1.0
176
     1
 90
        0
176
     1
 62
   257
176
     1
 40
1.0
176
     1
 90
        1
176
     1
 90
        6
176
     1
 90
        2
176
     1
 62
     7
176
     1
 90
        5
176
     1
 90
        0
176
     1
 90
        0
176
     1
290
     0
176
     1
 90
        1
176
     1
 40
0.0
176
     1
 90
        0
176
     1
290
     0
176
     1
290
     1
176
     1
290
     1
176
     1
290
     0
176
     1
290
     0
176
     1
290
     0
176
     1
290
     0
176
     1
290
     0
176
     1
290
     0
176
     1
 90
       50
176
     1
 40
0.0
176
     1
 40
1.0
176
     1
 90
        0
176
     1
 62
    18
176
     1
 90
       50
176
     1
 90
        3
176
     1
 62
     5
420
      255
176
     1
290
     0
176
     1
 90
       50
176
     1
 90
       50
176
     1
 90
       50
176
     1
290
     0
176
     1
 90
       50
176
     1
 62
   256
176
     0
 40
1.0
176
     0
 90
        2
176
     1
  1
strokes_ogs.tif
176
     1
290
     0
176
     1
 40
1.0
176
     1
 40
1.0
176
     1
1001
ACAD
1000
AcRTDxfName
1000
VISUALSTYLE
1000
AcRTDxfName
1000
VISUALSTYLE
1000
AcRTDxfName
1000
VISUALSTYLE
1000
AcRTDxfName
1000
VISUALSTYLE
1000
AcRTDxfName
1000
VISUALSTYLE
1000
AcRTDxfName
1000
VISUALSTYLE
1000
AcRTDxfName
1000
VISUALSTYLE
  0
VISUALSTYLE
  5
84311
102
{ACAD_REACTORS
330
8430C
102
}
330
8430C
100
AcDbVisualStyle
  2
Basic
 70
     7
177
     3
291
     1
 70
    58
 90
        1
176
     1
 90
        0
176
     1
 90
        1
176
     1
 90
        0
176
     1
 40
0.6
176
     1
 40
30.0
176
     1
 62
     7
176
     1
 90
        0
176
     1
 90
        4
176
     1
 62
     7
176
     1
 62
   257
176
     1
 90
        1
176
     1
 90
        1
176
     1
 40
1.0
176
     1
 90
        8
176
     1
 62
     7
176
     1
 40
1.0
176
     1
 90
        1
176
     1
 90
        6
176
     1
 90
        2
176
     1
 62
     7
176
     1
 90
        5
176
     1
 90
        0
176
     1
 90
        0
176
     1
290
     0
176
     1
 90
        1
176
     1
 40
0.0
176
     1
 90
        0
176
     1
290
     0
176
     1
290
     1
176
     1
290
     1
176
     1
290
     0
176
     1
290
     0
176
     1
290
     0
176
     1
290
     0
176
     1
290
     0
176
     1
290
     0
176
     1
 90
       50
176
     1
 40
0.0
176
     1
 40
1.0
176
     1
 90
        0
176
     1
 62
    18
176
     1
 90
       50
176
     1
 90
        3
176
     1
 62
     5
420
      255
176
     1
290
     0
176
     1
 90
       50
176
     1
 90
       50
176
     1
 90
       50
176
     1
290
     0
176
     1
 90
       50
176
     1
 62
   256
176
     0
 40
1.0
176
     0
 90
        2
176
     1
  1
strokes_ogs.tif
176
     1
290
     0
176
     1
 40
1.0
176
     1
 40
1.0
176
     1
1001
ACAD
1000
AcRTDxfName
1000
VISUALSTYLE
1000
AcRTDxfName
1000
VISUALSTYLE
1000
AcRTDxfName
1000
VISUALSTYLE
1000
AcRTDxfName
1000
VISUALSTYLE
1000
AcRTDxfName
1000
VISUALSTYLE
1000
AcRTDxfName
1000
VISUALSTYLE
1000
AcRTDxfName
1000
VISUALSTYLE
  0
VISUALSTYLE
  5
84318
102
{ACAD_REACTORS
330
8430C
102
}
330
8430C
100
AcDbVisualStyle
  2
Brighten
 70
    12
177
     3
291
     1
 70
    58
 90
        2
176
     1
 90
        2
176
     1
 90
        0
176
     1
 90
        0
176
     1
 40
0.6
176
     1
 40
30.0
176
     1
 62
     7
176
     1
 90
        1
176
     1
 90
        4
176
     1
 62
     7
176
     1
 62
   257
176
     1
 90
        1
176
     1
 90
        1
176
     1
 40
1.0
176
     1
 90
        8
176
     1
 62
     7
176
     1
 40
1.0
176
     1
 90
        1
176
     1
 90
        6
176
     1
 90
        2
176
     1
 62
     7
176
     1
 90
        5
176
     1
 90
        0
176
     1
 90
        0
176
     1
290
     0
176
     1
 90
        1
176
     1
 40
50.0
176
     1
 90
        0
176
     1
290
     0
176
     1
290
     1
176
     1
290
     1
176
     1
290
     0
176
     1
290
     0
176
     1
290
     0
176
     1
290
     0
176
     1
290
     0
176
     1
290
     0
176
     1
 90
       50
176
     1
 40
0.0
176
     1
 40
1.0
176
     1
 90
        0
176
     1
 62
    18
176
     1
 90
       50
176
     1
 90
        3
176
     1
 62
     5
420
      255
176
     1
290
     0
176
     1
 90
       50
176
     1
 90
       50
176
     1
 90
       50
176
     1
290
     0
176
     1
 90
       50
176
     1
 62
   256
176
     0
 40
1.0
176
     0
 90
        2
176
     1
  1
strokes_ogs.tif
176
     1
290
     0
176
     1
 40
1.0
176
     1
 40
1.0
176
     1
1001
ACAD
1000
AcRTDxfName
1000
VISUALSTYLE
1000
AcRTDxfName
1000
VISUALSTYLE
1000
AcRTDxfName
1000
VISUALSTYLE
1000
AcRTDxfName
1000
VISUALSTYLE
1000
AcRTDxfName
1000
VISUALSTYLE
1000
AcRTDxfName
1000
VISUALSTYLE
1000
AcRTDxfName
1000
VISUALSTYLE
  0
VISUALSTYLE
  5
8431C
102
{ACAD_REACTORS
330
8430C
102
}
330
8430C
100
AcDbVisualStyle
  2
ColorChange
 70
    16
177
     3
291
     1
 70
    58
 90
        2
176
     1
 90
        2
176
     1
 90
        3
176
     1
 90
        0
176
     1
 40
0.6
176
     1
 40
30.0
176
     1
 62
     8
176
     1
 90
        1
176
     1
 90
        4
176
     1
 62
     7
176
     1
 62
   257
176
     1
 90
        1
176
     1
 90
        1
176
     1
 40
1.0
176
     1
 90
        8
176
     1
 62
     8
176
     1
 40
1.0
176
     1
 90
        1
176
     1
 90
        6
176
     1
 90
        2
176
     1
 62
     7
176
     1
 90
        5
176
     1
 90
        0
176
     1
 90
        0
176
     1
290
     0
176
     1
 90
        1
176
     1
 40
0.0
176
     1
 90
        0
176
     1
290
     0
176
     1
290
     1
176
     1
290
     1
176
     1
290
     0
176
     1
290
     0
176
     1
290
     0
176
     1
290
     0
176
     1
290
     0
176
     1
290
     0
176
     1
 90
       50
176
     1
 40
0.0
176
     1
 40
1.0
176
     1
 90
        0
176
     1
 62
    18
176
     1
 90
       50
176
     1
 90
        3
176
     1
 62
     5
420
      255
176
     1
290
     0
176
     1
 90
       50
176
     1
 90
       50
176
     1
 90
       50
176
     1
290
     0
176
     1
 90
       50
176
     1
 62
   256
176
     0
 40
1.0
176
     0
 90
        2
176
     1
  1
strokes_ogs.tif
176
     1
290
     0
176
     1
 40
1.0
176
     1
 40
1.0
176
     1
1001
ACAD
1000
AcRTDxfName
1000
VISUALSTYLE
1000
AcRTDxfName
1000
VISUALSTYLE
1000
AcRTDxfName
1000
VISUALSTYLE
1000
AcRTDxfName
1000
VISUALSTYLE
1000
AcRTDxfName
1000
VISUALSTYLE
1000
AcRTDxfName
1000
VISUALSTYLE
1000
AcRTDxfName
1000
VISUALSTYLE
  0
VISUALSTYLE
  5
84315
102
{ACAD_REACTORS
330
8430C
102
}
330
8430C
100
AcDbVisualStyle
  2
Conceptual
 70
     9
177
     3
291
     0
 70
    58
 90
        3
176
     1
 90
        2
176
     1
 90
        0
176
     1
 90
        0
176
     1
 40
0.6
176
     1
 40
30.0
176
     1
 62
     7
176
     1
 90
        2
176
     1
 90
        2
176
     1
 62
     7
176
     1
 62
   257
176
     1
 90
        1
176
     1
 90
        1
176
     1
 40
40.0
176
     1
 90
        8
176
     1
 62
     7
176
     1
 40
1.0
176
     1
 90
        1
176
     1
 90
        6
176
     1
 90
        2
176
     1
 62
     7
176
     1
 90
        3
176
     1
 90
        0
176
     1
 90
        0
176
     1
290
     0
176
     1
 90
        1
176
     1
 40
0.0
176
     1
 90
        0
176
     1
290
     0
176
     1
290
     1
176
     1
290
     1
176
     1
290
     0
176
     1
290
     0
176
     1
290
     0
176
     1
290
     0
176
     1
290
     0
176
     1
290
     0
176
     1
 90
       50
176
     1
 40
0.0
176
     1
 40
1.0
176
     1
 90
        0
176
     1
 62
    18
176
     1
 90
       50
176
     1
 90
        3
176
     1
 62
     5
420
      255
176
     1
290
     0
176
     1
 90
       50
176
     1
 90
       50
176
     1
 90
       50
176
     1
290
     0
176
     1
 90
       50
176
     1
 62
   256
176
     0
 40
1.0
176
     0
 90
        2
176
     1
  1
strokes_ogs.tif
176
     1
290
     0
176
     1
 40
1.0
176
     1
 40
1.0
176
     1
1001
ACAD
1000
AcRTDxfName
1000
VISUALSTYLE
1000
AcRTDxfName
1000
VISUALSTYLE
1000
AcRTDxfName
1000
VISUALSTYLE
1000
AcRTDxfName
1000
VISUALSTYLE
1000
AcRTDxfName
1000
VISUALSTYLE
1000
AcRTDxfName
1000
VISUALSTYLE
1000
AcRTDxfName
1000
VISUALSTYLE
  0
VISUALSTYLE
  5
84317
102
{ACAD_REACTORS
330
8430C
102
}
330
8430C
100
AcDbVisualStyle
  2
Dim
 70
    11
177
     3
291
     1
 70
    58
 90
        2
176
     1
 90
        2
176
     1
 90
        0
176
     1
 90
        0
176
     1
 40
0.6
176
     1
 40
30.0
176
     1
 62
     7
176
     1
 90
        1
176
     1
 90
        4
176
     1
 62
     7
176
     1
 62
   257
176
     1
 90
        1
176
     1
 90
        1
176
     1
 40
1.0
176
     1
 90
        8
176
     1
 62
     7
176
     1
 40
1.0
176
     1
 90
        1
176
     1
 90
        6
176
     1
 90
        2
176
     1
 62
     7
176
     1
 90
        5
176
     1
 90
        0
176
     1
 90
        0
176
     1
290
     0
176
     1
 90
        1
176
     1
 40
-50.0
176
     1
 90
        0
176
     1
290
     0
176
     1
290
     1
176
     1
290
     1
176
     1
290
     0
176
     1
290
     0
176
     1
290
     0
176
     1
290
     0
176
     1
290
     0
176
     1
290
     0
176
     1
 90
       50
176
     1
 40
0.0
176
     1
 40
1.0
176
     1
 90
        0
176
     1
 62
    18
176
     1
 90
       50
176
     1
 90
        3
176
     1
 62
     5
420
      255
176
     1
290
     0
176
     1
 90
       50
176
     1
 90
       50
176
     1
 90
       50
176
     1
290
     0
176
     1
 90
       50
176
     1
 62
   256
176
     0
 40
1.0
176
     0
 90
        2
176
     1
  1
strokes_ogs.tif
176
     1
290
     0
176
     1
 40
1.0
176
     1
 40
1.0
176
     1
1001
ACAD
1000
AcRTDxfName
1000
VISUALSTYLE
1000
AcRTDxfName
1000
VISUALSTYLE
1000
AcRTDxfName
1000
VISUALSTYLE
1000
AcRTDxfName
1000
VISUALSTYLE
1000
AcRTDxfName
1000
VISUALSTYLE
1000
AcRTDxfName
1000
VISUALSTYLE
1000
AcRTDxfName
1000
VISUALSTYLE
  0
VISUALSTYLE
  5
A894B
102
{ACAD_REACTORS
330
8430C
102
}
330
8430C
100
AcDbVisualStyle
  2
EdgeColorOff
 70
    22
177
     3
291
     1
 70
    58
 90
        2
176
     0
 90
        2
176
     0
 90
        0
176
     0
 90
        0
176
     0
 40
0.6
176
     0
 40
30.0
176
     0
 62
     7
176
     0
 90
        1
176
     0
 90
        4
176
     0
 62
     7
176
     0
 62
   257
176
     0
 90
        1
176
     0
 90
        1
176
     0
 40
1.0
176
     0
 90
        8
176
     2
 62
     7
176
     0
 40
1.0
176
     0
 90
        1
176
     0
 90
        6
176
     0
 90
        2
176
     0
 62
     7
176
     0
 90
        5
176
     0
 90
        0
176
     0
 90
        0
176
     0
290
     0
176
     0
 90
        1
176
     0
 40
0.0
176
     0
 90
        0
176
     0
290
     0
176
     1
290
     1
176
     1
290
     1
176
     1
290
     0
176
     1
290
     0
176
     1
290
     0
176
     1
290
     0
176
     1
290
     0
176
     1
290
     0
176
     1
 90
       50
176
     1
 40
0.0
176
     1
 40
1.0
176
     1
 90
        0
176
     1
 62
    18
176
     1
 90
       50
176
     1
 90
        3
176
     1
 62
     5
420
      255
176
     1
290
     0
176
     1
 90
       50
176
     1
 90
       50
176
     1
 90
       50
176
     1
290
     0
176
     1
 90
       50
176
     1
 62
   256
176
     0
 40
1.0
176
     0
 90
        2
176
     1
  1
strokes_ogs.tif
176
     1
290
     0
176
     1
 40
1.0
176
     1
 40
1.0
176
     1
  0
VISUALSTYLE
  5
8431B
102
{ACAD_REACTORS
330
8430C
102
}
330
8430C
100
AcDbVisualStyle
  2
Facepattern
 70
    15
177
     3
291
     1
 70
    58
 90
        2
176
     1
 90
        2
176
     1
 90
        0
176
     1
 90
        0
176
     1
 40
0.6
176
     1
 40
30.0
176
     1
 62
     7
176
     1
 90
        1
176
     1
 90
        4
176
     1
 62
     7
176
     1
 62
   257
176
     1
 90
        1
176
     1
 90
        1
176
     1
 40
1.0
176
     1
 90
        8
176
     1
 62
     7
176
     1
 40
1.0
176
     1
 90
        1
176
     1
 90
        6
176
     1
 90
        2
176
     1
 62
     7
176
     1
 90
        5
176
     1
 90
        0
176
     1
 90
        0
176
     1
290
     0
176
     1
 90
        1
176
     1
 40
0.0
176
     1
 90
        0
176
     1
290
     0
176
     1
290
     1
176
     1
290
     1
176
     1
290
     0
176
     1
290
     0
176
     1
290
     0
176
     1
290
     0
176
     1
290
     0
176
     1
290
     0
176
     1
 90
       50
176
     1
 40
0.0
176
     1
 40
1.0
176
     1
 90
        0
176
     1
 62
    18
176
     1
 90
       50
176
     1
 90
        3
176
     1
 62
     5
420
      255
176
     1
290
     0
176
     1
 90
       50
176
     1
 90
       50
176
     1
 90
       50
176
     1
290
     0
176
     1
 90
       50
176
     1
 62
   256
176
     0
 40
1.0
176
     0
 90
        2
176
     1
  1
strokes_ogs.tif
176
     1
290
     0
176
     1
 40
1.0
176
     1
 40
1.0
176
     1
1001
ACAD
1000
AcRTDxfName
1000
VISUALSTYLE
1000
AcRTDxfName
1000
VISUALSTYLE
1000
AcRTDxfName
1000
VISUALSTYLE
1000
AcRTDxfName
1000
VISUALSTYLE
1000
AcRTDxfName
1000
VISUALSTYLE
1000
AcRTDxfName
1000
VISUALSTYLE
1000
AcRTDxfName
1000
VISUALSTYLE
  0
VISUALSTYLE
  5
8430D
102
{ACAD_REACTORS
330
8430C
102
}
330
8430C
100
AcDbVisualStyle
  2
Flat
 70
     0
177
     3
291
     1
 70
    58
 90
        2
176
     1
 90
        1
176
     1
 90
        1
176
     1
 90
        2
176
     1
 40
0.6
176
     1
 40
30.0
176
     1
 62
     7
176
     1
 90
        0
176
     1
 90
        4
176
     1
 62
     7
176
     1
 62
   257
176
     1
 90
        1
176
     1
 90
        1
176
     1
 40
1.0
176
     1
 90
        8
176
     1
 62
     7
176
     1
 40
1.0
176
     1
 90
        1
176
     1
 90
        6
176
     1
 90
        2
176
     1
 62
     7
176
     1
 90
        5
176
     1
 90
        0
176
     1
 90
        0
176
     1
290
     0
176
     1
 90
       13
176
     1
 40
0.0
176
     1
 90
        0
176
     1
290
     0
176
     1
290
     1
176
     1
290
     1
176
     1
290
     0
176
     1
290
     0
176
     1
290
     0
176
     1
290
     0
176
     1
290
     0
176
     1
290
     0
176
     1
 90
       50
176
     1
 40
0.0
176
     1
 40
1.0
176
     1
 90
        0
176
     1
 62
    18
176
     1
 90
       50
176
     1
 90
        3
176
     1
 62
     5
420
      255
176
     1
290
     0
176
     1
 90
       50
176
     1
 90
       50
176
     1
 90
       50
176
     1
290
     0
176
     1
 90
       50
176
     1
 62
   256
176
     0
 40
1.0
176
     0
 90
        2
176
     1
  1
strokes_ogs.tif
176
     1
290
     0
176
     1
 40
1.0
176
     1
 40
1.0
176
     1
1001
ACAD
1000
AcRTDxfName
1000
VISUALSTYLE
1000
AcRTDxfName
1000
VISUALSTYLE
1000
AcRTDxfName
1000
VISUALSTYLE
1000
AcRTDxfName
1000
VISUALSTYLE
1000
AcRTDxfName
1000
VISUALSTYLE
1000
AcRTDxfName
1000
VISUALSTYLE
1000
AcRTDxfName
1000
VISUALSTYLE
  0
VISUALSTYLE
  5
8430E
102
{ACAD_REACTORS
330
8430C
102
}
330
8430C
100
AcDbVisualStyle
  2
FlatWithEdges
 70
     1
177
     3
291
     1
 70
    58
 90
        2
176
     1
 90
        1
176
     1
 90
        1
176
     1
 90
        2
176
     1
 40
0.6
176
     1
 40
30.0
176
     1
 62
     7
176
     1
 90
        1
176
     1
 90
        4
176
     1
 62
     7
176
     1
 62
   257
176
     1
 90
        1
176
     1
 90
        1
176
     1
 40
1.0
176
     1
 90
        0
176
     1
 62
   257
176
     1
 40
1.0
176
     1
 90
        1
176
     1
 90
        6
176
     1
 90
        2
176
     1
 62
     7
176
     1
 90
        5
176
     1
 90
        0
176
     1
 90
        0
176
     1
290
     0
176
     1
 90
       13
176
     1
 40
0.0
176
     1
 90
        0
176
     1
290
     0
176
     1
290
     1
176
     1
290
     1
176
     1
290
     0
176
     1
290
     0
176
     1
290
     0
176
     1
290
     0
176
     1
290
     0
176
     1
290
     0
176
     1
 90
       50
176
     1
 40
0.0
176
     1
 40
1.0
176
     1
 90
        0
176
     1
 62
    18
176
     1
 90
       50
176
     1
 90
        3
176
     1
 62
     5
420
      255
176
     1
290
     0
176
     1
 90
       50
176
     1
 90
       50
176
     1
 90
       50
176
     1
290
     0
176
     1
 90
       50
176
     1
 62
   256
176
     0
 40
1.0
176
     0
 90
        2
176
     1
  1
strokes_ogs.tif
176
     1
290
     0
176
     1
 40
1.0
176
     1
 40
1.0
176
     1
1001
ACAD
1000
AcRTDxfName
1000
VISUALSTYLE
1000
AcRTDxfName
1000
VISUALSTYLE
1000
AcRTDxfName
1000
VISUALSTYLE
1000
AcRTDxfName
1000
VISUALSTYLE
1000
AcRTDxfName
1000
VISUALSTYLE
1000
AcRTDxfName
1000
VISUALSTYLE
1000
AcRTDxfName
1000
VISUALSTYLE
  0
VISUALSTYLE
  5
8430F
102
{ACAD_REACTORS
330
8430C
102
}
330
8430C
100
AcDbVisualStyle
  2
Gouraud
 70
     2
177
     3
291
     1
 70
    58
 90
        2
176
     1
 90
        2
176
     1
 90
        1
176
     1
 90
        2
176
     1
 40
0.6
176
     1
 40
30.0
176
     1
 62
     7
176
     1
 90
        0
176
     1
 90
        4
176
     1
 62
     7
176
     1
 62
   257
176
     1
 90
        1
176
     1
 90
        1
176
     1
 40
1.0
176
     1
 90
        0
176
     1
 62
     7
176
     1
 40
1.0
176
     1
 90
        1
176
     1
 90
        6
176
     1
 90
        2
176
     1
 62
     7
176
     1
 90
        5
176
     1
 90
        0
176
     1
 90
        0
176
     1
290
     0
176
     1
 90
       13
176
     1
 40
0.0
176
     1
 90
        0
176
     1
290
     0
176
     1
290
     1
176
     1
290
     1
176
     1
290
     0
176
     1
290
     0
176
     1
290
     0
176
     1
290
     0
176
     1
290
     0
176
     1
290
     0
176
     1
 90
       50
176
     1
 40
0.0
176
     1
 40
1.0
176
     1
 90
        0
176
     1
 62
    18
176
     1
 90
       50
176
     1
 90
        3
176
     1
 62
     5
420
      255
176
     1
290
     0
176
     1
 90
       50
176
     1
 90
       50
176
     1
 90
       50
176
     1
290
     0
176
     1
 90
       50
176
     1
 62
   256
176
     0
 40
1.0
176
     0
 90
        2
176
     1
  1
strokes_ogs.tif
176
     1
290
     0
176
     1
 40
1.0
176
     1
 40
1.0
176
     1
1001
ACAD
1000
AcRTDxfName
1000
VISUALSTYLE
1000
AcRTDxfName
1000
VISUALSTYLE
1000
AcRTDxfName
1000
VISUALSTYLE
1000
AcRTDxfName
1000
VISUALSTYLE
1000
AcRTDxfName
1000
VISUALSTYLE
1000
AcRTDxfName
1000
VISUALSTYLE
1000
AcRTDxfName
1000
VISUALSTYLE
  0
VISUALSTYLE
  5
84310
102
{ACAD_REACTORS
330
8430C
102
}
330
8430C
100
AcDbVisualStyle
  2
GouraudWithEdges
 70
     3
177
     3
291
     1
 70
    58
 90
        2
176
     1
 90
        2
176
     1
 90
        1
176
     1
 90
        2
176
     1
 40
0.6
176
     1
 40
30.0
176
     1
 62
     7
176
     1
 90
        1
176
     1
 90
        4
176
     1
 62
     7
176
     1
 62
   257
176
     1
 90
        1
176
     1
 90
        1
176
     1
 40
1.0
176
     1
 90
        0
176
     1
 62
   257
176
     1
 40
1.0
176
     1
 90
        1
176
     1
 90
        6
176
     1
 90
        2
176
     1
 62
     7
176
     1
 90
        5
176
     1
 90
        0
176
     1
 90
        0
176
     1
290
     0
176
     1
 90
       13
176
     1
 40
0.0
176
     1
 90
        0
176
     1
290
     0
176
     1
290
     1
176
     1
290
     1
176
     1
290
     0
176
     1
290
     0
176
     1
290
     0
176
     1
290
     0
176
     1
290
     0
176
     1
290
     0
176
     1
 90
       50
176
     1
 40
0.0
176
     1
 40
1.0
176
     1
 90
        0
176
     1
 62
    18
176
     1
 90
       50
176
     1
 90
        3
176
     1
 62
     5
420
      255
176
     1
290
     0
176
     1
 90
       50
176
     1
 90
       50
176
     1
 90
       50
176
     1
290
     0
176
     1
 90
       50
176
     1
 62
   256
176
     0
 40
1.0
176
     0
 90
        2
176
     1
  1
strokes_ogs.tif
176
     1
290
     0
176
     1
 40
1.0
176
     1
 40
1.0
176
     1
1001
ACAD
1000
AcRTDxfName
1000
VISUALSTYLE
1000
AcRTDxfName
1000
VISUALSTYLE
1000
AcRTDxfName
1000
VISUALSTYLE
1000
AcRTDxfName
1000
VISUALSTYLE
1000
AcRTDxfName
1000
VISUALSTYLE
1000
AcRTDxfName
1000
VISUALSTYLE
1000
AcRTDxfName
1000
VISUALSTYLE
  0
VISUALSTYLE
  5
A8943
102
{ACAD_REACTORS
330
8430C
102
}
330
8430C
100
AcDbVisualStyle
  2
Hidden
 70
     6
177
     3
291
     0
 70
    58
 90
        1
176
     1
 90
        2
176
     1
 90
        2
176
     1
 90
        0
176
     1
 40
0.6
176
     1
 40
30.0
176
     1
 62
     7
176
     1
 90
        2
176
     1
 90
        2
176
     1
 62
     7
176
     1
 62
   257
176
     1
 90
        2
176
     1
 90
        1
176
     1
 40
40.0
176
     1
 90
        0
176
     1
 62
   257
176
     1
 40
1.0
176
     1
 90
        1
176
     1
 90
        6
176
     1
 90
        2
176
     1
 62
     7
176
     1
 90
        3
176
     1
 90
        0
176
     1
 90
        0
176
     1
290
     0
176
     1
 90
        1
176
     1
 40
0.0
176
     1
 90
        0
176
     1
290
     0
176
     1
290
     1
176
     1
290
     1
176
     1
290
     0
176
     1
290
     0
176
     1
290
     0
176
     1
290
     0
176
     1
290
     0
176
     1
290
     0
176
     1
 90
       50
176
     1
 40
0.0
176
     1
 40
1.0
176
     1
 90
        0
176
     1
 62
    18
176
     1
 90
       50
176
     1
 90
        3
176
     1
 62
     5
420
      255
176
     1
290
     0
176
     1
 90
       50
176
     1
 90
       50
176
     1
 90
       50
176
     1
290
     0
176
     1
 90
       50
176
     1
 62
   256
176
     0
 40
1.0
176
     0
 90
        2
176
     1
  1
strokes_ogs.tif
176
     1
290
     0
176
     1
 40
1.0
176
     1
 40
1.0
176
     1
  0
VISUALSTYLE
  5
A8949
102
{ACAD_REACTORS
330
8430C
102
}
330
8430C
100
AcDbVisualStyle
  2
JitterOff
 70
    20
177
     3
291
     1
 70
    58
 90
        2
176
     0
 90
        2
176
     0
 90
        0
176
     0
 90
        0
176
     0
 40
0.6
176
     0
 40
30.0
176
     0
 62
     7
176
     0
 90
        1
176
     0
 90
        4
176
     0
 62
     7
176
     0
 62
   257
176
     0
 90
        1
176
     0
 90
        1
176
     0
 40
1.0
176
     0
 90
       10
176
     2
 62
     7
176
     0
 40
1.0
176
     0
 90
        1
176
     0
 90
        6
176
     0
 90
        2
176
     0
 62
     7
176
     0
 90
        5
176
     0
 90
        0
176
     0
 90
        0
176
     0
290
     0
176
     0
 90
        1
176
     0
 40
0.0
176
     0
 90
        0
176
     0
290
     0
176
     1
290
     1
176
     1
290
     1
176
     1
290
     0
176
     1
290
     0
176
     1
290
     0
176
     1
290
     0
176
     1
290
     0
176
     1
290
     0
176
     1
 90
       50
176
     1
 40
0.0
176
     1
 40
1.0
176
     1
 90
        0
176
     1
 62
    18
176
     1
 90
       50
176
     1
 90
        3
176
     1
 62
     5
420
      255
176
     1
290
     0
176
     1
 90
       50
176
     1
 90
       50
176
     1
 90
       50
176
     1
290
     0
176
     1
 90
       50
176
     1
 62
   256
176
     0
 40
1.0
176
     0
 90
        2
176
     1
  1
strokes_ogs.tif
176
     1
290
     0
176
     1
 40
1.0
176
     1
 40
1.0
176
     1
  0
VISUALSTYLE
  5
8431A
102
{ACAD_REACTORS
330
8430C
102
}
330
8430C
100
AcDbVisualStyle
  2
Linepattern
 70
    14
177
     3
291
     1
 70
    58
 90
        2
176
     1
 90
        2
176
     1
 90
        0
176
     1
 90
        0
176
     1
 40
0.6
176
     1
 40
30.0
176
     1
 62
     7
176
     1
 90
        1
176
     1
 90
        4
176
     1
 62
     7
176
     1
 62
   257
176
     1
 90
        7
176
     1
 90
        7
176
     1
 40
1.0
176
     1
 90
        8
176
     1
 62
     7
176
     1
 40
1.0
176
     1
 90
        1
176
     1
 90
        6
176
     1
 90
        2
176
     1
 62
     7
176
     1
 90
        5
176
     1
 90
        0
176
     1
 90
        0
176
     1
290
     0
176
     1
 90
        1
176
     1
 40
0.0
176
     1
 90
        0
176
     1
290
     0
176
     1
290
     1
176
     1
290
     1
176
     1
290
     0
176
     1
290
     0
176
     1
290
     0
176
     1
290
     0
176
     1
290
     0
176
     1
290
     0
176
     1
 90
       50
176
     1
 40
0.0
176
     1
 40
1.0
176
     1
 90
        0
176
     1
 62
    18
176
     1
 90
       50
176
     1
 90
        3
176
     1
 62
     5
420
      255
176
     1
290
     0
176
     1
 90
       50
176
     1
 90
       50
176
     1
 90
       50
176
     1
290
     0
176
     1
 90
       50
176
     1
 62
   256
176
     0
 40
1.0
176
     0
 90
        2
176
     1
  1
strokes_ogs.tif
176
     1
290
     0
176
     1
 40
1.0
176
     1
 40
1.0
176
     1
1001
ACAD
1000
AcRTDxfName
1000
VISUALSTYLE
1000
AcRTDxfName
1000
VISUALSTYLE
1000
AcRTDxfName
1000
VISUALSTYLE
1000
AcRTDxfName
1000
VISUALSTYLE
1000
AcRTDxfName
1000
VISUALSTYLE
1000
AcRTDxfName
1000
VISUALSTYLE
1000
AcRTDxfName
1000
VISUALSTYLE
  0
VISUALSTYLE
  5
A894A
102
{ACAD_REACTORS
330
8430C
102
}
330
8430C
100
AcDbVisualStyle
  2
OverhangOff
 70
    21
177
     3
291
     1
 70
    58
 90
        2
176
     0
 90
        2
176
     0
 90
        0
176
     0
 90
        0
176
     0
 40
0.6
176
     0
 40
30.0
176
     0
 62
     7
176
     0
 90
        1
176
     0
 90
        4
176
     0
 62
     7
176
     0
 62
   257
176
     0
 90
        1
176
     0
 90
        1
176
     0
 40
1.0
176
     0
 90
        9
176
     2
 62
     7
176
     0
 40
1.0
176
     0
 90
        1
176
     0
 90
        6
176
     0
 90
        2
176
     0
 62
     7
176
     0
 90
        5
176
     0
 90
        0
176
     0
 90
        0
176
     0
290
     0
176
     0
 90
        1
176
     0
 40
0.0
176
     0
 90
        0
176
     0
290
     0
176
     1
290
     1
176
     1
290
     1
176
     1
290
     0
176
     1
290
     0
176
     1
290
     0
176
     1
290
     0
176
     1
290
     0
176
     1
290
     0
176
     1
 90
       50
176
     1
 40
0.0
176
     1
 40
1.0
176
     1
 90
        0
176
     1
 62
    18
176
     1
 90
       50
176
     1
 90
        3
176
     1
 62
     5
420
      255
176
     1
290
     0
176
     1
 90
       50
176
     1
 90
       50
176
     1
 90
       50
176
     1
290
     0
176
     1
 90
       50
176
     1
 62
   256
176
     0
 40
1.0
176
     0
 90
        2
176
     1
  1
strokes_ogs.tif
176
     1
290
     0
176
     1
 40
1.0
176
     1
 40
1.0
176
     1
  0
VISUALSTYLE
  5
84316
102
{ACAD_REACTORS
330
8430C
102
}
330
8430C
100
AcDbVisualStyle
  2
Realistic
 70
     8
177
     3
291
     0
 70
    58
 90
        2
176
     1
 90
        2
176
     1
 90
        0
176
     1
 90
        0
176
     1
 40
0.6
176
     1
 40
30.0
176
     1
 62
     7
176
     1
 90
        1
176
     1
 90
        0
176
     1
 62
     7
176
     1
 62
   257
176
     1
 90
        1
176
     1
 90
        1
176
     1
 40
1.0
176
     1
 90
        8
176
     1
 62
     8
176
     1
 40
1.0
176
     1
 90
        1
176
     1
 90
        6
176
     1
 90
        2
176
     1
 62
     7
176
     1
 90
        5
176
     1
 90
        0
176
     1
 90
        0
176
     1
290
     0
176
     1
 90
       13
176
     1
 40
0.0
176
     1
 90
        0
176
     1
290
     0
176
     1
290
     1
176
     1
290
     1
176
     1
290
     0
176
     1
290
     0
176
     1
290
     0
176
     1
290
     0
176
     1
290
     0
176
     1
290
     0
176
     1
 90
       50
176
     1
 40
0.0
176
     1
 40
1.0
176
     1
 90
        0
176
     1
 62
    18
176
     1
 90
       50
176
     1
 90
        3
176
     1
 62
     5
420
      255
176
     1
290
     0
176
     1
 90
       50
176
     1
 90
       50
176
     1
 90
       50
176
     1
290
     0
176
     1
 90
       50
176
     1
 62
   256
176
     0
 40
1.0
176
     0
 90
        2
176
     1
  1
strokes_ogs.tif
176
     1
290
     0
176
     1
 40
1.0
176
     1
 40
1.0
176
     1
1001
ACAD
1000
AcRTDxfName
1000
VISUALSTYLE
1000
AcRTDxfName
1000
VISUALSTYLE
1000
AcRTDxfName
1000
VISUALSTYLE
1000
AcRTDxfName
1000
VISUALSTYLE
1000
AcRTDxfName
1000
VISUALSTYLE
1000
AcRTDxfName
1000
VISUALSTYLE
1000
AcRTDxfName
1000
VISUALSTYLE
  0
VISUALSTYLE
  5
A8948
102
{ACAD_REACTORS
330
8430C
102
}
330
8430C
100
AcDbVisualStyle
  2
Shaded
 70
    27
177
     3
291
     0
 70
    58
 90
        2
176
     1
 90
        2
176
     1
 90
        1
176
     1
 90
        2
176
     1
 40
0.6
176
     1
 40
30.0
176
     1
 62
     7
176
     1
 90
        0
176
     1
 90
        4
176
     1
 62
     7
176
     1
 62
   257
176
     1
 90
        1
176
     1
 90
        1
176
     1
 40
1.0
176
     1
 90
        8
176
     1
 62
   257
176
     1
 40
1.0
176
     1
 90
        1
176
     1
 90
        6
176
     1
 90
        2
176
     1
 62
     8
176
     1
 90
        3
176
     1
 90
        0
176
     1
 90
        0
176
     1
290
     0
176
     1
 90
        5
176
     1
 40
0.0
176
     1
 90
        0
176
     1
290
     0
176
     1
290
     1
176
     1
290
     1
176
     1
290
     0
176
     1
290
     0
176
     1
290
     0
176
     1
290
     0
176
     1
290
     0
176
     1
290
     0
176
     1
 90
       50
176
     1
 40
0.0
176
     1
 40
1.0
176
     1
 90
        0
176
     1
 62
    18
176
     1
 90
       50
176
     1
 90
        3
176
     1
 62
     5
420
      255
176
     1
290
     0
176
     1
 90
       50
176
     1
 90
       50
176
     1
 90
       50
176
     1
290
     0
176
     1
 90
       50
176
     1
 62
   256
176
     0
 40
1.0
176
     0
 90
        2
176
     1
  1
strokes_ogs.tif
176
     1
290
     0
176
     1
 40
1.0
176
     1
 40
1.0
176
     1
  0
VISUALSTYLE
  5
A8947
102
{ACAD_REACTORS
330
8430C
102
}
330
8430C
100
AcDbVisualStyle
  2
Shaded with edges
 70
    26
177
     3
291
     0
 70
    58
 90
        2
176
     1
 90
        2
176
     1
 90
        1
176
     1
 90
        2
176
     1
 40
0.6
176
     1
 40
30.0
176
     1
 62
     7
176
     1
 90
        1
176
     1
 90
        2
176
     1
 62
     7
176
     1
 62
   257
176
     1
 90
        2
176
     1
 90
        1
176
     1
 40
1.0
176
     1
 90
        8
176
     1
 62
   257
176
     1
 40
1.0
176
     1
 90
        1
176
     1
 90
        6
176
     1
 90
        2
176
     1
 62
     7
176
     1
 90
        3
176
     1
 90
        0
176
     1
 90
        0
176
     1
290
     0
176
     1
 90
        5
176
     1
 40
0.0
176
     1
 90
        0
176
     1
290
     0
176
     1
290
     1
176
     1
290
     1
176
     1
290
     0
176
     1
290
     0
176
     1
290
     0
176
     1
290
     0
176
     1
290
     0
176
     1
290
     0
176
     1
 90
       50
176
     1
 40
0.0
176
     1
 40
1.0
176
     1
 90
        0
176
     1
 62
    18
176
     1
 90
       50
176
     1
 90
        3
176
     1
 62
     5
420
      255
176
     1
290
     0
176
     1
 90
       50
176
     1
 90
       50
176
     1
 90
       50
176
     1
290
     0
176
     1
 90
       50
176
     1
 62
   256
176
     0
 40
1.0
176
     0
 90
        2
176
     1
  1
strokes_ogs.tif
176
     1
290
     0
176
     1
 40
1.0
176
     1
 40
1.0
176
     1
  0
VISUALSTYLE
  5
A8944
102
{ACAD_REACTORS
330
8430C
102
}
330
8430C
100
AcDbVisualStyle
  2
Shades of Gray
 70
    23
177
     3
291
     0
 70
    58
 90
        2
176
     1
 90
        2
176
     1
 90
        3
176
     1
 90
        0
176
     1
 40
0.6
176
     1
 40
30.0
176
     1
 62
     7
176
     1
 90
        2
176
     1
 90
        2
176
     1
 62
     7
176
     1
 62
     7
176
     1
 90
        1
176
     1
 90
        1
176
     1
 40
40.0
176
     1
 90
        8
176
     1
 62
     7
176
     1
 40
1.0
176
     1
 90
        1
176
     1
 90
        6
176
     1
 90
        2
176
     1
 62
     7
176
     1
 90
        3
176
     1
 90
        0
176
     1
 90
        0
176
     1
290
     0
176
     1
 90
        1
176
     1
 40
0.0
176
     1
 90
        0
176
     1
290
     0
176
     1
290
     1
176
     1
290
     1
176
     1
290
     0
176
     1
290
     0
176
     1
290
     0
176
     1
290
     0
176
     1
290
     0
176
     1
290
     0
176
     1
 90
       50
176
     1
 40
0.0
176
     1
 40
1.0
176
     1
 90
        0
176
     1
 62
    18
176
     1
 90
       50
176
     1
 90
        3
176
     1
 62
     5
420
      255
176
     1
290
     0
176
     1
 90
       50
176
     1
 90
       50
176
     1
 90
       50
176
     1
290
     0
176
     1
 90
       50
176
     1
 62
   256
176
     0
 40
1.0
176
     0
 90
        2
176
     1
  1
strokes_ogs.tif
176
     1
290
     0
176
     1
 40
1.0
176
     1
 40
1.0
176
     1
  0
VISUALSTYLE
  5
A8945
102
{ACAD_REACTORS
330
8430C
102
}
330
8430C
100
AcDbVisualStyle
  2
Sketchy
 70
    24
177
     3
291
     0
 70
    58
 90
        1
176
     1
 90
        2
176
     1
 90
        2
176
     1
 90
        0
176
     1
 40
0.6
176
     1
 40
30.0
176
     1
 62
     7
176
     1
 90
        2
176
     1
 90
        2
176
     1
 62
     7
176
     1
 62
     7
176
     1
 90
        1
176
     1
 90
        1
176
     1
 40
40.0
176
     1
 90
       11
176
     1
 62
     7
176
     1
 40
1.0
176
     1
 90
        1
176
     1
 90
        6
176
     1
 90
        2
176
     1
 62
     7
176
     1
 90
        6
176
     1
 90
        0
176
     1
 90
        0
176
     1
290
     0
176
     1
 90
        1
176
     1
 40
0.0
176
     1
 90
        0
176
     1
290
     0
176
     1
290
     1
176
     1
290
     1
176
     1
290
     0
176
     1
290
     0
176
     1
290
     0
176
     1
290
     0
176
     1
290
     0
176
     1
290
     0
176
     1
 90
       50
176
     1
 40
0.0
176
     1
 40
1.0
176
     1
 90
        0
176
     1
 62
    18
176
     1
 90
       50
176
     1
 90
        3
176
     1
 62
     5
420
      255
176
     1
290
     0
176
     1
 90
       50
176
     1
 90
       50
176
     1
 90
       50
176
     1
290
     0
176
     1
 90
       50
176
     1
 62
   256
176
     0
 40
1.0
176
     0
 90
        2
176
     1
  1
strokes_ogs.tif
176
     1
290
     0
176
     1
 40
1.0
176
     1
 40
1.0
176
     1
  0
VISUALSTYLE
  5
84319
102
{ACAD_REACTORS
330
8430C
102
}
330
8430C
100
AcDbVisualStyle
  2
Thicken
 70
    13
177
     3
291
     1
 70
    58
 90
        2
176
     1
 90
        2
176
     1
 90
        0
176
     1
 90
        0
176
     1
 40
0.6
176
     1
 40
30.0
176
     1
 62
     7
176
     1
 90
        1
176
     1
 90
        4
176
     1
 62
     7
176
     1
 62
   257
176
     1
 90
        1
176
     1
 90
        1
176
     1
 40
1.0
176
     1
 90
       12
176
     1
 62
     7
176
     1
 40
1.0
176
     1
 90
        1
176
     1
 90
        6
176
     1
 90
        2
176
     1
 62
     7
176
     1
 90
        5
176
     1
 90
        0
176
     1
 90
        0
176
     1
290
     0
176
     1
 90
        1
176
     1
 40
0.0
176
     1
 90
        0
176
     1
290
     0
176
     1
290
     1
176
     1
290
     1
176
     1
290
     0
176
     1
290
     0
176
     1
290
     0
176
     1
290
     0
176
     1
290
     0
176
     1
290
     0
176
     1
 90
       50
176
     1
 40
0.0
176
     1
 40
1.0
176
     1
 90
        0
176
     1
 62
    18
176
     1
 90
       50
176
     1
 90
        3
176
     1
 62
     5
420
      255
176
     1
290
     0
176
     1
 90
       50
176
     1
 90
       50
176
     1
 90
       50
176
     1
290
     0
176
     1
 90
       50
176
     1
 62
   256
176
     0
 40
1.0
176
     0
 90
        2
176
     1
  1
strokes_ogs.tif
176
     1
290
     0
176
     1
 40
1.0
176
     1
 40
1.0
176
     1
1001
ACAD
1000
AcRTDxfName
1000
VISUALSTYLE
1000
AcRTDxfName
1000
VISUALSTYLE
1000
AcRTDxfName
1000
VISUALSTYLE
1000
AcRTDxfName
1000
VISUALSTYLE
1000
AcRTDxfName
1000
VISUALSTYLE
1000
AcRTDxfName
1000
VISUALSTYLE
1000
AcRTDxfName
1000
VISUALSTYLE
  0
VISUALSTYLE
  5
A8942
102
{ACAD_REACTORS
330
8430C
102
}
330
8430C
100
AcDbVisualStyle
  2
Wireframe
 70
     5
177
     3
291
     0
 70
    58
 90
        0
176
     1
 90
        2
176
     1
 90
        0
176
     1
 90
        0
176
     1
 40
0.6
176
     1
 40
30.0
176
     1
 62
     7
176
     1
 90
        1
176
     1
 90
        4
176
     1
 62
     7
176
     1
 62
   257
176
     1
 90
        1
176
     1
 90
        1
176
     1
 40
1.0
176
     1
 90
        0
176
     1
 62
   257
176
     1
 40
1.0
176
     1
 90
        1
176
     1
 90
        6
176
     1
 90
        2
176
     1
 62
     7
176
     1
 90
        3
176
     1
 90
        0
176
     1
 90
        0
176
     1
290
     0
176
     1
 90
        1
176
     1
 40
0.0
176
     1
 90
        0
176
     1
290
     0
176
     1
290
     1
176
     1
290
     1
176
     1
290
     0
176
     1
290
     0
176
     1
290
     0
176
     1
290
     0
176
     1
290
     0
176
     1
290
     0
176
     1
 90
       50
176
     1
 40
0.0
176
     1
 40
1.0
176
     1
 90
        0
176
     1
 62
    18
176
     1
 90
       50
176
     1
 90
        3
176
     1
 62
     5
420
      255
176
     1
290
     0
176
     1
 90
       50
176
     1
 90
       50
176
     1
 90
       50
176
     1
290
     0
176
     1
 90
       50
176
     1
 62
   256
176
     0
 40
1.0
176
     0
 90
        2
176
     1
  1
strokes_ogs.tif
176
     1
290
     0
176
     1
 40
1.0
176
     1
 40
1.0
176
     1
  0
VISUALSTYLE
  5
A8946
102
{ACAD_REACTORS
330
8430C
102
}
330
8430C
100
AcDbVisualStyle
  2
X-Ray
 70
    25
177
     3
291
     0
 70
    58
 90
        2
176
     1
 90
        2
176
     1
 90
        1
176
     1
 90
        1
176
     1
 40
0.5
176
     1
 40
30.0
176
     1
 62
     7
176
     1
 90
        1
176
     1
 90
        0
176
     1
 62
     7
176
     1
 62
   257
176
     1
 90
        1
176
     1
 90
        1
176
     1
 40
1.0
176
     1
 90
        8
176
     1
 62
     7
176
     1
 40
1.0
176
     1
 90
        1
176
     1
 90
        6
176
     1
 90
        2
176
     1
 62
     7
176
     1
 90
        3
176
     1
 90
        0
176
     1
 90
        0
176
     1
290
     0
176
     1
 90
       13
176
     1
 40
0.0
176
     1
 90
        0
176
     1
290
     0
176
     1
290
     1
176
     1
290
     1
176
     1
290
     0
176
     1
290
     0
176
     1
290
     0
176
     1
290
     0
176
     1
290
     0
176
     1
290
     0
176
     1
 90
       50
176
     1
 40
0.0
176
     1
 40
1.0
176
     1
 90
        0
176
     1
 62
    18
176
     1
 90
       50
176
     1
 90
        3
176
     1
 62
     5
420
      255
176
     1
290
     0
176
     1
 90
       50
176
     1
 90
       50
176
     1
 90
       50
176
     1
290
     0
176
     1
 90
       50
176
     1
 62
   256
176
     0
 40
1.0
176
     0
 90
        2
176
     1
  1
strokes_ogs.tif
176
     1
290
     0
176
     1
 40
1.0
176
     1
 40
1.0
176
     1
  0
DICTIONARYVAR
  5
A95B1
102
{ACAD_REACTORS
330
51
102
}
330
51
100
DictionaryVariables
280
     0
  1
1:1
  0
DICTIONARYVAR
  5
A95B0
102
{ACAD_REACTORS
330
51
102
}
330
51
100
DictionaryVariables
280
     0
  1
STANDARD
  0
DICTIONARYVAR
  5
5DA8C
102
{ACAD_REACTORS
330
51
102
}
330
51
100
DictionaryVariables
280
     0
  1
STANDARD
  0
DICTIONARYVAR
  5
DEE7E
102
{ACAD_REACTORS
330
51
102
}
330
51
100
DictionaryVariables
280
     0
  1
Metric50
  0
DICTIONARYVAR
  5
DEE7F
102
{ACAD_REACTORS
330
51
102
}
330
51
100
DictionaryVariables
280
     0
  1
Metric50
  0
DICTIONARYVAR
  5
52
102
{ACAD_REACTORS
330
51
102
}
330
51
100
DictionaryVariables
280
     0
  1
0
  0
DICTIONARYVAR
  5
212DC
102
{ACAD_REACTORS
330
51
102
}
330
51
100
DictionaryVariables
280
     0
  1
1
  0
DICTIONARYVAR
  5
B4EDE
102
{ACAD_REACTORS
330
51
102
}
330
51
100
DictionaryVariables
280
     0
  1
1
  0
DICTIONARYVAR
  5
87C65
102
{ACAD_REACTORS
330
51
102
}
330
51
100
DictionaryVariables
280
     0
  1
0
  0
DICTIONARYVAR
  5
D62C5
102
{ACAD_REACTORS
330
51
102
}
330
51
100
DictionaryVariables
280
     0
  1
1
  0
DICTIONARYVAR
  5
D62C6
102
{ACAD_REACTORS
330
51
102
}
330
51
100
DictionaryVariables
280
     0
  1
15
  0
DICTIONARYVAR
  5
D62C4
102
{ACAD_REACTORS
330
51
102
}
330
51
100
DictionaryVariables
280
     0
  1
0
  0
DICTIONARYVAR
  5
D62C3
102
{ACAD_REACTORS
330
51
102
}
330
51
100
DictionaryVariables
280
     0
  1
0
  0
DICTIONARYVAR
  5
6CFD4
102
{ACAD_REACTORS
330
51
102
}
330
51
100
DictionaryVariables
280
     0
  1

  0
DICTIONARYVAR
  5
F9A8
102
{ACAD_REACTORS
330
51
102
}
330
51
100
DictionaryVariables
280
     0
  1
127
  0
DICTIONARY
  5
A9559
330
5D3CF
100
AcDbDictionary
280
     1
281
     1
  3
ACAD_ROUNDTRIP_2008_TABLESTYLE_CELLSTYLEMAP
360
DEE89
  0
CELLSTYLEMAP
  5
DEE89
102
{ACAD_REACTORS
330
A9559
102
}
330
A9559
100
AcDbCellStyleMap
 90
        3
300
CELLSTYLE
  1
TABLEFORMAT_BEGIN
 90
        5
170
     1
 91
        0
 92
    32768
 62
   257
 93
        1
300
CONTENTFORMAT
  1
CONTENTFORMAT_BEGIN
 90
        0
 91
        0
 92
        4
 93
        0
300

 40
0.0
140
1.0
 94
        5
 62
     0
340
F
144
6.0
309
CONTENTFORMAT_END
171
     1
301
MARGIN
  1
CELLMARGIN_BEGIN
 40
1.5
 40
1.5
 40
1.5
 40
1.5
 40
0.18
 40
0.18
309
CELLMARGIN_END
 94
        6
 95
        1
302
GRIDFORMAT
  1
GRIDFORMAT_BEGIN
 90
        0
 91
        1
 62
     0
 92
       -2
340
0
 93
        0
 40
0.045
309
GRIDFORMAT_END
 95
        2
302
GRIDFORMAT
  1
GRIDFORMAT_BEGIN
 90
        0
 91
        1
 62
     0
 92
       -2
340
0
 93
        0
 40
0.045
309
GRIDFORMAT_END
 95
        4
302
GRIDFORMAT
  1
GRIDFORMAT_BEGIN
 90
        0
 91
        1
 62
     0
 92
       -2
340
0
 93
        0
 40
0.045
309
GRIDFORMAT_END
 95
        8
302
GRIDFORMAT
  1
GRIDFORMAT_BEGIN
 90
        0
 91
        1
 62
     0
 92
       -2
340
0
 93
        0
 40
0.045
309
GRIDFORMAT_END
 95
       16
302
GRIDFORMAT
  1
GRIDFORMAT_BEGIN
 90
        0
 91
        1
 62
     0
 92
       -2
340
0
 93
        0
 40
0.045
309
GRIDFORMAT_END
 95
       32
302
GRIDFORMAT
  1
GRIDFORMAT_BEGIN
 90
        0
 91
        1
 62
     0
 92
       -2
340
0
 93
        0
 40
0.045
309
GRIDFORMAT_END
309
TABLEFORMAT_END
  1
CELLSTYLE_BEGIN
 90
        1
 91
        1
300
_TITLE
309
CELLSTYLE_END
300
CELLSTYLE
  1
TABLEFORMAT_BEGIN
 90
        5
170
     1
 91
        0
 92
        0
 62
   257
 93
        1
300
CONTENTFORMAT
  1
CONTENTFORMAT_BEGIN
 90
        0
 91
        0
 92
        4
 93
        0
300

 40
0.0
140
1.0
 94
        5
 62
     0
340
F
144
4.5
309
CONTENTFORMAT_END
171
     1
301
MARGIN
  1
CELLMARGIN_BEGIN
 40
1.5
 40
1.5
 40
1.5
 40
1.5
 40
0.18
 40
0.18
309
CELLMARGIN_END
 94
        6
 95
        1
302
GRIDFORMAT
  1
GRIDFORMAT_BEGIN
 90
        0
 91
        1
 62
     0
 92
       -2
340
0
 93
        0
 40
0.045
309
GRIDFORMAT_END
 95
        2
302
GRIDFORMAT
  1
GRIDFORMAT_BEGIN
 90
        0
 91
        1
 62
     0
 92
       -2
340
0
 93
        0
 40
0.045
309
GRIDFORMAT_END
 95
        4
302
GRIDFORMAT
  1
GRIDFORMAT_BEGIN
 90
        0
 91
        1
 62
     0
 92
       -2
340
0
 93
        0
 40
0.045
309
GRIDFORMAT_END
 95
        8
302
GRIDFORMAT
  1
GRIDFORMAT_BEGIN
 90
        0
 91
        1
 62
     0
 92
       -2
340
0
 93
        0
 40
0.045
309
GRIDFORMAT_END
 95
       16
302
GRIDFORMAT
  1
GRIDFORMAT_BEGIN
 90
        0
 91
        1
 62
     0
 92
       -2
340
0
 93
        0
 40
0.045
309
GRIDFORMAT_END
 95
       32
302
GRIDFORMAT
  1
GRIDFORMAT_BEGIN
 90
        0
 91
        1
 62
     0
 92
       -2
340
0
 93
        0
 40
0.045
309
GRIDFORMAT_END
309
TABLEFORMAT_END
  1
CELLSTYLE_BEGIN
 90
        2
 91
        1
300
_HEADER
309
CELLSTYLE_END
300
CELLSTYLE
  1
TABLEFORMAT_BEGIN
 90
        5
170
     1
 91
        0
 92
        0
 62
   257
 93
        1
300
CONTENTFORMAT
  1
CONTENTFORMAT_BEGIN
 90
        0
 91
        0
 92
        4
 93
        0
300

 40
0.0
140
1.0
 94
        2
 62
     0
340
F
144
4.5
309
CONTENTFORMAT_END
171
     1
301
MARGIN
  1
CELLMARGIN_BEGIN
 40
1.5
 40
1.5
 40
1.5
 40
1.5
 40
0.18
 40
0.18
309
CELLMARGIN_END
 94
        6
 95
        1
302
GRIDFORMAT
  1
GRIDFORMAT_BEGIN
 90
        0
 91
        1
 62
     0
 92
       -2
340
0
 93
        0
 40
0.045
309
GRIDFORMAT_END
 95
        2
302
GRIDFORMAT
  1
GRIDFORMAT_BEGIN
 90
        0
 91
        1
 62
     0
 92
       -2
340
0
 93
        0
 40
0.045
309
GRIDFORMAT_END
 95
        4
302
GRIDFORMAT
  1
GRIDFORMAT_BEGIN
 90
        0
 91
        1
 62
     0
 92
       -2
340
0
 93
        0
 40
0.045
309
GRIDFORMAT_END
 95
        8
302
GRIDFORMAT
  1
GRIDFORMAT_BEGIN
 90
        0
 91
        1
 62
     0
 92
       -2
340
0
 93
        0
 40
0.045
309
GRIDFORMAT_END
 95
       16
302
GRIDFORMAT
  1
GRIDFORMAT_BEGIN
 90
        0
 91
        1
 62
     0
 92
       -2
340
0
 93
        0
 40
0.045
309
GRIDFORMAT_END
 95
       32
302
GRIDFORMAT
  1
GRIDFORMAT_BEGIN
 90
        0
 91
        1
 62
     0
 92
       -2
340
0
 93
        0
 40
0.045
309
GRIDFORMAT_END
309
TABLEFORMAT_END
  1
CELLSTYLE_BEGIN
 90
        3
 91
        2
300
_DATA
309
CELLSTYLE_END
  0
ENDSEC
  0
SECTION
  2
ACDSDATA
 70
     2
 71
     8
  0
ACDSSCHEMA
 90
        0
  1
AcDb_Thumbnail_Schema
  2
AcDbDs::ID
280
    10
 91
        8
  2
Thumbnail_Data
280
    15
 91
        0
101
ACDSRECORD
 95
        0
 90
        1
  2
AcDbDs::TreatedAsObjectData
280
     1
291
     1
101
ACDSRECORD
 95
        0
 90
        2
  2
AcDbDs::Legacy
280
     1
291
     1
101
ACDSRECORD
  1
AcDbDs::ID
 90
        3
  2
AcDs:Indexable
280
     1
291
     1
101
ACDSRECORD
  1
AcDbDs::ID
 90
        4
  2
AcDbDs::HandleAttribute
280
     7
282
     1
  0
ACDSSCHEMA
 90
        1
  1
AcDbDs::TreatedAsObjectDataSchema
  2
AcDbDs::TreatedAsObjectData
280
     1
 91
        0
  0
ACDSSCHEMA
 90
        2
  1
AcDbDs::LegacySchema
  2
AcDbDs::Legacy
280
     1
 91
        0
  0
ACDSSCHEMA
 90
        3
  1
AcDbDs::IndexedPropertySchema
  2
AcDs:Indexable
280
     1
 91
        0
  0
ACDSSCHEMA
 90
        4
  1
AcDbDs::HandleAttributeSchema
  2
AcDbDs::HandleAttribute
280
     7
 91
        1
284
     1
  0
ACDSRECORD
 90
        0
  2
AcDbDs::ID
280
    10
320
501C
  2
Thumbnail_Data
280
    15
 94
     1285
310
89504E470D0A1A0A0000000D494844520000010000000085080300000083A6D68B00000300504C5445000000FFFFFF0000000000000000000000000000000000000000000000000000000000330000660000990000CC0000FF0033000033330033660033990033CC0033FF0066000066330066660066990066CC0066FF0099
310
000099330099660099990099CC0099FF00CC0000CC3300CC6600CC9900CCCC00CCFF00FF0000FF3300FF6600FF9900FFCC00FFFF3300003300333300663300993300CC3300FF3333003333333333663333993333CC3333FF3366003366333366663366993366CC3366FF3399003399333399663399993399CC3399FF33CC00
310
33CC3333CC6633CC9933CCCC33CCFF33FF0033FF3333FF6633FF9933FFCC33FFFF6600006600336600666600996600CC6600FF6633006633336633666633996633CC6633FF6666006666336666666666996666CC6666FF6699006699336699666699996699CC6699FF66CC0066CC3366CC6666CC9966CCCC66CCFF66FF0066
310
FF3366FF6666FF9966FFCC66FFFF9900009900339900669900999900CC9900FF9933009933339933669933999933CC9933FF9966009966339966669966999966CC9966FF9999009999339999669999999999CC9999FF99CC0099CC3399CC6699CC9999CCCC99CCFF99FF0099FF3399FF6699FF9999FFCC99FFFFCC0000CC00
310
33CC0066CC0099CC00CCCC00FFCC3300CC3333CC3366CC3399CC33CCCC33FFCC6600CC6633CC6666CC6699CC66CCCC66FFCC9900CC9933CC9966CC9999CC99CCCC99FFCCCC00CCCC33CCCC66CCCC99CCCCCCCCCCFFCCFF00CCFF33CCFF66CCFF99CCFFCCCCFFFFFF0000FF0033FF0066FF0099FF00CCFF00FFFF3300FF3333
310
FF3366FF3399FF33CCFF33FFFF6600FF6633FF6666FF6699FF66CCFF66FFFF9900FF9933FF9966FF9999FF99CCFF99FFFFCC00FFCC33FFCC66FFCC99FFCCCCFFCCFFFFFF00FFFF33FFFF66FFFF99FFFFCCFFFFFF0000000D0D0D1A1A1A2828283535354343435050505D5D5D6B6B6B787878868686939393A1A1A1AEAEAEBB
310
BBBBC9C9C9D6D6D6E4E4E4F1F1F1FFFFFF0000000000000000000000000000000000000000000000000000000000003AE5ACE9000001C04944415478DAEDDC4DAEC3200C46512FC713EF7F336CA3F3D726D086FC540A7A4905DFF5A4254CC2C138045535230882200842361E9B9017010000E11AA09E010000000000000000
310
000000000000000000000000000000000000000000000000D010E982E80BE0FFEF0F00007A03582EDD3437D5326051BB9222402A139FD2042057036680F795A459034C1780C720000000000000000000C02A02006900F7701706F009C0650122872CC073EE9F19602D29300CC0AB08CA02B838C033F7F363B0A10E0E009047
310
1DD624D03F401972D44D1580CF94873509740E302FFF7A2B7C4EA06F80E5928FDDAB630354038DA38E7101EA61863509740DF0E575180000C40E4438120300007500030000000000000000D808010000003F06A84E652F3D135C46D4CDED3DEDF75F9301370154DF63D53E9E135FF6770DE08700AE0750FF46680360EA1970
310
2B80DF0D3015B558E6F931402E812301BC3E32C0DBE008A0748F0390475C004ABDDB07F8A4CC4800B602B02F00260E604366C0A925E0C3019C2C820569B07DC099C7A0DDF01894DF08B115E66548FC75980311F523310000F80580010000000000303A80FAFF09F61800000000000000000000000000804AFC016DEA93DE44
310
49E09C0000000049454E44AE426082
  0
ENDSEC
  0
EOF
