  0
SECTION
  2
HEADER
  9
$ACADVER
  1
AC1009
  9
$INSBASE
 10
268.43400214410849
 20
176.78614296068989
 30
0.0
  9
$EXTMIN
 10
-8243.7174127161907
 20
5507.4291127146444
 30
-0.0015258207003583
  9
$EXTMAX
 10
-5970.3898129502586
 20
8157.3379218171413
 30
0.0000000349246037
  9
$LIMMIN
 10
0.0
 20
0.0
  9
$LIMMAX
 10
554.0
 20
395.0
  9
$ORTHOMODE
 70
     1
  9
$REGENMODE
 70
     1
  9
$FILLMODE
 70
     1
  9
$QTEXTMODE
 70
     0
  9
$MIRRTEXT
 70
     1
  9
$DRAGMODE
 70
     2
  9
$LTSCALE
 40
2.0
  9
$OSMODE
 70
    37
  9
$ATTMODE
 70
     1
  9
$TEXTSIZE
 40
3.0
  9
$TRACEWID
 40
0.1
  9
$TEXTSTYLE
  7
KANJI
  9
$CLAYER
  8
実線1_０_３_
  9
$CELTYPE
  6
BYLAYER
  9
$CECOLOR
 62
   256
  9
$DIMSCALE
 40
1.0
  9
$DIMASZ
 40
1.0
  9
$DIMEXO
 40
1.0
  9
$DIMDLI
 40
6.0
  9
$DIMRND
 40
0.0
  9
$DIMDLE
 40
0.0
  9
$DIMEXE
 40
1.0
  9
$DIMTP
 40
0.0
  9
$DIMTM
 40
0.0
  9
$DIMTXT
 40
5.0
  9
$DIMCEN
 40
0.0
  9
$DIMTSZ
 40
0.0
  9
$DIMTOL
 70
     0
  9
$DIMLIM
 70
     0
  9
$DIMTIH
 70
     0
  9
$DIMTOH
 70
     0
  9
$DIMSE1
 70
     0
  9
$DIMSE2
 70
     0
  9
$DIMTAD
 70
     1
  9
$DIMZIN
 70
     8
  9
$DIMBLK
  1

  9
$DIMASO
 70
     1
  9
$DIMSHO
 70
     1
  9
$DIMPOST
  1

  9
$DIMAPOST
  1

  9
$DIMALT
 70
     0
  9
$DIMALTD
 70
     2
  9
$DIMALTF
 40
25.399999999999999
  9
$DIMLFAC
 40
1.0
  9
$DIMTOFL
 70
     1
  9
$DIMTVP
 40
0.0
  9
$DIMTIX
 70
     0
  9
$DIMSOXD
 70
     0
  9
$DIMSAH
 70
     1
  9
$DIMBLK1
  1
Y2
  9
$DIMBLK2
  1
Y2
  9
$DIMSTYLE
  2
STANDARD
  9
$DIMCLRD
 70
     0
  9
$DIMCLRE
 70
     0
  9
$DIMCLRT
 70
     0
  9
$DIMTFAC
 40
1.0
  9
$DIMGAP
 40
0.5
  9
$LUNITS
 70
     2
  9
$LUPREC
 70
     4
  9
$SKETCHINC
 40
0.1
  9
$FILLETRAD
 40
55.0
  9
$AUNITS
 70
     0
  9
$AUPREC
 70
     0
  9
$MENU
  1
tcad-s
  9
$ELEVATION
 40
0.0
  9
$PELEVATION
 40
0.0
  9
$THICKNESS
 40
0.0
  9
$LIMCHECK
 70
     0
  9
$BLIPMODE
 70
     0
  9
$CHAMFERA
 40
0.0
  9
$CHAMFERB
 40
0.0
  9
$SKPOLY
 70
     0
  9
$TDCREATE
 40
2451123.360008738
  9
$TDUPDATE
 40
2452166.6515449071
  9
$TDINDWG
 40
9.2449485416999995
  9
$TDUSRTIMER
 40
9.2449485416999995
  9
$USRTIMER
 70
     1
  9
$ANGBASE
 50
0.0
  9
$ANGDIR
 70
     0
  9
$PDMODE
 70
     0
  9
$PDSIZE
 40
2.399999999999999
  9
$PLINEWID
 40
0.0
  9
$COORDS
 70
     1
  9
$SPLFRAME
 70
     0
  9
$SPLINETYPE
 70
     6
  9
$SPLINESEGS
 70
     8
  9
$ATTDIA
 70
     0
  9
$ATTREQ
 70
     1
  9
$HANDLING
 70
-16383
  9
$HANDSEED
  5
37803
  9
$SURFTAB1
 70
     6
  9
$SURFTAB2
 70
     6
  9
$SURFTYPE
 70
     6
  9
$SURFU
 70
     6
  9
$SURFV
 70
     6
  9
$UCSNAME
  2

  9
$UCSORG
 10
0.0
 20
0.0
 30
0.0
  9
$UCSXDIR
 10
1.0
 20
0.0
 30
0.0
  9
$UCSYDIR
 10
0.0
 20
1.0
 30
0.0
  9
$PUCSNAME
  2

  9
$PUCSORG
 10
0.0
 20
0.0
 30
0.0
  9
$PUCSXDIR
 10
1.0
 20
0.0
 30
0.0
  9
$PUCSYDIR
 10
0.0
 20
1.0
 30
0.0
  9
$USERI1
 70
     0
  9
$USERI2
 70
     0
  9
$USERI3
 70
     0
  9
$USERI4
 70
     0
  9
$USERI5
 70
     0
  9
$USERR1
 40
0.0
  9
$USERR2
 40
0.0
  9
$USERR3
 40
0.0
  9
$USERR4
 40
0.0
  9
$USERR5
 40
0.0
  9
$WORLDVIEW
 70
     1
  9
$SHADEDGE
 70
     3
  9
$SHADEDIF
 70
    70
  9
$TILEMODE
 70
     1
  9
$MAXACTVP
 70
    16
  9
$PLIMCHECK
 70
     0
  9
$PEXTMIN
 10
1.0000000000000000E+020
 20
1.0000000000000000E+020
 30
1.0000000000000000E+020
  9
$PEXTMAX
 10
-1.0000000000000000E+020
 20
-1.0000000000000000E+020
 30
-1.0000000000000000E+020
  9
$PLIMMIN
 10
0.0
 20
0.0
  9
$PLIMMAX
 10
12.0
 20
9.0
  9
$UNITMODE
 70
     0
  9
$VISRETAIN
 70
     0
  9
$PLINEGEN
 70
     0
  9
$PSLTSCALE
 70
     0
  0
ENDSEC
  0
SECTION
  2
TABLES
  0
TABLE
  2
VPORT
 70
     2
  0
VPORT
  2
*ACTIVE
 70
     0
 10
0.0
 20
0.0
 11
1.0
 21
1.0
 12
-6978.0973728642557
 22
6875.033566532933
 13
0.0
 23
0.0
 14
1.0
 24
1.0
 15
0.0
 25
0.0
 16
0.0
 26
0.0
 36
1.0
 17
0.0
 27
0.0
 37
0.0
 40
2932.733984031132
 41
2.151927437641723
 42
50.0
 43
0.0
 44
0.0
 50
0.0
 51
0.0
 71
     0
 72
  1000
 73
     1
 74
     1
 75
     0
 76
     0
 77
     0
 78
     1
  0
ENDTAB
  0
TABLE
  2
LTYPE
 70
     7
  0
LTYPE
  2
CONTINUOUS
 70
     0
  3
Solid line
 72
    65
 73
     0
 40
0.0
  0
LTYPE
  2
CENTER
 70
     0
  3
____ _ ____ _ ____ _ ____ _ ____ _ ____ _ ____ 
 72
    65
 73
     4
 40
2.0
 49
1.25
 49
-0.25
 49
0.25
 49
-0.25
  0
LTYPE
  2
PHANTOM1
 70
     0
  3
______  __  __  ______  __  __  ______  __  __ 
 72
    65
 73
     6
 40
2.5
 49
1.25
 49
-0.25
 49
0.25
 49
-0.25
 49
0.25
 49
-0.25
  0
LTYPE
  2
PHANTOM2
 70
     0
  3
Phantom (.5x) ___ _ _ ___ _ _ ___ _ _ ___ _ _
 72
    65
 73
     6
 40
31.75
 49
15.875
 49
-3.1749999999999989
 49
3.1749999999999989
 49
-3.1749999999999989
 49
3.1749999999999989
 49
-3.1749999999999989
  0
LTYPE
  2
HIDDEN2
 70
     0
  3
Hidden (.5x) _ _ _ _ _ _ _ _ _ _ _ _ _ _ _ _ _
 72
    65
 73
     2
 40
4.7624999999999993
 49
3.1749999999999989
 49
-1.587499999999999
  0
LTYPE
  2
HIDDENX2
 70
     0
  3
Hidden (2x) ____ ____ ____ ____ ____ ____ ____
 72
    65
 73
     2
 40
19.04999999999999
 49
12.699999999999999
 49
-6.3499999999999988
  0
LTYPE
  2
PHANTOM
 70
     0
  3
______  __  __  ______  __  __  ______  __  __ 
 72
    65
 73
     6
 40
2.5
 49
1.25
 49
-0.25
 49
0.25
 49
-0.25
 49
0.25
 49
-0.25
  0
ENDTAB
  0
TABLE
  2
LAYER
 70
    18
  0
LAYER
  2
0
 70
     0
 62
     7
  6
CONTINUOUS
  0
LAYER
  2
C1
 70
     0
 62
     5
  6
CONTINUOUS
  0
LAYER
  2
C2
 70
     0
 62
     1
  6
CONTINUOUS
  0
LAYER
  2
かくれ線_０_２_
 70
     0
 62
     6
  6
CONTINUOUS
  0
LAYER
  2
実線1_０_３_
 70
     0
 62
     3
  6
CONTINUOUS
  0
LAYER
  2
実線2_０_３_
 70
     0
 62
     4
  6
CONTINUOUS
  0
LAYER
  2
C6
 70
     0
 62
     2
  6
CONTINUOUS
  0
LAYER
  2
C7
 70
     0
 62
     7
  6
CONTINUOUS
  0
LAYER
  2
補助線_０_０５_
 70
     0
 62
     5
  6
CONTINUOUS
  0
LAYER
  2
BUNKATUTEN
 70
     0
 62
     5
  6
CONTINUOUS
  0
LAYER
  2
寸法線1_０_１_
 70
     0
 62
     2
  6
CONTINUOUS
  0
LAYER
  2
SUNPOUN
 70
     0
 62
     2
  6
CONTINUOUS
  0
LAYER
  2
SUNPOUA
 70
     0
 62
     2
  6
CONTINUOUS
  0
LAYER
  2
WAKU
 70
     0
 62
     7
  6
CONTINUOUS
  0
LAYER
  2
DEFPOINTS
 70
     0
 62
     7
  6
CONTINUOUS
  0
LAYER
  2
中心線_０_１_
 70
     0
 62
     1
  6
CENTER
  0
LAYER
  2
SCALE
 70
     0
 62
     4
  6
CONTINUOUS
  0
LAYER
  2
SUNPOU
 70
     0
 62
     2
  6
CONTINUOUS
  0
ENDTAB
  0
TABLE
  2
STYLE
 70
     6
  0
STYLE
  2
STANDARD
 70
     0
 40
0.0
 41
1.0
 50
0.0
 71
     0
 42
0.2
  3
txt
  4

  0
STYLE
  2
KANJI
 70
     0
 40
0.0
 41
1.0
 50
0.0
 71
     0
 42
3.0
  3
simplex
  4
bigfont
  0
STYLE
  2

 70
     1
 40
0.0
 41
1.0
 50
0.0
 71
     0
 42
3.0
  3
ltypeshp.shx
  4

  0
STYLE
  2
CMP-SET
 70
     0
 40
0.0
 41
1.0
 50
0.0
 71
     0
 42
3.0
  3
SIMPLEX
  4
BIGFONT
  0
STYLE
  2
ｺﾞｼｯｸ
 70
     0
 40
0.0
 41
1.0
 50
0.0
 71
     0
 42
2.5
  3
txt
  4

  0
STYLE
  2
ﾐﾝﾁｮｳ
 70
     0
 40
0.0
 41
1.0
 50
0.0
 71
     0
 42
2.0
  3
simplex.shx
  4
bigfont.shx
  0
ENDTAB
  0
TABLE
  2
VIEW
 70
     0
  0
ENDTAB
  0
TABLE
  2
UCS
 70
     0
  0
ENDTAB
  0
TABLE
  2
APPID
 70
     2
  0
APPID
  2
ACAD
 70
     0
  0
APPID
  2
CONTENTBLOCKICON
 70
     0
  0
ENDTAB
  0
TABLE
  2
DIMSTYLE
 70
     2
  0
DIMSTYLE
  2
STANDARD
 70
     0
  3

  4

  5

  6
Y2
  7
Y2
 40
1.0
 41
1.0
 42
1.0
 43
6.0
 44
1.0
 45
0.0
 46
0.0
 47
0.0
 48
0.0
140
2.5
141
0.0
142
0.0
143
25.399999999999999
144
1.0
145
0.0
146
1.0
147
0.5
 71
     0
 72
     0
 73
     0
 74
     0
 75
     0
 76
     0
 77
     1
 78
     8
170
     0
171
     2
172
     1
173
     1
174
     0
175
     0
176
     0
177
     0
178
     0
  0
DIMSTYLE
  2
STANDARD1
 70
     0
  3

  4

  5

  6
Y1
  7
Y1
 40
1.0
 41
1.0
 42
1.0
 43
6.0
 44
1.0
 45
0.0
 46
0.0
 47
0.0
 48
0.0
140
2.5
141
0.0
142
0.0
143
25.399999999999999
144
1.0
145
0.0
146
1.0
147
0.5
 71
     0
 72
     0
 73
     0
 74
     0
 75
     0
 76
     0
 77
     1
 78
     8
170
     0
171
     2
172
     1
173
     1
174
     0
175
     0
176
     0
177
     0
178
     0
  0
ENDTAB
  0
ENDSEC
  0
SECTION
  2
BLOCKS
  0
BLOCK
  8
0
  2
$MODEL_SPACE
 70
     0
 10
0.0
 20
0.0
 30
0.0
  3
$MODEL_SPACE
  1

  0
ENDBLK
  5
50
  8
0
  0
BLOCK
 67
     1
  8
0
  2
$PAPER_SPACE
 70
     0
 10
0.0
 20
0.0
 30
0.0
  3
$PAPER_SPACE
  1

  0
ENDBLK
  5
4E
 67
     1
  8
0
  0
BLOCK
  8
0
  2
Y1
 70
     0
 10
0.0
 20
0.0
 30
0.0
  3
Y1
  1

  0
LINE
  5
1488
  8
0
  6
BYBLOCK
 62
     0
 10
-4.000000000000056
 20
-0.0000000000000142
 30
0.0
 11
-0.0000000000000568
 21
0.0
 31
0.0
  0
SOLID
  5
1489
  8
0
  6
BYBLOCK
 62
     0
 10
-1.811110924292108
 20
0.485285709567151
 30
0.0
 11
-1.811110924292108
 21
-0.4852857095673784
 31
0.0
 12
-0.0000000000000568
 22
-0.0000000000000142
 32
0.0
 13
-0.0000000000000568
 23
-0.0000000000000142
 33
0.0
  0
ENDBLK
  5
148A
  8
0
  0
BLOCK
  8
0
  2
Y2
 70
     0
 10
0.0
 20
0.0
 30
0.0
  3
Y2
  1

  0
SOLID
  5
39F8
  8
0
  6
BYBLOCK
 62
     0
 10
-1.811110924292108
 20
0.485285709567151
 30
0.0
 11
-1.811110924292108
 21
-0.4852857095673784
 31
0.0
 12
-0.0000000000000568
 22
-0.0000000000000142
 32
0.0
 13
-0.0000000000000568
 23
-0.0000000000000142
 33
0.0
  0
ENDBLK
  5
39F9
  8
0
  0
BLOCK
  8
0
  2
A$C0A6603FD
 70
     0
 10
0.0
 20
0.0
 30
0.0
  3
A$C0A6603FD
  1

  0
LINE
  5
37285
  8
実線1_０_３_
 10
-0.0000092835653049
 20
99.999989125331936
 30
0.0
 11
99.999990716434695
 21
99.999989125331936
 31
0.0
  0
LINE
  5
37286
  8
実線1_０_３_
 10
99.999990716434695
 20
99.999989125331936
 30
0.0
 11
99.999990716434695
 21
-0.000010874668078
 31
0.0
  0
LINE
  5
37287
  8
実線1_０_３_
 10
99.999990716434695
 20
-0.000010874668078
 30
0.0
 11
-0.0000092835653049
 21
-0.000010874668078
 31
0.0
  0
LINE
  5
37288
  8
実線1_０_３_
 10
-0.0000092835653049
 20
-0.000010874668078
 30
0.0
 11
-0.0000092835653049
 21
99.999989125336484
 31
0.0
  0
LINE
  5
37289
  8
実線1_０_３_
 10
4.9999907164346951
 20
74.999989125331922
 30
0.0
 11
94.999990716434695
 21
74.999989125336469
 31
0.0
  0
LINE
  5
3728A
  8
実線1_０_３_
 10
4.9999907164346951
 20
49.999989125331922
 30
0.0
 11
94.999990716434695
 21
49.999989125336469
 31
0.0
  0
LINE
  5
3728B
  8
実線1_０_３_
 10
4.9999907164346951
 20
24.999989125331918
 30
0.0
 11
94.999990716434695
 21
24.999989125336469
 31
0.0
  0
TEXT
  5
3728C
  8
実線1_０_３_
 10
15.169570146019391
 20
82.330105718752733
 30
0.0
 40
10.0
  1
建設大臣認定
  7
KANJI
  0
TEXT
  5
3728D
  8
実線1_０_３_
 10
8.9361578049574746
 20
7.3301057187572951
 30
0.0
 40
10.0
  1
因幡電機産業株式会社
 41
0.7
  7
KANJI
  0
TEXT
  5
3728E
  8
実線1_０_３_
 10
8.2434741535798821
 20
57.330105718752748
 30
0.0
 40
10.0
  1
建設省○住指発第○○○号
 41
0.6
  7
KANJI
  0
TEXT
  5
3728F
  8
実線1_０_３_
 10
8.2434741535815874
 20
38.791042300450492
 30
0.0
 40
10.0
  1
防火区画貫通部の防火措置工法
 41
0.5
  7
KANJI
  0
TEXT
  5
37290
  8
実線1_０_３_
 10
6.3964658541881363
 20
27.022858682972579
 30
0.0
 40
10.0
  1
「耐火キャップ マンションタイプ」
 41
0.45
  7
KANJI
  0
ENDBLK
  5
37292
  8
0
  0
BLOCK
  8
0
  2
A$C4A032726
 70
     0
 10
0.0
 20
0.0
 30
0.0
  3
A$C4A032726
  1

  0
CIRCLE
  5
375FD
  8
実線1_０_３_
 10
125.4768983331432
 20
125.97017172534559
 30
0.0
 40
103.34999999999989
  0
LINE
  5
375FE
  8
中心線_０_１_
  6
CENTER
 10
125.4768983331432
 20
251.4470667578143
 30
0.0
 11
125.4768983331432
 21
-0.0000006473501344
 31
0.0
  0
CIRCLE
  5
375FF
  8
実線1_０_３_
 10
125.4768983331432
 20
125.97017172534559
 30
0.0
 40
79.0
  0
LINE
  5
37600
  8
中心線_０_１_
  6
CENTER
 10
704.47689833314405
 20
251.6937054279278
 30
0.0
 11
704.47689833314325
 21
0.2466380227633635
 31
0.0
  0
CIRCLE
  5
37601
  8
実線1_０_３_
 10
704.47689833314325
 20
126.21681039545911
 30
0.0
 40
90.849999999999994
  0
CIRCLE
  5
37602
  8
実線1_０_３_
 10
704.47689833314325
 20
126.21681039545911
 30
0.0
 40
66.5
  0
LINE
  5
37603
  8
中心線_０_１_
  6
CENTER
 10
1307.580259663029
 20
251.6937054275476
 30
0.0
 11
1307.5802596630299
 21
0.2466380223831948
 31
0.0
  0
LINE
  5
37604
  8
中心線_０_１_
  6
CENTER
 10
1910.6836209929161
 20
251.69370542754851
 30
0.0
 11
1910.6836209929149
 21
0.2466380223841043
 31
0.0
  0
CIRCLE
  5
37605
  8
実線1_０_３_
 10
1307.5802596630299
 20
126.21681039507889
 30
0.0
 40
77.849999999999994
  0
CIRCLE
  5
37606
  8
実線1_０_３_
 10
1307.5802596630299
 20
126.21681039507889
 30
0.0
 40
53.5
  0
CIRCLE
  5
37607
  8
実線1_０_３_
 10
1910.683620992917
 20
126.2168103950798
 30
0.0
 40
65.349999999999994
  0
CIRCLE
  5
37608
  8
実線1_０_３_
 10
1910.683620992917
 20
126.2168103950798
 30
0.0
 40
41.0
  0
TEXT
  5
37609
  8
実線1_０_３_
 10
49.56373627562607
 20
431.1317158353686
 30
0.0
 40
26.490505442932768
  1
IRC-150CZ
  7
KANJI
  0
TEXT
  5
3760A
  8
実線1_０_３_
 10
618.62449704040318
 20
431.02063261838612
 30
0.0
 40
26.490505442932768
  1
IRC-125CZ
  7
KANJI
  0
TEXT
  5
3760B
  8
実線1_０_３_
 10
1230.133138917872
 20
431.37835450510192
 30
0.0
 40
26.490505442932768
  1
IRC-100CZ
  7
KANJI
  0
TEXT
  5
3760C
  8
実線1_０_３_
 10
1823.2972610125371
 20
431.0206326180068
 30
0.0
 40
26.490505442932768
  1
IRC-75CZ
  7
KANJI
  0
LINE
  5
3760D
  8
中心線_０_１_
  6
CENTER
 10
0.000003300674507
 20
125.97017172534559
 30
0.0
 11
251.44707070583891
 21
125.9701717253447
 31
0.0
  0
LINE
  5
3760E
  8
中心線_０_１_
  6
CENTER
 10
579.00000330067542
 20
126.2168103954572
 30
0.0
 11
830.44707070583991
 21
126.21681039545631
 31
0.0
  0
LINE
  5
3760F
  8
中心線_０_１_
  6
CENTER
 10
1182.10336463056
 20
126.2168103950798
 30
0.0
 11
1433.550432035725
 21
126.21681039507889
 31
0.0
  0
LINE
  5
37610
  8
中心線_０_１_
  6
CENTER
 10
1785.2067259604471
 20
126.2168103950798
 30
0.0
 11
2036.653793365612
 21
126.21681039507889
 31
0.0
  0
LINE
  5
37611
  8
実線1_０_３_
 10
318.1247874351875
 20
212.06934390169951
 30
0.0
 11
318.1247874351875
 21
125.9701717253437
 31
0.0
  0
ARC
  5
37612
  8
実線1_０_３_
 10
358.1247874351875
 20
174.32017172534589
 30
0.0
 40
55.0
 50
90.000000000012321
 51
136.80012979596921
  0
LINE
  5
37613
  8
実線1_０_３_
 10
318.1247874351875
 20
39.87099954898985
 30
0.0
 11
318.1247874351875
 21
125.97017172534559
 31
0.0
  0
ARC
  5
37614
  8
実線1_０_３_
 10
358.1247874351875
 20
77.620171725342516
 30
0.0
 40
55.0
 50
223.1998702040303
 51
269.99999999998721
  0
LINE
  5
37615
  8
実線1_０_３_
 10
358.1247874351875
 20
229.32017172534589
 30
0.0
 11
358.1247874351875
 21
22.620171725342509
 31
0.0
  0
LINE
  5
37616
  8
実線1_０_３_
 10
906.15309050315579
 20
199.81598257181301
 30
0.0
 11
906.15309050315579
 21
125.9701717253447
 31
0.0
  0
ARC
  5
37617
  8
実線1_０_３_
 10
946.15309050315579
 20
162.06681039545941
 30
0.0
 40
55.0
 50
90.000000000012321
 51
136.80012979596921
  0
LINE
  5
37618
  8
実線1_０_３_
 10
906.15309050315579
 20
52.617638219105167
 30
0.0
 11
906.15309050315579
 21
125.9701717253465
 31
0.0
  0
ARC
  5
37619
  8
実線1_０_３_
 10
946.15309050315579
 20
90.366810395458728
 30
0.0
 40
55.0
 50
223.1998702040303
 51
269.99999999998721
  0
LINE
  5
3761A
  8
実線1_０_３_
 10
946.15309050315579
 20
217.06681039545941
 30
0.0
 11
946.15309050315579
 21
35.366810395458742
 31
0.0
  0
LINE
  5
3761B
  8
実線1_０_３_
 10
1505.4511250751691
 20
186.81598257143369
 30
0.0
 11
1505.4511250751691
 21
125.9701717249645
 31
0.0
  0
ARC
  5
3761C
  8
実線1_０_３_
 10
1545.4511250751691
 20
149.0668103950793
 30
0.0
 40
55.0
 50
90.000000000012321
 51
136.80012979596921
  0
LINE
  5
3761D
  8
実線1_０_３_
 10
1505.4511250751691
 20
65.617638218737738
 30
0.0
 11
1505.4511250751691
 21
125.97017172496631
 31
0.0
  0
ARC
  5
3761E
  8
実線1_０_３_
 10
1545.4511250751809
 20
103.3668103950785
 30
0.0
 40
55.0
 50
223.1998702040303
 51
269.99999999998721
  0
LINE
  5
3761F
  8
実線1_０_３_
 10
1545.4511250751691
 20
204.0668103950793
 30
0.0
 11
1545.45112507517
 21
48.366810395078573
 31
0.0
  0
LINE
  5
37620
  8
実線1_０_３_
 10
2108.5544864050439
 20
174.3159825714219
 30
0.0
 11
2108.5544864050439
 21
125.97017172496361
 31
0.0
  0
ARC
  5
37621
  8
実線1_０_３_
 10
2148.5544864050562
 20
136.56681039508021
 30
0.0
 40
55.0
 50
90.000000000012321
 51
136.80012979596921
  0
LINE
  5
37622
  8
実線1_０_３_
 10
2108.5544864050421
 20
78.117638218739557
 30
0.0
 11
2108.5544864050439
 21
125.9701717249654
 31
0.0
  0
LINE
  5
37623
  8
実線1_０_３_
 10
2148.5544864050439
 20
191.56681039508021
 30
0.0
 11
2148.5544864050439
 21
60.866810395078573
 31
0.0
  0
LINE
  5
37624
  8
中心線_０_１_
  6
CENTER
 10
280.18533069767813
 20
125.97017172534559
 30
0.0
 11
405.90886440026043
 21
125.9701717253447
 31
0.0
  0
LINE
  5
37625
  8
中心線_０_１_
  6
CENTER
 10
859.18533069767909
 20
126.2168103954572
 30
0.0
 11
984.90886440026134
 21
126.21681039545631
 31
0.0
  0
LINE
  5
37626
  8
中心線_０_１_
  6
CENTER
 10
1462.2886920275639
 20
126.2168103950798
 30
0.0
 11
1588.0122257301459
 21
126.2168103950798
 31
0.0
  0
LINE
  5
37627
  8
中心線_０_１_
  6
CENTER
 10
2065.392053357451
 20
126.2168103950798
 30
0.0
 11
2191.1155870600328
 21
126.21681039507889
 31
0.0
  0
ARC
  5
37628
  8
実線1_０_３_
 10
2148.5544864050562
 20
115.8668103950785
 30
0.0
 40
55.0
 50
223.19987020402991
 51
269.99999999998681
  0
LINE
  5
37629
  8
実線1_０_３_
 10
125.4768983331432
 20
229.32017172534589
 30
0.0
 11
125.4768983331432
 21
187.47017172534561
 31
0.0
  0
LINE
  5
3762A
  8
実線1_０_３_
 10
125.4768983331432
 20
64.470171725345608
 30
0.0
 11
125.4768983331432
 21
22.620171725345241
 31
0.0
  0
LINE
  5
3762B
  8
実線1_０_３_
 10
704.47689833314325
 20
217.06681039545941
 30
0.0
 11
704.47689833314405
 21
176.7168103954572
 31
0.0
  0
LINE
  5
3762C
  8
実線1_０_３_
 10
704.47689833314405
 20
75.716810395457287
 30
0.0
 11
704.47689833314405
 21
35.366810395458742
 31
0.0
  0
LINE
  5
3762D
  8
実線1_０_３_
 10
1307.5802596630299
 20
204.0668103950793
 30
0.0
 11
1307.580259663029
 21
166.71681039507979
 31
0.0
  0
LINE
  5
3762E
  8
実線1_０_３_
 10
1307.5802596630299
 20
85.716810395079847
 30
0.0
 11
1307.5802596630299
 21
48.366810395078573
 31
0.0
  0
LINE
  5
3762F
  8
実線1_０_３_
 10
1910.683620992917
 20
191.56681039508021
 30
0.0
 11
1910.6836209929161
 21
156.71681039507979
 31
0.0
  0
LINE
  5
37630
  8
実線1_０_３_
 10
1910.683620992917
 20
95.716810395079847
 30
0.0
 11
1910.683620992917
 21
60.866810395079483
 31
0.0
  0
LINE
  5
37631
  8
中心線_０_１_
 10
348.1247874351875
 20
220.97017172534561
 30
0.0
 11
382.12478743518841
 21
220.9701717253437
 31
0.0
  0
LINE
  5
37632
  8
中心線_０_１_
 10
936.15309050315591
 20
208.71681039545629
 30
0.0
 11
970.15309050315591
 21
208.71681039545541
 31
0.0
  0
LINE
  5
37633
  8
中心線_０_１_
 10
1535.45112507517
 20
195.71681039507891
 30
0.0
 11
1569.45112507517
 21
195.71681039507891
 31
0.0
  0
LINE
  5
37634
  8
中心線_０_１_
 10
2138.5544864050439
 20
183.21681039507891
 30
0.0
 11
2172.5544864050439
 21
183.21681039507979
 31
0.0
  0
LINE
  5
37635
  8
中心線_０_１_
 10
348.1247874351875
 20
30.970171725343778
 30
0.0
 11
382.12478743518841
 21
30.970171725345601
 31
0.0
  0
LINE
  5
37636
  8
中心線_０_１_
 10
936.15309050315682
 20
43.716810395460918
 30
0.0
 11
970.15309050315591
 21
43.716810395459113
 31
0.0
  0
LINE
  5
37637
  8
中心線_０_１_
 10
1535.4511250751709
 20
56.716810395076209
 30
0.0
 11
1569.4511250751709
 21
56.716810395076209
 31
0.0
  0
LINE
  5
37638
  8
中心線_０_１_
 10
2138.5544864050439
 20
69.216810395077118
 30
0.0
 11
2172.5544864050439
 21
69.216810395078937
 31
0.0
  0
CIRCLE
  5
37639
  8
実線1_０_３_
 10
125.4768983331432
 20
125.97017172534559
 30
0.0
 40
61.5
  0
CIRCLE
  5
3763A
  8
実線1_０_３_
 10
1910.6836209929161
 20
126.2168103950798
 30
0.0
 40
30.5
  0
CIRCLE
  5
3763B
  8
実線1_０_３_
 10
1307.580259663029
 20
126.2168103950798
 30
0.0
 40
40.499999999999993
  0
CIRCLE
  5
3763C
  8
実線1_０_３_
 10
704.47689833314405
 20
126.2168103954572
 30
0.0
 40
50.5
  0
LINE
  5
3763D
  8
実線1_０_３_
 10
358.1247874351875
 20
199.97017172534461
 30
0.0
 11
453.12478743518739
 21
199.97017172534461
 31
0.0
  0
LINE
  5
3763E
  8
実線1_０_３_
 10
358.1247874351875
 20
51.970171725344699
 30
0.0
 11
453.12478743518739
 21
51.970171725344699
 31
0.0
  0
LINE
  5
3763F
  8
実線1_０_３_
 10
453.12478743518739
 20
51.970171725344699
 30
0.0
 11
453.12478743518739
 21
199.97017172534461
 31
0.0
  0
LINE
  5
37640
  8
実線1_０_３_
 10
946.15309050315579
 20
187.71681039545629
 30
0.0
 11
1041.1530905031559
 21
187.71681039545629
 31
0.0
  0
LINE
  5
37641
  8
実線1_０_３_
 10
946.15309050315579
 20
64.716810395456378
 30
0.0
 11
1041.1530905031559
 21
64.716810395456378
 31
0.0
  0
LINE
  5
37642
  8
実線1_０_３_
 10
1041.1530905031559
 20
64.716810395456378
 30
0.0
 11
1041.1530905031559
 21
187.71681039545629
 31
0.0
  0
LINE
  5
37643
  8
実線1_０_３_
 10
1545.4511250751691
 20
175.21681039507979
 30
0.0
 11
1640.4511250751691
 21
175.21681039507979
 31
0.0
  0
LINE
  5
37644
  8
実線1_０_３_
 10
1545.45112507517
 20
77.216810395079847
 30
0.0
 11
1640.45112507517
 21
77.216810395079847
 31
0.0
  0
LINE
  5
37645
  8
実線1_０_３_
 10
1640.45112507517
 20
77.216810395079847
 30
0.0
 11
1640.4511250751691
 21
175.21681039507979
 31
0.0
  0
LINE
  5
37646
  8
実線1_０_３_
 10
2148.5544864050439
 20
163.71681039507891
 30
0.0
 11
2243.5544864050439
 21
163.71681039507891
 31
0.0
  0
LINE
  5
37647
  8
実線1_０_３_
 10
2148.5544864050439
 20
88.716810395078937
 30
0.0
 11
2243.5544864050439
 21
88.716810395078937
 31
0.0
  0
LINE
  5
37648
  8
実線1_０_３_
 10
2243.5544864050439
 20
88.716810395078937
 30
0.0
 11
2243.5544864050439
 21
163.71681039507891
 31
0.0
  0
ENDBLK
  5
3764A
  8
0
  0
BLOCK
  8
0
  2
A$C37FA21DC
 70
     0
 10
0.0
 20
0.0
 30
0.0
  3
A$C37FA21DC
  1

  0
LINE
  5
377EA
  8
中心線_０_１_
 10
234.07790691944501
 20
11.63730711119751
 30
0.0
 11
268.0779069194449
 21
11.637307111195691
 31
0.0
  0
LINE
  5
377EB
  8
中心線_０_１_
 10
100.1460103231675
 20
17.647714751281448
 30
0.0
 11
112.16682560333901
 21
5.6268994711099358
 31
0.0
  0
LINE
  5
377EC
  8
中心線_０_１_
 10
100.1460103231675
 20
5.6268994711099358
 30
0.0
 11
112.1668256033408
 21
17.647714751281448
 31
0.0
  0
TEXT
  5
377ED
  8
実線1_０_３_
 10
-12.362236944054519
 20
0.0000001949956641
 30
0.0
 40
26.490505442932768
  1
（注）    及び      は、取付ビス位置を示す。
  7
KANJI
  0
ENDBLK
  5
377EF
  8
0
  0
ENDSEC
  0
SECTION
  2
ENTITIES
  0
TEXT
  5
18FE5
  8
WAKU
 62
     2
 10
-698.40058449871765
 20
-3343.4953591110452
 30
0.0
 40
3.0
  1

  7
KANJI
  0
CIRCLE
  5
3736F
  8
実線1_０_３_
 10
-8117.9720613307391
 20
7644.9407270785623
 30
0.0
 40
103.34999999999989
  0
LINE
  5
37371
  8
中心線_０_１_
  6
CENTER
 10
-8117.9720613307391
 20
7770.417622111032
 30
0.0
 11
-8117.9720613307409
 21
7518.9705547058657
 31
0.0
  0
CIRCLE
  5
37380
  8
実線1_０_３_
 10
-8117.9720613307391
 20
7644.9407270785623
 30
0.0
 40
79.0
  0
LINE
  5
37383
  8
中心線_０_１_
  6
CENTER
 10
-7538.9720613307381
 20
7770.6642607811445
 30
0.0
 11
-7538.97206133074
 21
7519.217193375981
 31
0.0
  0
CIRCLE
  5
37385
  8
実線1_０_３_
 10
-7538.97206133074
 20
7645.1873657486749
 30
0.0
 40
90.849999999999994
  0
CIRCLE
  5
37386
  8
実線1_０_３_
 10
-7538.97206133074
 20
7645.1873657486749
 30
0.0
 40
66.5
  0
LINE
  5
37391
  8
中心線_０_１_
  6
CENTER
 10
-6935.868700000854
 20
7770.6642607807653
 30
0.0
 11
-6935.8687000008522
 21
7519.2171933755999
 31
0.0
  0
LINE
  5
37394
  8
中心線_０_１_
  6
CENTER
 10
-6332.7653386709671
 20
7770.6642607807653
 30
0.0
 11
-6332.765338670968
 21
7519.2171933756017
 31
0.0
  0
CIRCLE
  5
37397
  8
実線1_０_３_
 10
-6935.8687000008522
 20
7645.1873657482956
 30
0.0
 40
77.849999999999994
  0
CIRCLE
  5
37398
  8
実線1_０_３_
 10
-6935.8687000008522
 20
7645.1873657482956
 30
0.0
 40
53.5
  0
CIRCLE
  5
37399
  8
実線1_０_３_
 10
-6332.7653386709671
 20
7645.1873657482956
 30
0.0
 40
65.349999999999994
  0
CIRCLE
  5
3739A
  8
実線1_０_３_
 10
-6332.7653386709671
 20
7645.1873657482956
 30
0.0
 40
41.0
  0
TEXT
  5
3739B
  8
実線1_０_３_
 10
-8193.8852233882571
 20
7950.1022711885853
 30
0.0
 40
26.490505442932768
  1
IRC-150CY
  7
KANJI
  0
TEXT
  5
3739C
  8
実線1_０_３_
 10
-7624.8244626234809
 20
7949.9911879716019
 30
0.0
 40
26.490505442932768
  1
IRC-125CY
  7
KANJI
  0
TEXT
  5
3739D
  8
実線1_０_３_
 10
-7013.3158207460119
 20
7950.3489098583186
 30
0.0
 40
26.490505442932768
  1
IRC-100CY
  7
KANJI
  0
TEXT
  5
3739E
  8
実線1_０_３_
 10
-6420.151698651347
 20
7949.9911879712254
 30
0.0
 40
26.490505442932768
  1
IRC-75CY
  7
KANJI
  0
LINE
  5
373A5
  8
中心線_０_１_
  6
CENTER
 10
-8243.4489563632087
 20
7644.9407270785623
 30
0.0
 11
-7992.0018889580451
 21
7644.9407270785614
 31
0.0
  0
LINE
  5
373A6
  8
中心線_０_１_
  6
CENTER
 10
-7664.4489563632078
 20
7645.187365748674
 30
0.0
 11
-7413.0018889580442
 21
7645.1873657486731
 31
0.0
  0
LINE
  5
373A7
  8
中心線_０_１_
  6
CENTER
 10
-7061.3455950333228
 20
7645.1873657482956
 30
0.0
 11
-6809.8985276281583
 21
7645.1873657482956
 31
0.0
  0
LINE
  5
373A8
  8
中心線_０_１_
  6
CENTER
 10
-6458.2422337034359
 20
7645.1873657482956
 30
0.0
 11
-6206.7951662982714
 21
7645.1873657482956
 31
0.0
  0
LINE
  5
373BF
  8
実線1_０_３_
 10
-8031.8728891543851
 20
7452.2928379765181
 30
0.0
 11
-8117.9720613307409
 21
7452.2928379765181
 31
0.0
  0
ARC
  5
373C2
  8
実線1_０_３_
 10
-8069.6220613307396
 20
7412.292837976519
 30
0.0
 40
55.0
 50
0.0000000000123024
 51
46.800129795969248
  0
LINE
  5
373C5
  8
実線1_０_３_
 10
-8204.0712335070948
 20
7452.2928379765181
 30
0.0
 11
-8117.9720613307391
 21
7452.2928379765181
 31
0.0
  0
ARC
  5
373C6
  8
実線1_０_３_
 10
-8166.322061330744
 20
7412.292837976519
 30
0.0
 40
55.0
 50
133.1998702040303
 51
179.99999999998721
  0
LINE
  5
373C7
  8
実線1_０_３_
 10
-8014.6220613307378
 20
7412.292837976519
 30
0.0
 11
-8221.3220613307421
 21
7412.292837976519
 31
0.0
  0
LINE
  5
373C8
  8
実線1_０_３_
 10
-7465.3728891543851
 20
7443.5111735786622
 30
0.0
 11
-7539.2187000008526
 21
7443.5111735786622
 31
0.0
  0
ARC
  5
373C9
  8
実線1_０_３_
 10
-7503.1220613307387
 20
7403.5111735786631
 30
0.0
 40
55.0
 50
0.0000000000123024
 51
46.800129795969248
  0
LINE
  5
373CA
  8
実線1_０_３_
 10
-7612.571233507093
 20
7443.5111735786622
 30
0.0
 11
-7539.2187000008507
 21
7443.5111735786622
 31
0.0
  0
ARC
  5
373CB
  8
実線1_０_３_
 10
-7574.8220613307394
 20
7403.5111735786631
 30
0.0
 40
55.0
 50
133.1998702040303
 51
179.99999999998721
  0
LINE
  5
373CC
  8
実線1_０_３_
 10
-7448.1220613307387
 20
7403.5111735786631
 30
0.0
 11
-7629.8220613307394
 21
7403.5111735786631
 31
0.0
  0
LINE
  5
373D1
  8
実線1_０_３_
 10
-6875.2695278244992
 20
7447.3165003361573
 30
0.0
 11
-6936.1153386709693
 21
7447.3165003361573
 31
0.0
  0
ARC
  5
373D2
  8
実線1_０_３_
 10
-6913.0187000008536
 20
7407.3165003361573
 30
0.0
 40
55.0
 50
0.0000000000123024
 51
46.800129795969248
  0
LINE
  5
373D3
  8
実線1_０_３_
 10
-6996.4678721771961
 20
7447.3165003361573
 30
0.0
 11
-6936.1153386709666
 21
7447.3165003361573
 31
0.0
  0
ARC
  5
373D4
  8
実線1_０_３_
 10
-6958.7187000008553
 20
7407.3165003361446
 30
0.0
 40
55.0
 50
133.1998702040303
 51
179.99999999998721
  0
LINE
  5
373D5
  8
実線1_０_３_
 10
-6858.0187000008546
 20
7407.3165003361573
 30
0.0
 11
-7013.7187000008553
 21
7407.3165003361546
 31
0.0
  0
LINE
  5
373D6
  8
実線1_０_３_
 10
-6284.6661664946259
 20
7447.3165003361682
 30
0.0
 11
-6333.0119773410843
 21
7447.3165003361682
 31
0.0
  0
ARC
  5
373D7
  8
実線1_０_３_
 10
-6322.4153386709677
 20
7407.3165003361573
 30
0.0
 40
55.0
 50
0.0000000000123024
 51
46.800129795969248
  0
LINE
  5
373D8
  8
実線1_０_３_
 10
-6380.8645108473092
 20
7447.3165003361701
 30
0.0
 11
-6333.0119773410834
 21
7447.3165003361682
 31
0.0
  0
LINE
  5
373DA
  8
実線1_０_３_
 10
-6267.4153386709677
 20
7407.3165003361682
 30
0.0
 11
-6398.1153386709693
 21
7407.3165003361682
 31
0.0
  0
LINE
  5
373E0
  8
中心線_０_１_
  6
CENTER
 10
-8117.9720613307391
 20
7490.2322947140283
 30
0.0
 11
-8117.9720613307391
 21
7364.508761011446
 31
0.0
  0
LINE
  5
373E1
  8
中心線_０_１_
  6
CENTER
 10
-7538.97206133074
 20
7490.4789333841391
 30
0.0
 11
-7538.9720613307418
 21
7364.7553996815568
 31
0.0
  0
LINE
  5
373E2
  8
中心線_０_１_
  6
CENTER
 10
-6935.868700000854
 20
7490.4789333837607
 30
0.0
 11
-6935.868700000854
 21
7364.7553996811794
 31
0.0
  0
LINE
  5
373E3
  8
中心線_０_１_
  6
CENTER
 10
-6332.765338670968
 20
7490.4789333837607
 30
0.0
 11
-6332.765338670969
 21
7364.7553996811794
 31
0.0
  0
ARC
  5
373E5
  8
実線1_０_３_
 10
-6343.1153386709693
 20
7407.3165003361573
 30
0.0
 40
55.0
 50
133.19987020402979
 51
179.99999999998681
  0
LINE
  5
37423
  8
中心線_０_１_
 10
-8022.9720613307381
 20
7422.2928379765181
 30
0.0
 11
-8022.97206133074
 21
7388.2928379765181
 31
0.0
  0
LINE
  5
37425
  8
中心線_０_１_
 10
-7456.4720613307418
 20
7413.5111735786622
 30
0.0
 11
-7456.4720613307418
 21
7379.5111735786622
 31
0.0
  0
LINE
  5
37427
  8
中心線_０_１_
 10
-6866.3687000008549
 20
7417.3165003361564
 30
0.0
 11
-6866.3687000008549
 21
7383.3165003361564
 31
0.0
  0
LINE
  5
37429
  8
中心線_０_１_
 10
-6275.765338670969
 20
7417.3165003361692
 30
0.0
 11
-6275.765338670968
 21
7383.3165003361682
 31
0.0
  0
LINE
  5
3742A
  8
中心線_０_１_
 10
-8212.97206133074
 20
7422.2928379765181
 30
0.0
 11
-8212.97206133074
 21
7388.2928379765181
 31
0.0
  0
LINE
  5
3742B
  8
中心線_０_１_
 10
-7621.4720613307381
 20
7413.5111735786613
 30
0.0
 11
-7621.4720613307391
 21
7379.5111735786622
 31
0.0
  0
LINE
  5
3742C
  8
中心線_０_１_
 10
-7005.3687000008567
 20
7417.3165003361546
 30
0.0
 11
-7005.3687000008567
 21
7383.3165003361537
 31
0.0
  0
LINE
  5
3742D
  8
中心線_０_１_
 10
-6389.7653386709699
 20
7417.3165003361692
 30
0.0
 11
-6389.765338670969
 21
7383.3165003361682
 31
0.0
  0
TEXT
  5
37446
  8
実線1_０_３_
 10
-8193.8852233882571
 20
7012.5028679022034
 30
0.0
 40
26.490505442932768
  1
IRC-150CK
  7
KANJI
  0
TEXT
  5
37447
  8
実線1_０_３_
 10
-7624.8244626234809
 20
7012.39178468522
 30
0.0
 40
26.490505442932768
  1
IRC-125CK
  7
KANJI
  0
TEXT
  5
37448
  8
実線1_０_３_
 10
-7013.3158207460119
 20
7012.7495065719368
 30
0.0
 40
26.490505442932768
  1
IRC-100CK
  7
KANJI
  0
TEXT
  5
37449
  8
実線1_０_３_
 10
-6420.151698651347
 20
7012.3917846848408
 30
0.0
 40
26.490505442932768
  1
IRC-75CK
  7
KANJI
  0
CIRCLE
  5
3752D
  8
実線1_０_３_
 10
-8117.9720613307391
 20
7644.9407270785623
 30
0.0
 40
61.5
  0
CIRCLE
  5
37530
  8
実線1_０_３_
 10
-6332.7653386709671
 20
7645.1873657482956
 30
0.0
 40
30.5
  0
CIRCLE
  5
37558
  8
実線1_０_３_
 10
-6935.868700000854
 20
7645.1873657482956
 30
0.0
 40
40.499999999999993
  0
CIRCLE
  5
37575
  8
実線1_０_３_
 10
-7538.9720613307381
 20
7645.187365748674
 30
0.0
 40
50.5
  0
CIRCLE
  5
37586
  8
実線1_０_３_
 10
-8117.9720613307391
 20
6707.3413237921814
 30
0.0
 40
103.34999999999989
  0
CIRCLE
  5
37588
  8
実線1_０_３_
 10
-8117.9720613307391
 20
6707.3413237921814
 30
0.0
 40
79.0
  0
LINE
  5
37589
  8
中心線_０_１_
  6
CENTER
 10
-7538.9720613307381
 20
6833.0648574947627
 30
0.0
 11
-7538.97206133074
 21
6581.6177900895982
 31
0.0
  0
CIRCLE
  5
3758A
  8
実線1_０_３_
 10
-7538.97206133074
 20
6707.5879624622939
 30
0.0
 40
90.849999999999994
  0
CIRCLE
  5
3758B
  8
実線1_０_３_
 10
-7538.97206133074
 20
6707.5879624622939
 30
0.0
 40
66.5
  0
LINE
  5
3758C
  8
中心線_０_１_
  6
CENTER
 10
-6935.868700000854
 20
6833.0648574943816
 30
0.0
 11
-6935.8687000008522
 21
6581.617790089218
 31
0.0
  0
LINE
  5
3758D
  8
中心線_０_１_
  6
CENTER
 10
-6332.7653386709671
 20
6833.0648574943843
 30
0.0
 11
-6332.765338670968
 21
6581.617790089218
 31
0.0
  0
CIRCLE
  5
3758E
  8
実線1_０_３_
 10
-6935.8687000008522
 20
6707.5879624619129
 30
0.0
 40
77.849999999999994
  0
CIRCLE
  5
3758F
  8
実線1_０_３_
 10
-6935.8687000008522
 20
6707.5879624619129
 30
0.0
 40
53.5
  0
CIRCLE
  5
37590
  8
実線1_０_３_
 10
-6332.7653386709671
 20
6707.5879624619138
 30
0.0
 40
65.349999999999994
  0
CIRCLE
  5
37591
  8
実線1_０_３_
 10
-6332.7653386709671
 20
6707.5879624619138
 30
0.0
 40
41.0
  0
LINE
  5
37592
  8
中心線_０_１_
  6
CENTER
 10
-8243.4489563632087
 20
6707.3413237921814
 30
0.0
 11
-7992.0018889580451
 21
6707.3413237921804
 31
0.0
  0
LINE
  5
37593
  8
中心線_０_１_
  6
CENTER
 10
-7664.4489563632078
 20
6707.587962462293
 30
0.0
 11
-7413.0018889580442
 21
6707.5879624622912
 31
0.0
  0
LINE
  5
37594
  8
中心線_０_１_
  6
CENTER
 10
-7061.3455950333228
 20
6707.5879624619138
 30
0.0
 11
-6809.8985276281583
 21
6707.5879624619129
 31
0.0
  0
LINE
  5
37595
  8
中心線_０_１_
  6
CENTER
 10
-6458.2422337034359
 20
6707.5879624619138
 30
0.0
 11
-6206.7951662982714
 21
6707.5879624619129
 31
0.0
  0
LINE
  5
37596
  8
実線1_０_３_
 10
-7925.3241722286957
 20
6793.4404959685344
 30
0.0
 11
-7925.3241722286957
 21
6707.3413237921777
 31
0.0
  0
ARC
  5
37597
  8
実線1_０_３_
 10
-7885.3241722286948
 20
6755.6913237921808
 30
0.0
 40
55.0
 50
90.000000000012321
 51
136.80012979596921
  0
LINE
  5
37598
  8
実線1_０_３_
 10
-7925.3241722286957
 20
6621.2421516158238
 30
0.0
 11
-7925.3241722286957
 21
6707.3413237921814
 31
0.0
  0
ARC
  5
37599
  8
実線1_０_３_
 10
-7885.3241722286948
 20
6658.9913237921783
 30
0.0
 40
55.0
 50
223.1998702040303
 51
269.99999999998721
  0
LINE
  5
3759A
  8
実線1_０_３_
 10
-7885.3241722286948
 20
6810.6913237921808
 30
0.0
 11
-7885.3241722286948
 21
6603.9913237921783
 31
0.0
  0
LINE
  5
3759B
  8
実線1_０_３_
 10
-7337.2958691607282
 20
6781.1871346386479
 30
0.0
 11
-7337.2958691607282
 21
6707.3413237921804
 31
0.0
  0
ARC
  5
3759C
  8
実線1_０_３_
 10
-7297.2958691607273
 20
6743.4379624622943
 30
0.0
 40
55.0
 50
90.000000000012321
 51
136.80012979596921
  0
LINE
  5
3759D
  8
実線1_０_３_
 10
-7337.2958691607282
 20
6633.98879028594
 30
0.0
 11
-7337.2958691607282
 21
6707.3413237921814
 31
0.0
  0
ARC
  5
3759E
  8
実線1_０_３_
 10
-7297.2958691607273
 20
6671.7379624622936
 30
0.0
 40
55.0
 50
223.1998702040303
 51
269.99999999998721
  0
LINE
  5
3759F
  8
実線1_０_３_
 10
-7297.2958691607273
 20
6798.4379624622943
 30
0.0
 11
-7297.2958691607273
 21
6616.7379624622936
 31
0.0
  0
LINE
  5
375A0
  8
実線1_０_３_
 10
-6737.9978345887139
 20
6768.1871346382686
 30
0.0
 11
-6737.9978345887139
 21
6707.3413237917994
 31
0.0
  0
ARC
  5
375A1
  8
実線1_０_３_
 10
-6697.997834588713
 20
6730.4379624619141
 30
0.0
 40
55.0
 50
90.000000000012321
 51
136.80012979596921
  0
LINE
  5
375A2
  8
実線1_０_３_
 10
-6737.9978345887139
 20
6646.9887902855726
 30
0.0
 11
-6737.9978345887139
 21
6707.3413237918012
 31
0.0
  0
ARC
  5
375A3
  8
実線1_０_３_
 10
-6697.9978345887021
 20
6684.7379624619134
 30
0.0
 40
55.0
 50
223.1998702040303
 51
269.99999999998721
  0
LINE
  5
375A4
  8
実線1_０_３_
 10
-6697.997834588713
 20
6785.4379624619141
 30
0.0
 11
-6697.997834588713
 21
6629.7379624619143
 31
0.0
  0
LINE
  5
375A5
  8
実線1_０_３_
 10
-6134.8944732588388
 20
6755.6871346382559
 30
0.0
 11
-6134.8944732588388
 21
6707.3413237917994
 31
0.0
  0
ARC
  5
375A6
  8
実線1_０_３_
 10
-6094.894473258827
 20
6717.9379624619141
 30
0.0
 40
55.0
 50
90.000000000012321
 51
136.80012979596921
  0
LINE
  5
375A7
  8
実線1_０_３_
 10
-6134.8944732588407
 20
6659.4887902855753
 30
0.0
 11
-6134.8944732588388
 21
6707.3413237918003
 31
0.0
  0
LINE
  5
375A8
  8
実線1_０_３_
 10
-6094.8944732588388
 20
6772.937962461916
 30
0.0
 11
-6094.8944732588388
 21
6642.2379624619143
 31
0.0
  0
LINE
  5
375A9
  8
中心線_０_１_
  6
CENTER
 10
-7963.2636289662041
 20
6707.3413237921814
 30
0.0
 11
-7837.5400952636228
 21
6707.3413237921804
 31
0.0
  0
LINE
  5
375AA
  8
中心線_０_１_
  6
CENTER
 10
-7384.2636289662041
 20
6707.587962462293
 30
0.0
 11
-7258.5400952636219
 21
6707.5879624622912
 31
0.0
  0
LINE
  5
375AB
  8
中心線_０_１_
  6
CENTER
 10
-6781.16026763632
 20
6707.5879624619138
 30
0.0
 11
-6655.4367339337368
 21
6707.5879624619138
 31
0.0
  0
LINE
  5
375AC
  8
中心線_０_１_
  6
CENTER
 10
-6178.0569063064331
 20
6707.5879624619138
 30
0.0
 11
-6052.33337260385
 21
6707.5879624619129
 31
0.0
  0
ARC
  5
375AD
  8
実線1_０_３_
 10
-6094.894473258827
 20
6697.2379624619143
 30
0.0
 40
55.0
 50
223.19987020402991
 51
269.99999999998681
  0
LINE
  5
375AE
  8
実線1_０_３_
 10
-8117.9720613307391
 20
6810.6913237921808
 30
0.0
 11
-8117.9720613307391
 21
6768.8413237921804
 31
0.0
  0
LINE
  5
375AF
  8
実線1_０_３_
 10
-8117.9720613307391
 20
6645.8413237921804
 30
0.0
 11
-8117.9720613307391
 21
6603.991323792181
 31
0.0
  0
LINE
  5
375B0
  8
実線1_０_３_
 10
-7538.97206133074
 20
6798.4379624622943
 30
0.0
 11
-7538.9720613307381
 21
6758.0879624622921
 31
0.0
  0
LINE
  5
375B1
  8
実線1_０_３_
 10
-7538.9720613307381
 20
6657.0879624622912
 30
0.0
 11
-7538.9720613307381
 21
6616.7379624622936
 31
0.0
  0
LINE
  5
375B2
  8
実線1_０_３_
 10
-6935.8687000008522
 20
6785.4379624619141
 30
0.0
 11
-6935.868700000854
 21
6748.0879624619147
 31
0.0
  0
LINE
  5
375B3
  8
実線1_０_３_
 10
-6935.8687000008522
 20
6667.0879624619147
 30
0.0
 11
-6935.8687000008522
 21
6629.7379624619143
 31
0.0
  0
LINE
  5
375B4
  8
実線1_０_３_
 10
-6332.7653386709671
 20
6772.937962461916
 30
0.0
 11
-6332.7653386709671
 21
6738.0879624619147
 31
0.0
  0
LINE
  5
375B5
  8
実線1_０_３_
 10
-6332.7653386709671
 20
6677.0879624619138
 30
0.0
 11
-6332.7653386709671
 21
6642.2379624619143
 31
0.0
  0
LINE
  5
375B6
  8
中心線_０_１_
 10
-7895.3241722286957
 20
6802.3413237921804
 30
0.0
 11
-7861.3241722286948
 21
6802.3413237921786
 31
0.0
  0
LINE
  5
375B7
  8
中心線_０_１_
 10
-7307.2958691607273
 20
6790.0879624622912
 30
0.0
 11
-7273.2958691607282
 21
6790.0879624622903
 31
0.0
  0
LINE
  5
375B8
  8
中心線_０_１_
 10
-6707.997834588713
 20
6777.0879624619138
 30
0.0
 11
-6673.9978345887121
 21
6777.0879624619138
 31
0.0
  0
LINE
  5
375B9
  8
中心線_０_１_
 10
-6104.8944732588388
 20
6764.5879624619138
 30
0.0
 11
-6070.8944732588388
 21
6764.5879624619138
 31
0.0
  0
LINE
  5
375BA
  8
中心線_０_１_
 10
-7895.3241722286957
 20
6612.3413237921777
 30
0.0
 11
-7861.3241722286948
 21
6612.3413237921814
 31
0.0
  0
LINE
  5
375BB
  8
中心線_０_１_
 10
-7307.2958691607273
 20
6625.0879624622949
 30
0.0
 11
-7273.2958691607282
 21
6625.0879624622939
 31
0.0
  0
LINE
  5
375BC
  8
中心線_０_１_
 10
-6707.997834588713
 20
6638.087962461911
 30
0.0
 11
-6673.9978345887121
 21
6638.087962461911
 31
0.0
  0
LINE
  5
375BD
  8
中心線_０_１_
 10
-6104.8944732588388
 20
6650.587962461912
 30
0.0
 11
-6070.8944732588388
 21
6650.5879624619138
 31
0.0
  0
CIRCLE
  5
375BE
  8
実線1_０_３_
 10
-8117.9720613307391
 20
6707.3413237921814
 30
0.0
 40
61.5
  0
CIRCLE
  5
375BF
  8
実線1_０_３_
 10
-6332.7653386709671
 20
6707.5879624619138
 30
0.0
 40
30.5
  0
CIRCLE
  5
375C0
  8
実線1_０_３_
 10
-6935.868700000854
 20
6707.5879624619138
 30
0.0
 40
40.499999999999993
  0
CIRCLE
  5
375C1
  8
実線1_０_３_
 10
-7538.9720613307381
 20
6707.587962462293
 30
0.0
 40
50.5
  0
LINE
  5
375D7
  8
実線1_０_３_
 10
-8043.9720613307391
 20
7412.292837976519
 30
0.0
 11
-8043.9720613307391
 21
7392.2928379765181
 31
0.0
  0
LINE
  5
375D8
  8
実線1_０_３_
 10
-8191.9720613307409
 20
7412.292837976519
 30
0.0
 11
-8191.9720613307409
 21
7392.2928379765181
 31
0.0
  0
LINE
  5
375D9
  8
実線1_０_３_
 10
-8191.9720613307409
 20
7392.2928379765181
 30
0.0
 11
-8043.9720613307391
 21
7392.2928379765181
 31
0.0
  0
LINE
  5
375DA
  8
実線1_０_３_
 10
-7477.4720613307418
 20
7403.5111735786631
 30
0.0
 11
-7477.4720613307418
 21
7383.5111735786622
 31
0.0
  0
LINE
  5
375DB
  8
実線1_０_３_
 10
-7477.4720613307418
 20
7383.5111735786622
 30
0.0
 11
-7600.4720613307409
 21
7383.5111735786622
 31
0.0
  0
LINE
  5
375DC
  8
実線1_０_３_
 10
-7600.4720613307409
 20
7383.5111735786622
 30
0.0
 11
-7600.4720613307409
 21
7403.5111735786631
 31
0.0
  0
LINE
  5
375F4
  8
実線1_０_３_
 10
-6886.8687000008531
 20
7407.3165003361573
 30
0.0
 11
-6886.8687000008531
 21
7387.3165003361564
 31
0.0
  0
LINE
  5
375F5
  8
実線1_０_３_
 10
-6886.8687000008531
 20
7387.3165003361564
 30
0.0
 11
-6984.868700000854
 21
7387.3165003361564
 31
0.0
  0
LINE
  5
375F6
  8
実線1_０_３_
 10
-6984.868700000854
 20
7387.3165003361564
 30
0.0
 11
-6984.868700000854
 21
7407.3165003361546
 31
0.0
  0
LINE
  5
375F7
  8
実線1_０_３_
 10
-6295.265338670969
 20
7407.3165003361682
 30
0.0
 11
-6295.265338670969
 21
7387.3165003361682
 31
0.0
  0
LINE
  5
375F8
  8
実線1_０_３_
 10
-6295.265338670969
 20
7387.3165003361682
 30
0.0
 11
-6370.265338670969
 21
7387.3165003361692
 31
0.0
  0
LINE
  5
375F9
  8
実線1_０_３_
 10
-6370.265338670969
 20
7387.3165003361692
 30
0.0
 11
-6370.265338670969
 21
7407.3165003361682
 31
0.0
  0
CIRCLE
  5
3764C
  8
実線1_０_３_
 10
-8117.9720613307391
 20
5633.6609731032859
 30
0.0
 40
103.34999999999989
  0
LINE
  5
3764D
  8
中心線_０_１_
  6
CENTER
 10
-8117.9720613307391
 20
5759.1378681357564
 30
0.0
 11
-8117.9720613307391
 21
5507.690800730591
 31
0.0
  0
CIRCLE
  5
3764E
  8
実線1_０_３_
 10
-8117.9720613307391
 20
5633.6609731032859
 30
0.0
 40
79.0
  0
LINE
  5
3764F
  8
中心線_０_１_
  6
CENTER
 10
-7538.9720613307381
 20
5759.384506805869
 30
0.0
 11
-7538.97206133074
 21
5507.9374394007054
 31
0.0
  0
CIRCLE
  5
37650
  8
実線1_０_３_
 10
-7538.97206133074
 20
5633.9076117734003
 30
0.0
 40
90.849999999999994
  0
CIRCLE
  5
37651
  8
実線1_０_３_
 10
-7538.97206133074
 20
5633.9076117734003
 30
0.0
 40
66.5
  0
LINE
  5
37652
  8
中心線_０_１_
  6
CENTER
 10
-6935.868700000854
 20
5759.3845068054879
 30
0.0
 11
-6935.8687000008522
 21
5507.9374394003253
 31
0.0
  0
LINE
  5
37653
  8
中心線_０_１_
  6
CENTER
 10
-6332.7653386709671
 20
5759.3845068054889
 30
0.0
 11
-6332.765338670968
 21
5507.9374394003253
 31
0.0
  0
CIRCLE
  5
37654
  8
実線1_０_３_
 10
-6935.8687000008522
 20
5633.9076117730201
 30
0.0
 40
77.849999999999994
  0
CIRCLE
  5
37655
  8
実線1_０_３_
 10
-6935.8687000008522
 20
5633.9076117730201
 30
0.0
 40
53.5
  0
CIRCLE
  5
37656
  8
実線1_０_３_
 10
-6332.7653386709671
 20
5633.907611773021
 30
0.0
 40
65.349999999999994
  0
CIRCLE
  5
37657
  8
実線1_０_３_
 10
-6332.7653386709671
 20
5633.907611773021
 30
0.0
 40
41.0
  0
TEXT
  5
37658
  8
実線1_０_３_
 10
-8193.8852233882571
 20
5938.8225172133098
 30
0.0
 40
26.490505442932768
  1
IRC-150CZ
  7
KANJI
  0
TEXT
  5
37659
  8
実線1_０_３_
 10
-7624.8244626234809
 20
5938.7114339963282
 30
0.0
 40
26.490505442932768
  1
IRC-125CZ
  7
KANJI
  0
TEXT
  5
3765A
  8
実線1_０_３_
 10
-7013.3158207460119
 20
5939.0691558830431
 30
0.0
 40
26.490505442932768
  1
IRC-100CZ
  7
KANJI
  0
TEXT
  5
3765B
  8
実線1_０_３_
 10
-6420.151698651347
 20
5938.711433995948
 30
0.0
 40
26.490505442932768
  1
IRC-75CZ
  7
KANJI
  0
LINE
  5
3765C
  8
中心線_０_１_
  6
CENTER
 10
-8243.4489563632087
 20
5633.6609731032859
 30
0.0
 11
-7992.0018889580451
 21
5633.660973103285
 31
0.0
  0
LINE
  5
3765D
  8
中心線_０_１_
  6
CENTER
 10
-7664.4489563632078
 20
5633.9076117733975
 30
0.0
 11
-7413.0018889580442
 21
5633.9076117733966
 31
0.0
  0
LINE
  5
3765E
  8
中心線_０_１_
  6
CENTER
 10
-7061.3455950333228
 20
5633.907611773021
 30
0.0
 11
-6809.8985276281583
 21
5633.9076117730201
 31
0.0
  0
LINE
  5
3765F
  8
中心線_０_１_
  6
CENTER
 10
-6458.2422337034359
 20
5633.907611773021
 30
0.0
 11
-6206.7951662982714
 21
5633.9076117730201
 31
0.0
  0
LINE
  5
37660
  8
実線1_０_３_
 10
-7925.3241722286957
 20
5719.7601452796398
 30
0.0
 11
-7925.3241722286957
 21
5633.660973103285
 31
0.0
  0
ARC
  5
37661
  8
実線1_０_３_
 10
-7885.3241722286948
 20
5682.0109731032871
 30
0.0
 40
55.0
 50
90.000000000012321
 51
136.80012979596921
  0
LINE
  5
37662
  8
実線1_０_３_
 10
-7925.3241722286957
 20
5547.561800926931
 30
0.0
 11
-7925.3241722286957
 21
5633.6609731032859
 31
0.0
  0
ARC
  5
37663
  8
実線1_０_３_
 10
-7885.3241722286948
 20
5585.3109731032828
 30
0.0
 40
55.0
 50
223.1998702040303
 51
269.99999999998721
  0
LINE
  5
37664
  8
実線1_０_３_
 10
-7885.3241722286948
 20
5737.0109731032871
 30
0.0
 11
-7885.3241722286948
 21
5530.3109731032837
 31
0.0
  0
LINE
  5
37665
  8
実線1_０_３_
 10
-7337.2958691607282
 20
5707.5067839497542
 30
0.0
 11
-7337.2958691607282
 21
5633.660973103285
 31
0.0
  0
ARC
  5
37666
  8
実線1_０_３_
 10
-7297.2958691607273
 20
5669.7576117734006
 30
0.0
 40
55.0
 50
90.000000000012321
 51
136.80012979596921
  0
LINE
  5
37667
  8
実線1_０_３_
 10
-7337.2958691607282
 20
5560.3084395970463
 30
0.0
 11
-7337.2958691607282
 21
5633.6609731032877
 31
0.0
  0
ARC
  5
37668
  8
実線1_０_３_
 10
-7297.2958691607273
 20
5598.0576117733999
 30
0.0
 40
55.0
 50
223.1998702040303
 51
269.99999999998721
  0
LINE
  5
37669
  8
実線1_０_３_
 10
-7297.2958691607273
 20
5724.7576117734006
 30
0.0
 11
-7297.2958691607273
 21
5543.0576117733999
 31
0.0
  0
LINE
  5
3766A
  8
実線1_０_３_
 10
-6737.9978345887139
 20
5694.5067839493749
 30
0.0
 11
-6737.9978345887139
 21
5633.6609731029048
 31
0.0
  0
ARC
  5
3766B
  8
実線1_０_３_
 10
-6697.997834588713
 20
5656.7576117730196
 30
0.0
 40
55.0
 50
90.000000000012321
 51
136.80012979596921
  0
LINE
  5
3766C
  8
実線1_０_３_
 10
-6737.9978345887139
 20
5573.3084395966789
 30
0.0
 11
-6737.9978345887139
 21
5633.6609731029084
 31
0.0
  0
ARC
  5
3766D
  8
実線1_０_３_
 10
-6697.9978345887021
 20
5611.0576117730197
 30
0.0
 40
55.0
 50
223.1998702040303
 51
269.99999999998721
  0
LINE
  5
3766E
  8
実線1_０_３_
 10
-6697.997834588713
 20
5711.7576117730214
 30
0.0
 11
-6697.997834588713
 21
5556.0576117730197
 31
0.0
  0
LINE
  5
3766F
  8
実線1_０_３_
 10
-6134.8944732588388
 20
5682.0067839493631
 30
0.0
 11
-6134.8944732588388
 21
5633.6609731029048
 31
0.0
  0
ARC
  5
37670
  8
実線1_０_３_
 10
-6094.894473258827
 20
5644.2576117730214
 30
0.0
 40
55.0
 50
90.000000000012321
 51
136.80012979596921
  0
LINE
  5
37671
  8
実線1_０_３_
 10
-6134.8944732588407
 20
5585.8084395966798
 30
0.0
 11
-6134.8944732588388
 21
5633.6609731029057
 31
0.0
  0
LINE
  5
37672
  8
実線1_０_３_
 10
-6094.8944732588388
 20
5699.2576117730214
 30
0.0
 11
-6094.8944732588388
 21
5568.5576117730188
 31
0.0
  0
LINE
  5
37673
  8
中心線_０_１_
  6
CENTER
 10
-7963.2636289662041
 20
5633.6609731032859
 30
0.0
 11
-7755.7163427576543
 21
5633.660973103285
 31
0.0
  0
ARC
  5
37677
  8
実線1_０_３_
 10
-6094.894473258827
 20
5623.5576117730188
 30
0.0
 40
55.0
 50
223.19987020402991
 51
269.99999999998681
  0
LINE
  5
37678
  8
実線1_０_３_
 10
-8117.9720613307391
 20
5737.0109731032871
 30
0.0
 11
-8117.9720613307391
 21
5695.1609731032868
 31
0.0
  0
LINE
  5
37679
  8
実線1_０_３_
 10
-8117.9720613307391
 20
5572.1609731032868
 30
0.0
 11
-8117.9720613307391
 21
5530.3109731032864
 31
0.0
  0
LINE
  5
3767A
  8
実線1_０_３_
 10
-7538.97206133074
 20
5724.7576117734006
 30
0.0
 11
-7538.9720613307381
 21
5684.4076117733975
 31
0.0
  0
LINE
  5
3767B
  8
実線1_０_３_
 10
-7538.9720613307381
 20
5583.4076117733994
 30
0.0
 11
-7538.9720613307381
 21
5543.0576117733999
 31
0.0
  0
LINE
  5
3767C
  8
実線1_０_３_
 10
-6935.8687000008522
 20
5711.7576117730214
 30
0.0
 11
-6935.868700000854
 21
5674.407611773021
 31
0.0
  0
LINE
  5
3767D
  8
実線1_０_３_
 10
-6935.8687000008522
 20
5593.407611773021
 30
0.0
 11
-6935.8687000008522
 21
5556.0576117730197
 31
0.0
  0
LINE
  5
3767E
  8
実線1_０_３_
 10
-6332.7653386709671
 20
5699.2576117730214
 30
0.0
 11
-6332.7653386709671
 21
5664.407611773021
 31
0.0
  0
LINE
  5
3767F
  8
実線1_０_３_
 10
-6332.7653386709671
 20
5603.407611773021
 30
0.0
 11
-6332.7653386709671
 21
5568.5576117730197
 31
0.0
  0
LINE
  5
37680
  8
中心線_０_１_
 10
-7895.3241722286957
 20
5728.6609731032868
 30
0.0
 11
-7861.3241722286948
 21
5728.660973103285
 31
0.0
  0
LINE
  5
37681
  8
中心線_０_１_
 10
-7307.2958691607273
 20
5716.4076117733975
 30
0.0
 11
-7273.2958691607282
 21
5716.4076117733966
 31
0.0
  0
LINE
  5
37682
  8
中心線_０_１_
 10
-6707.997834588713
 20
5703.4076117730201
 30
0.0
 11
-6673.9978345887121
 21
5703.4076117730201
 31
0.0
  0
LINE
  5
37683
  8
中心線_０_１_
 10
-6104.8944732588388
 20
5690.9076117730201
 30
0.0
 11
-6070.8944732588388
 21
5690.9076117730201
 31
0.0
  0
LINE
  5
37684
  8
中心線_０_１_
 10
-7895.3241722286957
 20
5538.660973103285
 30
0.0
 11
-7861.3241722286948
 21
5538.6609731032859
 31
0.0
  0
LINE
  5
37685
  8
中心線_０_１_
 10
-7307.2958691607273
 20
5551.4076117734021
 30
0.0
 11
-7273.2958691607282
 21
5551.4076117734012
 31
0.0
  0
LINE
  5
37686
  8
中心線_０_１_
 10
-6707.997834588713
 20
5564.4076117730174
 30
0.0
 11
-6673.9978345887121
 21
5564.4076117730174
 31
0.0
  0
LINE
  5
37687
  8
中心線_０_１_
 10
-6104.8944732588388
 20
5576.9076117730192
 30
0.0
 11
-6070.8944732588388
 21
5576.9076117730201
 31
0.0
  0
CIRCLE
  5
37688
  8
実線1_０_３_
 10
-8117.9720613307391
 20
5633.6609731032859
 30
0.0
 40
61.5
  0
CIRCLE
  5
37689
  8
実線1_０_３_
 10
-6332.7653386709671
 20
5633.907611773021
 30
0.0
 40
30.5
  0
CIRCLE
  5
3768A
  8
実線1_０_３_
 10
-6935.868700000854
 20
5633.907611773021
 30
0.0
 40
40.499999999999993
  0
CIRCLE
  5
3768B
  8
実線1_０_３_
 10
-7538.9720613307381
 20
5633.9076117733975
 30
0.0
 40
50.5
  0
LINE
  5
3768C
  8
実線1_０_３_
 10
-7885.3241722286948
 20
5707.6609731032859
 30
0.0
 11
-7790.3241722286966
 21
5707.6609731032859
 31
0.0
  0
LINE
  5
3768D
  8
実線1_０_３_
 10
-7885.3241722286948
 20
5559.660973103285
 30
0.0
 11
-7790.3241722286966
 21
5559.660973103285
 31
0.0
  0
LINE
  5
3768E
  8
実線1_０_３_
 10
-7790.3241722286966
 20
5559.660973103285
 30
0.0
 11
-7790.3241722286966
 21
5707.6609731032859
 31
0.0
  0
LINE
  5
3768F
  8
実線1_０_３_
 10
-7297.2958691607273
 20
5695.4076117733966
 30
0.0
 11
-7202.2958691607273
 21
5695.4076117733966
 31
0.0
  0
LINE
  5
37690
  8
実線1_０_３_
 10
-7297.2958691607273
 20
5572.4076117733975
 30
0.0
 11
-7202.2958691607273
 21
5572.4076117733975
 31
0.0
  0
LINE
  5
37691
  8
実線1_０_３_
 10
-7202.2958691607273
 20
5572.4076117733975
 30
0.0
 11
-7202.2958691607273
 21
5695.4076117733966
 31
0.0
  0
LINE
  5
37692
  8
実線1_０_３_
 10
-6697.997834588713
 20
5682.907611773021
 30
0.0
 11
-6602.9978345887139
 21
5682.907611773021
 31
0.0
  0
LINE
  5
37693
  8
実線1_０_３_
 10
-6697.997834588713
 20
5584.907611773021
 30
0.0
 11
-6602.997834588713
 21
5584.907611773021
 31
0.0
  0
LINE
  5
37694
  8
実線1_０_３_
 10
-6602.997834588713
 20
5584.907611773021
 30
0.0
 11
-6602.9978345887139
 21
5682.907611773021
 31
0.0
  0
LINE
  5
37695
  8
実線1_０_３_
 10
-6094.8944732588388
 20
5671.4076117730201
 30
0.0
 11
-5999.8944732588388
 21
5671.4076117730201
 31
0.0
  0
LINE
  5
37696
  8
実線1_０_３_
 10
-6094.8944732588388
 20
5596.4076117730201
 30
0.0
 11
-5999.8944732588388
 21
5596.4076117730201
 31
0.0
  0
LINE
  5
37697
  8
実線1_０_３_
 10
-5999.8944732588388
 20
5596.4076117730201
 30
0.0
 11
-5999.8944732588388
 21
5671.4076117730201
 31
0.0
  0
LINE
  5
376A3
  8
中心線_０_１_
  6
CENTER
 10
-7384.2636289662041
 20
5633.9076117733975
 30
0.0
 11
-7176.7163427576543
 21
5633.9076117733966
 31
0.0
  0
LINE
  5
376A4
  8
中心線_０_１_
  6
CENTER
 10
-6781.16026763632
 20
5633.907611773021
 30
0.0
 11
-6573.6129814277692
 21
5633.9076117730201
 31
0.0
  0
LINE
  5
376A5
  8
中心線_０_１_
  6
CENTER
 10
-6178.0569063064331
 20
5633.907611773021
 30
0.0
 11
-5970.5096200978824
 21
5633.9076117730201
 31
0.0
  0
LINE
  5
376C1
  8
中心線_０_１_
  6
CENTER
 10
-8117.9720613307391
 20
6832.8182188246483
 30
0.0
 11
-8117.9720613307409
 21
6581.3711514194847
 31
0.0
  0
LINE
  5
37704
  8
中心線_０_１_
  6
CENTER
 10
-6168.6227067999262
 20
6208.630382433761
 30
0.0
 11
-6168.6227067999253
 21
6460.0774498389264
 31
0.0
  0
CIRCLE
  5
37707
  8
実線1_０_３_
 10
-6168.6227067999262
 20
6334.1072774662298
 30
0.0
 40
65.349999999999994
  0
CIRCLE
  5
37708
  8
実線1_０_３_
 10
-6168.6227067999262
 20
6334.1072774662298
 30
0.0
 40
41.0
  0
LINE
  5
3770C
  8
中心線_０_１_
  6
CENTER
 10
-6043.1458117674556
 20
6334.1072774662298
 30
0.0
 11
-6294.592879172621
 21
6334.1072774662298
 31
0.0
  0
LINE
  5
3771C
  8
実線1_０_３_
 10
-6366.4935722120526
 20
6286.0081052898868
 30
0.0
 11
-6366.4935722120526
 21
6334.353916136346
 31
0.0
  0
ARC
  5
3771D
  8
実線1_０_３_
 10
-6406.4935722120654
 20
6323.7572774662303
 30
0.0
 40
55.0
 50
270.00000000001228
 51
316.80012979596921
  0
LINE
  5
3771E
  8
実線1_０_３_
 10
-6366.4935722120517
 20
6382.2064496425701
 30
0.0
 11
-6366.4935722120526
 21
6334.3539161363442
 31
0.0
  0
LINE
  5
3771F
  8
実線1_０_３_
 10
-6406.4935722120526
 20
6268.7572774662294
 30
0.0
 11
-6406.4935722120526
 21
6399.4572774662311
 31
0.0
  0
LINE
  5
37723
  8
中心線_０_１_
  6
CENTER
 10
-6323.3311391644602
 20
6334.1072774662298
 30
0.0
 11
-6449.0546728670424
 21
6334.1072774662298
 31
0.0
  0
ARC
  5
37724
  8
実線1_０_３_
 10
-6406.4935722120654
 20
6344.4572774662311
 30
0.0
 40
55.0
 50
43.199870204029899
 51
89.999999999986898
  0
LINE
  5
3772B
  8
実線1_０_３_
 10
-6168.6227067999262
 20
6268.7572774662294
 30
0.0
 11
-6168.6227067999262
 21
6303.6072774662298
 31
0.0
  0
LINE
  5
3772C
  8
実線1_０_３_
 10
-6168.6227067999262
 20
6364.6072774662298
 30
0.0
 11
-6168.6227067999262
 21
6399.4572774662302
 31
0.0
  0
LINE
  5
37730
  8
中心線_０_１_
 10
-6396.4935722120536
 20
6277.1072774662307
 30
0.0
 11
-6430.4935722120526
 21
6277.1072774662298
 31
0.0
  0
LINE
  5
37734
  8
中心線_０_１_
 10
-6396.4935722120536
 20
6391.1072774662316
 30
0.0
 11
-6430.4935722120526
 21
6391.1072774662307
 31
0.0
  0
CIRCLE
  5
37736
  8
実線1_０_３_
 10
-6168.6227067999262
 20
6334.1072774662298
 30
0.0
 40
30.5
  0
CIRCLE
  5
3773E
  8
実線1_０_３_
 10
-7953.8294294596981
 20
6333.8606387964956
 30
0.0
 40
103.34999999999989
  0
CIRCLE
  5
3773F
  8
実線1_０_３_
 10
-7953.8294294596981
 20
6333.8606387964956
 30
0.0
 40
79.0
  0
LINE
  5
37740
  8
中心線_０_１_
  6
CENTER
 10
-7828.3525344272293
 20
6333.8606387964956
 30
0.0
 11
-8079.7996018323938
 21
6333.8606387964974
 31
0.0
  0
LINE
  5
37741
  8
実線1_０_３_
 10
-8146.4773185617432
 20
6247.7614666201416
 30
0.0
 11
-8146.4773185617432
 21
6333.8606387964974
 31
0.0
  0
ARC
  5
37742
  8
実線1_０_３_
 10
-8186.4773185617441
 20
6285.5106387964952
 30
0.0
 40
55.0
 50
270.00000000001228
 51
316.80012979596921
  0
LINE
  5
37743
  8
実線1_０_３_
 10
-8146.4773185617432
 20
6419.9598109728513
 30
0.0
 11
-8146.4773185617432
 21
6333.8606387964956
 31
0.0
  0
ARC
  5
37744
  8
実線1_０_３_
 10
-8186.4773185617441
 20
6382.2106387964977
 30
0.0
 40
55.0
 50
43.199870204030297
 51
89.999999999987295
  0
LINE
  5
37745
  8
実線1_０_３_
 10
-8186.4773185617441
 20
6230.5106387964952
 30
0.0
 11
-8186.4773185617441
 21
6437.2106387964986
 31
0.0
  0
LINE
  5
37746
  8
中心線_０_１_
  6
CENTER
 10
-8108.5378618242348
 20
6333.8606387964956
 30
0.0
 11
-8234.2613955268134
 21
6333.8606387964974
 31
0.0
  0
LINE
  5
37747
  8
実線1_０_３_
 10
-7953.8294294596981
 20
6230.5106387964952
 30
0.0
 11
-7953.8294294596981
 21
6272.3606387964946
 31
0.0
  0
LINE
  5
37748
  8
実線1_０_３_
 10
-7953.8294294596981
 20
6395.3606387964956
 30
0.0
 11
-7953.8294294596981
 21
6437.2106387964959
 31
0.0
  0
LINE
  5
37749
  8
中心線_０_１_
 10
-8176.4773185617423
 20
6238.8606387964946
 30
0.0
 11
-8210.4773185617432
 21
6238.8606387964983
 31
0.0
  0
LINE
  5
3774A
  8
中心線_０_１_
 10
-8176.4773185617423
 20
6428.8606387964974
 30
0.0
 11
-8210.4773185617432
 21
6428.8606387964956
 31
0.0
  0
CIRCLE
  5
3774B
  8
実線1_０_３_
 10
-7953.8294294596981
 20
6333.8606387964956
 30
0.0
 40
61.5
  0
LINE
  5
3774C
  8
中心線_０_１_
  6
CENTER
 10
-7953.8294294596981
 20
6208.3837437640268
 30
0.0
 11
-7953.8294294596981
 21
6459.8308111691922
 31
0.0
  0
LINE
  5
3774D
  8
中心線_０_１_
  6
CENTER
 10
-7374.8294294596981
 20
6208.6303824341376
 30
0.0
 11
-7374.8294294596963
 21
6460.077449839303
 31
0.0
  0
CIRCLE
  5
3774E
  8
実線1_０_３_
 10
-7374.8294294596963
 20
6334.1072774666072
 30
0.0
 40
90.849999999999994
  0
CIRCLE
  5
3774F
  8
実線1_０_３_
 10
-7374.8294294596963
 20
6334.1072774666072
 30
0.0
 40
66.5
  0
LINE
  5
37750
  8
中心線_０_１_
  6
CENTER
 10
-7249.3525344272284
 20
6334.10727746661
 30
0.0
 11
-7500.7996018323938
 21
6334.10727746661
 31
0.0
  0
LINE
  5
37751
  8
実線1_０_３_
 10
-7576.5056216297098
 20
6260.5081052902533
 30
0.0
 11
-7576.5056216297098
 21
6334.3539161367216
 31
0.0
  0
ARC
  5
37752
  8
実線1_０_３_
 10
-7616.5056216297089
 20
6298.2572774666069
 30
0.0
 40
55.0
 50
270.00000000001228
 51
316.80012979596921
  0
LINE
  5
37753
  8
実線1_０_３_
 10
-7576.5056216297098
 20
6407.7064496429621
 30
0.0
 11
-7576.5056216297098
 21
6334.3539161367198
 31
0.0
  0
ARC
  5
37754
  8
実線1_０_３_
 10
-7616.5056216297089
 20
6369.9572774666076
 30
0.0
 40
55.0
 50
43.199870204030297
 51
89.999999999987295
  0
LINE
  5
37755
  8
実線1_０_３_
 10
-7616.5056216297089
 20
6243.2572774666069
 30
0.0
 11
-7616.5056216297089
 21
6424.9572774666067
 31
0.0
  0
LINE
  5
37756
  8
中心線_０_１_
  6
CENTER
 10
-7529.5378618242321
 20
6334.10727746661
 30
0.0
 11
-7655.2613955268143
 21
6334.10727746661
 31
0.0
  0
LINE
  5
37757
  8
実線1_０_３_
 10
-7374.8294294596963
 20
6243.2572774666069
 30
0.0
 11
-7374.8294294596981
 21
6283.607277466609
 31
0.0
  0
LINE
  5
37758
  8
実線1_０_３_
 10
-7374.8294294596981
 20
6384.607277466609
 30
0.0
 11
-7374.8294294596981
 21
6424.9572774666067
 31
0.0
  0
LINE
  5
37759
  8
中心線_０_１_
 10
-7606.5056216297089
 20
6251.60727746661
 30
0.0
 11
-7640.5056216297098
 21
6251.6072774666109
 31
0.0
  0
LINE
  5
3775A
  8
中心線_０_１_
 10
-7606.5056216297089
 20
6416.6072774666054
 30
0.0
 11
-7640.5056216297098
 21
6416.6072774666072
 31
0.0
  0
CIRCLE
  5
3775B
  8
実線1_０_３_
 10
-7374.8294294596981
 20
6334.10727746661
 30
0.0
 40
50.5
  0
LINE
  5
3775C
  8
中心線_０_１_
  6
CENTER
 10
-6771.726068129813
 20
6208.630382433761
 30
0.0
 11
-6771.726068129813
 21
6460.0774498389264
 31
0.0
  0
CIRCLE
  5
3775D
  8
実線1_０_３_
 10
-6771.726068129813
 20
6334.1072774662298
 30
0.0
 40
77.849999999999994
  0
CIRCLE
  5
3775E
  8
実線1_０_３_
 10
-6771.726068129813
 20
6334.1072774662298
 30
0.0
 40
53.5
  0
LINE
  5
3775F
  8
中心線_０_１_
  6
CENTER
 10
-6646.2491730973443
 20
6334.1072774662289
 30
0.0
 11
-6897.6962405025079
 21
6334.1072774662298
 31
0.0
  0
LINE
  5
37760
  8
実線1_０_３_
 10
-6969.5969335419522
 20
6273.5081052898749
 30
0.0
 11
-6969.5969335419522
 21
6334.3539161363442
 31
0.0
  0
ARC
  5
37761
  8
実線1_０_３_
 10
-7009.5969335419531
 20
6311.2572774662294
 30
0.0
 40
55.0
 50
270.00000000001228
 51
316.80012979596921
  0
LINE
  5
37762
  8
実線1_０_３_
 10
-6969.5969335419522
 20
6394.706449642571
 30
0.0
 11
-6969.5969335419522
 21
6334.3539161363424
 31
0.0
  0
ARC
  5
37763
  8
実線1_０_３_
 10
-7009.5969335419632
 20
6356.9572774662302
 30
0.0
 40
55.0
 50
43.199870204030297
 51
89.999999999987295
  0
LINE
  5
37764
  8
実線1_０_３_
 10
-7009.5969335419531
 20
6256.2572774662294
 30
0.0
 11
-7009.5969335419541
 21
6411.9572774662302
 31
0.0
  0
LINE
  5
37765
  8
中心線_０_１_
  6
CENTER
 10
-6926.434500494348
 20
6334.1072774662289
 30
0.0
 11
-7052.1580341969302
 21
6334.1072774662289
 31
0.0
  0
LINE
  5
37766
  8
実線1_０_３_
 10
-6771.726068129813
 20
6256.2572774662294
 30
0.0
 11
-6771.726068129813
 21
6293.6072774662289
 31
0.0
  0
LINE
  5
37767
  8
実線1_０_３_
 10
-6771.726068129813
 20
6374.607277466228
 30
0.0
 11
-6771.726068129813
 21
6411.9572774662302
 31
0.0
  0
LINE
  5
37768
  8
中心線_０_１_
 10
-6999.5969335419531
 20
6264.6072774662298
 30
0.0
 11
-7033.5969335419541
 21
6264.6072774662298
 31
0.0
  0
LINE
  5
37769
  8
中心線_０_１_
 10
-6999.596933541955
 20
6403.6072774662334
 30
0.0
 11
-7033.596933541955
 21
6403.6072774662334
 31
0.0
  0
CIRCLE
  5
3776A
  8
実線1_０_３_
 10
-6771.726068129813
 20
6334.1072774662289
 30
0.0
 40
40.499999999999993
  0
LINE
  5
3777F
  8
中心線_０_１_
 10
-6999.3582923607719
 20
7651.1977733883823
 30
0.0
 11
-7011.3791076409443
 21
7639.1769581082117
 31
0.0
  0
LINE
  5
37780
  8
中心線_０_１_
 10
-7011.3791076409443
 20
7651.1977733883823
 30
0.0
 11
-6999.3582923607719
 21
7639.1769581082099
 31
0.0
  0
LINE
  5
37781
  8
中心線_０_１_
 10
-8206.9616536906524
 20
7650.951134718649
 30
0.0
 11
-8218.9824689708275
 21
7638.9303194384756
 31
0.0
  0
LINE
  5
37782
  8
中心線_０_１_
 10
-8218.9824689708275
 20
7650.951134718649
 30
0.0
 11
-8206.9616536906524
 21
7638.9303194384747
 31
0.0
  0
LINE
  5
37783
  8
中心線_０_１_
 10
-8016.9616536906533
 20
7650.9511347186472
 30
0.0
 11
-8028.9824689708248
 21
7638.9303194384747
 31
0.0
  0
LINE
  5
37784
  8
中心線_０_１_
 10
-8028.9824689708248
 20
7650.9511347186472
 30
0.0
 11
-8016.9616536906533
 21
7638.9303194384747
 31
0.0
  0
LINE
  5
3778C
  8
中心線_０_１_
 10
-7615.4616536906506
 20
7651.1977733887597
 30
0.0
 11
-7627.4824689708221
 21
7639.1769581085882
 31
0.0
  0
LINE
  5
3778D
  8
中心線_０_１_
 10
-7627.4824689708221
 20
7651.1977733887597
 30
0.0
 11
-7615.4616536906506
 21
7639.1769581085882
 31
0.0
  0
LINE
  5
3778E
  8
中心線_０_１_
 10
-7450.461653690656
 20
7651.1977733887588
 30
0.0
 11
-7462.4824689708284
 21
7639.1769581085882
 31
0.0
  0
LINE
  5
3778F
  8
中心線_０_１_
 10
-7462.4824689708284
 20
7651.1977733887588
 30
0.0
 11
-7450.461653690656
 21
7639.1769581085873
 31
0.0
  0
LINE
  5
37790
  8
中心線_０_１_
 10
-6860.3582923607692
 20
7651.1977733883823
 30
0.0
 11
-6872.3791076409407
 21
7639.1769581082117
 31
0.0
  0
LINE
  5
37791
  8
中心線_０_１_
 10
-6872.3791076409407
 20
7651.1977733883823
 30
0.0
 11
-6860.3582923607692
 21
7639.1769581082099
 31
0.0
  0
LINE
  5
37792
  8
中心線_０_１_
 10
-6383.754931030885
 20
7651.1977733883823
 30
0.0
 11
-6395.7757463110556
 21
7639.1769581082117
 31
0.0
  0
LINE
  5
37793
  8
中心線_０_１_
 10
-6395.7757463110556
 20
7651.1977733883823
 30
0.0
 11
-6383.754931030885
 21
7639.1769581082099
 31
0.0
  0
LINE
  5
37794
  8
中心線_０_１_
 10
-6269.7549310308841
 20
7651.1977733883814
 30
0.0
 11
-6281.7757463110547
 21
7639.1769581082099
 31
0.0
  0
LINE
  5
37795
  8
中心線_０_１_
 10
-6281.7757463110547
 20
7651.1977733883814
 30
0.0
 11
-6269.7549310308841
 21
7639.1769581082081
 31
0.0
  0
LINE
  5
37796
  8
実線1_０_３_
 10
-6398.1153386709657
 20
7645.1873657482956
 30
0.0
 11
-6363.2653386709662
 21
7645.1873657482956
 31
0.0
  0
LINE
  5
37797
  8
実線1_０_３_
 10
-6302.2653386709671
 20
7645.1873657482956
 30
0.0
 11
-6267.4153386709659
 21
7645.1873657482956
 31
0.0
  0
LINE
  5
37798
  8
実線1_０_３_
 10
-7013.7187000008544
 20
7645.1873657482956
 30
0.0
 11
-6976.368700000854
 21
7645.1873657482956
 31
0.0
  0
LINE
  5
37799
  8
実線1_０_３_
 10
-6895.3687000008549
 20
7645.1873657482956
 30
0.0
 11
-6858.0187000008536
 21
7645.1873657482956
 31
0.0
  0
LINE
  5
3779B
  8
実線1_０_３_
 10
-7629.8220613307412
 20
7645.1873657486731
 30
0.0
 11
-7589.47206133074
 21
7645.1873657486731
 31
0.0
  0
LINE
  5
3779C
  8
実線1_０_３_
 10
-7488.4720613307391
 20
7645.1873657486731
 30
0.0
 11
-7448.1220613307396
 21
7645.1873657486731
 31
0.0
  0
LINE
  5
3779D
  8
実線1_０_３_
 10
-8221.3220613307403
 20
7644.9407270785623
 30
0.0
 11
-8179.47206133074
 21
7644.9407270785623
 31
0.0
  0
LINE
  5
3779E
  8
実線1_０_３_
 10
-8056.47206133074
 20
7644.9407270785623
 30
0.0
 11
-8014.6220613307378
 21
7644.9407270785623
 31
0.0
  0
LINE
  5
377A2
  8
中心線_０_１_
 10
-6941.8791076409398
 20
6644.0983701019968
 30
0.0
 11
-6929.8582923607682
 21
6632.0775548218262
 31
0.0
  0
LINE
  5
377A3
  8
中心線_０_１_
 10
-6941.8791076409398
 20
6632.0775548218262
 30
0.0
 11
-6929.8582923607673
 21
6644.0983701019968
 31
0.0
  0
LINE
  5
377A4
  8
中心線_０_１_
 10
-8123.9824689708257
 20
6618.3517314322671
 30
0.0
 11
-8111.9616536906542
 21
6606.3309161520956
 31
0.0
  0
LINE
  5
377A5
  8
中心線_０_１_
 10
-8123.9824689708257
 20
6606.3309161520956
 30
0.0
 11
-8111.9616536906542
 21
6618.3517314322671
 31
0.0
  0
LINE
  5
377A6
  8
中心線_０_１_
 10
-8123.9824689708239
 20
6808.3517314322671
 30
0.0
 11
-8111.9616536906542
 21
6796.3309161520974
 31
0.0
  0
LINE
  5
377A7
  8
中心線_０_１_
 10
-8123.9824689708239
 20
6796.3309161520974
 30
0.0
 11
-8111.9616536906524
 21
6808.3517314322671
 31
0.0
  0
LINE
  5
377A8
  8
中心線_０_１_
 10
-7544.9824689708248
 20
6631.0983701023779
 30
0.0
 11
-7532.9616536906524
 21
6619.0775548222082
 31
0.0
  0
LINE
  5
377A9
  8
中心線_０_１_
 10
-7544.9824689708248
 20
6619.0775548222082
 30
0.0
 11
-7532.9616536906524
 21
6631.0983701023779
 31
0.0
  0
LINE
  5
377AA
  8
中心線_０_１_
 10
-7544.9824689708239
 20
6796.0983701023752
 30
0.0
 11
-7532.9616536906524
 21
6784.0775548222027
 31
0.0
  0
LINE
  5
377AB
  8
中心線_０_１_
 10
-7544.9824689708239
 20
6784.0775548222027
 30
0.0
 11
-7532.9616536906524
 21
6796.0983701023752
 31
0.0
  0
LINE
  5
377AC
  8
中心線_０_１_
 10
-6941.8791076409398
 20
6783.0983701020004
 30
0.0
 11
-6929.8582923607682
 21
6771.0775548218289
 31
0.0
  0
LINE
  5
377AD
  8
中心線_０_１_
 10
-6941.8791076409398
 20
6771.0775548218289
 30
0.0
 11
-6929.8582923607673
 21
6783.0983701020004
 31
0.0
  0
LINE
  5
377AE
  8
中心線_０_１_
 10
-6338.7757463110529
 20
6656.5983701019968
 30
0.0
 11
-6326.7549310308814
 21
6644.5775548218253
 31
0.0
  0
LINE
  5
377AF
  8
中心線_０_１_
 10
-6338.7757463110529
 20
6644.5775548218253
 30
0.0
 11
-6326.7549310308814
 21
6656.5983701019968
 31
0.0
  0
LINE
  5
377B0
  8
中心線_０_１_
 10
-6338.7757463110529
 20
6770.5983701019986
 30
0.0
 11
-6326.7549310308814
 21
6758.5775548218262
 31
0.0
  0
LINE
  5
377B1
  8
中心線_０_１_
 10
-6338.7757463110529
 20
6758.5775548218262
 30
0.0
 11
-6326.7549310308796
 21
6770.5983701019986
 31
0.0
  0
LINE
  5
377B2
  8
中心線_０_１_
 10
-6777.7364757698979
 20
6270.6176851063119
 30
0.0
 11
-6765.7156604897273
 21
6258.5968698261422
 31
0.0
  0
LINE
  5
377B3
  8
中心線_０_１_
 10
-6777.7364757698979
 20
6258.5968698261422
 30
0.0
 11
-6765.7156604897255
 21
6270.6176851063119
 31
0.0
  0
LINE
  5
377B4
  8
中心線_０_１_
 10
-7959.8398370997838
 20
6244.8710464365822
 30
0.0
 11
-7947.8190218196114
 21
6232.8502311564107
 31
0.0
  0
LINE
  5
377B5
  8
中心線_０_１_
 10
-7959.8398370997838
 20
6232.8502311564107
 30
0.0
 11
-7947.8190218196114
 21
6244.8710464365822
 31
0.0
  0
LINE
  5
377B6
  8
中心線_０_１_
 10
-7959.839837099782
 20
6434.8710464365831
 30
0.0
 11
-7947.8190218196114
 21
6422.8502311564107
 31
0.0
  0
LINE
  5
377B7
  8
中心線_０_１_
 10
-7959.839837099782
 20
6422.8502311564107
 30
0.0
 11
-7947.8190218196096
 21
6434.8710464365831
 31
0.0
  0
LINE
  5
377B8
  8
中心線_０_１_
 10
-7380.8398370997838
 20
6257.6176851066939
 30
0.0
 11
-7368.8190218196114
 21
6245.5968698265224
 31
0.0
  0
LINE
  5
377B9
  8
中心線_０_１_
 10
-7380.8398370997838
 20
6245.5968698265224
 30
0.0
 11
-7368.8190218196114
 21
6257.6176851066939
 31
0.0
  0
LINE
  5
377BA
  8
中心線_０_１_
 10
-7380.839837099782
 20
6422.6176851066903
 30
0.0
 11
-7368.8190218196114
 21
6410.5968698265169
 31
0.0
  0
LINE
  5
377BB
  8
中心線_０_１_
 10
-7380.839837099782
 20
6410.5968698265169
 30
0.0
 11
-7368.8190218196096
 21
6422.6176851066903
 31
0.0
  0
LINE
  5
377BC
  8
中心線_０_１_
 10
-6777.7364757698979
 20
6409.6176851063155
 30
0.0
 11
-6765.7156604897273
 21
6397.596869826144
 31
0.0
  0
LINE
  5
377BD
  8
中心線_０_１_
 10
-6777.7364757698979
 20
6397.596869826144
 30
0.0
 11
-6765.7156604897255
 21
6409.6176851063155
 31
0.0
  0
LINE
  5
377BE
  8
中心線_０_１_
 10
-6174.633114440011
 20
6283.117685106311
 30
0.0
 11
-6162.6122991598386
 21
6271.0968698261404
 31
0.0
  0
LINE
  5
377BF
  8
中心線_０_１_
 10
-6174.633114440011
 20
6271.0968698261404
 30
0.0
 11
-6162.6122991598386
 21
6283.117685106311
 31
0.0
  0
LINE
  5
377C0
  8
中心線_０_１_
 10
-6174.6331144400101
 20
6397.1176851063137
 30
0.0
 11
-6162.6122991598386
 21
6385.0968698261422
 31
0.0
  0
LINE
  5
377C1
  8
中心線_０_１_
 10
-6174.6331144400101
 20
6385.0968698261422
 30
0.0
 11
-6162.6122991598377
 21
6397.1176851063137
 31
0.0
  0
LINE
  5
377C2
  8
中心線_０_１_
 10
-6941.8791076409398
 20
5570.418019413104
 30
0.0
 11
-6929.8582923607682
 21
5558.3972041329334
 31
0.0
  0
LINE
  5
377C3
  8
中心線_０_１_
 10
-6941.8791076409398
 20
5558.3972041329334
 30
0.0
 11
-6929.8582923607673
 21
5570.418019413104
 31
0.0
  0
LINE
  5
377C4
  8
中心線_０_１_
 10
-8123.9824689708257
 20
5544.6713807433734
 30
0.0
 11
-8111.9616536906542
 21
5532.6505654632019
 31
0.0
  0
LINE
  5
377C5
  8
中心線_０_１_
 10
-8123.9824689708257
 20
5532.6505654632019
 30
0.0
 11
-8111.9616536906542
 21
5544.6713807433734
 31
0.0
  0
LINE
  5
377C6
  8
中心線_０_１_
 10
-8123.9824689708239
 20
5734.6713807433753
 30
0.0
 11
-8111.9616536906542
 21
5722.6505654632028
 31
0.0
  0
LINE
  5
377C7
  8
中心線_０_１_
 10
-8123.9824689708239
 20
5722.6505654632028
 30
0.0
 11
-8111.9616536906524
 21
5734.6713807433753
 31
0.0
  0
LINE
  5
377C8
  8
中心線_０_１_
 10
-7544.9824689708248
 20
5557.418019413486
 30
0.0
 11
-7532.9616536906524
 21
5545.3972041333136
 31
0.0
  0
LINE
  5
377C9
  8
中心線_０_１_
 10
-7544.9824689708248
 20
5545.3972041333136
 30
0.0
 11
-7532.9616536906524
 21
5557.418019413486
 31
0.0
  0
LINE
  5
377CA
  8
中心線_０_１_
 10
-7544.9824689708239
 20
5722.4180194134806
 30
0.0
 11
-7532.9616536906524
 21
5710.3972041333091
 31
0.0
  0
LINE
  5
377CB
  8
中心線_０_１_
 10
-7544.9824689708239
 20
5710.3972041333091
 30
0.0
 11
-7532.9616536906524
 21
5722.4180194134806
 31
0.0
  0
LINE
  5
377CC
  8
中心線_０_１_
 10
-6941.8791076409398
 20
5709.4180194131068
 30
0.0
 11
-6929.8582923607682
 21
5697.3972041329353
 31
0.0
  0
LINE
  5
377CD
  8
中心線_０_１_
 10
-6941.8791076409398
 20
5697.3972041329353
 30
0.0
 11
-6929.8582923607673
 21
5709.4180194131068
 31
0.0
  0
LINE
  5
377CE
  8
中心線_０_１_
 10
-6338.7757463110529
 20
5582.9180194131031
 30
0.0
 11
-6326.7549310308814
 21
5570.8972041329316
 31
0.0
  0
LINE
  5
377CF
  8
中心線_０_１_
 10
-6338.7757463110529
 20
5570.8972041329316
 30
0.0
 11
-6326.7549310308814
 21
5582.9180194131031
 31
0.0
  0
LINE
  5
377D0
  8
中心線_０_１_
 10
-6338.7757463110529
 20
5696.918019413105
 30
0.0
 11
-6326.7549310308814
 21
5684.8972041329334
 31
0.0
  0
LINE
  5
377D1
  8
中心線_０_１_
 10
-6338.7757463110529
 20
5684.8972041329334
 30
0.0
 11
-6326.7549310308796
 21
5696.918019413105
 31
0.0
  0
TEXT
  5
377D4
  8
実線1_０_３_
 10
-8193.8852233882571
 20
8117.088968224788
 30
0.0
 40
40.0
  1
耐火キャップＣ（IRC-C）テンプレート
  7
KANJI
  0
INSERT
  5
377F0
  8
実線1_０_３_
  2
A$C37FA21DC
 10
-6867.9819506510421
 20
8117.6309152378726
 30
0.0
  0
VIEWPORT
  5
53CC
 67
     1
  8
0
 10
7.2799717912552877
 20
4.5
 30
0.0
 40
14.55994358251057
 41
9.0
 68
     1
 69
     1
1001
ACAD
1000
MVIEW
1002
{
1070
    16
1010
0.0
1020
0.0
1030
0.0
1010
0.0
1020
0.0
1030
1.0
1040
0.0
1040
9.0
1040
7.2799717912552877
1040
4.5
1040
50.0
1040
0.0
1040
0.0
1070
     0
1070
  1000
1070
     1
1070
     1
1070
     0
1070
     0
1070
     0
1070
     1
1040
0.0
1040
0.0
1040
0.0
1040
1.0
1040
1.0
1040
0.0
1040
0.0
1070
     0
1002
{
1002
}
1002
}
  0
ENDSEC
  0
EOF
