  0
SECTION
  2
HEADER
  9
$ACADVER
  1
AC1009
  9
$INSBASE
 10
0.0
 20
0.0
 30
0.0
  9
$EXTMIN
 10
20.44514926073338
 20
-25.750029856048059
 30
-0.0015258207003583
  9
$EXTMAX
 10
615.43703137683963
 20
462.53139940095582
 30
0.0000000349246037
  9
$LIMMIN
 10
0.0
 20
0.0
  9
$LIMMAX
 10
420.0
 20
297.0
  9
$ORTHOMODE
 70
     0
  9
$REGENMODE
 70
     1
  9
$FILLMODE
 70
     1
  9
$QTEXTMODE
 70
     0
  9
$MIRRTEXT
 70
     1
  9
$DRAGMODE
 70
     2
  9
$LTSCALE
 40
1.0
  9
$OSMODE
 70
    37
  9
$ATTMODE
 70
     1
  9
$TEXTSIZE
 40
2.5
  9
$TRACEWID
 40
1.0
  9
$TEXTSTYLE
  7
STANDARD
  9
$CLAYER
  8
0
  9
$CELTYPE
  6
BYLAYER
  9
$CECOLOR
 62
   256
  9
$DIMSCALE
 40
1.0
  9
$DIMASZ
 40
2.5
  9
$DIMEXO
 40
0.625
  9
$DIMDLI
 40
3.75
  9
$DIMRND
 40
0.0
  9
$DIMDLE
 40
0.0
  9
$DIMEXE
 40
1.25
  9
$DIMTP
 40
0.0
  9
$DIMTM
 40
0.0
  9
$DIMTXT
 40
2.5
  9
$DIMCEN
 40
2.5
  9
$DIMTSZ
 40
0.0
  9
$DIMTOL
 70
     0
  9
$DIMLIM
 70
     0
  9
$DIMTIH
 70
     0
  9
$DIMTOH
 70
     0
  9
$DIMSE1
 70
     0
  9
$DIMSE2
 70
     0
  9
$DIMTAD
 70
     1
  9
$DIMZIN
 70
     8
  9
$DIMBLK
  1

  9
$DIMASO
 70
     1
  9
$DIMSHO
 70
     1
  9
$DIMPOST
  1

  9
$DIMAPOST
  1

  9
$DIMALT
 70
     0
  9
$DIMALTD
 70
     3
  9
$DIMALTF
 40
0.03937007874016
  9
$DIMLFAC
 40
1.0
  9
$DIMTOFL
 70
     1
  9
$DIMTVP
 40
0.0
  9
$DIMTIX
 70
     0
  9
$DIMSOXD
 70
     0
  9
$DIMSAH
 70
     0
  9
$DIMBLK1
  1

  9
$DIMBLK2
  1

  9
$DIMSTYLE
  2
ISO-25
  9
$DIMCLRD
 70
     0
  9
$DIMCLRE
 70
     0
  9
$DIMCLRT
 70
     0
  9
$DIMTFAC
 40
1.0
  9
$DIMGAP
 40
0.625
  9
$LUNITS
 70
     2
  9
$LUPREC
 70
     4
  9
$SKETCHINC
 40
1.0
  9
$FILLETRAD
 40
10.0
  9
$AUNITS
 70
     0
  9
$AUPREC
 70
     0
  9
$MENU
  1
.
  9
$ELEVATION
 40
0.0
  9
$PELEVATION
 40
0.0
  9
$THICKNESS
 40
0.0
  9
$LIMCHECK
 70
     0
  9
$BLIPMODE
 70
     0
  9
$CHAMFERA
 40
10.0
  9
$CHAMFERB
 40
10.0
  9
$SKPOLY
 70
     0
  9
$TDCREATE
 40
2452048.587873715
  9
$TDUPDATE
 40
2452048.6298583909
  9
$TDINDWG
 40
0.0419872222
  9
$TDUSRTIMER
 40
0.0419872222
  9
$USRTIMER
 70
     1
  9
$ANGBASE
 50
0.0
  9
$ANGDIR
 70
     0
  9
$PDMODE
 70
     0
  9
$PDSIZE
 40
0.0
  9
$PLINEWID
 40
0.0
  9
$COORDS
 70
     1
  9
$SPLFRAME
 70
     0
  9
$SPLINETYPE
 70
     6
  9
$SPLINESEGS
 70
     8
  9
$ATTDIA
 70
     0
  9
$ATTREQ
 70
     1
  9
$HANDLING
 70
-16383
  9
$HANDSEED
  5
6E11
  9
$SURFTAB1
 70
     6
  9
$SURFTAB2
 70
     6
  9
$SURFTYPE
 70
     6
  9
$SURFU
 70
     6
  9
$SURFV
 70
     6
  9
$UCSNAME
  2

  9
$UCSORG
 10
0.0
 20
0.0
 30
0.0
  9
$UCSXDIR
 10
1.0
 20
0.0
 30
0.0
  9
$UCSYDIR
 10
0.0
 20
1.0
 30
0.0
  9
$PUCSNAME
  2

  9
$PUCSORG
 10
0.0
 20
0.0
 30
0.0
  9
$PUCSXDIR
 10
1.0
 20
0.0
 30
0.0
  9
$PUCSYDIR
 10
0.0
 20
1.0
 30
0.0
  9
$USERI1
 70
     0
  9
$USERI2
 70
     0
  9
$USERI3
 70
     0
  9
$USERI4
 70
     0
  9
$USERI5
 70
     0
  9
$USERR1
 40
0.0
  9
$USERR2
 40
0.0
  9
$USERR3
 40
0.0
  9
$USERR4
 40
0.0
  9
$USERR5
 40
0.0
  9
$WORLDVIEW
 70
     1
  9
$SHADEDGE
 70
     3
  9
$SHADEDIF
 70
    70
  9
$TILEMODE
 70
     1
  9
$MAXACTVP
 70
    64
  9
$PLIMCHECK
 70
     0
  9
$PEXTMIN
 10
1.0000000000000000E+020
 20
1.0000000000000000E+020
 30
1.0000000000000000E+020
  9
$PEXTMAX
 10
-1.0000000000000000E+020
 20
-1.0000000000000000E+020
 30
-1.0000000000000000E+020
  9
$PLIMMIN
 10
0.0
 20
0.0
  9
$PLIMMAX
 10
420.0
 20
297.0
  9
$UNITMODE
 70
     0
  9
$VISRETAIN
 70
     1
  9
$PLINEGEN
 70
     0
  9
$PSLTSCALE
 70
     1
  0
ENDSEC
  0
SECTION
  2
TABLES
  0
TABLE
  2
VPORT
 70
    57
  0
VPORT
  2
*ACTIVE
 70
     0
 10
0.0
 20
0.0
 11
1.0
 21
1.0
 12
243.19809294536361
 22
20.724196922940902
 13
0.0
 23
0.0
 14
10.0
 24
10.0
 15
10.0
 25
10.0
 16
0.0
 26
0.0
 36
1.0
 17
0.0
 27
0.0
 37
0.0
 40
1137.7171551220929
 41
0.8452830188679245
 42
50.0
 43
0.0
 44
0.0
 50
0.0
 51
0.0
 71
     0
 72
   100
 73
     1
 74
     3
 75
     0
 76
     0
 77
     0
 78
     0
  0
ENDTAB
  0
TABLE
  2
LTYPE
 70
     1
  0
LTYPE
  2
CONTINUOUS
 70
     0
  3
Solid line
 72
    65
 73
     0
 40
0.0
  0
ENDTAB
  0
TABLE
  2
LAYER
 70
     3
  0
LAYER
  2
0
 70
     0
 62
     7
  6
CONTINUOUS
  0
LAYER
  2
1外形線
 70
     0
 62
     3
  6
CONTINUOUS
  0
LAYER
  2
4太線
 70
     0
 62
     6
  6
CONTINUOUS
  0
ENDTAB
  0
TABLE
  2
STYLE
 70
     2
  0
STYLE
  2
STANDARD
 70
     0
 40
0.0
 41
1.0
 50
0.0
 71
     0
 42
2.5
  3
txt
  4

  0
STYLE
  2
KANJI
 70
     0
 40
0.0
 41
1.0
 50
0.0
 71
     0
 42
10.0
  3
simplex
  4
bigfont
  0
ENDTAB
  0
TABLE
  2
VIEW
 70
     0
  0
ENDTAB
  0
TABLE
  2
UCS
 70
     0
  0
ENDTAB
  0
TABLE
  2
APPID
 70
     1
  0
APPID
  2
ACAD
 70
     0
  0
ENDTAB
  0
TABLE
  2
DIMSTYLE
 70
     2
  0
DIMSTYLE
  2
ISO-25
 70
     0
  3

  4

  5

  6

  7

 40
1.0
 41
2.5
 42
0.625
 43
3.75
 44
1.25
 45
0.0
 46
0.0
 47
0.0
 48
0.0
140
2.5
141
2.5
142
0.0
143
0.03937007874016
144
1.0
145
0.0
146
1.0
147
0.625
 71
     0
 72
     0
 73
     0
 74
     0
 75
     0
 76
     0
 77
     1
 78
     8
170
     0
171
     3
172
     1
173
     0
174
     0
175
     0
176
     0
177
     0
178
     0
  0
DIMSTYLE
  2
STANDARD
 70
     0
  3

  4

  5

  6
1
  7
1
 40
1.0
 41
1.0
 42
1.0
 43
6.0
 44
1.0
 45
0.0
 46
0.0
 47
0.0
 48
0.0
140
2.5
141
0.0
142
0.0
143
25.399999999999999
144
1.0
145
0.0
146
1.0
147
0.5
 71
     0
 72
     0
 73
     0
 74
     0
 75
     0
 76
     0
 77
     1
 78
     8
170
     0
171
     2
172
     1
173
     1
174
     0
175
     0
176
     0
177
     0
178
     0
  0
ENDTAB
  0
ENDSEC
  0
SECTION
  2
BLOCKS
  0
BLOCK
  8
0
  2
$MODEL_SPACE
 70
     0
 10
0.0
 20
0.0
 30
0.0
  3
$MODEL_SPACE
  1

  0
ENDBLK
  5
21
  8
0
  0
BLOCK
 67
     1
  8
0
  2
$PAPER_SPACE
 70
     0
 10
0.0
 20
0.0
 30
0.0
  3
$PAPER_SPACE
  1

  0
ENDBLK
  5
1D
 67
     1
  8
0
  0
BLOCK
  8
0
  2
1
 70
     0
 10
0.0
 20
0.0
 30
0.0
  3
1
  1

  0
SOLID
  5
2C
  8
0
  6
BYBLOCK
 62
     0
 10
-1.811110924292052
 20
0.4852857095671653
 30
0.0
 11
-1.811110924292052
 21
-0.4852857095673642
 31
0.0
 12
0.0
 22
0.0
 32
0.0
 13
0.0
 23
0.0
 33
0.0
  0
ENDBLK
  5
2E
  8
0
  0
ENDSEC
  0
SECTION
  2
ENTITIES
  0
ARC
  5
6D7D
  8
1外形線
 10
49.314105487198781
 20
66.94759975595413
 30
0.0
 40
12.5
 50
58.929096000000023
 51
140.70347451749271
  0
LINE
  5
6D7E
  8
1外形線
 10
76.183626284707657
 20
78.396922255954109
 30
0.0
 11
88.183626284707657
 21
78.396922255954109
 31
0.0
  0
LINE
  5
6D7F
  8
1外形線
 10
75.683626284707657
 20
51.134583255954112
 30
0.0
 11
88.683626284707657
 21
51.134583255954112
 31
0.0
  0
LINE
  5
6D80
  8
1外形線
 10
75.683626284707657
 20
58.073350255954132
 30
0.0
 11
88.683626284707657
 21
58.073350255954132
 31
0.0
  0
LINE
  5
6D81
  8
1外形線
 10
75.883626284707645
 20
53.235733255954109
 30
0.0
 11
88.483626284707611
 21
53.235733255954109
 31
0.0
  0
LINE
  5
6D82
  8
1外形線
 10
79.433626284707657
 20
63.13173925595413
 30
0.0
 11
84.933626284707657
 21
63.13173925595413
 31
0.0
  0
LINE
  5
6D83
  8
1外形線
 10
78.633626284707645
 20
66.947470255954116
 30
0.0
 11
85.733626284707611
 21
66.947470255954116
 31
0.0
  0
LINE
  5
6D84
  8
1外形線
 10
79.433626284707657
 20
72.053799255954118
 30
0.0
 11
84.933626284707657
 21
72.053799255954118
 31
0.0
  0
LINE
  5
6D85
  8
1外形線
 10
78.433626284707657
 20
75.020946755954114
 30
0.0
 11
85.933626284707671
 21
75.020946755954114
 31
0.0
  0
LINE
  5
6D86
  8
1外形線
 10
78.633626284707645
 20
79.447470255954102
 30
0.0
 11
85.733626284707611
 21
79.447470255954102
 31
0.0
  0
LINE
  5
6D87
  8
1外形線
 10
42.269354076525183
 20
27.151977562778651
 30
0.0
 11
63.26935407652519
 21
27.151977562778651
 31
0.0
  0
LINE
  5
6D88
  8
1外形線
 10
36.469354076525178
 20
40.151977562778647
 30
0.0
 11
57.469354076525178
 21
40.151977562778647
 31
0.0
  0
ARC
  5
6D89
  8
1外形線
 10
42.269354076525183
 20
33.151977562778647
 30
0.0
 40
6.0
 50
180.0
 51
270.0
  0
LINE
  5
6D8A
  8
1外形線
 10
36.26935407652519
 20
39.951977562778659
 30
0.0
 11
36.26935407652519
 21
33.151977562778647
 31
0.0
  0
ARC
  5
6D8B
  8
1外形線
 10
36.469354076525178
 20
39.951977562778659
 30
0.0
 40
0.2
 50
90.0
 51
180.0
  0
LINE
  5
6D8C
  8
1外形線
 10
42.369354076525163
 20
37.451977562778659
 30
0.0
 11
42.369354076525163
 21
29.351977562778639
 31
0.0
  0
LINE
  5
6D8D
  8
1外形線
 10
45.869354076525148
 20
37.451977562778659
 30
0.0
 11
45.869354076525148
 21
29.351977562778639
 31
0.0
  0
ARC
  5
6D8E
  8
1外形線
 10
45.669354076525217
 20
29.351977562778639
 30
0.0
 40
0.2
 50
270.0
 51
0.0
  0
ARC
  5
6D8F
  8
1外形線
 10
42.569354076525201
 20
29.351977562778639
 30
0.0
 40
0.2
 50
180.0
 51
270.0
  0
LINE
  5
6D90
  8
1外形線
 10
42.569354076525201
 20
29.151977562778651
 30
0.0
 11
45.669354076525217
 21
29.151977562778651
 31
0.0
  0
CIRCLE
  5
6D91
  8
1外形線
 10
49.869354076525163
 20
33.651977562778647
 30
0.0
 40
2.1000000000000001
  0
ARC
  5
6D92
  8
1外形線
 10
45.669354076525217
 20
37.451977562778659
 30
0.0
 40
0.2
 50
0.0
 51
90.0
  0
LINE
  5
6D93
  8
1外形線
 10
42.569354076525201
 20
37.651977562778647
 30
0.0
 11
45.669354076525217
 21
37.651977562778647
 31
0.0
  0
ARC
  5
6D94
  8
1外形線
 10
42.569354076525201
 20
37.451977562778659
 30
0.0
 40
0.2
 50
90.0
 51
180.0
  0
ARC
  5
6D95
  8
1外形線
 10
63.26935407652519
 20
27.351977562778639
 30
0.0
 40
0.2
 50
270.0
 51
0.0
  0
ARC
  5
6D96
  8
1外形線
 10
57.469354076525178
 20
34.151977562778647
 30
0.0
 40
6.0
 50
0.0
 51
90.0
  0
LINE
  5
6D97
  8
1外形線
 10
63.469354076525178
 20
34.151977562778647
 30
0.0
 11
63.469354076525178
 21
27.351977562778639
 31
0.0
  0
LINE
  5
6D98
  8
1外形線
 10
45.014105487198833
 20
53.247599755954099
 30
0.0
 11
53.614105487198799
 21
53.247599755954099
 31
0.0
  0
LINE
  5
6D99
  8
1外形線
 10
41.814105487198781
 20
51.347599755954107
 30
0.0
 11
56.814105487198781
 21
51.347599755954107
 31
0.0
  0
ARC
  5
6D9A
  8
1外形線
 10
49.314105487198781
 20
66.94759975595413
 30
0.0
 40
9.0
 50
232.45551999999941
 51
307.54448000000002
  0
ARC
  5
6D9B
  8
1外形線
 10
49.314105487198781
 20
66.94759975595413
 30
0.0
 40
11.0
 50
308.682188
 51
139.99999814033279
  0
ARC
  5
6D9C
  8
1外形線
 10
49.314105487198781
 20
66.94759975595413
 30
0.0
 40
9.0
 50
187.45551999999969
 51
217.54447999999999
  0
ARC
  5
6D9D
  8
1外形線
 10
49.314105487198781
 20
66.94759975595413
 30
0.0
 40
11.0
 50
154.6230664554906
 51
231.3178130000004
  0
LINE
  5
6D9E
  8
1外形線
 10
35.714105487198758
 20
51.134583255954112
 30
0.0
 11
41.814105487198781
 21
51.347599755954107
 31
0.0
  0
LINE
  5
6D9F
  8
1外形線
 10
36.67920598719877
 20
53.56974825595411
 30
0.0
 11
41.849004987198782
 21
53.750281755954099
 31
0.0
  0
ARC
  5
6DA0
  8
1外形線
 10
36.714105487198758
 20
52.570357255954107
 30
0.0
 40
1.0
 50
92.000000000000398
 51
180.0
  0
LINE
  5
6DA1
  8
1外形線
 10
35.714105487198758
 20
51.134583255954112
 30
0.0
 11
35.714105487198758
 21
52.570357255954107
 31
0.0
  0
ARC
  5
6DA2
  8
1外形線
 10
45.014105487198833
 20
53.447599755954101
 30
0.0
 40
0.2
 50
180.0
 51
270.0
  0
ARC
  5
6DA3
  8
1外形線
 10
43.814105487198788
 20
58.595953255954107
 30
0.0
 40
1.0
 50
0.0
 51
56.647763580034152
  0
LINE
  5
6DA4
  8
1外形線
 10
44.814105487198781
 20
53.447599755954101
 30
0.0
 11
44.814105487198781
 21
58.595953255954107
 31
0.0
  0
ARC
  5
6DA5
  8
1外形線
 10
42.019604987198761
 20
61.341330255954098
 30
0.0
 40
0.2
 50
320.84581799999961
 51
37.544480000000078
  0
ARC
  5
6DA6
  8
1外形線
 10
43.707835987198727
 20
59.653099255954118
 30
0.0
 40
0.2
 50
52.455519999999481
 51
129.1541820000005
  0
ARC
  5
6DA7
  8
1外形線
 10
42.95014448719877
 20
60.583638755954112
 30
0.0
 40
1.0
 50
140.8458179999995
 51
309.1541820000005
  0
LINE
  5
6DA8
  8
1外形線
 10
42.814105487198781
 20
54.74967225595411
 30
0.0
 11
42.814105487198781
 21
57.580102755954101
 31
0.0
  0
ARC
  5
6DA9
  8
1外形線
 10
41.814105487198781
 20
54.74967225595411
 30
0.0
 40
1.0
 50
272.0000000000004
 51
0.0
  0
ARC
  5
6DAA
  8
1外形線
 10
41.814105487198781
 20
57.580102755954101
 30
0.0
 40
1.0
 50
0.0
 51
51.317813000000463
  0
ARC
  5
6DAB
  8
1外形線
 10
39.042270487198778
 20
72.95587825595409
 30
0.0
 40
2.0
 50
50.000000000000171
 51
149.67546300000021
  0
LINE
  5
6DAC
  8
1外形線
 10
38.294123987198759
 20
72.647599755954118
 30
0.0
 11
39.794126495625221
 21
72.647599755954118
 31
0.0
  0
ARC
  5
6DAD
  8
1外形線
 10
38.885778987198762
 20
70.44759975595413
 30
0.0
 40
1.5
 50
90.0
 51
161.44699500000019
  0
ARC
  5
6DAE
  8
1外形線
 10
39.353760987198761
 20
73.086128755954107
 30
0.0
 40
1.0
 50
50.000000000000171
 51
148.3546019999998
  0
ARC
  5
6DAF
  8
1外形線
 10
49.314105487198781
 20
66.94759975595413
 30
0.0
 40
12.5
 50
161.44699500000019
 51
180.0
  0
ARC
  5
6DB0
  8
1外形線
 10
49.314105487198781
 20
66.94759975595413
 30
0.0
 40
13.9
 50
149.67546300000021
 51
191.79318199999989
  0
ARC
  5
6DB1
  8
1外形線
 10
49.314105487198781
 20
66.94759975595413
 30
0.0
 40
12.5
 50
180.0
 51
184.79876299999981
  0
ARC
  5
6DB2
  8
1外形線
 10
37.057221487198767
 20
65.918626755954136
 30
0.0
 40
0.2
 50
184.79876299999981
 51
209.4688460000001
  0
LINE
  5
6DB3
  8
1外形線
 10
38.402990987198791
 20
64.023975255954127
 30
0.0
 11
38.188972987198781
 21
63.966629255954132
 31
0.0
  0
ARC
  5
6DB4
  8
1外形線
 10
38.111327487198821
 20
64.256407255954144
 30
0.0
 40
0.3
 50
209.4688460000001
 51
284.99999999999949
  0
LINE
  5
6DB5
  8
1外形線
 10
36.88309648719877
 20
65.820236755954113
 30
0.0
 11
37.850140487198757
 21
64.108821755954125
 31
0.0
  0
ARC
  5
6DB6
  8
1外形線
 10
38.325345487198831
 20
64.313752755954141
 30
0.0
 40
0.3
 50
284.99999999999949
 51
13.478694000000241
  0
ARC
  5
6DB7
  8
1外形線
 10
36.515667987198754
 20
66.747599755954113
 30
0.0
 40
0.2
 50
90.0
 51
180.89528299999989
  0
LINE
  5
6DB8
  8
1外形線
 10
36.814105487198781
 20
66.94759975595413
 30
0.0
 11
36.515667987198754
 21
66.94759975595413
 31
0.0
  0
LINE
  5
6DB9
  8
1外形線
 10
35.903288987198778
 20
63.947599755954123
 30
0.0
 11
36.556754987198758
 21
63.947599755954123
 31
0.0
  0
ARC
  5
6DBA
  8
1外形線
 10
36.576758987198723
 20
64.347599755954107
 30
0.0
 40
0.4
 50
270.0
 51
100.6554510000005
  0
ARC
  5
6DBB
  8
1外形線
 10
35.903288987198778
 20
64.147599755954118
 30
0.0
 40
0.2
 50
191.79318199999989
 51
270.0
  0
ARC
  5
6DBC
  8
1外形線
 10
49.314105487198781
 20
66.94759975595413
 30
0.0
 40
13.0
 50
180.89528299999989
 51
189.77394200000001
  0
ARC
  5
6DBD
  8
1外形線
 10
49.314105487198781
 20
66.94759975595413
 30
0.0
 40
12.699999999999999
 50
148.35334113561379
 51
151.83580099999949
  0
ARC
  5
6DBE
  8
1外形線
 10
38.294123987198759
 20
72.847599755954107
 30
0.0
 40
0.2
 50
151.83580099999949
 51
270.0
  0
ARC
  5
6DBF
  8
1外形線
 10
49.314105487198781
 20
66.94759975595413
 30
0.0
 40
9.0
 50
143.0169612214078
 51
172.54447999999999
  0
ARC
  5
6DC0
  8
1外形線
 10
40.314105487198781
 20
66.94759975595413
 30
0.0
 40
1.0
 50
95.845818000000406
 51
264.15418199999959
  0
ARC
  5
6DC1
  8
1外形線
 10
40.191883487198758
 20
68.141359255954129
 30
0.0
 40
0.2
 50
275.84581800000041
 51
352.54447999999979
  0
ARC
  5
6DC2
  8
1外形線
 10
40.191883487198758
 20
65.753840255954103
 30
0.0
 40
0.2
 50
7.455519999999952
 51
84.154181999999594
  0
ARC
  5
6DC3
  8
1外形線
 10
49.314105487198781
 20
66.94759975595413
 30
0.0
 40
11.0
 50
144.6090938369129
 51
148.2114653664008
  0
ARC
  5
6DC4
  8
1外形線
 10
39.794126495625221
 20
72.847599755954121
 30
0.0
 40
0.2
 50
270.0
 51
328.21146536640077
  0
LINE
  5
6DC5
  8
1外形線
 10
38.885778987198762
 20
71.94759975595413
 30
0.0
 11
39.194816987198749
 21
71.94759975595413
 31
0.0
  0
ARC
  5
6DC6
  8
1外形線
 10
39.194816987198749
 20
71.747599755954113
 30
0.0
 40
0.2
 50
334.62306599999988
 51
90.0
  0
ARC
  5
6DC7
  8
1外形線
 10
40.183644539644028
 20
73.434099804915846
 30
0.0
 40
0.2
 50
324.60909383691569
 51
49.99998038801774
  0
ARC
  5
6DC8
  8
1外形線
 10
41.725375987198788
 20
72.662596255954114
 30
0.0
 40
0.5
 50
323.01696099999958
 51
50.000000000000171
  0
LINE
  5
6DC9
  8
1外形線
 10
42.046769987198729
 20
73.045618755954095
 30
0.0
 11
40.327845987198771
 21
74.487967255954104
 31
0.0
  0
LINE
  5
6DCA
  8
1外形線
 10
40.312202114023819
 20
73.587308649535217
 30
0.0
 11
39.996548987198757
 21
73.852173255954099
 31
0.0
  0
LINE
  5
6DCB
  8
1外形線
 10
75.683626284707657
 20
51.134583255954112
 30
0.0
 11
75.683626284707657
 21
74.625303255954123
 31
0.0
  0
ARC
  5
6DCC
  8
1外形線
 10
49.314105487198781
 20
66.94759975595413
 30
0.0
 40
9.0
 50
322.45551999999981
 51
352.54447999999979
  0
ARC
  5
6DCD
  8
1外形線
 10
53.614105487198799
 20
53.447599755954101
 30
0.0
 40
0.2
 50
270.0
 51
0.0
  0
ARC
  5
6DCE
  8
1外形線
 10
61.914105487198761
 20
52.570357255954107
 30
0.0
 40
1.0
 50
0.0
 51
87.999999999999616
  0
LINE
  5
6DCF
  8
1外形線
 10
56.814105487198781
 20
51.347599755954107
 30
0.0
 11
62.914105487198754
 21
51.134583255954112
 31
0.0
  0
LINE
  5
6DD0
  8
1外形線
 10
62.914105487198754
 20
51.134583255954112
 30
0.0
 11
62.914105487198754
 21
52.570357255954107
 31
0.0
  0
LINE
  5
6DD1
  8
1外形線
 10
56.779205987198729
 20
53.750281755954099
 30
0.0
 11
61.949004987198741
 21
53.56974825595411
 31
0.0
  0
ARC
  5
6DD2
  8
1外形線
 10
54.814105487198781
 20
58.595953255954107
 30
0.0
 40
1.0
 50
123.35223641996581
 51
180.0
  0
LINE
  5
6DD3
  8
1外形線
 10
53.814105487198788
 20
53.447599755954101
 30
0.0
 11
53.814105487198788
 21
58.595953255954107
 31
0.0
  0
ARC
  5
6DD4
  8
1外形線
 10
55.678066487198748
 20
60.583638755954112
 30
0.0
 40
1.0
 50
230.84581799999941
 51
39.154182000000432
  0
ARC
  5
6DD5
  8
1外形線
 10
56.608606487198749
 20
61.341330255954098
 30
0.0
 40
0.2
 50
142.45551999999989
 51
219.15418200000039
  0
ARC
  5
6DD6
  8
1外形線
 10
54.920375487198783
 20
59.653099255954118
 30
0.0
 40
0.2
 50
50.845817999999433
 51
127.5444800000005
  0
ARC
  5
6DD7
  8
1外形線
 10
56.814105487198781
 20
54.74967225595411
 30
0.0
 40
1.0
 50
180.0
 51
267.9999999999996
  0
LINE
  5
6DD8
  8
1外形線
 10
55.814105487198788
 20
54.74967225595411
 30
0.0
 11
55.814105487198788
 21
57.580102755954101
 31
0.0
  0
ARC
  5
6DD9
  8
1外形線
 10
56.814105487198781
 20
57.580102755954101
 30
0.0
 40
1.0
 50
128.682188
 51
180.0
  0
ARC
  5
6DDA
  8
1外形線
 10
75.883626284707645
 20
53.035733255954121
 30
0.0
 40
0.2
 50
90.0
 51
180.0
  0
ARC
  5
6DDB
  8
1外形線
 10
49.314105487198781
 20
66.94759975595413
 30
0.0
 40
13.0
 50
349.99999699999989
 51
50.030340999999972
  0
ARC
  5
6DDC
  8
1外形線
 10
49.314105487198781
 20
66.94759975595413
 30
0.0
 40
9.0
 50
7.455519999999952
 51
34.260830000000162
  0
ARC
  5
6DDD
  8
1外形線
 10
58.314105487198788
 20
66.94759975595413
 30
0.0
 40
1.0
 50
275.84581800000041
 51
84.154181999999594
  0
ARC
  5
6DDE
  8
1外形線
 10
58.436327987198752
 20
68.141359255954129
 30
0.0
 40
0.2
 50
187.45551999999969
 51
264.15418199999959
  0
ARC
  5
6DDF
  8
1外形線
 10
58.436327987198752
 20
65.753840255954103
 30
0.0
 40
0.2
 50
95.845818000000406
 51
172.54447999999999
  0
ARC
  5
6DE0
  8
1外形線
 10
61.1317984871988
 20
64.863821255954136
 30
0.0
 40
1.0
 50
169.99995699999971
 51
350.00003599999991
  0
ARC
  5
6DE1
  8
1外形線
 10
49.314105487198781
 20
66.94759975595413
 30
0.0
 40
14.0
 50
349.99999800000012
 51
350.40593200000001
  0
ARC
  5
6DE2
  8
1外形線
 10
61.131798487198751
 20
64.863821755954106
 30
0.0
 40
2.0
 50
304.78467899999941
 51
350.00001000000009
  0
ARC
  5
6DE3
  8
1外形線
 10
61.987539487198767
 20
63.631869255954108
 30
0.0
 40
0.5
 50
165.33842299999989
 51
304.78467899999941
  0
ARC
  5
6DE4
  8
1外形線
 10
61.987539487198767
 20
63.631869255954108
 30
0.0
 40
0.5
 50
124.7846789999997
 51
165.33842299999989
  0
ARC
  5
6DE5
  8
1外形線
 10
61.146264987198776
 20
64.947599755954116
 30
0.0
 40
2.0
 50
350.40593200000001
 51
54.461449716937729
  0
ARC
  5
6DE6
  8
1外形線
 10
59.663640987198782
 20
73.021076755954098
 30
0.0
 40
2.0
 50
30.405931999999741
 51
94.461464154544686
  0
LINE
  5
6DE7
  8
1外形線
 10
57.670344487198797
 20
76.906177255954162
 30
0.0
 11
57.717964487198799
 21
77.176243255954148
 31
0.0
  0
ARC
  5
6DE8
  8
1外形線
 10
57.225560487198841
 20
77.263067755954125
 30
0.0
 40
0.5
 50
350.0
 51
52.513574000000489
  0
LINE
  5
6DE9
  8
1外形線
 10
57.256330987198787
 20
74.558188255954136
 30
0.0
 11
57.670344487198797
 21
76.906177255954162
 31
0.0
  0
ARC
  5
6DEA
  8
1外形線
 10
56.321922487198833
 20
77.897051755954124
 30
0.0
 40
0.5
 50
57.380134999999221
 51
169.99999999999989
  0
LINE
  5
6DEB
  8
1外形線
 10
55.488721987198801
 20
76.051121755954114
 30
0.0
 11
55.829518487198811
 21
77.983875755954131
 31
0.0
  0
ARC
  5
6DEC
  8
1外形線
 10
49.314105487198781
 20
66.94759975595413
 30
0.0
 40
13.5
 50
52.513574000000489
 51
57.380134999999221
  0
ARC
  5
6DED
  8
1外形線
 10
57.578938987198789
 20
72.577211255954111
 30
0.0
 40
1.0
 50
129.9999999999998
 51
214.26083000000011
  0
LINE
  5
6DEE
  8
1外形線
 10
56.936151487198742
 20
73.343255755954104
 30
0.0
 11
57.740594356846707
 21
74.018263468060624
 31
0.0
  0
ARC
  5
6DEF
  8
1外形線
 10
49.314105487198781
 20
66.94759975595413
 30
0.0
 40
14.0
 50
29.999997999999788
 51
30.405931999999741
  0
ARC
  5
6DF0
  8
1外形線
 10
61.153829987198769
 20
72.553929255954074
 30
0.0
 40
0.5
 50
282.72798120966911
 51
344.7846789999997
  0
ARC
  5
6DF1
  8
1外形線
 10
59.706410487198752
 20
72.94759975595413
 30
0.0
 40
2.0
 50
344.7846789999997
 51
30.000009999999719
  0
LINE
  5
6DF2
  8
1外形線
 10
78.433626284707657
 20
76.910471255954121
 30
0.0
 11
78.433626284707657
 21
64.13173925595413
 31
0.0
  0
LINE
  5
6DF3
  8
1外形線
 10
75.683626284707657
 20
64.063691755954125
 30
0.0
 11
75.683626284707657
 21
77.896922255954109
 31
0.0
  0
ARC
  5
6DF4
  8
1外形線
 10
78.633626284707645
 20
66.747470255954113
 30
0.0
 40
0.2
 50
90.0
 51
180.0
  0
LINE
  5
6DF5
  8
1外形線
 10
75.883626284707645
 20
63.863691755954122
 30
0.0
 11
78.470220784707635
 21
63.863691755954122
 31
0.0
  0
ARC
  5
6DF6
  8
1外形線
 10
75.883626284707645
 20
64.063691755954125
 30
0.0
 40
0.2
 50
180.0
 51
270.0
  0
ARC
  5
6DF7
  8
1外形線
 10
79.433626284707657
 20
64.13173925595413
 30
0.0
 40
1.0
 50
180.0
 51
270.0
  0
ARC
  5
6DF8
  8
1外形線
 10
78.633626284707645
 20
79.247470255954113
 30
0.0
 40
0.2
 50
90.0
 51
180.0
  0
ARC
  5
6DF9
  8
1外形線
 10
76.183626284707657
 20
77.896922255954109
 30
0.0
 40
0.5
 50
90.0
 51
180.0
  0
LINE
  5
6DFA
  8
1外形線
 10
75.683626284707657
 20
76.910471255954121
 30
0.0
 11
78.433626284707657
 21
76.910471255954121
 31
0.0
  0
LINE
  5
6DFB
  8
1外形線
 10
78.433626284707657
 20
78.396922255954109
 30
0.0
 11
78.433626284707657
 21
79.247470255954113
 31
0.0
  0
ARC
  5
6DFC
  8
1外形線
 10
79.433626284707657
 20
73.053799255954118
 30
0.0
 40
1.0
 50
180.0
 51
270.0
  0
LINE
  5
6DFD
  8
1外形線
 10
88.683626284707657
 20
51.134583255954112
 30
0.0
 11
88.683626284707657
 21
74.625303255954123
 31
0.0
  0
ARC
  5
6DFE
  8
1外形線
 10
88.483626284707611
 20
53.035733255954121
 30
0.0
 40
0.2
 50
0.0
 51
90.0
  0
LINE
  5
6DFF
  8
1外形線
 10
85.933626284707657
 20
76.910471255954121
 30
0.0
 11
85.933626284707657
 21
64.13173925595413
 31
0.0
  0
LINE
  5
6E00
  8
1外形線
 10
88.683626284707657
 20
64.063691755954125
 30
0.0
 11
88.683626284707657
 21
77.896922255954109
 31
0.0
  0
ARC
  5
6E01
  8
1外形線
 10
88.483626284707611
 20
64.063691755954125
 30
0.0
 40
0.2
 50
270.0
 51
0.0
  0
ARC
  5
6E02
  8
1外形線
 10
85.733626284707611
 20
66.747470255954113
 30
0.0
 40
0.2
 50
0.0
 51
90.0
  0
LINE
  5
6E03
  8
1外形線
 10
85.89703228470762
 20
63.863691755954122
 30
0.0
 11
88.483626284707611
 21
63.863691755954122
 31
0.0
  0
ARC
  5
6E04
  8
1外形線
 10
84.933626284707657
 20
64.13173925595413
 30
0.0
 40
1.0
 50
270.0
 51
0.0
  0
LINE
  5
6E05
  8
1外形線
 10
85.933626284707657
 20
76.910471255954121
 30
0.0
 11
88.683626284707657
 21
76.910471255954121
 31
0.0
  0
ARC
  5
6E06
  8
1外形線
 10
88.183626284707657
 20
77.896922255954109
 30
0.0
 40
0.5
 50
0.0
 51
90.0
  0
ARC
  5
6E07
  8
1外形線
 10
85.733626284707611
 20
79.247470255954113
 30
0.0
 40
0.2
 50
0.0
 51
90.0
  0
LINE
  5
6E08
  8
1外形線
 10
85.933626284707657
 20
78.396922255954109
 30
0.0
 11
85.933626284707657
 21
79.247470255954113
 31
0.0
  0
ARC
  5
6E09
  8
1外形線
 10
84.933626284707657
 20
73.053799255954118
 30
0.0
 40
1.0
 50
270.0
 51
0.0
  0
ENDSEC
  0
EOF
