  0
SECTION
  2
HEADER
  9
$ACADVER
  1
AC1009
  9
$INSBASE
 10
0.0
 20
0.0
 30
0.0
  9
$EXTMIN
 10
35.739819845913139
 20
-25.750029856048059
 30
-0.0015258207003583
  9
$EXTMAX
 10
341.17581131425487
 20
166.44257717053389
 30
0.0000000349246037
  9
$LIMMIN
 10
0.0
 20
0.0
  9
$LIMMAX
 10
420.0
 20
297.0
  9
$ORTHOMODE
 70
     0
  9
$REGENMODE
 70
     1
  9
$FILLMODE
 70
     1
  9
$QTEXTMODE
 70
     0
  9
$MIRRTEXT
 70
     1
  9
$DRAGMODE
 70
     2
  9
$LTSCALE
 40
1.0
  9
$OSMODE
 70
    37
  9
$ATTMODE
 70
     1
  9
$TEXTSIZE
 40
2.5
  9
$TRACEWID
 40
1.0
  9
$TEXTSTYLE
  7
STANDARD
  9
$CLAYER
  8
0
  9
$CELTYPE
  6
BYLAYER
  9
$CECOLOR
 62
   256
  9
$DIMSCALE
 40
1.0
  9
$DIMASZ
 40
2.5
  9
$DIMEXO
 40
0.625
  9
$DIMDLI
 40
3.75
  9
$DIMRND
 40
0.0
  9
$DIMDLE
 40
0.0
  9
$DIMEXE
 40
1.25
  9
$DIMTP
 40
0.0
  9
$DIMTM
 40
0.0
  9
$DIMTXT
 40
2.5
  9
$DIMCEN
 40
2.5
  9
$DIMTSZ
 40
0.0
  9
$DIMTOL
 70
     0
  9
$DIMLIM
 70
     0
  9
$DIMTIH
 70
     0
  9
$DIMTOH
 70
     0
  9
$DIMSE1
 70
     0
  9
$DIMSE2
 70
     0
  9
$DIMTAD
 70
     1
  9
$DIMZIN
 70
     8
  9
$DIMBLK
  1

  9
$DIMASO
 70
     1
  9
$DIMSHO
 70
     1
  9
$DIMPOST
  1

  9
$DIMAPOST
  1

  9
$DIMALT
 70
     0
  9
$DIMALTD
 70
     3
  9
$DIMALTF
 40
0.03937007874016
  9
$DIMLFAC
 40
1.0
  9
$DIMTOFL
 70
     1
  9
$DIMTVP
 40
0.0
  9
$DIMTIX
 70
     0
  9
$DIMSOXD
 70
     0
  9
$DIMSAH
 70
     0
  9
$DIMBLK1
  1

  9
$DIMBLK2
  1

  9
$DIMSTYLE
  2
ISO-25
  9
$DIMCLRD
 70
     0
  9
$DIMCLRE
 70
     0
  9
$DIMCLRT
 70
     0
  9
$DIMTFAC
 40
1.0
  9
$DIMGAP
 40
0.625
  9
$LUNITS
 70
     2
  9
$LUPREC
 70
     4
  9
$SKETCHINC
 40
1.0
  9
$FILLETRAD
 40
10.0
  9
$AUNITS
 70
     0
  9
$AUPREC
 70
     0
  9
$MENU
  1
.
  9
$ELEVATION
 40
0.0
  9
$PELEVATION
 40
0.0
  9
$THICKNESS
 40
0.0
  9
$LIMCHECK
 70
     0
  9
$BLIPMODE
 70
     0
  9
$CHAMFERA
 40
10.0
  9
$CHAMFERB
 40
10.0
  9
$SKPOLY
 70
     0
  9
$TDCREATE
 40
2452048.587873715
  9
$TDUPDATE
 40
2452048.5909099071
  9
$TDINDWG
 40
0.0030366551
  9
$TDUSRTIMER
 40
0.0030366551
  9
$USRTIMER
 70
     1
  9
$ANGBASE
 50
0.0
  9
$ANGDIR
 70
     0
  9
$PDMODE
 70
     0
  9
$PDSIZE
 40
0.0
  9
$PLINEWID
 40
0.0
  9
$COORDS
 70
     1
  9
$SPLFRAME
 70
     0
  9
$SPLINETYPE
 70
     6
  9
$SPLINESEGS
 70
     8
  9
$ATTDIA
 70
     0
  9
$ATTREQ
 70
     1
  9
$HANDLING
 70
-16383
  9
$HANDSEED
  5
4B3
  9
$SURFTAB1
 70
     6
  9
$SURFTAB2
 70
     6
  9
$SURFTYPE
 70
     6
  9
$SURFU
 70
     6
  9
$SURFV
 70
     6
  9
$UCSNAME
  2

  9
$UCSORG
 10
0.0
 20
0.0
 30
0.0
  9
$UCSXDIR
 10
1.0
 20
0.0
 30
0.0
  9
$UCSYDIR
 10
0.0
 20
1.0
 30
0.0
  9
$PUCSNAME
  2

  9
$PUCSORG
 10
0.0
 20
0.0
 30
0.0
  9
$PUCSXDIR
 10
1.0
 20
0.0
 30
0.0
  9
$PUCSYDIR
 10
0.0
 20
1.0
 30
0.0
  9
$USERI1
 70
     0
  9
$USERI2
 70
     0
  9
$USERI3
 70
     0
  9
$USERI4
 70
     0
  9
$USERI5
 70
     0
  9
$USERR1
 40
0.0
  9
$USERR2
 40
0.0
  9
$USERR3
 40
0.0
  9
$USERR4
 40
0.0
  9
$USERR5
 40
0.0
  9
$WORLDVIEW
 70
     1
  9
$SHADEDGE
 70
     3
  9
$SHADEDIF
 70
    70
  9
$TILEMODE
 70
     1
  9
$MAXACTVP
 70
    64
  9
$PLIMCHECK
 70
     0
  9
$PEXTMIN
 10
1.0000000000000000E+020
 20
1.0000000000000000E+020
 30
1.0000000000000000E+020
  9
$PEXTMAX
 10
-1.0000000000000000E+020
 20
-1.0000000000000000E+020
 30
-1.0000000000000000E+020
  9
$PLIMMIN
 10
0.0
 20
0.0
  9
$PLIMMAX
 10
420.0
 20
297.0
  9
$UNITMODE
 70
     0
  9
$VISRETAIN
 70
     1
  9
$PLINEGEN
 70
     0
  9
$PSLTSCALE
 70
     1
  0
ENDSEC
  0
SECTION
  2
TABLES
  0
TABLE
  2
VPORT
 70
     8
  0
VPORT
  2
*ACTIVE
 70
     0
 10
0.0
 20
0.0
 11
1.0
 21
1.0
 12
166.35681071652851
 22
20.724196577187389
 13
0.0
 23
0.0
 14
10.0
 24
10.0
 15
10.0
 25
10.0
 16
0.0
 26
0.0
 36
1.0
 17
0.0
 27
0.0
 37
0.0
 40
1136.324781988588
 41
0.8452830188679245
 42
50.0
 43
0.0
 44
0.0
 50
0.0
 51
0.0
 71
     0
 72
   100
 73
     1
 74
     3
 75
     0
 76
     0
 77
     0
 78
     0
  0
ENDTAB
  0
TABLE
  2
LTYPE
 70
     1
  0
LTYPE
  2
CONTINUOUS
 70
     0
  3
Solid line
 72
    65
 73
     0
 40
0.0
  0
ENDTAB
  0
TABLE
  2
LAYER
 70
     2
  0
LAYER
  2
0
 70
     0
 62
     7
  6
CONTINUOUS
  0
LAYER
  2
1外形線
 70
     0
 62
     3
  6
CONTINUOUS
  0
ENDTAB
  0
TABLE
  2
STYLE
 70
     2
  0
STYLE
  2
STANDARD
 70
     0
 40
0.0
 41
1.0
 50
0.0
 71
     0
 42
2.5
  3
txt
  4

  0
STYLE
  2
KANJI
 70
     0
 40
0.0
 41
1.0
 50
0.0
 71
     0
 42
10.0
  3
simplex
  4
bigfont
  0
ENDTAB
  0
TABLE
  2
VIEW
 70
     0
  0
ENDTAB
  0
TABLE
  2
UCS
 70
     0
  0
ENDTAB
  0
TABLE
  2
APPID
 70
     1
  0
APPID
  2
ACAD
 70
     0
  0
ENDTAB
  0
TABLE
  2
DIMSTYLE
 70
     2
  0
DIMSTYLE
  2
ISO-25
 70
     0
  3

  4

  5

  6

  7

 40
1.0
 41
2.5
 42
0.625
 43
3.75
 44
1.25
 45
0.0
 46
0.0
 47
0.0
 48
0.0
140
2.5
141
2.5
142
0.0
143
0.03937007874016
144
1.0
145
0.0
146
1.0
147
0.625
 71
     0
 72
     0
 73
     0
 74
     0
 75
     0
 76
     0
 77
     1
 78
     8
170
     0
171
     3
172
     1
173
     0
174
     0
175
     0
176
     0
177
     0
178
     0
  0
DIMSTYLE
  2
STANDARD
 70
     0
  3

  4

  5

  6
1
  7
1
 40
1.0
 41
1.0
 42
1.0
 43
6.0
 44
1.0
 45
0.0
 46
0.0
 47
0.0
 48
0.0
140
2.5
141
0.0
142
0.0
143
25.399999999999999
144
1.0
145
0.0
146
1.0
147
0.5
 71
     0
 72
     0
 73
     0
 74
     0
 75
     0
 76
     0
 77
     1
 78
     8
170
     0
171
     2
172
     1
173
     1
174
     0
175
     0
176
     0
177
     0
178
     0
  0
ENDTAB
  0
ENDSEC
  0
SECTION
  2
BLOCKS
  0
BLOCK
  8
0
  2
$MODEL_SPACE
 70
     0
 10
0.0
 20
0.0
 30
0.0
  3
$MODEL_SPACE
  1

  0
ENDBLK
  5
21
  8
0
  0
BLOCK
 67
     1
  8
0
  2
$PAPER_SPACE
 70
     0
 10
0.0
 20
0.0
 30
0.0
  3
$PAPER_SPACE
  1

  0
ENDBLK
  5
1D
 67
     1
  8
0
  0
BLOCK
  8
0
  2
1
 70
     0
 10
0.0
 20
0.0
 30
0.0
  3
1
  1

  0
SOLID
  5
2C
  8
0
  6
BYBLOCK
 62
     0
 10
-1.811110924292052
 20
0.4852857095671653
 30
0.0
 11
-1.811110924292052
 21
-0.4852857095673642
 31
0.0
 12
0.0
 22
0.0
 32
0.0
 13
0.0
 23
0.0
 33
0.0
  0
ENDBLK
  5
2E
  8
0
  0
ENDSEC
  0
SECTION
  2
ENTITIES
  0
CIRCLE
  5
438
  8
1外形線
 10
137.08236418087799
 20
145.14257717053431
 30
0.0
 40
3.6000000000000001
  0
CIRCLE
  5
439
  8
1外形線
 10
137.08236418087799
 20
145.14257717053431
 30
0.0
 40
2.1000000000000001
  0
CIRCLE
  5
43A
  8
1外形線
 10
137.08236418087799
 20
145.14257717053431
 30
0.0
 40
5.0
  0
LINE
  5
43B
  8
1外形線
 10
203.5823641808777
 20
123.8425771705347
 30
0.0
 11
133.5786328145048
 21
123.8425771705347
 31
0.0
  0
LINE
  5
43C
  8
1外形線
 10
122.0892830930851
 20
27.144111260412551
 30
0.0
 11
203.58236418087751
 21
27.144111260414999
 31
0.0
  0
LINE
  5
43D
  8
1外形線
 10
122.0892830930848
 20
32.144111260412501
 30
0.0
 11
203.58236418087751
 21
32.144111260414768
 31
0.0
  0
LINE
  5
43E
  8
1外形線
 10
203.58236418087799
 20
166.44257717053389
 30
0.0
 11
133.57863281450639
 21
166.44257717053381
 31
0.0
  0
LINE
  5
43F
  8
1外形線
 10
108.2639307797692
 20
100.1329541974148
 30
0.0
 11
107.5028647015673
 21
107.7436149794334
 31
0.0
  0
LINE
  5
440
  8
1外形線
 10
106.41281507347109
 20
101.6441112604127
 30
0.0
 11
106.41281507347109
 21
108.4371923482058
 31
0.0
  0
LINE
  5
441
  8
1外形線
 10
65.961699367170922
 20
100.1329541974164
 30
0.0
 11
66.722765445372715
 21
107.7436149794334
 31
0.0
  0
LINE
  5
442
  8
1外形線
 10
67.812815073468983
 20
101.6441112604125
 30
0.0
 11
67.812815073468983
 21
108.4371923482058
 31
0.0
  0
LINE
  5
443
  8
1外形線
 10
65.81281507347046
 20
27.144111260412501
 30
0.0
 11
108.4128150734695
 21
27.144111260412501
 31
0.0
  0
LINE
  5
444
  8
1外形線
 10
108.4128150734695
 20
32.14411126041324
 30
0.0
 11
65.81281507347046
 21
32.144111260411982
 31
0.0
  0
ARC
  5
445
  8
1外形線
 10
87.112815073470131
 20
79.144111260413013
 30
0.0
 40
2.4999999999999991
 50
180.0
 51
0.0
  0
ARC
  5
446
  8
1外形線
 10
87.112815073470131
 20
84.144111260412785
 30
0.0
 40
2.4999999999999991
 50
0.0
 51
180.0
  0
CIRCLE
  5
447
  8
1外形線
 10
87.112815073470131
 20
93.644111260412785
 30
0.0
 40
2.1000000000000001
  0
CIRCLE
  5
448
  8
1外形線
 10
87.112815073470131
 20
93.644111260412785
 30
0.0
 40
3.6000000000000001
  0
CIRCLE
  5
449
  8
1外形線
 10
87.112815073470131
 20
93.644111260412785
 30
0.0
 40
5.0
  0
LINE
  5
44A
  8
1外形線
 10
105.41281507347119
 20
100.6441112604129
 30
0.0
 11
68.812815073468983
 21
100.6441112604125
 31
0.0
  0
LINE
  5
44B
  8
1外形線
 10
86.612815073469974
 20
33.644111260412039
 30
0.0
 11
86.612815073469974
 21
76.694621517629912
 31
0.0
  0
LINE
  5
44C
  8
1外形線
 10
87.612815073468823
 20
33.644111260412039
 30
0.0
 11
87.612815073470074
 21
76.694621517629685
 31
0.0
  0
LINE
  5
44D
  8
1外形線
 10
65.81281507347046
 20
27.144111260412501
 30
0.0
 11
65.81281507347046
 21
97.147842626785859
 31
0.0
  0
LINE
  5
44E
  8
1外形線
 10
67.81281507347046
 20
37.144111260411592
 30
0.0
 11
82.112815073470287
 21
37.144111260411592
 31
0.0
  0
LINE
  5
44F
  8
1外形線
 10
67.81281507347046
 20
37.144111260411592
 30
0.0
 11
67.81281507347046
 21
32.144111260412501
 31
0.0
  0
LINE
  5
450
  8
1外形線
 10
68.312815073470574
 20
32.144111260412501
 30
0.0
 11
68.312815073470574
 21
34.144111260412501
 31
0.0
  0
LINE
  5
451
  8
1外形線
 10
69.512815073470605
 20
32.144111260412501
 30
0.0
 11
69.512815073470605
 21
34.144111260412501
 31
0.0
  0
LINE
  5
452
  8
1外形線
 10
68.312815073470574
 20
34.144111260412501
 30
0.0
 11
69.512815073470605
 21
34.144111260412501
 31
0.0
  0
LINE
  5
453
  8
1外形線
 10
67.812815073468983
 20
32.144111260412068
 30
0.0
 11
67.812815073468983
 21
27.144111260412501
 31
0.0
  0
LINE
  5
454
  8
1外形線
 10
82.112815073470287
 20
37.144111260411357
 30
0.0
 11
82.112815073470415
 21
33.144111260412501
 31
0.0
  0
ARC
  5
455
  8
1外形線
 10
83.112815073470472
 20
33.144111260412551
 30
0.0
 40
1.0
 50
180.0
 51
270.0000000000008
  0
ARC
  5
456
  8
1外形線
 10
87.112815073470244
 20
33.644111260412103
 30
0.0
 40
0.4999999999988632
 50
180.0
 51
0.0
  0
LINE
  5
457
  8
1外形線
 10
69.512815073470605
 20
90.144111260412515
 30
0.0
 11
69.512815073470605
 21
80.144111260412515
 31
0.0
  0
LINE
  5
458
  8
1外形線
 10
68.312815073470574
 20
90.144111260412515
 30
0.0
 11
68.312815073470574
 21
80.144111260412515
 31
0.0
  0
LINE
  5
459
  8
1外形線
 10
69.512815073470605
 20
80.144111260412515
 30
0.0
 11
68.312815073470574
 21
80.144111260412274
 31
0.0
  0
LINE
  5
45A
  8
1外形線
 10
84.612815073469847
 20
84.144111260412714
 30
0.0
 11
84.612815073469847
 21
79.144111260412956
 31
0.0
  0
LINE
  5
45B
  8
1外形線
 10
68.312815073470574
 20
90.144111260412274
 30
0.0
 11
69.512815073470605
 21
90.144111260412515
 31
0.0
  0
ARC
  5
45C
  8
1外形線
 10
68.812815073469039
 20
101.6441112604125
 30
0.0
 40
1.0
 50
180.0
 51
270.0
  0
ARC
  5
45D
  8
1外形線
 10
95.812815073470517
 20
97.147842626785916
 30
0.0
 40
30.0
 50
174.28940686249931
 51
180.0
  0
LINE
  5
45E
  8
1外形線
 10
87.612815073470301
 20
86.593601003195772
 30
0.0
 11
87.612815073470415
 21
88.669174074879734
 31
0.0
  0
LINE
  5
45F
  8
1外形線
 10
86.612815073469974
 20
86.593601003195772
 30
0.0
 11
86.612815073470074
 21
88.669174074879734
 31
0.0
  0
LINE
  5
460
  8
1外形線
 10
108.4128150734695
 20
27.144111260412501
 30
0.0
 11
108.4128150734695
 21
97.147842626784282
 31
0.0
  0
LINE
  5
461
  8
1外形線
 10
106.4128150734699
 20
37.144111260411592
 30
0.0
 11
92.112815073470074
 21
37.144111260411592
 31
0.0
  0
LINE
  5
462
  8
1外形線
 10
92.112815073470074
 20
37.144111260411357
 30
0.0
 11
92.11281507346996
 21
33.144111260412728
 31
0.0
  0
ARC
  5
463
  8
1外形線
 10
91.112815073470017
 20
33.144111260412778
 30
0.0
 40
1.0
 50
270.0000000000008
 51
0.0
  0
LINE
  5
464
  8
1外形線
 10
106.4128150734699
 20
37.144111260411592
 30
0.0
 11
106.4128150734699
 21
32.144111260412501
 31
0.0
  0
LINE
  5
465
  8
1外形線
 10
105.9128150734693
 20
34.144111260412501
 30
0.0
 11
104.7128150734693
 21
34.144111260412501
 31
0.0
  0
LINE
  5
466
  8
1外形線
 10
105.9128150734693
 20
32.144111260412501
 30
0.0
 11
105.9128150734693
 21
34.144111260412501
 31
0.0
  0
LINE
  5
467
  8
1外形線
 10
104.7128150734693
 20
32.144111260412501
 30
0.0
 11
104.7128150734693
 21
34.144111260412501
 31
0.0
  0
LINE
  5
468
  8
1外形線
 10
106.41281507347109
 20
32.144111260413183
 30
0.0
 11
106.41281507347109
 21
27.144111260412501
 31
0.0
  0
LINE
  5
469
  8
1外形線
 10
122.0892830930851
 20
27.144111260412501
 30
0.0
 11
122.0892830930848
 21
32.144111260412501
 31
0.0
  0
LINE
  5
46A
  8
1外形線
 10
132.0823641808787
 20
27.144111260412839
 30
0.0
 11
132.0823641808787
 21
32.144111260412778
 31
0.0
  0
LINE
  5
46B
  8
1外形線
 10
104.7128150734695
 20
90.144111260412515
 30
0.0
 11
104.7128150734695
 21
80.144111260412515
 31
0.0
  0
LINE
  5
46C
  8
1外形線
 10
105.9128150734695
 20
90.144111260412515
 30
0.0
 11
105.9128150734695
 21
80.144111260412515
 31
0.0
  0
LINE
  5
46D
  8
1外形線
 10
89.612815073469619
 20
84.144111260412714
 30
0.0
 11
89.612815073469505
 21
79.144111260412956
 31
0.0
  0
LINE
  5
46E
  8
1外形線
 10
104.7128150734695
 20
80.144111260412515
 30
0.0
 11
105.9128150734695
 21
80.144111260412274
 31
0.0
  0
LINE
  5
46F
  8
1外形線
 10
105.9128150734695
 20
90.144111260412274
 30
0.0
 11
104.7128150734695
 21
90.144111260412515
 31
0.0
  0
ARC
  5
470
  8
1外形線
 10
105.41281507347119
 20
101.6441112604127
 30
0.0
 40
1.0
 50
270.0
 51
0.0
  0
ARC
  5
471
  8
1外形線
 10
78.412815073469631
 20
97.147842626784325
 30
0.0
 40
30.0
 50
0.0
 51
5.7105931375006138
  0
ARC
  5
472
  8
1外形線
 10
67.612815073468994
 20
108.4371923482058
 30
0.0
 40
0.2
 50
0.0
 51
97.540932427395035
  0
ARC
  5
473
  8
1外形線
 10
67.717802635582814
 20
107.6441112604125
 30
0.0
 40
1.0
 50
97.540932427395845
 51
174.28940686249931
  0
LINE
  5
474
  8
1外形線
 10
130.0823641808777
 20
163.4425771705354
 30
0.0
 11
130.08236418087819
 21
126.8425771705332
 31
0.0
  0
ARC
  5
475
  8
1外形線
 10
106.6128150734711
 20
108.4371923482058
 30
0.0
 40
0.2
 50
82.459067572604965
 51
180.0
  0
ARC
  5
476
  8
1外形線
 10
106.50782751135731
 20
107.6441112604125
 30
0.0
 40
1.0
 50
5.7105931375006138
 51
82.459067572604155
  0
ARC
  5
477
  8
1外形線
 10
133.5786328145048
 20
153.84257717053461
 30
0.0
 40
30.0
 50
264.28940686249859
 51
270.0
  0
LINE
  5
478
  8
1外形線
 10
129.08236418087819
 20
125.8425771705332
 30
0.0
 11
122.2892830930849
 21
125.8425771705332
 31
0.0
  0
LINE
  5
479
  8
1外形線
 10
130.59352124387431
 20
123.9914614642351
 30
0.0
 11
122.9828604618572
 21
124.75252754243689
 31
0.0
  0
ARC
  5
47A
  8
1外形線
 10
123.0823641808782
 20
125.74756473264689
 30
0.0
 40
1.0
 50
187.5409324273958
 51
264.28940686249859
  0
ARC
  5
47B
  8
1外形線
 10
122.2892830930849
 20
125.6425771705331
 30
0.0
 40
0.2
 50
90.0
 51
187.5409324273958
  0
ARC
  5
47C
  8
1外形線
 10
129.08236418087819
 20
126.8425771705332
 30
0.0
 40
1.0
 50
270.0
 51
0.0
  0
LINE
  5
47D
  8
1外形線
 10
129.08236418087799
 20
164.4425771705354
 30
0.0
 11
122.2892830930849
 21
164.4425771705354
 31
0.0
  0
LINE
  5
47E
  8
1外形線
 10
130.5935212438759
 20
166.2936928768334
 30
0.0
 11
122.9828604618572
 21
165.5326267986315
 31
0.0
  0
ARC
  5
47F
  8
1外形線
 10
123.0823641808782
 20
164.53758960842151
 30
0.0
 40
1.0
 50
95.710593137500581
 51
172.45906757260411
  0
ARC
  5
480
  8
1外形線
 10
122.2892830930849
 20
164.6425771705353
 30
0.0
 40
0.2
 50
172.45906757260411
 51
270.0
  0
ARC
  5
481
  8
1外形線
 10
133.57863281450639
 20
136.44257717053381
 30
0.0
 40
30.0
 50
90.0
 51
95.710593137500581
  0
ARC
  5
482
  8
1外形線
 10
129.08236418087799
 20
163.4425771705354
 30
0.0
 40
1.0
 50
0.0
 51
90.0
  0
LINE
  5
483
  8
1外形線
 10
198.58236418087981
 20
108.64411126041129
 30
0.0
 11
198.58236418087779
 21
32.14411126041454
 31
0.0
  0
LINE
  5
484
  8
1外形線
 10
203.58236418087981
 20
108.64411126041109
 30
0.0
 11
203.58236418087751
 21
32.14411126041454
 31
0.0
  0
LINE
  5
485
  8
1外形線
 10
141.5823641808814
 20
34.144111260412949
 30
0.0
 11
149.5823641808814
 21
34.144111260413183
 31
0.0
  0
ARC
  5
486
  8
1外形線
 10
141.5823641808814
 20
33.144111260412949
 30
0.0
 40
1.0
 50
90.000000000001606
 51
180.0
  0
LINE
  5
487
  8
1外形線
 10
140.5823641808814
 20
32.144111260412949
 30
0.0
 11
140.5823641808814
 21
33.144111260412949
 31
0.0
  0
ARC
  5
488
  8
1外形線
 10
149.5823641808814
 20
33.144111260413183
 30
0.0
 40
1.0
 50
0.0
 51
90.000000000001606
  0
LINE
  5
489
  8
1外形線
 10
150.5823641808814
 20
32.14411126041341
 30
0.0
 11
150.5823641808814
 21
33.144111260413183
 31
0.0
  0
LINE
  5
48A
  8
1外形線
 10
203.58236418087751
 20
32.14411126041454
 30
0.0
 11
203.58236418087751
 21
27.144111260414771
 31
0.0
  0
LINE
  5
48B
  8
1外形線
 10
196.5823641808793
 20
89.144111260411364
 30
0.0
 11
196.5823641808791
 21
81.144111260411364
 31
0.0
  0
ARC
  5
48C
  8
1外形線
 10
197.5823641808791
 20
81.144111260411421
 30
0.0
 40
1.0
 50
179.99999999999829
 51
269.9999999999992
  0
LINE
  5
48D
  8
1外形線
 10
198.5823641808789
 20
80.144111260411364
 30
0.0
 11
197.5823641808791
 21
80.144111260411364
 31
0.0
  0
LINE
  5
48E
  8
1外形線
 10
203.58236418087949
 20
98.644111260414107
 30
0.0
 11
198.58236418087949
 21
98.644111260414107
 31
0.0
  0
ARC
  5
48F
  8
1外形線
 10
197.5823641808793
 20
89.144111260411435
 30
0.0
 40
1.0
 50
89.999999999999204
 51
179.99999999999829
  0
LINE
  5
490
  8
1外形線
 10
198.5823641808793
 20
90.144111260411364
 30
0.0
 11
197.5823641808793
 21
90.144111260411364
 31
0.0
  0
LINE
  5
491
  8
1外形線
 10
198.58236418087969
 20
144.64257717053411
 30
0.0
 11
154.0318539236608
 21
144.64257717053411
 31
0.0
  0
LINE
  5
492
  8
1外形線
 10
198.58236418087981
 20
145.64257717053289
 30
0.0
 11
154.031853923661
 21
145.64257717053431
 31
0.0
  0
ARC
  5
493
  8
1外形線
 10
146.58236418087799
 20
145.14257717053431
 30
0.0
 40
2.4999999999999991
 50
90.0
 51
270.0
  0
ARC
  5
494
  8
1外形線
 10
151.5823641808777
 20
145.14257717053431
 30
0.0
 40
2.4999999999999991
 50
270.0
 51
90.0
  0
LINE
  5
495
  8
1外形線
 10
146.58236418087799
 20
142.642577170534
 30
0.0
 11
151.5823641808777
 21
142.642577170534
 31
0.0
  0
LINE
  5
496
  8
1外形線
 10
140.58236418087819
 20
126.3425771705348
 30
0.0
 11
150.58236418087819
 21
126.3425771705348
 31
0.0
  0
LINE
  5
497
  8
1外形線
 10
140.58236418087819
 20
127.5425771705348
 30
0.0
 11
150.58236418087819
 21
127.5425771705348
 31
0.0
  0
LINE
  5
498
  8
1外形線
 10
140.58236418087839
 20
126.3425771705348
 30
0.0
 11
140.58236418087819
 21
127.5425771705348
 31
0.0
  0
LINE
  5
499
  8
1外形線
 10
150.58236418087819
 20
127.5425771705348
 30
0.0
 11
150.58236418087839
 21
126.3425771705348
 31
0.0
  0
LINE
  5
49A
  8
1外形線
 10
150.58236418087819
 20
162.74257717053371
 30
0.0
 11
150.58236418087839
 21
163.94257717053381
 31
0.0
  0
LINE
  5
49B
  8
1外形線
 10
140.58236418087839
 20
163.94257717053381
 30
0.0
 11
140.58236418087819
 21
162.74257717053371
 31
0.0
  0
LINE
  5
49C
  8
1外形線
 10
146.58236418087799
 20
147.6425771705338
 30
0.0
 11
151.5823641808777
 21
147.64257717053371
 31
0.0
  0
LINE
  5
49D
  8
1外形線
 10
144.13287443809489
 20
145.64257717053451
 30
0.0
 11
142.057301366411
 21
145.64257717053459
 31
0.0
  0
LINE
  5
49E
  8
1外形線
 10
144.13287443809489
 20
144.64257717053411
 30
0.0
 11
142.057301366411
 21
144.6425771705342
 31
0.0
  0
LINE
  5
49F
  8
1外形線
 10
140.58236418087819
 20
162.74257717053371
 30
0.0
 11
150.58236418087819
 21
162.74257717053371
 31
0.0
  0
LINE
  5
4A0
  8
1外形線
 10
140.58236418087819
 20
163.94257717053381
 30
0.0
 11
150.58236418087819
 21
163.94257717053381
 31
0.0
  0
LINE
  5
4A1
  8
1外形線
 10
198.58236418087981
 20
123.8425771705347
 30
0.0
 11
198.58236418087981
 21
166.44257717053381
 31
0.0
  0
LINE
  5
4A2
  8
1外形線
 10
203.58236418087799
 20
166.44257717053389
 30
0.0
 11
203.5823641808777
 21
123.8425771705347
 31
0.0
  0
LINE
  5
4A3
  8
1外形線
 10
203.58236418087981
 20
108.64411126041109
 30
0.0
 11
198.58236418087981
 21
108.64411126041129
 31
0.0
  0
LINE
  5
4A4
  8
1外形線
 10
198.58236418087981
 20
125.8425771705332
 30
0.0
 11
203.5823641808777
 21
125.8425771705332
 31
0.0
  0
LINE
  5
4A5
  8
1外形線
 10
196.58236418087799
 20
126.3425771705349
 30
0.0
 11
196.58236418087799
 21
127.5425771705349
 31
0.0
  0
LINE
  5
4A6
  8
1外形線
 10
198.58236418087799
 20
126.3425771705349
 30
0.0
 11
196.58236418087799
 21
126.3425771705349
 31
0.0
  0
LINE
  5
4A7
  8
1外形線
 10
198.58236418087799
 20
127.5425771705349
 30
0.0
 11
196.58236418087799
 21
127.5425771705349
 31
0.0
  0
LINE
  5
4A8
  8
1外形線
 10
196.58236418087799
 20
163.9425771705337
 30
0.0
 11
196.58236418087799
 21
162.74257717053359
 31
0.0
  0
LINE
  5
4A9
  8
1外形線
 10
198.58236418087799
 20
162.74257717053359
 30
0.0
 11
196.58236418087799
 21
162.74257717053359
 31
0.0
  0
LINE
  5
4AA
  8
1外形線
 10
198.58236418087981
 20
164.4425771705354
 30
0.0
 11
203.58236418087799
 21
164.4425771705354
 31
0.0
  0
LINE
  5
4AB
  8
1外形線
 10
198.58236418087799
 20
163.9425771705337
 30
0.0
 11
196.58236418087799
 21
163.9425771705337
 31
0.0
  0
ENDSEC
  0
EOF
