  0
SECTION
  2
HEADER
  9
$ACADVER
  1
AC1009
  9
$INSBASE
 10
0.0
 20
0.0
 30
0.0
  9
$EXTMIN
 10
35.739819845913139
 20
-25.750029856048059
 30
-0.0015258207003583
  9
$EXTMAX
 10
341.17581131425487
 20
186.25841171300181
 30
0.0000000349246037
  9
$LIMMIN
 10
0.0
 20
0.0
  9
$LIMMAX
 10
420.0
 20
297.0
  9
$ORTHOMODE
 70
     0
  9
$REGENMODE
 70
     1
  9
$FILLMODE
 70
     1
  9
$QTEXTMODE
 70
     0
  9
$MIRRTEXT
 70
     1
  9
$DRAGMODE
 70
     2
  9
$LTSCALE
 40
1.0
  9
$OSMODE
 70
    37
  9
$ATTMODE
 70
     1
  9
$TEXTSIZE
 40
2.5
  9
$TRACEWID
 40
1.0
  9
$TEXTSTYLE
  7
STANDARD
  9
$CLAYER
  8
0
  9
$CELTYPE
  6
BYLAYER
  9
$CECOLOR
 62
   256
  9
$DIMSCALE
 40
1.0
  9
$DIMASZ
 40
2.5
  9
$DIMEXO
 40
0.625
  9
$DIMDLI
 40
3.75
  9
$DIMRND
 40
0.0
  9
$DIMDLE
 40
0.0
  9
$DIMEXE
 40
1.25
  9
$DIMTP
 40
0.0
  9
$DIMTM
 40
0.0
  9
$DIMTXT
 40
2.5
  9
$DIMCEN
 40
2.5
  9
$DIMTSZ
 40
0.0
  9
$DIMTOL
 70
     0
  9
$DIMLIM
 70
     0
  9
$DIMTIH
 70
     0
  9
$DIMTOH
 70
     0
  9
$DIMSE1
 70
     0
  9
$DIMSE2
 70
     0
  9
$DIMTAD
 70
     1
  9
$DIMZIN
 70
     8
  9
$DIMBLK
  1

  9
$DIMASO
 70
     1
  9
$DIMSHO
 70
     1
  9
$DIMPOST
  1

  9
$DIMAPOST
  1

  9
$DIMALT
 70
     0
  9
$DIMALTD
 70
     3
  9
$DIMALTF
 40
0.03937007874016
  9
$DIMLFAC
 40
1.0
  9
$DIMTOFL
 70
     1
  9
$DIMTVP
 40
0.0
  9
$DIMTIX
 70
     0
  9
$DIMSOXD
 70
     0
  9
$DIMSAH
 70
     0
  9
$DIMBLK1
  1

  9
$DIMBLK2
  1

  9
$DIMSTYLE
  2
ISO-25
  9
$DIMCLRD
 70
     0
  9
$DIMCLRE
 70
     0
  9
$DIMCLRT
 70
     0
  9
$DIMTFAC
 40
1.0
  9
$DIMGAP
 40
0.625
  9
$LUNITS
 70
     2
  9
$LUPREC
 70
     4
  9
$SKETCHINC
 40
1.0
  9
$FILLETRAD
 40
10.0
  9
$AUNITS
 70
     0
  9
$AUPREC
 70
     0
  9
$MENU
  1
.
  9
$ELEVATION
 40
0.0
  9
$PELEVATION
 40
0.0
  9
$THICKNESS
 40
0.0
  9
$LIMCHECK
 70
     0
  9
$BLIPMODE
 70
     0
  9
$CHAMFERA
 40
10.0
  9
$CHAMFERB
 40
10.0
  9
$SKPOLY
 70
     0
  9
$TDCREATE
 40
2452048.587873715
  9
$TDUPDATE
 40
2452048.5912184492
  9
$TDINDWG
 40
0.0033451968
  9
$TDUSRTIMER
 40
0.0033451968
  9
$USRTIMER
 70
     1
  9
$ANGBASE
 50
0.0
  9
$ANGDIR
 70
     0
  9
$PDMODE
 70
     0
  9
$PDSIZE
 40
0.0
  9
$PLINEWID
 40
0.0
  9
$COORDS
 70
     1
  9
$SPLFRAME
 70
     0
  9
$SPLINETYPE
 70
     6
  9
$SPLINESEGS
 70
     8
  9
$ATTDIA
 70
     0
  9
$ATTREQ
 70
     1
  9
$HANDLING
 70
-16383
  9
$HANDSEED
  5
5A6
  9
$SURFTAB1
 70
     6
  9
$SURFTAB2
 70
     6
  9
$SURFTYPE
 70
     6
  9
$SURFU
 70
     6
  9
$SURFV
 70
     6
  9
$UCSNAME
  2

  9
$UCSORG
 10
0.0
 20
0.0
 30
0.0
  9
$UCSXDIR
 10
1.0
 20
0.0
 30
0.0
  9
$UCSYDIR
 10
0.0
 20
1.0
 30
0.0
  9
$PUCSNAME
  2

  9
$PUCSORG
 10
0.0
 20
0.0
 30
0.0
  9
$PUCSXDIR
 10
1.0
 20
0.0
 30
0.0
  9
$PUCSYDIR
 10
0.0
 20
1.0
 30
0.0
  9
$USERI1
 70
     0
  9
$USERI2
 70
     0
  9
$USERI3
 70
     0
  9
$USERI4
 70
     0
  9
$USERI5
 70
     0
  9
$USERR1
 40
0.0
  9
$USERR2
 40
0.0
  9
$USERR3
 40
0.0
  9
$USERR4
 40
0.0
  9
$USERR5
 40
0.0
  9
$WORLDVIEW
 70
     1
  9
$SHADEDGE
 70
     3
  9
$SHADEDIF
 70
    70
  9
$TILEMODE
 70
     1
  9
$MAXACTVP
 70
    64
  9
$PLIMCHECK
 70
     0
  9
$PEXTMIN
 10
1.0000000000000000E+020
 20
1.0000000000000000E+020
 30
1.0000000000000000E+020
  9
$PEXTMAX
 10
-1.0000000000000000E+020
 20
-1.0000000000000000E+020
 30
-1.0000000000000000E+020
  9
$PLIMMIN
 10
0.0
 20
0.0
  9
$PLIMMAX
 10
420.0
 20
297.0
  9
$UNITMODE
 70
     0
  9
$VISRETAIN
 70
     1
  9
$PLINEGEN
 70
     0
  9
$PSLTSCALE
 70
     1
  0
ENDSEC
  0
SECTION
  2
TABLES
  0
TABLE
  2
VPORT
 70
     9
  0
VPORT
  2
*ACTIVE
 70
     0
 10
0.0
 20
0.0
 11
1.0
 21
1.0
 12
166.35681071652851
 22
20.724196577187389
 13
0.0
 23
0.0
 14
10.0
 24
10.0
 15
10.0
 25
10.0
 16
0.0
 26
0.0
 36
1.0
 17
0.0
 27
0.0
 37
0.0
 40
1136.324781988588
 41
0.8452830188679245
 42
50.0
 43
0.0
 44
0.0
 50
0.0
 51
0.0
 71
     0
 72
   100
 73
     1
 74
     3
 75
     0
 76
     0
 77
     0
 78
     0
  0
ENDTAB
  0
TABLE
  2
LTYPE
 70
     1
  0
LTYPE
  2
CONTINUOUS
 70
     0
  3
Solid line
 72
    65
 73
     0
 40
0.0
  0
ENDTAB
  0
TABLE
  2
LAYER
 70
     2
  0
LAYER
  2
0
 70
     0
 62
     7
  6
CONTINUOUS
  0
LAYER
  2
1外形線
 70
     0
 62
     3
  6
CONTINUOUS
  0
ENDTAB
  0
TABLE
  2
STYLE
 70
     2
  0
STYLE
  2
STANDARD
 70
     0
 40
0.0
 41
1.0
 50
0.0
 71
     0
 42
2.5
  3
txt
  4

  0
STYLE
  2
KANJI
 70
     0
 40
0.0
 41
1.0
 50
0.0
 71
     0
 42
10.0
  3
simplex
  4
bigfont
  0
ENDTAB
  0
TABLE
  2
VIEW
 70
     0
  0
ENDTAB
  0
TABLE
  2
UCS
 70
     0
  0
ENDTAB
  0
TABLE
  2
APPID
 70
     1
  0
APPID
  2
ACAD
 70
     0
  0
ENDTAB
  0
TABLE
  2
DIMSTYLE
 70
     2
  0
DIMSTYLE
  2
ISO-25
 70
     0
  3

  4

  5

  6

  7

 40
1.0
 41
2.5
 42
0.625
 43
3.75
 44
1.25
 45
0.0
 46
0.0
 47
0.0
 48
0.0
140
2.5
141
2.5
142
0.0
143
0.03937007874016
144
1.0
145
0.0
146
1.0
147
0.625
 71
     0
 72
     0
 73
     0
 74
     0
 75
     0
 76
     0
 77
     1
 78
     8
170
     0
171
     3
172
     1
173
     0
174
     0
175
     0
176
     0
177
     0
178
     0
  0
DIMSTYLE
  2
STANDARD
 70
     0
  3

  4

  5

  6
1
  7
1
 40
1.0
 41
1.0
 42
1.0
 43
6.0
 44
1.0
 45
0.0
 46
0.0
 47
0.0
 48
0.0
140
2.5
141
0.0
142
0.0
143
25.399999999999999
144
1.0
145
0.0
146
1.0
147
0.5
 71
     0
 72
     0
 73
     0
 74
     0
 75
     0
 76
     0
 77
     1
 78
     8
170
     0
171
     2
172
     1
173
     1
174
     0
175
     0
176
     0
177
     0
178
     0
  0
ENDTAB
  0
ENDSEC
  0
SECTION
  2
BLOCKS
  0
BLOCK
  8
0
  2
$MODEL_SPACE
 70
     0
 10
0.0
 20
0.0
 30
0.0
  3
$MODEL_SPACE
  1

  0
ENDBLK
  5
21
  8
0
  0
BLOCK
 67
     1
  8
0
  2
$PAPER_SPACE
 70
     0
 10
0.0
 20
0.0
 30
0.0
  3
$PAPER_SPACE
  1

  0
ENDBLK
  5
1D
 67
     1
  8
0
  0
BLOCK
  8
0
  2
1
 70
     0
 10
0.0
 20
0.0
 30
0.0
  3
1
  1

  0
SOLID
  5
2C
  8
0
  6
BYBLOCK
 62
     0
 10
-1.811110924292052
 20
0.4852857095671653
 30
0.0
 11
-1.811110924292052
 21
-0.4852857095673642
 31
0.0
 12
0.0
 22
0.0
 32
0.0
 13
0.0
 23
0.0
 33
0.0
  0
ENDBLK
  5
2E
  8
0
  0
ENDSEC
  0
SECTION
  2
ENTITIES
  0
LINE
  5
52B
  8
1外形線
 10
131.30579434793049
 20
183.6584117130009
 30
0.0
 11
141.30579434793029
 21
183.6584117130007
 31
0.0
  0
LINE
  5
52C
  8
1外形線
 10
131.30579434793049
 20
182.45841171300091
 30
0.0
 11
141.30579434793029
 21
182.4584117130008
 31
0.0
  0
LINE
  5
52D
  8
1外形線
 10
137.30579434793029
 20
164.358411713001
 30
0.0
 11
142.30579434793
 21
164.35841171300109
 31
0.0
  0
LINE
  5
52E
  8
1外形線
 10
131.30579434793049
 20
141.258411713002
 30
0.0
 11
141.30579434793029
 21
141.25841171300209
 31
0.0
  0
LINE
  5
52F
  8
1外形線
 10
131.30579434793049
 20
140.0584117130019
 30
0.0
 11
141.30579434793029
 21
140.05841171300219
 31
0.0
  0
LINE
  5
530
  8
1外形線
 10
137.30579434793029
 20
159.3584117130012
 30
0.0
 11
142.30579434793
 21
159.35841171300129
 31
0.0
  0
LINE
  5
531
  8
1外形線
 10
124.3020629815599
 20
137.45841171300131
 30
0.0
 11
210.30579434793029
 21
137.4584117130002
 31
0.0
  0
LINE
  5
532
  8
1外形線
 10
124.302062981563
 20
186.25841171300181
 30
0.0
 11
210.30579434793029
 21
186.25841171300129
 31
0.0
  0
LINE
  5
533
  8
1外形線
 10
132.30579434792941
 20
34.144110819349862
 30
0.0
 11
140.30579434792941
 21
34.14411081935031
 31
0.0
  0
LINE
  5
534
  8
1外形線
 10
112.8127132601345
 20
27.14411081935031
 30
0.0
 11
210.30579434792759
 21
27.144110819350431
 31
0.0
  0
LINE
  5
535
  8
1外形線
 10
112.8127132601345
 20
32.14411081935031
 30
0.0
 11
210.30579434792759
 21
32.14411081935031
 31
0.0
  0
LINE
  5
536
  8
1外形線
 10
101.31664583733949
 20
106.1441108193501
 30
0.0
 11
101.31664583733929
 21
96.144110819350317
 31
0.0
  0
LINE
  5
537
  8
1外形線
 10
100.1166458373395
 20
106.1441108193501
 30
0.0
 11
100.11664583733941
 21
96.144110819350317
 31
0.0
  0
LINE
  5
538
  8
1外形線
 10
82.016645837339624
 20
100.1441108193503
 30
0.0
 11
82.016645837339752
 21
95.144110819350558
 31
0.0
  0
LINE
  5
539
  8
1外形線
 10
77.016645837339865
 20
100.1441108193503
 30
0.0
 11
77.016645837339979
 21
95.144110819350558
 31
0.0
  0
LINE
  5
53A
  8
1外形線
 10
57.716645837340593
 20
106.1441108193501
 30
0.0
 11
57.71664583734082
 21
96.144110819350345
 31
0.0
  0
LINE
  5
53B
  8
1外形線
 10
58.916645837340639
 20
106.1441108193501
 30
0.0
 11
58.916645837340752
 21
96.144110819350345
 31
0.0
  0
LINE
  5
53C
  8
1外形線
 10
55.11664583734003
 20
113.14784218572071
 30
0.0
 11
55.116645837338638
 21
27.14411081935031
 31
0.0
  0
LINE
  5
53D
  8
1外形線
 10
103.9166458373404
 20
113.14784218571749
 30
0.0
 11
103.91664583734
 21
27.14411081935031
 31
0.0
  0
LINE
  5
53E
  8
1外形線
 10
103.91664583734
 20
27.14411081935031
 30
0.0
 11
55.116645837338602
 21
27.14411081935031
 31
0.0
  0
LINE
  5
53F
  8
1外形線
 10
55.116645837340542
 20
32.144110819350573
 30
0.0
 11
103.91664583734
 21
32.14411081935058
 31
0.0
  0
LINE
  5
540
  8
1外形線
 10
85.516645837340207
 20
37.1441108193494
 30
0.0
 11
101.9166458373401
 21
37.1441108193494
 31
0.0
  0
LINE
  5
541
  8
1外形線
 10
80.016645837338586
 20
33.644110819350118
 30
0.0
 11
80.016645837340207
 21
92.694621076567529
 31
0.0
  0
LINE
  5
542
  8
1外形線
 10
79.016645837340292
 20
33.644110819350118
 30
0.0
 11
79.016645837339979
 21
92.694621076567302
 31
0.0
  0
LINE
  5
543
  8
1外形線
 10
73.516645837340434
 20
37.144110819349429
 30
0.0
 11
57.11664583734045
 21
37.144110819349429
 31
0.0
  0
LINE
  5
544
  8
1外形線
 10
57.11664583734045
 20
37.144110819349429
 30
0.0
 11
57.116645837340428
 21
32.144110819350338
 31
0.0
  0
LINE
  5
545
  8
1外形線
 10
57.116645837339028
 20
35.644110819350438
 30
0.0
 11
57.116645837338808
 21
32.144110819350217
 31
0.0
  0
LINE
  5
546
  8
1外形線
 10
57.716645837341218
 20
34.144110819350921
 30
0.0
 11
58.916645837341044
 21
34.144110819350537
 31
0.0
  0
LINE
  5
547
  8
1外形線
 10
57.716645837341218
 20
34.144110819350921
 30
0.0
 11
57.716645837341211
 21
32.144110819350537
 31
0.0
  0
LINE
  5
548
  8
1外形線
 10
58.916645837341044
 20
34.144110819350537
 30
0.0
 11
58.916645837341044
 21
32.144110819350537
 31
0.0
  0
ARC
  5
549
  8
1外形線
 10
74.516645837340462
 20
33.144110819350551
 30
0.0
 40
1.0
 50
180.0
 51
270.0
  0
LINE
  5
54A
  8
1外形線
 10
73.516645837340434
 20
37.144110819349429
 30
0.0
 11
73.516645837340405
 21
33.144110819350573
 31
0.0
  0
ARC
  5
54B
  8
1外形線
 10
79.516645837340349
 20
33.644110819350097
 30
0.0
 40
0.4999999999988632
 50
180.0
 51
0.0
  0
ARC
  5
54C
  8
1外形線
 10
84.516645837340235
 20
33.144110819350551
 30
0.0
 40
1.0
 50
270.0
 51
0.0
  0
LINE
  5
54D
  8
1外形線
 10
85.516645837340207
 20
37.1441108193494
 30
0.0
 11
85.516645837340178
 21
33.144110819350537
 31
0.0
  0
LINE
  5
54E
  8
1外形線
 10
57.71664583734082
 20
96.144110819350345
 30
0.0
 11
58.916645837340752
 21
96.144110819350118
 31
0.0
  0
ARC
  5
54F
  8
1外形線
 10
79.516645837340121
 20
95.144110819350558
 30
0.0
 40
2.4999999999999991
 50
180.0
 51
0.0
  0
LINE
  5
550
  8
1外形線
 10
101.31664583733929
 20
34.144110819350921
 30
0.0
 11
100.1166458373395
 21
34.144110819350537
 31
0.0
  0
LINE
  5
551
  8
1外形線
 10
100.1166458373395
 20
34.144110819350537
 30
0.0
 11
100.1166458373395
 21
32.144110819350537
 31
0.0
  0
LINE
  5
552
  8
1外形線
 10
112.8127132601345
 20
32.14411081935031
 30
0.0
 11
112.8127132601345
 21
27.14411081935031
 31
0.0
  0
LINE
  5
553
  8
1外形線
 10
101.31664583733929
 20
34.144110819350921
 30
0.0
 11
101.31664583733929
 21
32.144110819350537
 31
0.0
  0
LINE
  5
554
  8
1外形線
 10
101.9166458373401
 20
37.1441108193494
 30
0.0
 11
101.9166458373401
 21
32.14411081935031
 31
0.0
  0
LINE
  5
555
  8
1外形線
 10
101.9166458373417
 20
35.6441108193509
 30
0.0
 11
101.9166458373417
 21
32.144110819350672
 31
0.0
  0
LINE
  5
556
  8
1外形線
 10
122.8057943479262
 20
27.14411081935031
 30
0.0
 11
122.8057943479262
 21
32.14411081935031
 31
0.0
  0
ARC
  5
557
  8
1外形線
 10
132.30579434792941
 20
33.144110819349862
 30
0.0
 40
1.0
 50
90.000000000001606
 51
180.0000000000008
  0
LINE
  5
558
  8
1外形線
 10
131.30579434792941
 20
32.144110819349862
 30
0.0
 11
131.30579434792941
 21
33.144110819349862
 31
0.0
  0
LINE
  5
559
  8
1外形線
 10
101.31664583733929
 20
96.144110819350317
 30
0.0
 11
100.11664583733941
 21
96.144110819350104
 31
0.0
  0
LINE
  5
55A
  8
1外形線
 10
120.8057943479303
 20
183.2584117130034
 30
0.0
 11
120.8057943479303
 21
140.45841171299949
 31
0.0
  0
LINE
  5
55B
  8
1外形線
 10
100.916645837342
 20
116.6441108193503
 30
0.0
 11
58.116645837338211
 21
116.6441108193503
 31
0.0
  0
LINE
  5
55C
  8
1外形線
 10
55.265530131040151
 20
116.13295375635241
 30
0.0
 11
56.026596209242058
 21
123.74361453837101
 31
0.0
  0
LINE
  5
55D
  8
1外形線
 10
57.116645837338211
 20
117.6441108193503
 30
0.0
 11
57.116645837338211
 21
124.4371919071434
 31
0.0
  0
LINE
  5
55E
  8
1外形線
 10
57.716645837340593
 20
106.1441108193503
 30
0.0
 11
58.916645837340639
 21
106.1441108193501
 31
0.0
  0
ARC
  5
55F
  8
1外形線
 10
58.116645837338211
 20
117.6441108193503
 30
0.0
 40
1.0
 50
180.0
 51
270.0
  0
ARC
  5
560
  8
1外形線
 10
85.116645837339789
 20
113.1478421857218
 30
0.0
 40
30.0
 50
174.28940686249931
 51
180.0
  0
ARC
  5
561
  8
1外形線
 10
56.91664583733828
 20
124.4371919071434
 30
0.0
 40
0.2
 50
0.0
 51
97.540932427395006
  0
ARC
  5
562
  8
1外形線
 10
57.021633399452099
 20
123.6441108193501
 30
0.0
 40
1.0
 50
97.540932427395461
 51
174.28940686249859
  0
CIRCLE
  5
563
  8
1外形線
 10
79.516645837340121
 20
109.6441108193503
 30
0.0
 40
3.6000000000000001
  0
CIRCLE
  5
564
  8
1外形線
 10
79.516645837340121
 20
109.6441108193503
 30
0.0
 40
5.0
  0
CIRCLE
  5
565
  8
1外形線
 10
79.516645837340121
 20
109.6441108193503
 30
0.0
 40
2.1000000000000001
  0
LINE
  5
566
  8
1外形線
 10
79.016645837339979
 20
102.5936005621333
 30
0.0
 11
79.016645837340093
 21
104.66917363381729
 31
0.0
  0
LINE
  5
567
  8
1外形線
 10
80.016645837340306
 20
102.5936005621333
 30
0.0
 11
80.016645837340434
 21
104.66917363381729
 31
0.0
  0
ARC
  5
568
  8
1外形線
 10
79.516645837340121
 20
100.1441108193503
 30
0.0
 40
2.4999999999999991
 50
0.0
 51
180.0
  0
ARC
  5
569
  8
1外形線
 10
113.8057943479305
 20
139.36339927511341
 30
0.0
 40
1.0
 50
187.54093242739501
 51
264.28940686249888
  0
LINE
  5
56A
  8
1外形線
 10
101.916645837342
 20
117.6441108193503
 30
0.0
 11
101.916645837342
 21
124.4371919071434
 31
0.0
  0
LINE
  5
56B
  8
1外形線
 10
103.76776154364001
 20
116.13295375635241
 30
0.0
 11
103.0066954654381
 21
123.74361453837101
 31
0.0
  0
ARC
  5
56C
  8
1外形線
 10
100.916645837342
 20
117.6441108193503
 30
0.0
 40
1.0
 50
270.0
 51
0.0
  0
LINE
  5
56D
  8
1外形線
 10
101.31664583733949
 20
106.1441108193503
 30
0.0
 11
100.1166458373395
 21
106.1441108193501
 31
0.0
  0
ARC
  5
56E
  8
1外形線
 10
73.91664583734044
 20
113.1478421857218
 30
0.0
 40
30.0
 50
0.0
 51
5.7105931375006138
  0
ARC
  5
56F
  8
1外形線
 10
102.0116582752281
 20
123.6441108193501
 30
0.0
 40
1.0
 50
5.7105931375014247
 51
82.459067572604539
  0
ARC
  5
570
  8
1外形線
 10
102.11664583734191
 20
124.4371919071434
 30
0.0
 40
0.2
 50
82.459067572604994
 51
180.0
  0
LINE
  5
571
  8
1外形線
 10
121.3169514109281
 20
137.60729600670149
 30
0.0
 11
113.7062906289095
 21
138.3683620849034
 31
0.0
  0
ARC
  5
572
  8
1外形線
 10
124.30206298155871
 20
167.45841171300111
 30
0.0
 40
30.0
 50
264.28940686249888
 51
270.0
  0
LINE
  5
573
  8
1外形線
 10
119.8057943479303
 20
139.45841171299949
 30
0.0
 11
113.0127132601372
 21
139.45841171299949
 31
0.0
  0
ARC
  5
574
  8
1外形線
 10
113.0127132601372
 20
139.25841171299959
 30
0.0
 40
0.2
 50
90.0
 51
187.54093242739501
  0
CIRCLE
  5
575
  8
1外形線
 10
127.8057943479303
 20
161.8584117130014
 30
0.0
 40
5.0
  0
ARC
  5
576
  8
1外形線
 10
119.8057943479303
 20
140.45841171299949
 30
0.0
 40
1.0
 50
270.0
 51
0.0
  0
LINE
  5
577
  8
1外形線
 10
131.30579434793029
 20
140.0584117130019
 30
0.0
 11
131.30579434793049
 21
141.258411713002
 31
0.0
  0
CIRCLE
  5
578
  8
1外形線
 10
127.8057943479303
 20
161.8584117130014
 30
0.0
 40
3.6000000000000001
  0
CIRCLE
  5
579
  8
1外形線
 10
127.8057943479303
 20
161.8584117130014
 30
0.0
 40
2.1000000000000001
  0
LINE
  5
57A
  8
1外形線
 10
134.85630460514719
 20
162.35841171300169
 30
0.0
 11
132.7807315334633
 21
162.3584117130018
 31
0.0
  0
LINE
  5
57B
  8
1外形線
 10
134.85630460514719
 20
161.35841171300129
 30
0.0
 11
132.7807315334633
 21
161.3584117130014
 31
0.0
  0
ARC
  5
57C
  8
1外形線
 10
137.30579434793029
 20
161.8584117130014
 30
0.0
 40
2.4999999999999991
 50
90.0
 51
270.0
  0
LINE
  5
57D
  8
1外形線
 10
119.8057943479303
 20
184.2584117130034
 30
0.0
 11
113.0127132601372
 21
184.2584117130034
 31
0.0
  0
ARC
  5
57E
  8
1外形線
 10
113.8057943479305
 20
184.35342415088951
 30
0.0
 40
1.0
 50
95.710593137500993
 51
172.45906757260491
  0
ARC
  5
57F
  8
1外形線
 10
113.0127132601372
 20
184.4584117130033
 30
0.0
 40
0.2
 50
172.45906757260491
 51
270.0
  0
LINE
  5
580
  8
1外形線
 10
121.3169514109281
 20
186.1095274193014
 30
0.0
 11
113.7062906289095
 21
185.34846134109949
 31
0.0
  0
ARC
  5
581
  8
1外形線
 10
119.8057943479303
 20
183.2584117130034
 30
0.0
 40
1.0
 50
0.0
 51
90.0
  0
ARC
  5
582
  8
1外形線
 10
124.30206298155871
 20
156.25841171300181
 30
0.0
 40
30.0
 50
90.0
 51
95.710593137500993
  0
LINE
  5
583
  8
1外形線
 10
131.30579434793029
 20
183.6584117130009
 30
0.0
 11
131.30579434793049
 21
182.45841171300091
 31
0.0
  0
LINE
  5
584
  8
1外形線
 10
203.30579434792941
 20
105.14411081934981
 30
0.0
 11
203.30579434792909
 21
97.144110819349862
 31
0.0
  0
LINE
  5
585
  8
1外形線
 10
210.30579434793029
 20
124.6371919071432
 30
0.0
 11
210.30579434792759
 21
32.14411081935031
 31
0.0
  0
LINE
  5
586
  8
1外形線
 10
205.30579434793029
 20
124.6371919071432
 30
0.0
 11
205.30579434792779
 21
32.14411081935031
 31
0.0
  0
LINE
  5
587
  8
1外形線
 10
141.30579434792941
 20
32.14411081935031
 30
0.0
 11
141.30579434792941
 21
33.14411081935031
 31
0.0
  0
ARC
  5
588
  8
1外形線
 10
140.30579434792941
 20
33.144110819350203
 30
0.0
 40
1.0
 50
0.0000000000008142
 51
90.000000000001606
  0
LINE
  5
589
  8
1外形線
 10
210.30579434792759
 20
27.14411081935031
 30
0.0
 11
210.30579434792759
 21
32.14411081935031
 31
0.0
  0
LINE
  5
58A
  8
1外形線
 10
205.3057943479289
 20
96.144110819349876
 30
0.0
 11
204.30579434792921
 21
96.144110819349876
 31
0.0
  0
ARC
  5
58B
  8
1外形線
 10
204.30579434792909
 20
97.144110819349862
 30
0.0
 40
1.0
 50
179.99999999999829
 51
269.9999999999996
  0
LINE
  5
58C
  8
1外形線
 10
205.30579434793299
 20
137.45841171300029
 30
0.0
 11
205.30579434793299
 21
186.25841171300129
 31
0.0
  0
LINE
  5
58D
  8
1外形線
 10
210.30579434793029
 20
137.4584117130004
 30
0.0
 11
210.30579434793029
 21
186.25841171300141
 31
0.0
  0
LINE
  5
58E
  8
1外形線
 10
205.30579434793299
 20
161.3584117130018
 30
0.0
 11
144.7552840907133
 21
161.35841171300129
 31
0.0
  0
LINE
  5
58F
  8
1外形線
 10
205.30579434793299
 20
162.3584117129999
 30
0.0
 11
144.7552840907131
 21
162.3584117130016
 31
0.0
  0
LINE
  5
590
  8
1外形線
 10
141.30579434793029
 20
140.05841171300219
 30
0.0
 11
141.30579434793049
 21
141.25841171300209
 31
0.0
  0
ARC
  5
591
  8
1外形線
 10
142.30579434793
 20
161.8584117130014
 30
0.0
 40
2.4999999999999991
 50
270.0
 51
90.0
  0
LINE
  5
592
  8
1外形線
 10
205.30579434792941
 20
106.14411081934981
 30
0.0
 11
204.30579434792941
 21
106.14411081934981
 31
0.0
  0
ARC
  5
593
  8
1外形線
 10
204.30579434792929
 20
105.14411081934981
 30
0.0
 40
1.0
 50
89.999999999999588
 51
179.99999999999829
  0
LINE
  5
594
  8
1外形線
 10
210.30579434793
 20
114.6441108193514
 30
0.0
 11
205.30579434793
 21
114.6441108193514
 31
0.0
  0
LINE
  5
595
  8
1外形線
 10
210.3057943479298
 20
124.63719190714301
 30
0.0
 11
205.3057943479298
 21
124.6371919071432
 31
0.0
  0
LINE
  5
596
  8
1外形線
 10
205.30579434793299
 20
139.45841171299949
 30
0.0
 11
210.30579434793029
 21
139.45841171299949
 31
0.0
  0
LINE
  5
597
  8
1外形線
 10
203.30579434792961
 20
140.0584117130019
 30
0.0
 11
203.30579434793
 21
141.25841171300169
 31
0.0
  0
LINE
  5
598
  8
1外形線
 10
203.30579434792961
 20
140.0584117130019
 30
0.0
 11
205.30579434793
 21
140.0584117130019
 31
0.0
  0
LINE
  5
599
  8
1外形線
 10
203.30579434793
 20
141.25841171300169
 30
0.0
 11
205.30579434793
 21
141.25841171300169
 31
0.0
  0
LINE
  5
59A
  8
1外形線
 10
141.30579434793029
 20
183.6584117130007
 30
0.0
 11
141.30579434793049
 21
182.4584117130008
 31
0.0
  0
LINE
  5
59B
  8
1外形線
 10
205.30579434793299
 20
184.2584117130034
 30
0.0
 11
210.30579434793029
 21
184.2584117130034
 31
0.0
  0
LINE
  5
59C
  8
1外形線
 10
203.30579434792961
 20
183.65841171299999
 30
0.0
 11
203.30579434793
 21
182.4584117130002
 31
0.0
  0
LINE
  5
59D
  8
1外形線
 10
203.30579434792961
 20
183.65841171299999
 30
0.0
 11
205.30579434793
 21
183.65841171299999
 31
0.0
  0
LINE
  5
59E
  8
1外形線
 10
203.30579434793
 20
182.4584117130002
 30
0.0
 11
205.30579434793
 21
182.4584117130002
 31
0.0
  0
ENDSEC
  0
EOF
