  0
SECTION
  2
HEADER
  9
$ACADVER
  1
AC1009
  9
$INSBASE
 10
0.0
 20
0.0
 30
0.0
  9
$EXTMIN
 10
35.739819845913139
 20
-25.750029856048059
 30
-0.0015258207003583
  9
$EXTMAX
 10
410.02066347332948
 20
186.25841171300181
 30
0.0000000349246037
  9
$LIMMIN
 10
0.0
 20
0.0
  9
$LIMMAX
 10
420.0
 20
297.0
  9
$ORTHOMODE
 70
     0
  9
$REGENMODE
 70
     1
  9
$FILLMODE
 70
     1
  9
$QTEXTMODE
 70
     0
  9
$MIRRTEXT
 70
     1
  9
$DRAGMODE
 70
     2
  9
$LTSCALE
 40
1.0
  9
$OSMODE
 70
    37
  9
$ATTMODE
 70
     1
  9
$TEXTSIZE
 40
2.5
  9
$TRACEWID
 40
1.0
  9
$TEXTSTYLE
  7
STANDARD
  9
$CLAYER
  8
0
  9
$CELTYPE
  6
BYLAYER
  9
$CECOLOR
 62
   256
  9
$DIMSCALE
 40
1.0
  9
$DIMASZ
 40
2.5
  9
$DIMEXO
 40
0.625
  9
$DIMDLI
 40
3.75
  9
$DIMRND
 40
0.0
  9
$DIMDLE
 40
0.0
  9
$DIMEXE
 40
1.25
  9
$DIMTP
 40
0.0
  9
$DIMTM
 40
0.0
  9
$DIMTXT
 40
2.5
  9
$DIMCEN
 40
2.5
  9
$DIMTSZ
 40
0.0
  9
$DIMTOL
 70
     0
  9
$DIMLIM
 70
     0
  9
$DIMTIH
 70
     0
  9
$DIMTOH
 70
     0
  9
$DIMSE1
 70
     0
  9
$DIMSE2
 70
     0
  9
$DIMTAD
 70
     1
  9
$DIMZIN
 70
     8
  9
$DIMBLK
  1

  9
$DIMASO
 70
     1
  9
$DIMSHO
 70
     1
  9
$DIMPOST
  1

  9
$DIMAPOST
  1

  9
$DIMALT
 70
     0
  9
$DIMALTD
 70
     3
  9
$DIMALTF
 40
0.03937007874016
  9
$DIMLFAC
 40
1.0
  9
$DIMTOFL
 70
     1
  9
$DIMTVP
 40
0.0
  9
$DIMTIX
 70
     0
  9
$DIMSOXD
 70
     0
  9
$DIMSAH
 70
     0
  9
$DIMBLK1
  1

  9
$DIMBLK2
  1

  9
$DIMSTYLE
  2
ISO-25
  9
$DIMCLRD
 70
     0
  9
$DIMCLRE
 70
     0
  9
$DIMCLRT
 70
     0
  9
$DIMTFAC
 40
1.0
  9
$DIMGAP
 40
0.625
  9
$LUNITS
 70
     2
  9
$LUPREC
 70
     4
  9
$SKETCHINC
 40
1.0
  9
$FILLETRAD
 40
10.0
  9
$AUNITS
 70
     0
  9
$AUPREC
 70
     0
  9
$MENU
  1
.
  9
$ELEVATION
 40
0.0
  9
$PELEVATION
 40
0.0
  9
$THICKNESS
 40
0.0
  9
$LIMCHECK
 70
     0
  9
$BLIPMODE
 70
     0
  9
$CHAMFERA
 40
10.0
  9
$CHAMFERB
 40
10.0
  9
$SKPOLY
 70
     0
  9
$TDCREATE
 40
2452048.587873715
  9
$TDUPDATE
 40
2452048.5921560298
  9
$TDINDWG
 40
0.0042827778
  9
$TDUSRTIMER
 40
0.0042827778
  9
$USRTIMER
 70
     1
  9
$ANGBASE
 50
0.0
  9
$ANGDIR
 70
     0
  9
$PDMODE
 70
     0
  9
$PDSIZE
 40
0.0
  9
$PLINEWID
 40
0.0
  9
$COORDS
 70
     1
  9
$SPLFRAME
 70
     0
  9
$SPLINETYPE
 70
     6
  9
$SPLINESEGS
 70
     8
  9
$ATTDIA
 70
     0
  9
$ATTREQ
 70
     1
  9
$HANDLING
 70
-16383
  9
$HANDSEED
  5
74D
  9
$SURFTAB1
 70
     6
  9
$SURFTAB2
 70
     6
  9
$SURFTYPE
 70
     6
  9
$SURFU
 70
     6
  9
$SURFV
 70
     6
  9
$UCSNAME
  2

  9
$UCSORG
 10
0.0
 20
0.0
 30
0.0
  9
$UCSXDIR
 10
1.0
 20
0.0
 30
0.0
  9
$UCSYDIR
 10
0.0
 20
1.0
 30
0.0
  9
$PUCSNAME
  2

  9
$PUCSORG
 10
0.0
 20
0.0
 30
0.0
  9
$PUCSXDIR
 10
1.0
 20
0.0
 30
0.0
  9
$PUCSYDIR
 10
0.0
 20
1.0
 30
0.0
  9
$USERI1
 70
     0
  9
$USERI2
 70
     0
  9
$USERI3
 70
     0
  9
$USERI4
 70
     0
  9
$USERI5
 70
     0
  9
$USERR1
 40
0.0
  9
$USERR2
 40
0.0
  9
$USERR3
 40
0.0
  9
$USERR4
 40
0.0
  9
$USERR5
 40
0.0
  9
$WORLDVIEW
 70
     1
  9
$SHADEDGE
 70
     3
  9
$SHADEDIF
 70
    70
  9
$TILEMODE
 70
     1
  9
$MAXACTVP
 70
    64
  9
$PLIMCHECK
 70
     0
  9
$PEXTMIN
 10
1.0000000000000000E+020
 20
1.0000000000000000E+020
 30
1.0000000000000000E+020
  9
$PEXTMAX
 10
-1.0000000000000000E+020
 20
-1.0000000000000000E+020
 30
-1.0000000000000000E+020
  9
$PLIMMIN
 10
0.0
 20
0.0
  9
$PLIMMAX
 10
420.0
 20
297.0
  9
$UNITMODE
 70
     0
  9
$VISRETAIN
 70
     1
  9
$PLINEGEN
 70
     0
  9
$PSLTSCALE
 70
     1
  0
ENDSEC
  0
SECTION
  2
TABLES
  0
TABLE
  2
VPORT
 70
    12
  0
VPORT
  2
*ACTIVE
 70
     0
 10
0.0
 20
0.0
 11
1.0
 21
1.0
 12
166.35681071652851
 22
20.724196577187389
 13
0.0
 23
0.0
 14
10.0
 24
10.0
 15
10.0
 25
10.0
 16
0.0
 26
0.0
 36
1.0
 17
0.0
 27
0.0
 37
0.0
 40
1136.324781988588
 41
0.8452830188679245
 42
50.0
 43
0.0
 44
0.0
 50
0.0
 51
0.0
 71
     0
 72
   100
 73
     1
 74
     3
 75
     0
 76
     0
 77
     0
 78
     0
  0
ENDTAB
  0
TABLE
  2
LTYPE
 70
     1
  0
LTYPE
  2
CONTINUOUS
 70
     0
  3
Solid line
 72
    65
 73
     0
 40
0.0
  0
ENDTAB
  0
TABLE
  2
LAYER
 70
     2
  0
LAYER
  2
0
 70
     0
 62
     7
  6
CONTINUOUS
  0
LAYER
  2
1外形線
 70
     0
 62
     3
  6
CONTINUOUS
  0
ENDTAB
  0
TABLE
  2
STYLE
 70
     2
  0
STYLE
  2
STANDARD
 70
     0
 40
0.0
 41
1.0
 50
0.0
 71
     0
 42
2.5
  3
txt
  4

  0
STYLE
  2
KANJI
 70
     0
 40
0.0
 41
1.0
 50
0.0
 71
     0
 42
10.0
  3
simplex
  4
bigfont
  0
ENDTAB
  0
TABLE
  2
VIEW
 70
     0
  0
ENDTAB
  0
TABLE
  2
UCS
 70
     0
  0
ENDTAB
  0
TABLE
  2
APPID
 70
     1
  0
APPID
  2
ACAD
 70
     0
  0
ENDTAB
  0
TABLE
  2
DIMSTYLE
 70
     2
  0
DIMSTYLE
  2
ISO-25
 70
     0
  3

  4

  5

  6

  7

 40
1.0
 41
2.5
 42
0.625
 43
3.75
 44
1.25
 45
0.0
 46
0.0
 47
0.0
 48
0.0
140
2.5
141
2.5
142
0.0
143
0.03937007874016
144
1.0
145
0.0
146
1.0
147
0.625
 71
     0
 72
     0
 73
     0
 74
     0
 75
     0
 76
     0
 77
     1
 78
     8
170
     0
171
     3
172
     1
173
     0
174
     0
175
     0
176
     0
177
     0
178
     0
  0
DIMSTYLE
  2
STANDARD
 70
     0
  3

  4

  5

  6
1
  7
1
 40
1.0
 41
1.0
 42
1.0
 43
6.0
 44
1.0
 45
0.0
 46
0.0
 47
0.0
 48
0.0
140
2.5
141
0.0
142
0.0
143
25.399999999999999
144
1.0
145
0.0
146
1.0
147
0.5
 71
     0
 72
     0
 73
     0
 74
     0
 75
     0
 76
     0
 77
     1
 78
     8
170
     0
171
     2
172
     1
173
     1
174
     0
175
     0
176
     0
177
     0
178
     0
  0
ENDTAB
  0
ENDSEC
  0
SECTION
  2
BLOCKS
  0
BLOCK
  8
0
  2
$MODEL_SPACE
 70
     0
 10
0.0
 20
0.0
 30
0.0
  3
$MODEL_SPACE
  1

  0
ENDBLK
  5
21
  8
0
  0
BLOCK
 67
     1
  8
0
  2
$PAPER_SPACE
 70
     0
 10
0.0
 20
0.0
 30
0.0
  3
$PAPER_SPACE
  1

  0
ENDBLK
  5
1D
 67
     1
  8
0
  0
BLOCK
  8
0
  2
1
 70
     0
 10
0.0
 20
0.0
 30
0.0
  3
1
  1

  0
SOLID
  5
2C
  8
0
  6
BYBLOCK
 62
     0
 10
-1.811110924292052
 20
0.4852857095671653
 30
0.0
 11
-1.811110924292052
 21
-0.4852857095673642
 31
0.0
 12
0.0
 22
0.0
 32
0.0
 13
0.0
 23
0.0
 33
0.0
  0
ENDBLK
  5
2E
  8
0
  0
ENDSEC
  0
SECTION
  2
ENTITIES
  0
ARC
  5
705
  8
1外形線
 10
215.64209728477439
 20
115.7039966112895
 30
0.0
 40
40.0
 50
89.999999999998366
 51
180.0
  0
LINE
  5
706
  8
1外形線
 10
175.64209728477209
 20
37.203996611288566
 30
0.0
 11
241.64209728477209
 21
37.203996611288566
 31
0.0
  0
LINE
  5
707
  8
1外形線
 10
241.64209728477209
 20
35.70399661128647
 30
0.0
 11
177.5563108471452
 21
35.703996611288339
 31
0.0
  0
ARC
  5
708
  8
1外形線
 10
85.199216070783109
 20
119.7039966112893
 30
0.0
 40
36.0
 50
0.9459919373384421
 51
179.0540080626615
  0
LINE
  5
709
  8
1外形線
 10
120.1992842291136
 20
35.703996611288453
 30
0.0
 11
50.199147912454798
 21
35.70399661128635
 31
0.0
  0
LINE
  5
70A
  8
1外形線
 10
48.698943437460343
 20
37.20399661128851
 30
0.0
 11
50.199147912452531
 21
35.703996611288453
 31
0.0
  0
LINE
  5
70B
  8
1外形線
 10
48.698943437460343
 20
89.703996611289355
 30
0.0
 11
49.204122801725021
 21
120.2983538707058
 31
0.0
  0
LINE
  5
70C
  8
1外形線
 10
48.698943437460343
 20
89.703996611289355
 30
0.0
 11
48.698943437460343
 21
37.203996611288062
 31
0.0
  0
LINE
  5
70D
  8
1外形線
 10
121.6994887041063
 20
89.703996611289355
 30
0.0
 11
121.1943093398412
 21
120.2983538707058
 31
0.0
  0
LINE
  5
70E
  8
1外形線
 10
121.6994887041058
 20
89.703996611289355
 30
0.0
 11
121.6994887041058
 21
37.203996611288062
 31
0.0
  0
LINE
  5
70F
  8
1外形線
 10
121.6994887041063
 20
37.20399661128851
 30
0.0
 11
120.1992842291136
 21
35.703996611288453
 31
0.0
  0
LINE
  5
710
  8
1外形線
 10
175.64209728477209
 20
37.203996611288566
 30
0.0
 11
175.64209728477439
 21
115.70399661129061
 31
0.0
  0
ARC
  5
711
  8
1外形線
 10
177.5563108471452
 20
36.703996611288339
 30
0.0
 40
1.0
 50
224.9999999999965
 51
269.99999999999829
  0
LINE
  5
712
  8
1外形線
 10
176.84920406595859
 20
35.99688983010185
 30
0.0
 11
175.64209728477209
 21
37.20399661128851
 31
0.0
  0
LINE
  5
713
  8
1外形線
 10
408.02039084000609
 20
89.703996611289128
 30
0.0
 11
407.51575670522772
 21
120.2653340229606
 31
0.0
  0
LINE
  5
714
  8
1外形線
 10
410.02066347332948
 20
89.703996611289355
 30
0.0
 11
337.02011820668332
 21
89.703996611289355
 31
0.0
  0
LINE
  5
715
  8
1外形線
 10
408.52045899833672
 20
35.703996611288453
 30
0.0
 11
338.52032268167778
 21
35.70399661128635
 31
0.0
  0
ARC
  5
716
  8
1外形線
 10
373.52039084000609
 20
119.7039966112893
 30
0.0
 40
36.0
 50
0.9459919373384421
 51
179.0540080626615
  0
LINE
  5
717
  8
1外形線
 10
294.1420972847755
 20
155.7039966112882
 30
0.0
 11
215.64209728477479
 21
155.70399661128951
 31
0.0
  0
LINE
  5
718
  8
1外形線
 10
242.6420972847753
 20
89.703996611286925
 30
0.0
 11
295.6420972847755
 21
89.703996611288403
 31
0.0
  0
LINE
  5
719
  8
1外形線
 10
241.64209728477491
 20
88.703996611286811
 30
0.0
 11
241.64209728477209
 21
35.70399661128647
 31
0.0
  0
ARC
  5
71A
  8
1外形線
 10
242.64209728477479
 20
88.703996611286755
 30
0.0
 40
1.0
 50
90.000000000001606
 51
179.9999999999967
  0
LINE
  5
71B
  8
1外形線
 10
294.1420972847751
 20
155.7039966112882
 30
0.0
 11
294.14209728477317
 21
89.703996611288275
 31
0.0
  0
LINE
  5
71C
  8
1外形線
 10
295.6420972847755
 20
89.703996611288275
 30
0.0
 11
295.64209728477528
 21
153.7897830489155
 31
0.0
  0
LINE
  5
71D
  8
1外形線
 10
295.34920406596149
 20
154.49688983010211
 30
0.0
 11
294.14209728477528
 21
155.7039966112882
 31
0.0
  0
ARC
  5
71E
  8
1外形線
 10
294.64209728477528
 20
153.7897830489155
 30
0.0
 40
1.0
 50
0.0
 51
45.000000000004597
  0
ARC
  5
71F
  8
1外形線
 10
373.52039084000609
 20
119.7039966112893
 30
0.0
 40
34.0
 50
0.9459919373384421
 51
179.0540080626615
  0
LINE
  5
720
  8
1外形線
 10
352.52039084000631
 20
92.203996611292254
 30
0.0
 11
394.52039084000859
 21
92.203996611290904
 31
0.0
  0
LINE
  5
721
  8
1外形線
 10
354.02039084000631
 20
94.203996611284765
 30
0.0
 11
393.02039084000882
 21
94.203996611284538
 31
0.0
  0
LINE
  5
722
  8
1外形線
 10
407.92039084000749
 20
50.70399661128738
 30
0.0
 11
339.12039084000747
 21
50.70399661128738
 31
0.0
  0
LINE
  5
723
  8
1外形線
 10
337.02011820668332
 20
89.703996611289355
 30
0.0
 11
337.525297570948
 21
120.2983538707058
 31
0.0
  0
LINE
  5
724
  8
1外形線
 10
339.02039084000609
 20
89.703996611289128
 30
0.0
 11
339.52502497478491
 21
120.2653340229606
 31
0.0
  0
LINE
  5
725
  8
1外形線
 10
354.02039084000631
 20
95.703996611293746
 30
0.0
 11
354.02039084000631
 21
94.203996611293746
 31
0.0
  0
LINE
  5
726
  8
1外形線
 10
352.52039084000631
 20
95.703996611293746
 30
0.0
 11
352.52039084000631
 21
92.203996611293746
 31
0.0
  0
LINE
  5
727
  8
1外形線
 10
337.02011820668332
 20
89.703996611289355
 30
0.0
 11
337.02011820668332
 21
37.203996611288062
 31
0.0
  0
LINE
  5
728
  8
1外形線
 10
339.02039084000609
 20
89.703996611289128
 30
0.0
 11
339.02039084000609
 21
35.703996611288453
 31
0.0
  0
ARC
  5
729
  8
1外形線
 10
353.52039084000751
 20
63.103996611287243
 30
0.0
 40
2.1000000000000001
 50
0.0
 51
180.0
  0
LINE
  5
72A
  8
1外形線
 10
337.02011820668332
 20
37.20399661128851
 30
0.0
 11
338.52032268167551
 21
35.703996611288453
 31
0.0
  0
LINE
  5
72B
  8
1外形線
 10
352.52039084000711
 20
50.70399661128738
 30
0.0
 11
352.52039084000751
 21
35.70399661128738
 31
0.0
  0
ARC
  5
72C
  8
1外形線
 10
353.52039084000751
 20
59.303996611287523
 30
0.0
 40
2.1000000000000001
 50
180.0
 51
0.0
  0
LINE
  5
72D
  8
1外形線
 10
351.42039084000731
 20
59.303996611287523
 30
0.0
 11
351.42039084000731
 21
63.103996611287243
 31
0.0
  0
LINE
  5
72E
  8
1外形線
 10
355.62039084000742
 20
59.303996611287403
 30
0.0
 11
355.62039084000742
 21
63.103996611287243
 31
0.0
  0
LINE
  5
72F
  8
1外形線
 10
354.02039084000631
 20
95.703996611293746
 30
0.0
 11
342.82039084000741
 21
95.703996611293746
 31
0.0
  0
LINE
  5
730
  8
1外形線
 10
339.15056795280918
 20
97.587701643245296
 30
0.0
 11
341.25537484924467
 21
99.029076565105072
 31
0.0
  0
LINE
  5
731
  8
1外形線
 10
342.82039084000741
 20
95.703996611293746
 30
0.0
 11
342.82039084000741
 21
98.203996611293064
 31
0.0
  0
ARC
  5
732
  8
1外形線
 10
341.82039084000741
 20
98.203996611293064
 30
0.0
 40
1.0
 50
0.0
 51
124.4034017438432
  0
LINE
  5
733
  8
1外形線
 10
393.02039084000859
 20
95.703996611289824
 30
0.0
 11
393.02039084000882
 21
94.203996611289824
 31
0.0
  0
LINE
  5
734
  8
1外形線
 10
394.52039084000859
 20
95.703996611289824
 30
0.0
 11
394.52039084000859
 21
92.203996611289824
 31
0.0
  0
ARC
  5
735
  8
1外形線
 10
373.52039084000739
 20
63.103996611287243
 30
0.0
 40
2.1000000000000001
 50
0.0
 51
180.0
  0
ARC
  5
736
  8
1外形線
 10
373.52039084000739
 20
59.303996611287523
 30
0.0
 40
2.1000000000000001
 50
180.0
 51
0.0
  0
LINE
  5
737
  8
1外形線
 10
375.62039084000742
 20
59.303996611287403
 30
0.0
 11
375.62039084000742
 21
63.103996611287243
 31
0.0
  0
LINE
  5
738
  8
1外形線
 10
371.42039084000731
 20
59.303996611287523
 30
0.0
 11
371.42039084000731
 21
63.103996611287243
 31
0.0
  0
ARC
  5
739
  8
1外形線
 10
393.52039084000751
 20
63.103996611287243
 30
0.0
 40
2.1000000000000001
 50
0.0
 51
180.0
  0
ARC
  5
73A
  8
1外形線
 10
393.52039084000751
 20
59.303996611287523
 30
0.0
 40
2.1000000000000001
 50
180.0
 51
0.0
  0
LINE
  5
73B
  8
1外形線
 10
394.52039084000768
 20
50.70399661128738
 30
0.0
 11
394.52039084000739
 21
35.70399661128738
 31
0.0
  0
LINE
  5
73C
  8
1外形線
 10
391.42039084000731
 20
59.303996611287523
 30
0.0
 11
391.42039084000731
 21
63.103996611287243
 31
0.0
  0
LINE
  5
73D
  8
1外形線
 10
395.62039084000742
 20
59.303996611287403
 30
0.0
 11
395.62039084000742
 21
63.103996611287243
 31
0.0
  0
LINE
  5
73E
  8
1外形線
 10
393.02039084000859
 20
95.703996611289824
 30
0.0
 11
404.2203908400075
 21
95.703996611289824
 31
0.0
  0
LINE
  5
73F
  8
1外形線
 10
407.8902137272031
 20
97.587701643246987
 30
0.0
 11
405.78540683077028
 21
99.029076565105072
 31
0.0
  0
LINE
  5
740
  8
1外形線
 10
404.2203908400075
 20
95.703996611289881
 30
0.0
 11
404.2203908400075
 21
98.203996611293064
 31
0.0
  0
ARC
  5
741
  8
1外形線
 10
405.2203908400075
 20
98.203996611293064
 30
0.0
 40
1.0
 50
55.596598256156781
 51
180.0
  0
LINE
  5
742
  8
1外形線
 10
410.02066347332931
 20
89.703996611289355
 30
0.0
 11
409.51548410906418
 21
120.2983538707058
 31
0.0
  0
LINE
  5
743
  8
1外形線
 10
408.02039084000609
 20
89.703996611289128
 30
0.0
 11
408.02039084000609
 21
35.703996611288453
 31
0.0
  0
LINE
  5
744
  8
1外形線
 10
410.02066347332891
 20
89.703996611289355
 30
0.0
 11
410.02066347332891
 21
37.203996611288062
 31
0.0
  0
LINE
  5
745
  8
1外形線
 10
410.02066347332931
 20
37.20399661128851
 30
0.0
 11
408.52045899833672
 21
35.703996611288453
 31
0.0
  0
ENDSEC
  0
EOF
