  0
SECTION
  2
HEADER
  9
$ACADVER
  1
AC1009
  9
$INSBASE
 10
0.0
 20
0.0
 30
0.0
  9
$EXTMIN
 10
35.739819845913139
 20
-25.750029856048059
 30
-0.0015258207003583
  9
$EXTMAX
 10
410.02066347332948
 20
186.25841171300181
 30
0.0000000349246037
  9
$LIMMIN
 10
0.0
 20
0.0
  9
$LIMMAX
 10
420.0
 20
297.0
  9
$ORTHOMODE
 70
     0
  9
$REGENMODE
 70
     1
  9
$FILLMODE
 70
     1
  9
$QTEXTMODE
 70
     0
  9
$MIRRTEXT
 70
     1
  9
$DRAGMODE
 70
     2
  9
$LTSCALE
 40
1.0
  9
$OSMODE
 70
    37
  9
$ATTMODE
 70
     1
  9
$TEXTSIZE
 40
2.5
  9
$TRACEWID
 40
1.0
  9
$TEXTSTYLE
  7
STANDARD
  9
$CLAYER
  8
0
  9
$CELTYPE
  6
BYLAYER
  9
$CECOLOR
 62
   256
  9
$DIMSCALE
 40
1.0
  9
$DIMASZ
 40
2.5
  9
$DIMEXO
 40
0.625
  9
$DIMDLI
 40
3.75
  9
$DIMRND
 40
0.0
  9
$DIMDLE
 40
0.0
  9
$DIMEXE
 40
1.25
  9
$DIMTP
 40
0.0
  9
$DIMTM
 40
0.0
  9
$DIMTXT
 40
2.5
  9
$DIMCEN
 40
2.5
  9
$DIMTSZ
 40
0.0
  9
$DIMTOL
 70
     0
  9
$DIMLIM
 70
     0
  9
$DIMTIH
 70
     0
  9
$DIMTOH
 70
     0
  9
$DIMSE1
 70
     0
  9
$DIMSE2
 70
     0
  9
$DIMTAD
 70
     1
  9
$DIMZIN
 70
     8
  9
$DIMBLK
  1

  9
$DIMASO
 70
     1
  9
$DIMSHO
 70
     1
  9
$DIMPOST
  1

  9
$DIMAPOST
  1

  9
$DIMALT
 70
     0
  9
$DIMALTD
 70
     3
  9
$DIMALTF
 40
0.03937007874016
  9
$DIMLFAC
 40
1.0
  9
$DIMTOFL
 70
     1
  9
$DIMTVP
 40
0.0
  9
$DIMTIX
 70
     0
  9
$DIMSOXD
 70
     0
  9
$DIMSAH
 70
     0
  9
$DIMBLK1
  1

  9
$DIMBLK2
  1

  9
$DIMSTYLE
  2
ISO-25
  9
$DIMCLRD
 70
     0
  9
$DIMCLRE
 70
     0
  9
$DIMCLRT
 70
     0
  9
$DIMTFAC
 40
1.0
  9
$DIMGAP
 40
0.625
  9
$LUNITS
 70
     2
  9
$LUPREC
 70
     4
  9
$SKETCHINC
 40
1.0
  9
$FILLETRAD
 40
10.0
  9
$AUNITS
 70
     0
  9
$AUPREC
 70
     0
  9
$MENU
  1
.
  9
$ELEVATION
 40
0.0
  9
$PELEVATION
 40
0.0
  9
$THICKNESS
 40
0.0
  9
$LIMCHECK
 70
     0
  9
$BLIPMODE
 70
     0
  9
$CHAMFERA
 40
10.0
  9
$CHAMFERB
 40
10.0
  9
$SKPOLY
 70
     0
  9
$TDCREATE
 40
2452048.587873715
  9
$TDUPDATE
 40
2452048.592612708
  9
$TDINDWG
 40
0.0047396875
  9
$TDUSRTIMER
 40
0.0047396875
  9
$USRTIMER
 70
     1
  9
$ANGBASE
 50
0.0
  9
$ANGDIR
 70
     0
  9
$PDMODE
 70
     0
  9
$PDSIZE
 40
0.0
  9
$PLINEWID
 40
0.0
  9
$COORDS
 70
     1
  9
$SPLFRAME
 70
     0
  9
$SPLINETYPE
 70
     6
  9
$SPLINESEGS
 70
     8
  9
$ATTDIA
 70
     0
  9
$ATTREQ
 70
     1
  9
$HANDLING
 70
-16383
  9
$HANDSEED
  5
814
  9
$SURFTAB1
 70
     6
  9
$SURFTAB2
 70
     6
  9
$SURFTYPE
 70
     6
  9
$SURFU
 70
     6
  9
$SURFV
 70
     6
  9
$UCSNAME
  2

  9
$UCSORG
 10
0.0
 20
0.0
 30
0.0
  9
$UCSXDIR
 10
1.0
 20
0.0
 30
0.0
  9
$UCSYDIR
 10
0.0
 20
1.0
 30
0.0
  9
$PUCSNAME
  2

  9
$PUCSORG
 10
0.0
 20
0.0
 30
0.0
  9
$PUCSXDIR
 10
1.0
 20
0.0
 30
0.0
  9
$PUCSYDIR
 10
0.0
 20
1.0
 30
0.0
  9
$USERI1
 70
     0
  9
$USERI2
 70
     0
  9
$USERI3
 70
     0
  9
$USERI4
 70
     0
  9
$USERI5
 70
     0
  9
$USERR1
 40
0.0
  9
$USERR2
 40
0.0
  9
$USERR3
 40
0.0
  9
$USERR4
 40
0.0
  9
$USERR5
 40
0.0
  9
$WORLDVIEW
 70
     1
  9
$SHADEDGE
 70
     3
  9
$SHADEDIF
 70
    70
  9
$TILEMODE
 70
     1
  9
$MAXACTVP
 70
    64
  9
$PLIMCHECK
 70
     0
  9
$PEXTMIN
 10
1.0000000000000000E+020
 20
1.0000000000000000E+020
 30
1.0000000000000000E+020
  9
$PEXTMAX
 10
-1.0000000000000000E+020
 20
-1.0000000000000000E+020
 30
-1.0000000000000000E+020
  9
$PLIMMIN
 10
0.0
 20
0.0
  9
$PLIMMAX
 10
420.0
 20
297.0
  9
$UNITMODE
 70
     0
  9
$VISRETAIN
 70
     1
  9
$PLINEGEN
 70
     0
  9
$PSLTSCALE
 70
     1
  0
ENDSEC
  0
SECTION
  2
TABLES
  0
TABLE
  2
VPORT
 70
    13
  0
VPORT
  2
*ACTIVE
 70
     0
 10
0.0
 20
0.0
 11
1.0
 21
1.0
 12
166.35681071652851
 22
20.724196577187389
 13
0.0
 23
0.0
 14
10.0
 24
10.0
 15
10.0
 25
10.0
 16
0.0
 26
0.0
 36
1.0
 17
0.0
 27
0.0
 37
0.0
 40
1136.324781988588
 41
0.8452830188679245
 42
50.0
 43
0.0
 44
0.0
 50
0.0
 51
0.0
 71
     0
 72
   100
 73
     1
 74
     3
 75
     0
 76
     0
 77
     0
 78
     0
  0
ENDTAB
  0
TABLE
  2
LTYPE
 70
     1
  0
LTYPE
  2
CONTINUOUS
 70
     0
  3
Solid line
 72
    65
 73
     0
 40
0.0
  0
ENDTAB
  0
TABLE
  2
LAYER
 70
     2
  0
LAYER
  2
0
 70
     0
 62
     7
  6
CONTINUOUS
  0
LAYER
  2
1外形線
 70
     0
 62
     3
  6
CONTINUOUS
  0
ENDTAB
  0
TABLE
  2
STYLE
 70
     2
  0
STYLE
  2
STANDARD
 70
     0
 40
0.0
 41
1.0
 50
0.0
 71
     0
 42
2.5
  3
txt
  4

  0
STYLE
  2
KANJI
 70
     0
 40
0.0
 41
1.0
 50
0.0
 71
     0
 42
10.0
  3
simplex
  4
bigfont
  0
ENDTAB
  0
TABLE
  2
VIEW
 70
     0
  0
ENDTAB
  0
TABLE
  2
UCS
 70
     0
  0
ENDTAB
  0
TABLE
  2
APPID
 70
     1
  0
APPID
  2
ACAD
 70
     0
  0
ENDTAB
  0
TABLE
  2
DIMSTYLE
 70
     2
  0
DIMSTYLE
  2
ISO-25
 70
     0
  3

  4

  5

  6

  7

 40
1.0
 41
2.5
 42
0.625
 43
3.75
 44
1.25
 45
0.0
 46
0.0
 47
0.0
 48
0.0
140
2.5
141
2.5
142
0.0
143
0.03937007874016
144
1.0
145
0.0
146
1.0
147
0.625
 71
     0
 72
     0
 73
     0
 74
     0
 75
     0
 76
     0
 77
     1
 78
     8
170
     0
171
     3
172
     1
173
     0
174
     0
175
     0
176
     0
177
     0
178
     0
  0
DIMSTYLE
  2
STANDARD
 70
     0
  3

  4

  5

  6
1
  7
1
 40
1.0
 41
1.0
 42
1.0
 43
6.0
 44
1.0
 45
0.0
 46
0.0
 47
0.0
 48
0.0
140
2.5
141
0.0
142
0.0
143
25.399999999999999
144
1.0
145
0.0
146
1.0
147
0.5
 71
     0
 72
     0
 73
     0
 74
     0
 75
     0
 76
     0
 77
     1
 78
     8
170
     0
171
     2
172
     1
173
     1
174
     0
175
     0
176
     0
177
     0
178
     0
  0
ENDTAB
  0
ENDSEC
  0
SECTION
  2
BLOCKS
  0
BLOCK
  8
0
  2
$MODEL_SPACE
 70
     0
 10
0.0
 20
0.0
 30
0.0
  3
$MODEL_SPACE
  1

  0
ENDBLK
  5
21
  8
0
  0
BLOCK
 67
     1
  8
0
  2
$PAPER_SPACE
 70
     0
 10
0.0
 20
0.0
 30
0.0
  3
$PAPER_SPACE
  1

  0
ENDBLK
  5
1D
 67
     1
  8
0
  0
BLOCK
  8
0
  2
1
 70
     0
 10
0.0
 20
0.0
 30
0.0
  3
1
  1

  0
SOLID
  5
2C
  8
0
  6
BYBLOCK
 62
     0
 10
-1.811110924292052
 20
0.4852857095671653
 30
0.0
 11
-1.811110924292052
 21
-0.4852857095673642
 31
0.0
 12
0.0
 22
0.0
 32
0.0
 13
0.0
 23
0.0
 33
0.0
  0
ENDBLK
  5
2E
  8
0
  0
ENDSEC
  0
SECTION
  2
ENTITIES
  0
LINE
  5
7AF
  8
1外形線
 10
110.9705331491913
 20
64.855972465623495
 30
0.0
 11
110.970533149191
 21
62.855972465623502
 31
0.0
  0
LINE
  5
7B0
  8
1外形線
 10
109.77053314919119
 20
64.855972465623495
 30
0.0
 11
109.770533149191
 21
62.855972465623672
 31
0.0
  0
LINE
  5
7B1
  8
1外形線
 10
146.17053314919181
 20
64.855972465623495
 30
0.0
 11
146.17053314919201
 21
62.855972465623502
 31
0.0
  0
LINE
  5
7B2
  8
1外形線
 10
147.37053314919169
 20
64.855972465623495
 30
0.0
 11
147.370533149192
 21
62.855972465623672
 31
0.0
  0
ARC
  5
7B3
  8
1外形線
 10
91.969216332052383
 20
61.855972465623523
 30
0.0
 40
1.0
 50
0.0
 51
90.0
  0
LINE
  5
7B4
  8
1外形線
 10
79.969216332044311
 20
62.855972465621683
 30
0.0
 11
79.969216332044311
 21
63.855972465621669
 31
0.0
  0
LINE
  5
7B5
  8
1外形線
 10
71.969216332044525
 20
62.855972465621221
 30
0.0
 11
71.969216332044311
 21
63.855972465621221
 31
0.0
  0
ARC
  5
7B6
  8
1外形線
 10
128.57053314919159
 20
50.255972465615173
 30
0.0
 40
2.5
 50
0.0
 51
180.0
  0
ARC
  5
7B7
  8
1外形線
 10
128.57053314919159
 20
46.455972465615211
 30
0.0
 40
2.5
 50
180.0
 51
0.0
  0
LINE
  5
7B8
  8
1外形線
 10
107.2705331491921
 20
62.855972465623502
 30
0.0
 11
149.870533149191
 21
62.855972465623502
 31
0.0
  0
LINE
  5
7B9
  8
1外形線
 10
146.87053314919271
 20
30.855972465615309
 30
0.0
 11
110.2705331491905
 21
30.855972465615331
 31
0.0
  0
LINE
  5
7BA
  8
1外形線
 10
52.977411266344802
 20
62.855972465622578
 30
0.0
 11
91.969216332052355
 21
62.85597246562358
 31
0.0
  0
LINE
  5
7BB
  8
1外形線
 10
52.977411266344802
 20
57.855972465622578
 30
0.0
 11
87.969216332053634
 21
57.855972465623502
 31
0.0
  0
LINE
  5
7BC
  8
1外形線
 10
52.977411266344802
 20
62.855972465622578
 30
0.0
 11
52.977411266344802
 21
57.855972465622578
 31
0.0
  0
LINE
  5
7BD
  8
1外形線
 10
107.270533149192
 20
24.355972465615331
 30
0.0
 11
107.270533149192
 21
62.855972465623502
 31
0.0
  0
LINE
  5
7BE
  8
1外形線
 10
92.969216332052156
 20
22.864167399915569
 30
0.0
 11
92.969216332052156
 21
61.855972465623488
 31
0.0
  0
LINE
  5
7BF
  8
1外形線
 10
87.969216332052156
 20
22.864167399915569
 30
0.0
 11
87.969216332053406
 21
62.855972465623502
 31
0.0
  0
LINE
  5
7C0
  8
1外形線
 10
92.969216332052156
 20
22.864167399915569
 30
0.0
 11
87.969216332052156
 21
22.864167399915569
 31
0.0
  0
LINE
  5
7C1
  8
1外形線
 10
109.2705331491904
 20
29.855972465615341
 30
0.0
 11
109.2705331491905
 21
23.064167399915871
 31
0.0
  0
LINE
  5
7C2
  8
1外形線
 10
107.270533149192
 20
24.355972465615331
 30
0.0
 11
108.4776399303785
 21
23.148865684428898
 31
0.0
  0
ARC
  5
7C3
  8
1外形線
 10
109.184746711565
 20
23.855972465615299
 30
0.0
 40
1.0
 50
225.00000000000011
 51
261.79201031391381
  0
ARC
  5
7C4
  8
1外形線
 10
109.0705331491904
 20
23.064167399915839
 30
0.0
 40
0.2
 50
261.7920103139175
 51
0.0
  0
ARC
  5
7C5
  8
1外形線
 10
110.2705331491905
 20
29.855972465615299
 30
0.0
 40
1.0
 50
89.999999999999588
 51
180.0
  0
LINE
  5
7C6
  8
1外形線
 10
94.969216332052156
 20
42.85597246561462
 30
0.0
 11
94.969216332052156
 21
48.855972465614627
 31
0.0
  0
LINE
  5
7C7
  8
1外形線
 10
92.969216332052156
 20
41.855972465614627
 30
0.0
 11
93.969216332052156
 21
41.855972465614627
 31
0.0
  0
ARC
  5
7C8
  8
1外形線
 10
93.969216332052383
 20
42.855972465614649
 30
0.0
 40
1.0
 50
269.9999999999992
 51
0.0
  0
LINE
  5
7C9
  8
1外形線
 10
92.969216332052156
 20
49.855972465614627
 30
0.0
 11
93.96921633205227
 21
49.855972465614627
 31
0.0
  0
ARC
  5
7CA
  8
1外形線
 10
93.969216332052383
 20
48.855972465614663
 30
0.0
 40
1.0
 50
0.0
 51
89.999999999999204
  0
LINE
  5
7CB
  8
1外形線
 10
110.9705331491912
 20
41.855972465615793
 30
0.0
 11
110.9705331491912
 21
49.855972465615757
 31
0.0
  0
LINE
  5
7CC
  8
1外形線
 10
109.77053314919119
 20
41.855972465615793
 30
0.0
 11
109.77053314919119
 21
49.855972465615757
 31
0.0
  0
LINE
  5
7CD
  8
1外形線
 10
126.07053314919141
 20
50.255972465615173
 30
0.0
 11
126.07053314919141
 21
46.45597246561524
 31
0.0
  0
LINE
  5
7CE
  8
1外形線
 10
109.77053314919119
 20
41.855972465615793
 30
0.0
 11
110.9705331491912
 21
41.855972465615793
 31
0.0
  0
LINE
  5
7CF
  8
1外形線
 10
109.77053314919119
 20
49.855972465615757
 30
0.0
 11
110.9705331491912
 21
49.855972465615757
 31
0.0
  0
ARC
  5
7D0
  8
1外形線
 10
128.57053314919159
 20
32.355972465612581
 30
0.0
 40
0.4999999999999006
 50
180.00000000000321
 51
0.0
  0
LINE
  5
7D1
  8
1外形線
 10
149.87053314919109
 20
24.355972465615309
 30
0.0
 11
149.87053314919109
 21
62.855972465623502
 31
0.0
  0
LINE
  5
7D2
  8
1外形線
 10
149.87053314919109
 20
24.355972465615309
 30
0.0
 11
148.66342636800471
 21
23.148865684428859
 31
0.0
  0
LINE
  5
7D3
  8
1外形線
 10
147.87053314919271
 20
29.855972465615299
 30
0.0
 11
147.87053314919271
 21
23.064167399915839
 31
0.0
  0
ARC
  5
7D4
  8
1外形線
 10
148.07053314919261
 20
23.064167399915839
 30
0.0
 40
0.2
 50
180.0
 51
278.2079896860825
  0
ARC
  5
7D5
  8
1外形線
 10
147.95631958681801
 20
23.855972465615299
 30
0.0
 40
1.0
 50
278.20798968608568
 51
314.99999999999977
  0
ARC
  5
7D6
  8
1外形線
 10
146.87053314919271
 20
29.855972465615299
 30
0.0
 40
1.0
 50
0.0
 51
89.999999999999588
  0
LINE
  5
7D7
  8
1外形線
 10
131.0705331491915
 20
46.455972465615211
 30
0.0
 11
131.07053314919139
 21
50.255972465615173
 31
0.0
  0
LINE
  5
7D8
  8
1外形線
 10
147.37053314919191
 20
41.855972465615757
 30
0.0
 11
147.37053314919191
 21
49.855972465615757
 31
0.0
  0
LINE
  5
7D9
  8
1外形線
 10
146.1705331491919
 20
41.855972465615757
 30
0.0
 11
146.1705331491919
 21
49.855972465615757
 31
0.0
  0
LINE
  5
7DA
  8
1外形線
 10
128.07053314919139
 20
32.355972465612581
 30
0.0
 11
128.07053314919179
 21
44.00648272283194
 31
0.0
  0
LINE
  5
7DB
  8
1外形線
 10
129.07053314919111
 20
32.355972465612581
 30
0.0
 11
129.07053314919111
 21
44.00648272283194
 31
0.0
  0
LINE
  5
7DC
  8
1外形線
 10
147.37053314919191
 20
41.855972465615757
 30
0.0
 11
146.1705331491919
 21
41.855972465615757
 31
0.0
  0
LINE
  5
7DD
  8
1外形線
 10
129.07053314919139
 20
52.705462208398437
 30
0.0
 11
129.0705331491915
 21
61.355972465623722
 31
0.0
  0
LINE
  5
7DE
  8
1外形線
 10
128.07053314919159
 20
52.705462208398437
 30
0.0
 11
128.07053314919159
 21
61.355972465623722
 31
0.0
  0
ARC
  5
7DF
  8
1外形線
 10
128.57053314919159
 20
61.355972465623722
 30
0.0
 40
0.4999999999999006
 50
0.0
 51
179.9999999999967
  0
LINE
  5
7E0
  8
1外形線
 10
147.37053314919191
 20
49.855972465615757
 30
0.0
 11
146.1705331491919
 21
49.855972465615757
 31
0.0
  0
LINE
  5
7E1
  8
1外形線
 10
54.469216332044077
 20
118.4520013376728
 30
0.0
 11
92.969216332053634
 21
118.4520013376728
 31
0.0
  0
ARC
  5
7E2
  8
1外形線
 10
80.369216332043948
 20
97.152001337673369
 30
0.0
 40
2.5
 50
270.0
 51
90.0
  0
LINE
  5
7E3
  8
1外形線
 10
54.469216332044077
 20
75.852001337673855
 30
0.0
 11
92.969216332053634
 21
75.85200133767384
 31
0.0
  0
LINE
  5
7E4
  8
1外形線
 10
60.969216332044077
 20
78.852001337672263
 30
0.0
 11
60.969216332044077
 21
115.4520013376744
 31
0.0
  0
LINE
  5
7E5
  8
1外形線
 10
59.969216332044077
 20
77.852001337672277
 30
0.0
 11
53.17741126634462
 21
77.852001337672277
 31
0.0
  0
LINE
  5
7E6
  8
1外形線
 10
54.469216332044077
 20
75.852001337673855
 30
0.0
 11
53.262109550857637
 21
77.059108118860308
 31
0.0
  0
ARC
  5
7E7
  8
1外形線
 10
53.969216332044077
 20
77.766214900046862
 30
0.0
 40
1.0
 50
188.20798968608659
 51
225.00000000000011
  0
ARC
  5
7E8
  8
1外形線
 10
53.17741126634462
 20
77.652001337672289
 30
0.0
 40
0.2
 50
90.0
 51
188.20798968608329
  0
LINE
  5
7E9
  8
1外形線
 10
79.969216332044311
 20
78.352001337673528
 30
0.0
 11
79.969216332044311
 21
79.552001337673573
 31
0.0
  0
ARC
  5
7EA
  8
1外形線
 10
59.969216332044077
 20
78.852001337672391
 30
0.0
 40
1.0
 50
270.0
 51
0.0
  0
LINE
  5
7EB
  8
1外形線
 10
71.969216332044311
 20
78.352001337673528
 30
0.0
 11
71.969216332044311
 21
79.552001337673573
 31
0.0
  0
LINE
  5
7EC
  8
1外形線
 10
72.969216332044311
 20
64.855972465621107
 30
0.0
 11
78.969216332044311
 21
64.855972465621676
 31
0.0
  0
ARC
  5
7ED
  8
1外形線
 10
72.969216332044311
 20
63.855972465621221
 30
0.0
 40
1.0
 50
90.000000000004064
 51
180.0000000000048
  0
ARC
  5
7EE
  8
1外形線
 10
78.969216332044311
 20
63.855972465621669
 30
0.0
 40
1.0
 50
0.0000000000048853
 51
90.000000000004064
  0
LINE
  5
7EF
  8
1外形線
 10
71.969216332044311
 20
78.352001337673528
 30
0.0
 11
79.969216332044311
 21
78.352001337673528
 31
0.0
  0
LINE
  5
7F0
  8
1外形線
 10
71.969216332044311
 20
79.552001337673573
 30
0.0
 11
79.969216332044311
 21
79.552001337673573
 31
0.0
  0
LINE
  5
7F1
  8
1外形線
 10
59.969216332044077
 20
116.4520013376744
 30
0.0
 11
53.17741126634462
 21
116.4520013376744
 31
0.0
  0
ARC
  5
7F2
  8
1外形線
 10
53.969216332044077
 20
116.5377877752998
 30
0.0
 40
1.0
 50
134.9999999999998
 51
171.79201031391329
  0
ARC
  5
7F3
  8
1外形線
 10
53.17741126634462
 20
116.65200133767441
 30
0.0
 40
0.2
 50
171.79201031391659
 51
270.0
  0
LINE
  5
7F4
  8
1外形線
 10
54.469216332044077
 20
118.4520013376728
 30
0.0
 11
53.262109550857637
 21
117.2448945564864
 31
0.0
  0
LINE
  5
7F5
  8
1外形線
 10
62.469216332041348
 20
96.652001337673425
 30
0.0
 11
74.119726589260722
 21
96.65200133767388
 31
0.0
  0
LINE
  5
7F6
  8
1外形線
 10
62.469216332041348
 20
97.652001337672914
 30
0.0
 11
74.119726589260722
 21
97.652001337672914
 31
0.0
  0
ARC
  5
7F7
  8
1外形線
 10
62.469216332041348
 20
97.152001337673326
 30
0.0
 40
0.4999999999999006
 50
90.000000000003254
 51
270.0
  0
ARC
  5
7F8
  8
1外形線
 10
76.569216332043993
 20
97.152001337673369
 30
0.0
 40
2.5
 50
90.0
 51
270.0
  0
LINE
  5
7F9
  8
1外形線
 10
80.369216332043948
 20
99.652001337673525
 30
0.0
 11
76.569216332043993
 21
99.652001337673482
 31
0.0
  0
LINE
  5
7FA
  8
1外形線
 10
76.569216332043993
 20
94.652001337673482
 30
0.0
 11
80.369216332043948
 21
94.652001337673482
 31
0.0
  0
ARC
  5
7FB
  8
1外形線
 10
59.969216332044077
 20
115.4520013376745
 30
0.0
 40
1.0
 50
0.0
 51
90.0
  0
LINE
  5
7FC
  8
1外形線
 10
71.969216332044311
 20
114.75200133767321
 30
0.0
 11
79.969216332044311
 21
114.75200133767321
 31
0.0
  0
LINE
  5
7FD
  8
1外形線
 10
71.969216332044311
 20
115.9520013376732
 30
0.0
 11
79.969216332044311
 21
115.9520013376732
 31
0.0
  0
LINE
  5
7FE
  8
1外形線
 10
71.969216332044311
 20
115.9520013376732
 30
0.0
 11
71.969216332044311
 21
114.75200133767321
 31
0.0
  0
LINE
  5
7FF
  8
1外形線
 10
79.969216332044311
 20
115.9520013376732
 30
0.0
 11
79.969216332044311
 21
114.75200133767321
 31
0.0
  0
LINE
  5
800
  8
1外形線
 10
92.969216332053634
 20
75.852001337674096
 30
0.0
 11
92.969216332053634
 21
118.4520013376728
 31
0.0
  0
LINE
  5
801
  8
1外形線
 10
87.969216332053634
 20
75.852001337673855
 30
0.0
 11
87.969216332053406
 21
118.4520013376728
 31
0.0
  0
LINE
  5
802
  8
1外形線
 10
94.969216332053634
 20
79.552001337673232
 30
0.0
 11
94.969216332053634
 21
78.352001337673499
 31
0.0
  0
LINE
  5
803
  8
1外形線
 10
94.969216332053634
 20
78.352001337673499
 30
0.0
 11
92.969216332053804
 21
78.352001337673187
 31
0.0
  0
LINE
  5
804
  8
1外形線
 10
94.969216332053634
 20
79.55200133767346
 30
0.0
 11
92.969216332053634
 21
79.552001337673232
 31
0.0
  0
LINE
  5
805
  8
1外形線
 10
110.970533149191
 20
64.855972465623495
 30
0.0
 11
109.77053314919119
 21
64.855972465623495
 31
0.0
  0
LINE
  5
806
  8
1外形線
 10
82.818706074827205
 20
96.652001337673369
 30
0.0
 11
86.469216332053634
 21
96.652001337673369
 31
0.0
  0
LINE
  5
807
  8
1外形線
 10
82.818706074827205
 20
97.652001337673354
 30
0.0
 11
86.469216332053634
 21
97.652001337673354
 31
0.0
  0
ARC
  5
808
  8
1外形線
 10
86.469216332053634
 20
97.152001337673326
 30
0.0
 40
0.4999999999999006
 50
270.0
 51
89.999999999996746
  0
LINE
  5
809
  8
1外形線
 10
94.969216332053634
 20
115.95200133767391
 30
0.0
 11
92.969216332053804
 21
115.9520013376742
 31
0.0
  0
LINE
  5
80A
  8
1外形線
 10
94.969216332053634
 20
114.7520013376739
 30
0.0
 11
92.969216332053634
 21
114.7520013376741
 31
0.0
  0
LINE
  5
80B
  8
1外形線
 10
94.969216332053634
 20
114.7520013376741
 30
0.0
 11
94.969216332053634
 21
115.95200133767391
 31
0.0
  0
LINE
  5
80C
  8
1外形線
 10
146.17053314919201
 20
64.855972465623495
 30
0.0
 11
147.37053314919169
 21
64.855972465623495
 31
0.0
  0
ENDSEC
  0
EOF
