  0
SECTION
  2
HEADER
  9
$ACADVER
  1
AC1009
  9
$INSBASE
 10
0.0
 20
0.0
 30
0.0
  9
$EXTMIN
 10
20.717761997079091
 20
-25.750029856048059
 30
-0.0015258207003583
  9
$EXTMAX
 10
615.43703137683963
 20
408.08463664145091
 30
0.0000000349246037
  9
$LIMMIN
 10
0.0
 20
0.0
  9
$LIMMAX
 10
420.0
 20
297.0
  9
$ORTHOMODE
 70
     0
  9
$REGENMODE
 70
     1
  9
$FILLMODE
 70
     1
  9
$QTEXTMODE
 70
     0
  9
$MIRRTEXT
 70
     1
  9
$DRAGMODE
 70
     2
  9
$LTSCALE
 40
1.0
  9
$OSMODE
 70
    37
  9
$ATTMODE
 70
     1
  9
$TEXTSIZE
 40
2.5
  9
$TRACEWID
 40
1.0
  9
$TEXTSTYLE
  7
STANDARD
  9
$CLAYER
  8
0
  9
$CELTYPE
  6
BYLAYER
  9
$CECOLOR
 62
   256
  9
$DIMSCALE
 40
1.0
  9
$DIMASZ
 40
2.5
  9
$DIMEXO
 40
0.625
  9
$DIMDLI
 40
3.75
  9
$DIMRND
 40
0.0
  9
$DIMDLE
 40
0.0
  9
$DIMEXE
 40
1.25
  9
$DIMTP
 40
0.0
  9
$DIMTM
 40
0.0
  9
$DIMTXT
 40
2.5
  9
$DIMCEN
 40
2.5
  9
$DIMTSZ
 40
0.0
  9
$DIMTOL
 70
     0
  9
$DIMLIM
 70
     0
  9
$DIMTIH
 70
     0
  9
$DIMTOH
 70
     0
  9
$DIMSE1
 70
     0
  9
$DIMSE2
 70
     0
  9
$DIMTAD
 70
     1
  9
$DIMZIN
 70
     8
  9
$DIMBLK
  1

  9
$DIMASO
 70
     1
  9
$DIMSHO
 70
     1
  9
$DIMPOST
  1

  9
$DIMAPOST
  1

  9
$DIMALT
 70
     0
  9
$DIMALTD
 70
     3
  9
$DIMALTF
 40
0.03937007874016
  9
$DIMLFAC
 40
1.0
  9
$DIMTOFL
 70
     1
  9
$DIMTVP
 40
0.0
  9
$DIMTIX
 70
     0
  9
$DIMSOXD
 70
     0
  9
$DIMSAH
 70
     0
  9
$DIMBLK1
  1

  9
$DIMBLK2
  1

  9
$DIMSTYLE
  2
ISO-25
  9
$DIMCLRD
 70
     0
  9
$DIMCLRE
 70
     0
  9
$DIMCLRT
 70
     0
  9
$DIMTFAC
 40
1.0
  9
$DIMGAP
 40
0.625
  9
$LUNITS
 70
     2
  9
$LUPREC
 70
     4
  9
$SKETCHINC
 40
1.0
  9
$FILLETRAD
 40
10.0
  9
$AUNITS
 70
     0
  9
$AUPREC
 70
     0
  9
$MENU
  1
.
  9
$ELEVATION
 40
0.0
  9
$PELEVATION
 40
0.0
  9
$THICKNESS
 40
0.0
  9
$LIMCHECK
 70
     0
  9
$BLIPMODE
 70
     0
  9
$CHAMFERA
 40
10.0
  9
$CHAMFERB
 40
10.0
  9
$SKPOLY
 70
     0
  9
$TDCREATE
 40
2452048.587873715
  9
$TDUPDATE
 40
2452048.604339757
  9
$TDINDWG
 40
0.0164678935
  9
$TDUSRTIMER
 40
0.0164680093
  9
$USRTIMER
 70
     1
  9
$ANGBASE
 50
0.0
  9
$ANGDIR
 70
     0
  9
$PDMODE
 70
     0
  9
$PDSIZE
 40
0.0
  9
$PLINEWID
 40
0.0
  9
$COORDS
 70
     1
  9
$SPLFRAME
 70
     0
  9
$SPLINETYPE
 70
     6
  9
$SPLINESEGS
 70
     8
  9
$ATTDIA
 70
     0
  9
$ATTREQ
 70
     1
  9
$HANDLING
 70
-16383
  9
$HANDSEED
  5
54D1
  9
$SURFTAB1
 70
     6
  9
$SURFTAB2
 70
     6
  9
$SURFTYPE
 70
     6
  9
$SURFU
 70
     6
  9
$SURFV
 70
     6
  9
$UCSNAME
  2

  9
$UCSORG
 10
0.0
 20
0.0
 30
0.0
  9
$UCSXDIR
 10
1.0
 20
0.0
 30
0.0
  9
$UCSYDIR
 10
0.0
 20
1.0
 30
0.0
  9
$PUCSNAME
  2

  9
$PUCSORG
 10
0.0
 20
0.0
 30
0.0
  9
$PUCSXDIR
 10
1.0
 20
0.0
 30
0.0
  9
$PUCSYDIR
 10
0.0
 20
1.0
 30
0.0
  9
$USERI1
 70
     0
  9
$USERI2
 70
     0
  9
$USERI3
 70
     0
  9
$USERI4
 70
     0
  9
$USERI5
 70
     0
  9
$USERR1
 40
0.0
  9
$USERR2
 40
0.0
  9
$USERR3
 40
0.0
  9
$USERR4
 40
0.0
  9
$USERR5
 40
0.0
  9
$WORLDVIEW
 70
     1
  9
$SHADEDGE
 70
     3
  9
$SHADEDIF
 70
    70
  9
$TILEMODE
 70
     1
  9
$MAXACTVP
 70
    64
  9
$PLIMCHECK
 70
     0
  9
$PEXTMIN
 10
1.0000000000000000E+020
 20
1.0000000000000000E+020
 30
1.0000000000000000E+020
  9
$PEXTMAX
 10
-1.0000000000000000E+020
 20
-1.0000000000000000E+020
 30
-1.0000000000000000E+020
  9
$PLIMMIN
 10
0.0
 20
0.0
  9
$PLIMMAX
 10
420.0
 20
297.0
  9
$UNITMODE
 70
     0
  9
$VISRETAIN
 70
     1
  9
$PLINEGEN
 70
     0
  9
$PSLTSCALE
 70
     1
  0
ENDSEC
  0
SECTION
  2
TABLES
  0
TABLE
  2
VPORT
 70
    34
  0
VPORT
  2
*ACTIVE
 70
     0
 10
0.0
 20
0.0
 11
1.0
 21
1.0
 12
243.19809294536361
 22
20.724196922940902
 13
0.0
 23
0.0
 14
10.0
 24
10.0
 15
10.0
 25
10.0
 16
0.0
 26
0.0
 36
1.0
 17
0.0
 27
0.0
 37
0.0
 40
1136.324782680095
 41
0.8452830188679245
 42
50.0
 43
0.0
 44
0.0
 50
0.0
 51
0.0
 71
     0
 72
   100
 73
     1
 74
     3
 75
     0
 76
     0
 77
     0
 78
     0
  0
ENDTAB
  0
TABLE
  2
LTYPE
 70
     1
  0
LTYPE
  2
CONTINUOUS
 70
     0
  3
Solid line
 72
    65
 73
     0
 40
0.0
  0
ENDTAB
  0
TABLE
  2
LAYER
 70
     2
  0
LAYER
  2
0
 70
     0
 62
     7
  6
CONTINUOUS
  0
LAYER
  2
1外形線
 70
     0
 62
     3
  6
CONTINUOUS
  0
ENDTAB
  0
TABLE
  2
STYLE
 70
     2
  0
STYLE
  2
STANDARD
 70
     0
 40
0.0
 41
1.0
 50
0.0
 71
     0
 42
2.5
  3
txt
  4

  0
STYLE
  2
KANJI
 70
     0
 40
0.0
 41
1.0
 50
0.0
 71
     0
 42
10.0
  3
simplex
  4
bigfont
  0
ENDTAB
  0
TABLE
  2
VIEW
 70
     0
  0
ENDTAB
  0
TABLE
  2
UCS
 70
     0
  0
ENDTAB
  0
TABLE
  2
APPID
 70
     1
  0
APPID
  2
ACAD
 70
     0
  0
ENDTAB
  0
TABLE
  2
DIMSTYLE
 70
     2
  0
DIMSTYLE
  2
ISO-25
 70
     0
  3

  4

  5

  6

  7

 40
1.0
 41
2.5
 42
0.625
 43
3.75
 44
1.25
 45
0.0
 46
0.0
 47
0.0
 48
0.0
140
2.5
141
2.5
142
0.0
143
0.03937007874016
144
1.0
145
0.0
146
1.0
147
0.625
 71
     0
 72
     0
 73
     0
 74
     0
 75
     0
 76
     0
 77
     1
 78
     8
170
     0
171
     3
172
     1
173
     0
174
     0
175
     0
176
     0
177
     0
178
     0
  0
DIMSTYLE
  2
STANDARD
 70
     0
  3

  4

  5

  6
1
  7
1
 40
1.0
 41
1.0
 42
1.0
 43
6.0
 44
1.0
 45
0.0
 46
0.0
 47
0.0
 48
0.0
140
2.5
141
0.0
142
0.0
143
25.399999999999999
144
1.0
145
0.0
146
1.0
147
0.5
 71
     0
 72
     0
 73
     0
 74
     0
 75
     0
 76
     0
 77
     1
 78
     8
170
     0
171
     2
172
     1
173
     1
174
     0
175
     0
176
     0
177
     0
178
     0
  0
ENDTAB
  0
ENDSEC
  0
SECTION
  2
BLOCKS
  0
BLOCK
  8
0
  2
$MODEL_SPACE
 70
     0
 10
0.0
 20
0.0
 30
0.0
  3
$MODEL_SPACE
  1

  0
ENDBLK
  5
21
  8
0
  0
BLOCK
 67
     1
  8
0
  2
$PAPER_SPACE
 70
     0
 10
0.0
 20
0.0
 30
0.0
  3
$PAPER_SPACE
  1

  0
ENDBLK
  5
1D
 67
     1
  8
0
  0
BLOCK
  8
0
  2
1
 70
     0
 10
0.0
 20
0.0
 30
0.0
  3
1
  1

  0
SOLID
  5
2C
  8
0
  6
BYBLOCK
 62
     0
 10
-1.811110924292052
 20
0.4852857095671653
 30
0.0
 11
-1.811110924292052
 21
-0.4852857095673642
 31
0.0
 12
0.0
 22
0.0
 32
0.0
 13
0.0
 23
0.0
 33
0.0
  0
ENDBLK
  5
2E
  8
0
  0
ENDSEC
  0
SECTION
  2
ENTITIES
  0
ARC
  5
5446
  8
1外形線
 10
85.33136133764026
 20
119.80649226281921
 30
0.0
 40
20.0
 50
0.0
 51
180.0
  0
LINE
  5
5447
  8
1外形線
 10
66.331361337640246
 20
119.80649226281599
 30
0.0
 11
66.331361337640146
 21
102.3064922628156
 31
0.0
  0
LINE
  5
5448
  8
1外形線
 10
65.33136133764026
 20
119.80649226281599
 30
0.0
 11
65.33136133764026
 21
102.3064922628156
 31
0.0
  0
LINE
  5
5449
  8
1外形線
 10
61.331361337640253
 20
102.30649226281579
 30
0.0
 11
61.331361337640253
 21
122.8064922628154
 31
0.0
  0
LINE
  5
544A
  8
1外形線
 10
104.3313613376402
 20
119.80649226281599
 30
0.0
 11
104.3313613376403
 21
102.3064922628156
 31
0.0
  0
LINE
  5
544B
  8
1外形線
 10
105.3313613376402
 20
119.80649226281599
 30
0.0
 11
105.3313613376402
 21
102.3064922628156
 31
0.0
  0
LINE
  5
544C
  8
1外形線
 10
109.3313613376402
 20
102.3064922628156
 30
0.0
 11
109.3313613376402
 21
122.8064922628154
 31
0.0
  0
LINE
  5
544D
  8
1外形線
 10
61.331361337640253
 20
102.3064922628156
 30
0.0
 11
109.3313613376402
 21
102.3064922628156
 31
0.0
  0
ARC
  5
544E
  8
1外形線
 10
67.931361337640283
 20
110.5951673974111
 30
0.0
 40
1.0
 50
0.0
 51
119.9999999999995
  0
LINE
  5
544F
  8
1外形線
 10
66.331361337640175
 20
110.8261075050859
 30
0.0
 11
67.431361337640283
 21
111.4611928011945
 31
0.0
  0
LINE
  5
5450
  8
1外形線
 10
93.331361337641169
 20
106.8064922628153
 30
0.0
 11
77.33136133763935
 21
106.8064922628153
 31
0.0
  0
LINE
  5
5451
  8
1外形線
 10
94.831361337641056
 20
104.8064922628154
 30
0.0
 11
75.83136133763935
 21
104.8064922628154
 31
0.0
  0
LINE
  5
5452
  8
1外形線
 10
77.33136133763935
 20
108.3064922628153
 30
0.0
 11
77.33136133763935
 21
106.8064922628153
 31
0.0
  0
LINE
  5
5453
  8
1外形線
 10
75.83136133763935
 20
108.3064922628154
 30
0.0
 11
75.83136133763935
 21
104.8064922628154
 31
0.0
  0
LINE
  5
5454
  8
1外形線
 10
68.931361337640283
 20
108.3064922628153
 30
0.0
 11
77.33136133763935
 21
108.3064922628152
 31
0.0
  0
LINE
  5
5455
  8
1外形線
 10
68.931361337640283
 20
108.3064922628153
 30
0.0
 11
68.931361337640283
 21
110.5951673974111
 31
0.0
  0
LINE
  5
5456
  8
1外形線
 10
101.73136133764019
 20
108.3064922628153
 30
0.0
 11
93.331361337641169
 21
108.3064922628152
 31
0.0
  0
LINE
  5
5457
  8
1外形線
 10
93.331361337641169
 20
108.3064922628153
 30
0.0
 11
93.331361337641169
 21
106.8064922628153
 31
0.0
  0
LINE
  5
5458
  8
1外形線
 10
94.831361337641184
 20
108.3064922628154
 30
0.0
 11
94.831361337641184
 21
104.8064922628154
 31
0.0
  0
ARC
  5
5459
  8
1外形線
 10
102.73136133764019
 20
110.5951673974111
 30
0.0
 40
1.0
 50
60.000000000000419
 51
180.0
  0
LINE
  5
545A
  8
1外形線
 10
101.73136133764019
 20
108.3064922628153
 30
0.0
 11
101.73136133764019
 21
110.5951673974111
 31
0.0
  0
LINE
  5
545B
  8
1外形線
 10
104.3313613376402
 20
110.8261075050859
 30
0.0
 11
103.23136133764019
 21
111.4611928011945
 31
0.0
  0
ARC
  5
545C
  8
1外形線
 10
85.33136133764026
 20
122.8064922628154
 30
0.0
 40
24.0
 50
0.0
 51
180.0
  0
ARC
  5
545D
  8
1外形線
 10
85.33136133764026
 20
119.80649226281921
 30
0.0
 40
19.0
 50
0.0
 51
180.0
  0
LINE
  5
545E
  8
1外形線
 10
236.23710988685281
 20
79.659037694119377
 30
0.0
 11
236.23710988685281
 21
35.469012818343508
 31
0.0
  0
LINE
  5
545F
  8
1外形線
 10
128.23710988685261
 20
38.484158137798033
 30
0.0
 11
128.23710988685261
 21
76.671715516024221
 31
0.0
  0
LINE
  5
5460
  8
1外形線
 10
143.23710988685261
 20
70.610626022194765
 30
0.0
 11
143.23710988685301
 21
37.66402525623149
 31
0.0
  0
LINE
  5
5461
  8
1外形線
 10
169.23710988685269
 20
48.56402525623119
 30
0.0
 11
169.23710988685281
 21
66.56402525623119
 31
0.0
  0
LINE
  5
5462
  8
1外形線
 10
221.23710988685269
 20
35.564025256230991
 30
0.0
 11
221.2371098868534
 21
79.564025256231787
 31
0.0
  0
LINE
  5
5463
  8
1外形線
 10
219.23710988685281
 20
66.564025256231332
 30
0.0
 11
219.23710988685281
 21
48.564025256231332
 31
0.0
  0
LINE
  5
5464
  8
1外形線
 10
225.23959746443191
 20
33.564025256230757
 30
0.0
 11
188.71548352454371
 21
33.564025256231048
 31
0.0
  0
LINE
  5
5465
  8
1外形線
 10
236.23710988685281
 20
35.564025256231218
 30
0.0
 11
185.60297245127501
 21
35.564025256231098
 31
0.0
  0
LINE
  5
5466
  8
1外形線
 10
219.23710988685281
 20
48.564025256231332
 30
0.0
 11
169.23710988685269
 21
48.56402525623119
 31
0.0
  0
LINE
  5
5467
  8
1外形線
 10
163.80183956841921
 20
34.600297782767591
 30
0.0
 11
129.1540644069988
 21
37.487612379553099
 31
0.0
  0
LINE
  5
5468
  8
1外形線
 10
166.88948660471451
 20
36.148251711364928
 30
0.0
 11
128.23710988685261
 21
38.564025256232007
 31
0.0
  0
LINE
  5
5469
  8
1外形線
 10
144.53710988685211
 20
38.880969700676019
 30
0.0
 11
159.9371098868524
 21
37.897080811787099
 31
0.0
  0
LINE
  5
546A
  8
1外形線
 10
143.23710988685249
 20
48.064025256231503
 30
0.0
 11
129.23710988685249
 21
48.064025256231453
 31
0.0
  0
ARC
  5
546B
  8
1外形線
 10
129.23710988685261
 20
38.484158137798033
 30
0.0
 40
1.0
 50
180.0
 51
265.2363583092731
  0
ARC
  5
546C
  8
1外形線
 10
129.23710988685249
 20
49.064025256231901
 30
0.0
 40
1.0
 50
180.0
 51
270.0
  0
LINE
  5
546D
  8
1外形線
 10
144.53710988685231
 20
37.568191922898222
 30
0.0
 11
144.53710988685211
 21
38.880969700676019
 31
0.0
  0
ARC
  5
546E
  8
1外形線
 10
188.71548352454599
 20
333.56402525623099
 30
0.0
 40
300.0
 50
265.2363583092731
 51
270.0
  0
ARC
  5
546F
  8
1外形線
 10
185.60297245127441
 20
335.56402525623099
 30
0.0
 40
300.0
 50
266.42366562500177
 51
270.0
  0
LINE
  5
5470
  8
1外形線
 10
178.8312355248483
 20
35.95454593831721
 30
0.0
 11
161.2371098868532
 21
37.514025256230951
 31
0.0
  0
LINE
  5
5471
  8
1外形線
 10
159.9371098868522
 20
36.60985858956488
 30
0.0
 11
159.9371098868524
 21
37.897080811787099
 31
0.0
  0
LINE
  5
5472
  8
1外形線
 10
161.23710988685241
 20
36.51402525623152
 30
0.0
 11
161.23710988685241
 21
37.514025256231058
 31
0.0
  0
ARC
  5
5473
  8
1外形線
 10
187.66025755530259
 20
135.5640252562302
 30
0.0
 40
100.0
 50
264.93474766672108
 51
270.0
  0
CIRCLE
  5
5474
  8
1外形線
 10
194.23710988685281
 20
42.564025256230373
 30
0.0
 40
2.1000000000000001
  0
LINE
  5
5475
  8
1外形線
 10
204.53710988685259
 20
36.864025256231173
 30
0.0
 11
219.93710988685291
 21
36.864025256231173
 31
0.0
  0
LINE
  5
5476
  8
1外形線
 10
204.53710988685259
 20
35.564025256231332
 30
0.0
 11
204.53710988685259
 21
36.864025256231173
 31
0.0
  0
LINE
  5
5477
  8
1外形線
 10
227.2296718448527
 20
33.663281452031072
 30
0.0
 11
235.33661360587399
 21
34.473975628133473
 31
0.0
  0
LINE
  5
5478
  8
1外形線
 10
219.9371098868528
 20
35.564025256231268
 30
0.0
 11
219.93710988685291
 21
36.864025256231173
 31
0.0
  0
ARC
  5
5479
  8
1外形線
 10
225.23959746443219
 20
53.564025256230757
 30
0.0
 40
20.0
 50
270.0
 51
275.71059313750061
  0
ARC
  5
547A
  8
1外形線
 10
235.23710988685281
 20
35.469012818343508
 30
0.0
 40
1.0
 50
275.71059313750061
 51
0.0
  0
LINE
  5
547B
  8
1外形線
 10
221.23710988685281
 20
45.06402525623156
 30
0.0
 11
235.23710988685281
 21
45.064025256231787
 31
0.0
  0
ARC
  5
547C
  8
1外形線
 10
235.23710988685281
 20
46.064025256231332
 30
0.0
 40
1.0
 50
270.0
 51
0.0
  0
LINE
  5
547D
  8
1外形線
 10
261.45187948550699
 20
102.3064922628179
 30
0.0
 11
309.45187948550688
 21
102.306492262796
 31
0.0
  0
ARC
  5
547E
  8
1外形線
 10
285.45187948550688
 20
122.8064922628177
 30
0.0
 40
22.0
 50
0.0
 51
180.0
  0
ARC
  5
547F
  8
1外形線
 10
285.45187948550688
 20
122.8064922628177
 30
0.0
 40
24.0
 50
0.0
 51
180.0
  0
ARC
  5
5480
  8
1外形線
 10
285.45187948550688
 20
119.80649226282191
 30
0.0
 40
19.0
 50
0.0
 51
180.0
  0
LINE
  5
5481
  8
1外形線
 10
297.9518794855079
 20
104.8064922628175
 30
0.0
 11
272.95187948550603
 21
104.8064922628175
 31
0.0
  0
LINE
  5
5482
  8
1外形線
 10
296.45187948550779
 20
106.8064922628175
 30
0.0
 11
274.45187948550603
 21
106.8064922628175
 31
0.0
  0
LINE
  5
5483
  8
1外形線
 10
236.23710988685261
 20
215.11748014954469
 30
0.0
 11
236.23710988685261
 21
170.92745527376891
 31
0.0
  0
LINE
  5
5484
  8
1外形線
 10
128.23710988685249
 20
173.94260059322349
 30
0.0
 11
128.23710988685249
 21
212.1023348300904
 31
0.0
  0
LINE
  5
5485
  8
1外形線
 10
225.23959746443191
 20
81.564025256232114
 30
0.0
 11
188.715483524544
 21
81.564025256231844
 31
0.0
  0
LINE
  5
5486
  8
1外形線
 10
236.23710988685281
 20
79.564025256231673
 30
0.0
 11
185.60297245127489
 21
79.56402525623173
 31
0.0
  0
LINE
  5
5487
  8
1外形線
 10
225.23959746443171
 20
169.02246771165619
 30
0.0
 11
188.7154835245434
 21
169.0224677116565
 31
0.0
  0
ARC
  5
5488
  8
1外形線
 10
197.9970245671274
 20
-153.19350773718281
 30
0.0
 40
300.0
 50
90.0
 51
98.297144969838541
  0
LINE
  5
5489
  8
1外形線
 10
128.23710988685289
 20
102.306492262817
 30
0.0
 11
236.23710988685261
 21
102.3064922628177
 31
0.0
  0
LINE
  5
548A
  8
1外形線
 10
219.23710988685281
 20
66.564025256231332
 30
0.0
 11
169.23710988685281
 21
66.56402525623119
 31
0.0
  0
LINE
  5
548B
  8
1外形線
 10
128.23710988685289
 20
138.9417478598458
 30
0.0
 11
128.23710988685289
 21
102.3064922628143
 31
0.0
  0
LINE
  5
548C
  8
1外形線
 10
166.8894866047155
 20
78.979798801098013
 30
0.0
 11
128.23710988685261
 21
76.564025256230877
 31
0.0
  0
LINE
  5
548D
  8
1外形線
 10
163.80183956841941
 20
80.527752729695294
 30
0.0
 11
129.13070945991259
 21
77.638491887319219
 31
0.0
  0
LINE
  5
548E
  8
1外形線
 10
144.53710988685219
 20
76.247080811787214
 30
0.0
 11
159.93710988685231
 21
77.230969700676155
 31
0.0
  0
LINE
  5
548F
  8
1外形線
 10
143.23710988685249
 20
67.064025256231446
 30
0.0
 11
129.23710988685249
 21
67.064025256231446
 31
0.0
  0
ARC
  5
5490
  8
1外形線
 10
129.23710988685261
 20
66.064025256231901
 30
0.0
 40
1.0
 50
90.0
 51
180.0
  0
ARC
  5
5491
  8
1外形線
 10
129.23710988685261
 20
76.643892374664972
 30
0.0
 40
1.0
 50
94.763641690726843
 51
180.0
  0
LINE
  5
5492
  8
1外形線
 10
143.23710988685221
 20
77.46402525623165
 30
0.0
 11
143.23710988685249
 21
67.064025256232185
 31
0.0
  0
LINE
  5
5493
  8
1外形線
 10
144.53710988685231
 20
77.55985858956501
 30
0.0
 11
144.53710988685219
 21
76.247080811787214
 31
0.0
  0
ARC
  5
5494
  8
1外形線
 10
188.7154835245463
 20
-218.4359747437681
 30
0.0
 40
300.0
 50
90.0
 51
94.763641690726843
  0
ARC
  5
5495
  8
1外形線
 10
185.60297245127489
 20
-220.43597474376821
 30
0.0
 40
300.0
 50
90.0
 51
93.576334374998154
  0
LINE
  5
5496
  8
1外形線
 10
178.8312355248483
 20
79.173504574145113
 30
0.0
 11
161.2371098868532
 21
77.614025256231372
 31
0.0
  0
CIRCLE
  5
5497
  8
1外形線
 10
161.23710988685269
 20
57.564025256231162
 30
0.0
 40
2.1000000000000001
  0
LINE
  5
5498
  8
1外形線
 10
159.9371098868522
 20
78.518191922898353
 30
0.0
 11
159.93710988685231
 21
77.230969700676155
 31
0.0
  0
LINE
  5
5499
  8
1外形線
 10
161.23710988685241
 20
78.614025256231741
 30
0.0
 11
161.23710988685241
 21
77.614025256231315
 31
0.0
  0
ARC
  5
549A
  8
1外形線
 10
187.66025755530259
 20
-20.435974743767929
 30
0.0
 40
100.0
 50
90.0
 51
95.065252333278863
  0
CIRCLE
  5
549B
  8
1外形線
 10
194.23710988685281
 20
72.564025256231275
 30
0.0
 40
2.1000000000000001
  0
LINE
  5
549C
  8
1外形線
 10
163.8018395684189
 20
170.058740238193
 30
0.0
 11
129.15406440699849
 21
172.9460548349785
 31
0.0
  0
LINE
  5
549D
  8
1外形線
 10
154.70495664559709
 20
143.66638658179991
 30
0.0
 11
129.09280299378119
 21
139.93128084090901
 31
0.0
  0
ARC
  5
549E
  8
1外形線
 10
129.23710988685289
 20
138.9417478598458
 30
0.0
 40
1.0
 50
98.297144969838541
 51
180.0
  0
ARC
  5
549F
  8
1外形線
 10
129.23710988685241
 20
173.94260059322349
 30
0.0
 40
1.0
 50
180.0
 51
265.2363583092731
  0
ARC
  5
54A0
  8
1外形線
 10
188.71548352454559
 20
469.02246771165647
 30
0.0
 40
300.0
 50
265.2363583092731
 51
270.0
  0
LINE
  5
54A1
  8
1外形線
 10
236.23710988685261
 20
102.3064922628177
 30
0.0
 11
236.23710988685261
 21
144.90150470070949
 31
0.0
  0
LINE
  5
54A2
  8
1外形線
 10
261.45187948550699
 20
102.3064922628181
 30
0.0
 11
261.45187948550699
 21
122.8064922628177
 31
0.0
  0
LINE
  5
54A3
  8
1外形線
 10
263.45187948550699
 20
122.8064922628177
 30
0.0
 11
263.45187948550699
 21
102.3064922628176
 31
0.0
  0
LINE
  5
54A4
  8
1外形線
 10
266.45187948550688
 20
119.80649226281869
 30
0.0
 11
266.45187948550699
 21
111.4611928011975
 31
0.0
  0
LINE
  5
54A5
  8
1外形線
 10
204.53710988685259
 20
78.264025256231605
 30
0.0
 11
219.9371098868528
 21
78.264025256231605
 31
0.0
  0
LINE
  5
54A6
  8
1外形線
 10
204.53710988685259
 20
79.564025256231446
 30
0.0
 11
204.53710988685259
 21
78.264025256231605
 31
0.0
  0
LINE
  5
54A7
  8
1外形線
 10
227.2296718448527
 20
81.464769060431806
 30
0.0
 11
235.33661360587399
 21
80.654074884329418
 31
0.0
  0
LINE
  5
54A8
  8
1外形線
 10
221.23710988685281
 20
70.06402525623156
 30
0.0
 11
235.23710988685281
 21
70.064025256231673
 31
0.0
  0
LINE
  5
54A9
  8
1外形線
 10
219.9371098868528
 20
79.564025256231503
 30
0.0
 11
219.9371098868528
 21
78.264025256231605
 31
0.0
  0
ARC
  5
54AA
  8
1外形線
 10
225.23959746443219
 20
61.564025256232128
 30
0.0
 40
20.0
 50
84.289406862499391
 51
90.0
  0
ARC
  5
54AB
  8
1外形線
 10
235.23710988685281
 20
69.064025256231204
 30
0.0
 40
1.0
 50
0.0
 51
90.0
  0
ARC
  5
54AC
  8
1外形線
 10
235.23710988685281
 20
79.659037694119377
 30
0.0
 40
1.0
 50
0.0
 51
84.289406862499391
  0
LINE
  5
54AD
  8
1外形線
 10
274.45187948550603
 20
108.3064922628174
 30
0.0
 11
266.95187948550648
 21
108.3064922628174
 31
0.0
  0
LINE
  5
54AE
  8
1外形線
 10
272.95187948550603
 20
108.3064922628175
 30
0.0
 11
272.95187948550603
 21
104.8064922628175
 31
0.0
  0
LINE
  5
54AF
  8
1外形線
 10
266.95187948550648
 20
108.3064922628174
 30
0.0
 11
266.95187948550648
 21
110.59516739741331
 31
0.0
  0
LINE
  5
54B0
  8
1外形線
 10
263.45187948550631
 20
110.3064922628175
 30
0.0
 11
265.45187948550648
 21
111.4611928011967
 31
0.0
  0
ARC
  5
54B1
  8
1外形線
 10
265.95187948550648
 20
110.59516739741331
 30
0.0
 40
1.0
 50
0.0
 51
119.9999999999995
  0
LINE
  5
54B2
  8
1外形線
 10
274.45187948550603
 20
108.3064922628174
 30
0.0
 11
274.45187948550603
 21
106.8064922628175
 31
0.0
  0
LINE
  5
54B3
  8
1外形線
 10
197.99702456712609
 20
146.8064922628171
 30
0.0
 11
224.7408412532258
 21
146.8064922628173
 31
0.0
  0
LINE
  5
54B4
  8
1外形線
 10
227.7093299053561
 20
146.6592702609714
 30
0.0
 11
235.3366136058734
 21
145.89654189091971
 31
0.0
  0
ARC
  5
54B5
  8
1外形線
 10
224.74084125322571
 20
116.80649226282181
 30
0.0
 40
30.0
 50
84.289406862499391
 51
90.0
  0
ARC
  5
54B6
  8
1外形線
 10
235.23710988685241
 20
144.90150470070961
 30
0.0
 40
1.0
 50
0.0
 51
84.289406862501053
  0
LINE
  5
54B7
  8
1外形線
 10
227.2296718448525
 20
169.12172390745661
 30
0.0
 11
235.33661360587379
 21
169.9324180835589
 31
0.0
  0
ARC
  5
54B8
  8
1外形線
 10
225.23959746443191
 20
189.0224677116563
 30
0.0
 40
20.0
 50
270.0
 51
275.71059313750061
  0
ARC
  5
54B9
  8
1外形線
 10
235.23710988685261
 20
170.92745527376891
 30
0.0
 40
1.0
 50
275.71059313750061
 51
0.0
  0
LINE
  5
54BA
  8
1外形線
 10
224.74084125322219
 20
217.02246771165761
 30
0.0
 11
188.7154835245434
 21
217.02246771165721
 31
0.0
  0
LINE
  5
54BB
  8
1外形線
 10
163.8018395684193
 20
215.98619518512061
 30
0.0
 11
129.15406440699849
 21
213.09888058833511
 31
0.0
  0
ARC
  5
54BC
  8
1外形線
 10
129.23710988685241
 20
212.1023348300904
 30
0.0
 40
1.0
 50
94.763641690726843
 51
180.0
  0
ARC
  5
54BD
  8
1外形線
 10
188.7154835245461
 20
-82.977532288342715
 30
0.0
 40
300.0
 50
90.0
 51
94.763641690726843
  0
LINE
  5
54BE
  8
1外形線
 10
227.7259528238535
 20
216.87358341795709
 30
0.0
 11
235.33661360587379
 21
216.11251733975479
 31
0.0
  0
ARC
  5
54BF
  8
1外形線
 10
224.74084125322241
 20
187.02246771165761
 30
0.0
 40
30.0
 50
84.289406862497771
 51
90.0
  0
ARC
  5
54C0
  8
1外形線
 10
235.23710988685261
 20
215.11748014954469
 30
0.0
 40
1.0
 50
0.0
 51
84.289406862499391
  0
LINE
  5
54C1
  8
1外形線
 10
309.45187948550699
 20
102.3064922628179
 30
0.0
 11
309.45187948550699
 21
122.8064922628177
 31
0.0
  0
LINE
  5
54C2
  8
1外形線
 10
307.45187948550699
 20
122.8064922628177
 30
0.0
 11
307.45187948550671
 21
102.3064922628176
 31
0.0
  0
LINE
  5
54C3
  8
1外形線
 10
304.45187948550688
 20
119.80649226281869
 30
0.0
 11
304.45187948550688
 21
111.4611928011975
 31
0.0
  0
LINE
  5
54C4
  8
1外形線
 10
307.45187948550739
 20
110.3064922628175
 30
0.0
 11
305.45187948550739
 21
111.4611928011967
 31
0.0
  0
LINE
  5
54C5
  8
1外形線
 10
296.4518794855079
 20
108.3064922628174
 30
0.0
 11
296.4518794855079
 21
106.8064922628175
 31
0.0
  0
LINE
  5
54C6
  8
1外形線
 10
297.9518794855079
 20
108.3064922628175
 30
0.0
 11
297.9518794855079
 21
104.8064922628175
 31
0.0
  0
LINE
  5
54C7
  8
1外形線
 10
303.95187948550739
 20
108.3064922628175
 30
0.0
 11
296.4518794855079
 21
108.3064922628174
 31
0.0
  0
ARC
  5
54C8
  8
1外形線
 10
304.95187948550739
 20
110.59516739741331
 30
0.0
 40
1.0
 50
60.000000000000419
 51
180.0
  0
LINE
  5
54C9
  8
1外形線
 10
303.95187948550739
 20
108.3064922628175
 30
0.0
 11
303.95187948550739
 21
110.59516739741331
 31
0.0
  0
ENDSEC
  0
EOF
