  0
SECTION
  2
HEADER
  9
$ACADVER
  1
AC1015
  9
$ACADMAINTVER
 70
    20
  9
$DWGCODEPAGE
  3
ANSI_932
  9
$INSBASE
 10
0.0
 20
0.0
 30
0.0
  9
$EXTMIN
 10
513.0958351657425
 20
1.940559717157157
 30
-0.0000000349181948
  9
$EXTMAX
 10
862.1058029818053
 20
307.8080334072483
 30
0.0000000814935747
  9
$LIMMIN
 10
0.0
 20
0.0
  9
$LIMMAX
 10
420.0
 20
297.0
  9
$ORTHOMODE
 70
     1
  9
$REGENMODE
 70
     1
  9
$FILLMODE
 70
     1
  9
$QTEXTMODE
 70
     0
  9
$MIRRTEXT
 70
     1
  9
$LTSCALE
 40
1.0
  9
$ATTMODE
 70
     1
  9
$TEXTSIZE
 40
2.5
  9
$TRACEWID
 40
1.0
  9
$TEXTSTYLE
  7
STANDARD
  9
$CLAYER
  8
0
  9
$CELTYPE
  6
ByLayer
  9
$CECOLOR
 62
   256
  9
$CELTSCALE
 40
1.0
  9
$DISPSILH
 70
     0
  9
$DIMSCALE
 40
1.0
  9
$DIMASZ
 40
2.5
  9
$DIMEXO
 40
0.625
  9
$DIMDLI
 40
3.75
  9
$DIMRND
 40
0.0
  9
$DIMDLE
 40
0.0
  9
$DIMEXE
 40
1.25
  9
$DIMTP
 40
0.0
  9
$DIMTM
 40
0.0
  9
$DIMTXT
 40
2.5
  9
$DIMCEN
 40
2.5
  9
$DIMTSZ
 40
0.0
  9
$DIMTOL
 70
     0
  9
$DIMLIM
 70
     0
  9
$DIMTIH
 70
     0
  9
$DIMTOH
 70
     0
  9
$DIMSE1
 70
     0
  9
$DIMSE2
 70
     0
  9
$DIMTAD
 70
     1
  9
$DIMZIN
 70
     8
  9
$DIMBLK
  1

  9
$DIMASO
 70
     1
  9
$DIMSHO
 70
     1
  9
$DIMPOST
  1

  9
$DIMAPOST
  1

  9
$DIMALT
 70
     0
  9
$DIMALTD
 70
     3
  9
$DIMALTF
 40
0.03937007874016
  9
$DIMLFAC
 40
1.0
  9
$DIMTOFL
 70
     1
  9
$DIMTVP
 40
0.0
  9
$DIMTIX
 70
     0
  9
$DIMSOXD
 70
     0
  9
$DIMSAH
 70
     0
  9
$DIMBLK1
  1

  9
$DIMBLK2
  1

  9
$DIMSTYLE
  2
ISO-25
  9
$DIMCLRD
 70
     0
  9
$DIMCLRE
 70
     0
  9
$DIMCLRT
 70
     0
  9
$DIMTFAC
 40
1.0
  9
$DIMGAP
 40
0.625
  9
$DIMJUST
 70
     0
  9
$DIMSD1
 70
     0
  9
$DIMSD2
 70
     0
  9
$DIMTOLJ
 70
     1
  9
$DIMTZIN
 70
     0
  9
$DIMALTZ
 70
     0
  9
$DIMALTTZ
 70
     0
  9
$DIMUPT
 70
     0
  9
$DIMDEC
 70
     4
  9
$DIMTDEC
 70
     4
  9
$DIMALTU
 70
     2
  9
$DIMALTTD
 70
     2
  9
$DIMTXSTY
  7
STANDARD
  9
$DIMAUNIT
 70
     0
  9
$DIMADEC
 70
     0
  9
$DIMALTRND
 40
0.0
  9
$DIMAZIN
 70
     0
  9
$DIMDSEP
 70
    46
  9
$DIMATFIT
 70
     3
  9
$DIMFRAC
 70
     0
  9
$DIMLDRBLK
  1

  9
$DIMLUNIT
 70
     2
  9
$DIMLWD
 70
    -2
  9
$DIMLWE
 70
    -2
  9
$DIMTMOVE
 70
     0
  9
$LUNITS
 70
     2
  9
$LUPREC
 70
     4
  9
$SKETCHINC
 40
1.0
  9
$FILLETRAD
 40
10.0
  9
$AUNITS
 70
     0
  9
$AUPREC
 70
     0
  9
$MENU
  1
.
  9
$ELEVATION
 40
0.0
  9
$PELEVATION
 40
0.0
  9
$THICKNESS
 40
0.0
  9
$LIMCHECK
 70
     0
  9
$CHAMFERA
 40
10.0
  9
$CHAMFERB
 40
10.0
  9
$CHAMFERC
 40
0.0
  9
$CHAMFERD
 40
0.0
  9
$SKPOLY
 70
     0
  9
$TDCREATE
 40
2452048.587873715
  9
$TDUCREATE
 40
2452048.212873715
  9
$TDUPDATE
 40
2455961.589112616
  9
$TDUUPDATE
 40
2455961.214112616
  9
$TDINDWG
 40
0.1174785880
  9
$TDUSRTIMER
 40
0.1174754514
  9
$USRTIMER
 70
     1
  9
$ANGBASE
 50
0.0
  9
$ANGDIR
 70
     0
  9
$PDMODE
 70
     0
  9
$PDSIZE
 40
0.0
  9
$PLINEWID
 40
0.0
  9
$SPLFRAME
 70
     0
  9
$SPLINETYPE
 70
     6
  9
$SPLINESEGS
 70
     8
  9
$HANDSEED
  5
584A
  9
$SURFTAB1
 70
     6
  9
$SURFTAB2
 70
     6
  9
$SURFTYPE
 70
     6
  9
$SURFU
 70
     6
  9
$SURFV
 70
     6
  9
$UCSBASE
  2

  9
$UCSNAME
  2

  9
$UCSORG
 10
0.0
 20
0.0
 30
0.0
  9
$UCSXDIR
 10
1.0
 20
0.0
 30
0.0
  9
$UCSYDIR
 10
0.0
 20
1.0
 30
0.0
  9
$UCSORTHOREF
  2

  9
$UCSORTHOVIEW
 70
     0
  9
$UCSORGTOP
 10
0.0
 20
0.0
 30
0.0
  9
$UCSORGBOTTOM
 10
0.0
 20
0.0
 30
0.0
  9
$UCSORGLEFT
 10
0.0
 20
0.0
 30
0.0
  9
$UCSORGRIGHT
 10
0.0
 20
0.0
 30
0.0
  9
$UCSORGFRONT
 10
0.0
 20
0.0
 30
0.0
  9
$UCSORGBACK
 10
0.0
 20
0.0
 30
0.0
  9
$PUCSBASE
  2

  9
$PUCSNAME
  2

  9
$PUCSORG
 10
0.0
 20
0.0
 30
0.0
  9
$PUCSXDIR
 10
1.0
 20
0.0
 30
0.0
  9
$PUCSYDIR
 10
0.0
 20
1.0
 30
0.0
  9
$PUCSORTHOREF
  2

  9
$PUCSORTHOVIEW
 70
     0
  9
$PUCSORGTOP
 10
0.0
 20
0.0
 30
0.0
  9
$PUCSORGBOTTOM
 10
0.0
 20
0.0
 30
0.0
  9
$PUCSORGLEFT
 10
0.0
 20
0.0
 30
0.0
  9
$PUCSORGRIGHT
 10
0.0
 20
0.0
 30
0.0
  9
$PUCSORGFRONT
 10
0.0
 20
0.0
 30
0.0
  9
$PUCSORGBACK
 10
0.0
 20
0.0
 30
0.0
  9
$USERI1
 70
     0
  9
$USERI2
 70
     0
  9
$USERI3
 70
     0
  9
$USERI4
 70
     0
  9
$USERI5
 70
     0
  9
$USERR1
 40
0.0
  9
$USERR2
 40
0.0
  9
$USERR3
 40
0.0
  9
$USERR4
 40
0.0
  9
$USERR5
 40
0.0
  9
$WORLDVIEW
 70
     1
  9
$SHADEDGE
 70
     3
  9
$SHADEDIF
 70
    70
  9
$TILEMODE
 70
     1
  9
$MAXACTVP
 70
    64
  9
$PINSBASE
 10
0.0
 20
0.0
 30
0.0
  9
$PLIMCHECK
 70
     0
  9
$PEXTMIN
 10
1.000000000000000E+20
 20
1.000000000000000E+20
 30
1.000000000000000E+20
  9
$PEXTMAX
 10
-1.000000000000000E+20
 20
-1.000000000000000E+20
 30
-1.000000000000000E+20
  9
$PLIMMIN
 10
0.0
 20
0.0
  9
$PLIMMAX
 10
420.0
 20
297.0
  9
$UNITMODE
 70
     0
  9
$VISRETAIN
 70
     1
  9
$PLINEGEN
 70
     0
  9
$PSLTSCALE
 70
     1
  9
$TREEDEPTH
 70
  3020
  9
$CMLSTYLE
  2
Standard
  9
$CMLJUST
 70
     0
  9
$CMLSCALE
 40
1.0
  9
$PROXYGRAPHICS
 70
     1
  9
$MEASUREMENT
 70
     0
  9
$CELWEIGHT
370
    -1
  9
$ENDCAPS
280
     0
  9
$JOINSTYLE
280
     0
  9
$LWDISPLAY
290
     0
  9
$INSUNITS
 70
     0
  9
$HYPERLINKBASE
  1

  9
$STYLESHEET
  1

  9
$XEDIT
290
     1
  9
$CEPSNTYPE
380
     0
  9
$PSTYLEMODE
290
     1
  9
$FINGERPRINTGUID
  2
{6F58DB57-B904-4218-A90B-51213C9A842F}
  9
$VERSIONGUID
  2
{64E948A3-9687-49E3-83CC-7D91676D0DBE}
  9
$EXTNAMES
290
     1
  9
$PSVPSCALE
 40
0.0
  9
$OLESTARTUP
290
     0
  0
ENDSEC
  0
SECTION
  2
CLASSES
  0
CLASS
  1
ACDBDICTIONARYWDFLT
  2
AcDbDictionaryWithDefault
  3
ObjectDBX Classes
 90
        0
280
     0
281
     0
  0
CLASS
  1
TABLESTYLE
  2
AcDbTableStyle
  3
ObjectDBX Classes
 90
     2047
280
     0
281
     0
  0
CLASS
  1
SORTENTSTABLE
  2
AcDbSortentsTable
  3
ObjectDBX Classes
 90
        0
280
     0
281
     0
  0
CLASS
  1
DICTIONARYVAR
  2
AcDbDictionaryVar
  3
ObjectDBX Classes
 90
        0
280
     0
281
     0
  0
CLASS
  1
ACDBPLACEHOLDER
  2
AcDbPlaceHolder
  3
ObjectDBX Classes
 90
        0
280
     0
281
     0
  0
CLASS
  1
LAYOUT
  2
AcDbLayout
  3
ObjectDBX Classes
 90
        0
280
     0
281
     0
  0
ENDSEC
  0
SECTION
  2
TABLES
  0
TABLE
  2
VPORT
  5
54D8
330
0
100
AcDbSymbolTable
 70
    12
  0
VPORT
  5
583C
330
54D8
100
AcDbSymbolTableRecord
100
AcDbViewportTableRecord
  2
*Active
 70
     0
 10
0.0
 20
0.0
 11
1.0
 21
1.0
 12
687.6008190737739
 22
154.8742965622027
 13
0.0
 23
0.0
 14
10.0
 24
10.0
 15
10.0
 25
10.0
 16
0.0
 26
0.0
 36
1.0
 17
0.0
 27
0.0
 37
0.0
 40
308.2917865594975
 41
1.386243386243386
 42
50.0
 43
0.0
 44
0.0
 50
0.0
 51
0.0
 71
     0
 72
   100
 73
     1
 74
     3
 75
     0
 76
     0
 77
     0
 78
     0
281
     0
 65
     0
110
0.0
120
0.0
130
0.0
111
1.0
121
0.0
131
0.0
112
0.0
122
1.0
132
0.0
 79
     0
146
0.0
  0
ENDTAB
  0
TABLE
  2
LTYPE
  5
54D5
330
0
100
AcDbSymbolTable
 70
     2
  0
LTYPE
  5
54E3
330
54D5
100
AcDbSymbolTableRecord
100
AcDbLinetypeTableRecord
  2
ByBlock
 70
     0
  3

 72
    65
 73
     0
 40
0.0
  0
LTYPE
  5
54E4
330
54D5
100
AcDbSymbolTableRecord
100
AcDbLinetypeTableRecord
  2
ByLayer
 70
     0
  3

 72
    65
 73
     0
 40
0.0
  0
LTYPE
  5
54E5
330
54D5
100
AcDbSymbolTableRecord
100
AcDbLinetypeTableRecord
  2
CONTINUOUS
 70
     0
  3
Solid line
 72
    65
 73
     0
 40
0.0
  0
ENDTAB
  0
TABLE
  2
LAYER
  5
54D2
330
0
100
AcDbSymbolTable
 70
     5
  0
LAYER
  5
54E0
330
54D2
100
AcDbSymbolTableRecord
100
AcDbLayerTableRecord
  2
0
 70
     0
 62
     7
  6
CONTINUOUS
370
    -3
390
54DF
  0
LAYER
  5
54F7
330
54D2
100
AcDbSymbolTableRecord
100
AcDbLayerTableRecord
  2
1外形線
 70
     0
 62
     3
  6
CONTINUOUS
370
    -3
390
54DF
  0
LAYER
  5
5522
330
54D2
100
AcDbSymbolTableRecord
100
AcDbLayerTableRecord
  2
3補助線
 70
     0
 62
     4
  6
CONTINUOUS
370
    -3
390
54DF
  0
LAYER
  5
5523
330
54D2
100
AcDbSymbolTableRecord
100
AcDbLayerTableRecord
  2
DEFPOINTS
 70
     0
 62
     7
  6
CONTINUOUS
290
     0
370
    -3
390
54DF
  0
ENDTAB
  0
TABLE
  2
STYLE
  5
54D3
330
0
100
AcDbSymbolTable
 70
     2
  0
STYLE
  5
54E1
330
54D3
100
AcDbSymbolTableRecord
100
AcDbTextStyleTableRecord
  2
STANDARD
 70
     0
 40
0.0
 41
1.0
 50
0.0
 71
     0
 42
2.5
  3
txt
  4

  0
ENDTAB
  0
TABLE
  2
VIEW
  5
54D6
330
0
100
AcDbSymbolTable
 70
     0
  0
ENDTAB
  0
TABLE
  2
UCS
  5
54D7
330
0
100
AcDbSymbolTable
 70
     0
  0
ENDTAB
  0
TABLE
  2
APPID
  5
54D9
330
0
100
AcDbSymbolTable
 70
     1
  0
APPID
  5
54E2
330
54D9
100
AcDbSymbolTableRecord
100
AcDbRegAppTableRecord
  2
ACAD
 70
     0
  0
ENDTAB
  0
TABLE
  2
DIMSTYLE
  5
54DA
330
0
100
AcDbSymbolTable
 70
     3
100
AcDbDimStyleTable
 71
     1
340
54F9
  0
DIMSTYLE
105
54F9
330
54DA
100
AcDbSymbolTableRecord
100
AcDbDimStyleTableRecord
  2
ISO-25
 70
     0
 41
2.5
 42
0.625
 43
3.75
 44
1.25
 73
     0
 74
     0
 77
     1
 78
     8
140
2.5
141
2.5
143
0.03937007874016
147
0.625
171
     3
172
     1
274
     3
279
     2
284
     8
285
     8
286
     8
340
54E1
  0
DIMSTYLE
105
54FA
330
54DA
100
AcDbSymbolTableRecord
100
AcDbDimStyleTableRecord
  2
STANDARD
 70
     0
 41
1.0
 42
1.0
 43
6.0
 44
1.0
 73
     0
 74
     0
 77
     1
 78
     8
140
2.5
141
0.0
147
0.5
172
     1
173
     1
274
     3
279
     2
284
     8
285
     8
286
     8
340
54E1
  0
ENDTAB
  0
TABLE
  2
BLOCK_RECORD
  5
54D1
330
0
100
AcDbSymbolTable
 70
    26
  0
BLOCK_RECORD
  5
54F2
330
54D1
100
AcDbSymbolTableRecord
100
AcDbBlockTableRecord
  2
*Model_Space
340
54F5
  0
BLOCK_RECORD
  5
54EE
330
54D1
100
AcDbSymbolTableRecord
100
AcDbBlockTableRecord
  2
*Paper_Space
340
54F1
  0
ENDTAB
  0
ENDSEC
  0
SECTION
  2
BLOCKS
  0
BLOCK
  5
54F3
330
54F2
100
AcDbEntity
  8
0
100
AcDbBlockBegin
  2
*Model_Space
 70
     0
 10
0.0
 20
0.0
 30
0.0
  3
*Model_Space
  1

  0
ENDBLK
  5
54F4
330
54F2
100
AcDbEntity
  8
0
100
AcDbBlockEnd
  0
BLOCK
  5
54EF
330
54EE
100
AcDbEntity
 67
     1
  8
0
100
AcDbBlockBegin
  2
*Paper_Space
 70
     0
 10
0.0
 20
0.0
 30
0.0
  3
*Paper_Space
  1

  0
ENDBLK
  5
54F0
330
54EE
100
AcDbEntity
 67
     1
  8
0
100
AcDbBlockEnd
  0
ENDSEC
  0
SECTION
  2
ENTITIES
  0
LINE
  5
55DE
330
54F2
100
AcDbEntity
  8
1外形線
100
AcDbLine
 10
861.5962832494323
 20
149.8130111324435
 30
0.0
 11
862.0962649764283
 21
119.7961075127196
 31
0.0
  0
LINE
  5
55DF
330
54F2
100
AcDbEntity
  8
1外形線
100
AcDbLine
 10
847.863934276761
 20
125.7961075127195
 30
0.0
 11
847.596287217938
 21
145.2961075127196
 31
0.0
  0
LINE
  5
55E0
330
54F2
100
AcDbEntity
  8
1外形線
100
AcDbLine
 10
789.5962911864435
 20
149.8130111324435
 30
0.0
 11
789.0963094594475
 21
119.7961075127196
 31
0.0
  0
LINE
  5
55E1
330
54F2
100
AcDbEntity
  8
1外形線
100
AcDbLine
 10
803.328640159115
 20
125.7961075127195
 30
0.0
 11
803.5962872179378
 21
145.2961075127196
 31
0.0
  0
LINE
  5
55E2
330
54F2
100
AcDbEntity
  8
1外形線
100
AcDbLine
 10
791.5962872179379
 20
149.7961075127195
 30
0.0
 11
791.0962872179379
 21
119.7961075127196
 31
0.0
  0
LINE
  5
55E3
330
54F2
100
AcDbEntity
  8
1外形線
100
AcDbLine
 10
859.5962872179379
 20
149.7961075127195
 30
0.0
 11
860.096287217938
 21
119.7961075127196
 31
0.0
  0
LINE
  5
55E4
330
54F2
100
AcDbEntity
  8
1外形線
100
AcDbLine
 10
571.9467176838707
 20
119.7961075127196
 30
0.0
 11
571.5967176838703
 21
145.2961075127196
 31
0.0
  0
LINE
  5
55E5
330
54F2
100
AcDbEntity
  8
1外形線
100
AcDbLine
 10
573.9469060640795
 20
119.7961075127196
 30
0.0
 11
573.5967135869132
 21
145.3101308491814
 31
0.0
  0
LINE
  5
55E6
330
54F2
100
AcDbEntity
  8
1外形線
100
AcDbLine
 10
585.5967137153648
 20
149.8130111324435
 30
0.0
 11
586.0966954423608
 21
119.7961075127196
 31
0.0
  0
LINE
  5
55E7
330
54F2
100
AcDbEntity
  8
1外形線
100
AcDbLine
 10
527.2467176838699
 20
119.7961075127196
 30
0.0
 11
527.5967176838703
 21
145.2961075127196
 31
0.0
  0
LINE
  5
55E8
330
54F2
100
AcDbEntity
  8
1外形線
100
AcDbLine
 10
525.2465293036611
 20
119.7961075127196
 30
0.0
 11
525.5967217808274
 21
145.3101308492028
 31
0.0
  0
LINE
  5
55E9
330
54F2
100
AcDbEntity
  8
1外形線
100
AcDbLine
 10
513.5967216523758
 20
149.8130111324435
 30
0.0
 11
513.0967399253798
 21
119.7961075127196
 31
0.0
  0
LINE
  5
55EA
330
54F2
100
AcDbEntity
  8
1外形線
 48
3.0
100
AcDbLine
 10
749.7229190115312
 20
183.8911199506074
 30
0.0
 11
749.7229190115312
 21
119.7961075127196
 31
0.0
  0
LINE
  5
55EB
330
54F2
100
AcDbEntity
  8
1外形線
 48
3.0
100
AcDbLine
 10
621.7229190115313
 20
167.4870028042287
 30
0.0
 11
621.7229190115313
 21
119.7961075127196
 31
0.0
  0
LINE
  5
55EE
330
54F2
100
AcDbEntity
  8
1外形線
 48
3.0
100
AcDbLine
 10
586.0966954423608
 20
119.7961075127196
 30
0.0
 11
513.0967399253798
 21
119.7961075127196
 31
0.0
  0
LINE
  5
55EF
330
54F2
100
AcDbEntity
  8
1外形線
 62
     3
 48
3.0
100
AcDbLine
 10
633.7229190115313
 20
62.88496697429128
 30
0.0
 11
633.7229190115313
 21
51.90409215885575
 31
0.0
  0
LINE
  5
55F0
330
54F2
100
AcDbEntity
  8
1外形線
 62
     3
 48
3.0
100
AcDbLine
 10
634.7229190115313
 20
63.04203292088004
 30
0.0
 11
634.7229190115313
 21
51.90409215885575
 31
0.0
  0
LINE
  5
55F1
330
54F2
100
AcDbEntity
  8
1外形線
 62
     3
 48
3.0
100
AcDbLine
 10
749.7229190115312
 20
73.99910459674356
 30
0.0
 11
749.7229190115312
 21
39.40409215885575
 31
0.0
  0
LINE
  5
55F2
330
54F2
100
AcDbEntity
  8
1外形線
 62
     3
 48
3.0
100
AcDbLine
 10
621.7229190115313
 20
61.901681034587
 30
0.0
 11
621.7229190115313
 21
39.40409215885575
 31
0.0
  0
LINE
  5
55F3
330
54F2
100
AcDbEntity
  8
1外形線
 62
     3
 48
3.0
100
AcDbLine
 10
634.7229190115313
 20
15.7661513968319
 30
0.0
 11
680.7462088041675
 21
8.537459820443473
 31
0.0
  0
LINE
  5
55F4
330
54F2
100
AcDbEntity
  8
1外形線
 62
     3
 48
3.0
100
AcDbLine
 10
622.5645762992126
 20
15.91911906942869
 30
0.0
 11
680.1222845565398
 21
6.688828050113443
 31
0.0
  0
LINE
  5
55F6
330
54F2
100
AcDbEntity
  8
1外形線
 62
     3
 48
3.0
100
AcDbLine
 10
634.7229190115313
 20
15.76615139683144
 30
0.0
 11
634.7229190115313
 21
26.90409215885575
 31
0.0
  0
LINE
  5
55F7
330
54F2
100
AcDbEntity
  8
1外形線
 62
     3
 48
3.0
100
AcDbLine
 10
633.7229190115313
 20
15.92321734342022
 30
0.0
 11
633.7229190115313
 21
26.90409215885575
 31
0.0
  0
LINE
  5
55F8
330
54F2
100
AcDbEntity
  8
1外形線
 62
     3
 48
3.0
100
AcDbLine
 10
633.7229190115313
 20
17.05409215885538
 30
0.0
 11
634.7229190115313
 21
17.05409215885538
 31
0.0
  0
LINE
  5
55F9
330
54F2
100
AcDbEntity
  8
1外形線
 62
     3
 48
3.0
100
AcDbLine
 10
621.7229190115313
 20
17.05409215885538
 30
0.0
 11
625.7423739051946
 21
17.05409215885538
 31
0.0
  0
ARC
  5
55FA
330
54F2
100
AcDbEntity
  8
1外形線
 62
     3
 48
3.0
100
AcDbCircle
 10
622.7229190115313
 20
16.90650328312449
 30
0.0
 40
1.0
100
AcDbArc
 50
180.0
 51
260.8892856051635
  0
ARC
  5
55FB
330
54F2
100
AcDbEntity
  8
1外形線
 62
     3
 48
3.0
100
AcDbCircle
 10
625.7423739051946
 20
7.054092158855382
 30
0.0
 40
10.0
100
AcDbArc
 50
81.07371040555872
 51
90.0
  0
LINE
  5
55FC
330
54F2
100
AcDbEntity
  8
1外形線
 62
     3
 48
3.0
100
AcDbLine
 10
621.7229190115313
 20
16.90650328312449
 30
0.0
 11
621.7229190115313
 21
39.40409215885575
 31
0.0
  0
LINE
  5
55FD
330
54F2
100
AcDbEntity
  8
1外形線
 62
     3
 48
3.0
100
AcDbLine
 10
627.2940107600434
 20
16.93297990346946
 30
0.0
 11
633.7229190115313
 21
15.92321734341976
 31
0.0
  0
LINE
  5
55FE
330
54F2
100
AcDbEntity
  8
1外形線
 62
     3
 48
3.0
100
AcDbLine
 10
727.6250982520259
 20
2.904092158855746
 30
0.0
 11
738.2266503779056
 21
2.904092158855746
 31
0.0
  0
LINE
  5
55FF
330
54F2
100
AcDbEntity
  8
1外形線
 62
     3
 48
3.0
100
AcDbLine
 10
727.2953144495868
 20
4.904092158855746
 30
0.0
 11
749.7229190115331
 21
4.904092158855746
 31
0.0
  0
LINE
  5
5600
330
54F2
100
AcDbEntity
  8
1外形線
 62
     3
 48
3.0
100
AcDbLine
 10
748.8224227305536
 20
3.814042530758342
 30
0.0
 11
741.2117619485352
 21
3.052976452556322
 31
0.0
  0
ARC
  5
5601
330
54F2
100
AcDbEntity
  8
1外形線
 62
     3
 48
3.0
100
AcDbCircle
 10
748.7229190115312
 20
4.809079720967929
 30
0.0
 40
1.0
100
AcDbArc
 50
275.7105931375236
 51
0.0
  0
ARC
  5
5602
330
54F2
100
AcDbEntity
  8
1外形線
 62
     3
 48
3.0
100
AcDbCircle
 10
738.2266503779056
 20
32.90409215885575
 30
0.0
 40
30.0
100
AcDbArc
 50
270.0
 51
275.7105931375236
  0
LINE
  5
5603
330
54F2
100
AcDbEntity
  8
1外形線
 62
     3
 48
3.0
100
AcDbLine
 10
749.7229190115312
 20
4.809079720967929
 30
0.0
 11
749.7229190115312
 21
39.40409215885575
 31
0.0
  0
ARC
  5
5604
330
54F2
100
AcDbEntity
  8
1外形線
 62
     3
 48
3.0
100
AcDbCircle
 10
727.2953144495868
 20
304.9040921588558
 30
0.0
 40
300.0
100
AcDbArc
 50
261.0737104055587
 51
270.0
  0
ARC
  5
5605
330
54F2
100
AcDbEntity
  8
1外形線
 62
     3
 48
3.0
100
AcDbCircle
 10
727.6250982520259
 20
302.9040921588558
 30
0.0
 40
300.0
100
AcDbArc
 50
260.8892856051635
 51
270.0
  0
LINE
  5
5606
330
54F2
100
AcDbEntity
  8
1外形線
 62
     3
 48
3.0
100
AcDbLine
 10
634.7229190115313
 20
63.04203292087959
 30
0.0
 11
680.7462088041675
 21
70.27072449726802
 31
0.0
  0
LINE
  5
5607
330
54F2
100
AcDbEntity
  8
1外形線
 62
     3
 48
3.0
100
AcDbLine
 10
622.5645762992126
 20
62.88906524828281
 30
0.0
 11
680.1222845565398
 21
72.11935626759805
 31
0.0
  0
LINE
  5
5608
330
54F2
100
AcDbEntity
  8
1外形線
 48
3.0
100
AcDbLine
 10
621.7229190115313
 20
119.7961075127196
 30
0.0
 11
749.7229190115312
 21
119.7961075127196
 31
0.0
  0
LINE
  5
5609
330
54F2
100
AcDbEntity
  8
1外形線
 62
     3
 48
3.0
100
AcDbLine
 10
633.7229190115313
 20
61.75409215885611
 30
0.0
 11
634.7229190115313
 21
61.75409215885611
 31
0.0
  0
ARC
  5
560A
330
54F2
100
AcDbEntity
  8
1外形線
 62
     3
 48
3.0
100
AcDbCircle
 10
625.7423739051946
 20
71.75409215885611
 30
0.0
 40
10.0
100
AcDbArc
 50
270.0
 51
278.9262895944412
  0
ARC
  5
560B
330
54F2
100
AcDbEntity
  8
1外形線
 62
     3
 48
3.0
100
AcDbCircle
 10
622.7229190115313
 20
61.901681034587
 30
0.0
 40
1.0
100
AcDbArc
 50
99.11071439483652
 51
180.0
  0
LINE
  5
560C
330
54F2
100
AcDbEntity
  8
1外形線
 62
     3
 48
3.0
100
AcDbLine
 10
621.7229190115313
 20
61.75409215885611
 30
0.0
 11
625.7423739051946
 21
61.75409215885611
 31
0.0
  0
LINE
  5
560D
330
54F2
100
AcDbEntity
  8
1外形線
 62
     3
 48
3.0
100
AcDbLine
 10
627.2940107600434
 20
61.87520441424203
 30
0.0
 11
633.7229190115313
 21
62.88496697429128
 31
0.0
  0
LINE
  5
560E
330
54F2
100
AcDbEntity
  8
1外形線
 62
     3
 48
3.0
100
AcDbLine
 10
727.6250982520259
 20
75.90409215885575
 30
0.0
 11
738.2266503779056
 21
75.90409215885575
 31
0.0
  0
ARC
  5
560F
330
54F2
100
AcDbEntity
  8
1外形線
 62
     3
 48
3.0
100
AcDbCircle
 10
748.7229190115312
 20
73.99910459674356
 30
0.0
 40
1.0
100
AcDbArc
 50
0.0
 51
84.28940686247647
  0
LINE
  5
5610
330
54F2
100
AcDbEntity
  8
1外形線
 62
     3
 48
3.0
100
AcDbLine
 10
748.8224227305536
 20
74.99414178695315
 30
0.0
 11
741.2117619485352
 21
75.75520786515517
 31
0.0
  0
LINE
  5
5611
330
54F2
100
AcDbEntity
  8
1外形線
 62
     3
 48
3.0
100
AcDbLine
 10
727.2953144495868
 20
73.90409215885575
 30
0.0
 11
749.7229190115331
 21
73.90409215885575
 31
0.0
  0
ARC
  5
5612
330
54F2
100
AcDbEntity
  8
1外形線
 62
     3
 48
3.0
100
AcDbCircle
 10
738.2266503779056
 20
45.90409215885574
 30
0.0
 40
30.0
100
AcDbArc
 50
84.28940686247647
 51
90.0
  0
ARC
  5
5613
330
54F2
100
AcDbEntity
  8
1外形線
 62
     3
 48
3.0
100
AcDbCircle
 10
727.6250982520259
 20
-224.0959078411442
 30
0.0
 40
300.0
100
AcDbArc
 50
90.0
 51
99.11071439483652
  0
ARC
  5
5614
330
54F2
100
AcDbEntity
  8
1外形線
 62
     3
 48
3.0
100
AcDbCircle
 10
727.2953144495868
 20
-226.0959078411442
 30
0.0
 40
300.0
100
AcDbArc
 50
90.0
 51
98.92628959444129
  0
LINE
  5
5615
330
54F2
100
AcDbEntity
  8
1外形線
100
AcDbLine
 10
789.0963094594475
 20
119.7961075127196
 30
0.0
 11
862.0962649764283
 21
119.7961075127196
 31
0.0
  0
ARC
  5
5618
330
54F2
100
AcDbEntity
  8
1外形線
100
AcDbCircle
 10
549.5967176838703
 20
149.7961075127195
 30
0.0
 40
36.0
100
AcDbArc
 50
0.0269029473363586
 51
179.9730970526571
  0
ARC
  5
5619
330
54F2
100
AcDbEntity
  8
1外形線
100
AcDbCircle
 10
549.5967176838703
 20
145.2961075127196
 30
0.0
 40
22.0
100
AcDbArc
 50
0.0
 51
180.0
  0
ARC
  5
561A
330
54F2
100
AcDbEntity
  8
1外形線
100
AcDbCircle
 10
549.5967176838703
 20
145.2961075127196
 30
0.0
 40
24.0
100
AcDbArc
 50
0.0334782516552792
 51
179.9665217482926
  0
LINE
  5
561B
330
54F2
100
AcDbEntity
  8
1外形線
 48
3.0
100
AcDbLine
 10
750.910812481382
 20
235.7525589515589
 30
0.0
 11
750.910812481382
 21
270.3475713894468
 31
0.0
  0
LINE
  5
561C
330
54F2
100
AcDbEntity
  8
1外形線
 48
3.0
100
AcDbLine
 10
623.7524697690632
 20
246.8625983000197
 30
0.0
 11
681.3101780263905
 21
237.6323072807045
 31
0.0
  0
ARC
  5
561D
330
54F2
100
AcDbEntity
  8
1外形線
 48
3.0
100
AcDbCircle
 10
735.3786806619527
 20
-114.2038924872804
 30
0.0
 40
300.0
100
AcDbArc
 50
90.0
 51
102.0470304912258
  0
ARC
  5
561E
330
54F2
100
AcDbEntity
  8
1外形線
 48
3.0
100
AcDbCircle
 10
622.7229190115313
 20
167.4870028042287
 30
0.0
 40
1.0
100
AcDbArc
 50
102.0470304912258
 51
180.0
  0
LINE
  5
561F
330
54F2
100
AcDbEntity
  8
1外形線
 48
3.0
100
AcDbLine
 10
622.5142044911835
 20
168.4649794138645
 30
0.0
 11
672.7643245572026
 21
179.1890904035635
 31
0.0
  0
LINE
  5
5620
330
54F2
100
AcDbEntity
  8
1外形線
 48
3.0
100
AcDbLine
 10
735.37868066194
 20
185.7961075127196
 30
0.0
 11
738.2266503779056
 21
185.7961075127196
 31
0.0
  0
ARC
  5
5621
330
54F2
100
AcDbEntity
  8
1外形線
 48
3.0
100
AcDbCircle
 10
739.4145438477562
 20
263.8475713894468
 30
0.0
 40
30.0
100
AcDbArc
 50
270.0
 51
275.7105931375236
  0
LINE
  5
5622
330
54F2
100
AcDbEntity
  8
1外形線
 48
3.0
100
AcDbLine
 10
728.8129917218766
 20
233.8475713894468
 30
0.0
 11
739.4145438477562
 21
233.8475713894468
 31
0.0
  0
ARC
  5
5623
330
54F2
100
AcDbEntity
  8
1外形線
 48
3.0
100
AcDbCircle
 10
749.910812481382
 20
235.7525589515589
 30
0.0
 40
1.0
100
AcDbArc
 50
275.7105931375236
 51
0.0
  0
LINE
  5
5624
330
54F2
100
AcDbEntity
  8
1外形線
 48
3.0
100
AcDbLine
 10
750.0103162004043
 20
234.7575217613494
 30
0.0
 11
742.3996554183859
 21
233.9964556831473
 31
0.0
  0
ARC
  5
5625
330
54F2
100
AcDbEntity
  8
1外形線
 48
3.0
100
AcDbCircle
 10
748.7229190115312
 20
183.8911199506074
 30
0.0
 40
1.0
100
AcDbArc
 50
0.0
 51
84.28940686247647
  0
ARC
  5
5626
330
54F2
100
AcDbEntity
  8
1外形線
 48
3.0
100
AcDbCircle
 10
738.2266503779056
 20
155.7961075127195
 30
0.0
 40
30.0
100
AcDbArc
 50
84.28940686247647
 51
90.0
  0
LINE
  5
5627
330
54F2
100
AcDbEntity
  8
1外形線
 48
3.0
100
AcDbLine
 10
741.2117619485352
 20
185.647223219019
 30
0.0
 11
748.8224227305518
 21
184.8861571408174
 31
0.0
  0
ARC
  5
5628
330
54F2
100
AcDbEntity
  8
1外形線
 48
3.0
100
AcDbCircle
 10
728.8129917218766
 20
533.8475713894467
 30
0.0
 40
300.0
100
AcDbArc
 50
260.8892856051635
 51
270.0
  0
LINE
  5
5629
330
54F2
100
AcDbEntity
  8
1外形線
 48
3.0
100
AcDbLine
 10
623.7524697690632
 20
293.8325444788739
 30
0.0
 11
681.3101780263886
 21
303.0628354981891
 31
0.0
  0
ARC
  5
562B
330
54F2
100
AcDbEntity
  8
1外形線
 48
3.0
100
AcDbCircle
 10
623.9108124813819
 20
292.845160265178
 30
0.0
 40
1.0
100
AcDbArc
 50
99.11071439483652
 51
180.0
  0
LINE
  5
562C
330
54F2
100
AcDbEntity
  8
1外形線
 48
3.0
100
AcDbLine
 10
622.9108124813819
 20
292.845160265178
 30
0.0
 11
622.9108124813819
 21
270.3475713894468
 31
0.0
  0
ARC
  5
562D
330
54F2
100
AcDbEntity
  8
1外形線
 48
3.0
100
AcDbCircle
 10
623.9108124813819
 20
247.8499825137155
 30
0.0
 40
1.0
100
AcDbArc
 50
180.0
 51
260.8892856051635
  0
LINE
  5
562E
330
54F2
100
AcDbEntity
  8
1外形線
 48
3.0
100
AcDbLine
 10
622.9108124813819
 20
247.8499825137155
 30
0.0
 11
622.9108124813819
 21
270.3475713894468
 31
0.0
  0
LINE
  5
562F
330
54F2
100
AcDbEntity
  8
3補助線
 48
3.0
100
AcDbLine
 10
741.4205790116384
 20
306.796594736421
 30
0.0
 11
740.9108124813838
 21
306.8475713894463
 31
0.0
  0
LINE
  5
5630
330
54F2
100
AcDbEntity
  8
3補助線
 48
3.0
100
AcDbLine
 10
740.4354301013654
 20
306.8475713894463
 30
0.0
 11
740.9108124813838
 21
306.8475713894463
 31
0.0
  0
LINE
  5
5631
330
54F2
100
AcDbEntity
  8
1外形線
 48
3.0
100
AcDbLine
 10
728.8129917218785
 20
306.8475713894468
 30
0.0
 11
739.4145438477562
 21
306.8475713894463
 31
0.0
  0
ARC
  5
5632
330
54F2
100
AcDbEntity
  8
1外形線
 48
3.0
100
AcDbCircle
 10
739.4145438477562
 20
276.8475713894468
 30
0.0
 40
30.0
100
AcDbArc
 50
84.28940686247647
 51
90.0
  0
LINE
  5
5633
330
54F2
100
AcDbEntity
  8
1外形線
 48
3.0
100
AcDbLine
 10
750.910812481382
 20
304.9425838273346
 30
0.0
 11
750.910812481382
 21
270.3475713894468
 31
0.0
  0
LINE
  5
5634
330
54F2
100
AcDbEntity
  8
1外形線
 48
3.0
100
AcDbLine
 10
750.0103162004043
 20
305.9376210175442
 30
0.0
 11
742.3996554183859
 21
306.6986870957462
 31
0.0
  0
ARC
  5
5635
330
54F2
100
AcDbEntity
  8
1外形線
 48
3.0
100
AcDbCircle
 10
749.910812481382
 20
304.9425838273346
 30
0.0
 40
1.0
100
AcDbArc
 50
0.0
 51
84.28940686247647
  0
ARC
  5
5636
330
54F2
100
AcDbEntity
  8
1外形線
 48
3.0
100
AcDbCircle
 10
728.8129917218766
 20
6.847571389446784
 30
0.0
 40
300.0
100
AcDbArc
 50
90.0
 51
99.11071439483652
  0
ARC
  5
5639
330
54F2
100
AcDbEntity
  8
1外形線
100
AcDbCircle
 10
825.5962872179379
 20
145.2961075127196
 30
0.0
 40
22.0
100
AcDbArc
 50
0.0
 51
180.0
  0
ARC
  5
563A
330
54F2
100
AcDbEntity
  8
1外形線
100
AcDbCircle
 10
825.5962872179379
 20
149.7961075127195
 30
0.0
 40
34.0
100
AcDbArc
 50
0.0
 51
180.0
  0
ARC
  5
563B
330
54F2
100
AcDbEntity
  8
1外形線
100
AcDbCircle
 10
825.5962872179379
 20
149.7961075127195
 30
0.0
 40
36.0
100
AcDbArc
 50
0.0269029473363586
 51
179.9730970526571
  0
LINE
  5
563C
330
54F2
100
AcDbEntity
  8
1外形線
 48
3.0
100
AcDbLine
 10
549.5967176838703
 20
119.7961075127196
 30
0.0
 11
526.1967176838688
 21
119.7961075127193
 31
0.0
  0
LINE
  5
563D
330
54F2
100
AcDbEntity
  8
1外形線
 48
3.0
100
AcDbLine
 10
537.0967176838703
 20
130.7961075127186
 30
0.0
 11
531.3928701065769
 21
130.7961075127189
 31
0.0
  0
LINE
  5
563E
330
54F2
100
AcDbEntity
  8
1外形線
 48
3.0
100
AcDbLine
 10
531.3928701065769
 20
130.7961075127189
 30
0.0
 11
527.3657857867865
 21
128.4710692966398
 31
0.0
  0
LINE
  5
563F
330
54F2
100
AcDbEntity
  8
1外形線
 48
3.0
100
AcDbLine
 10
549.5967176838703
 20
119.7961075127196
 30
0.0
 11
572.9967176838681
 21
119.7961075127196
 31
0.0
  0
LINE
  5
5640
330
54F2
100
AcDbEntity
  8
1外形線
 48
3.0
100
AcDbLine
 10
549.5967176838703
 20
127.2961075127196
 30
0.0
 11
562.0967176838703
 21
127.2961075127196
 31
0.0
  0
LINE
  5
5641
330
54F2
100
AcDbEntity
  8
1外形線
 48
3.0
100
AcDbLine
 10
549.5967176838703
 20
128.2961075127196
 30
0.0
 11
562.0967176838703
 21
128.2961075127196
 31
0.0
  0
LINE
  5
5642
330
54F2
100
AcDbEntity
  8
1外形線
 48
3.0
100
AcDbLine
 10
549.5967176838703
 20
129.2961075127196
 30
0.0
 11
560.5967176838703
 21
129.2961075127196
 31
0.0
  0
LINE
  5
5643
330
54F2
100
AcDbEntity
  8
1外形線
 48
3.0
100
AcDbLine
 10
538.5967176838703
 20
130.7961075127186
 30
0.0
 11
538.5967176838703
 21
129.2961075127196
 31
0.0
  0
LINE
  5
5644
330
54F2
100
AcDbEntity
  8
1外形線
 48
3.0
100
AcDbLine
 10
537.0967176838703
 20
130.7961075127186
 30
0.0
 11
537.0967176838703
 21
127.2961075127196
 31
0.0
  0
LINE
  5
5645
330
54F2
100
AcDbEntity
  8
1外形線
 48
3.0
100
AcDbLine
 10
549.5967176838703
 20
129.2961075127196
 30
0.0
 11
538.5967176838703
 21
129.2961075127196
 31
0.0
  0
LINE
  5
5646
330
54F2
100
AcDbEntity
  8
1外形線
 48
3.0
100
AcDbLine
 10
549.5967176838703
 20
128.2961075127196
 30
0.0
 11
537.0967176838703
 21
128.2961075127196
 31
0.0
  0
LINE
  5
5647
330
54F2
100
AcDbEntity
  8
1外形線
 48
3.0
100
AcDbLine
 10
549.5967176838703
 20
127.2961075127196
 30
0.0
 11
537.0967176838703
 21
127.2961075127196
 31
0.0
  0
LINE
  5
5648
330
54F2
100
AcDbEntity
  8
1外形線
 48
3.0
100
AcDbLine
 10
538.5967176838703
 20
130.7961075127186
 30
0.0
 11
537.0967176838703
 21
130.7961075127186
 31
0.0
  0
LINE
  5
5649
330
54F2
100
AcDbEntity
  8
1外形線
 48
3.0
100
AcDbLine
 10
562.0967176838703
 20
130.7961075127186
 30
0.0
 11
567.8005652611618
 21
130.7961075127189
 31
0.0
  0
LINE
  5
564A
330
54F2
100
AcDbEntity
  8
1外形線
 48
3.0
100
AcDbLine
 10
560.5967176838703
 20
130.7961075127186
 30
0.0
 11
562.0967176838703
 21
130.7961075127186
 31
0.0
  0
LINE
  5
564B
330
54F2
100
AcDbEntity
  8
1外形線
 48
3.0
100
AcDbLine
 10
560.5967176838703
 20
130.7961075127186
 30
0.0
 11
560.5967176838703
 21
129.2961075127196
 31
0.0
  0
LINE
  5
564C
330
54F2
100
AcDbEntity
  8
1外形線
 48
3.0
100
AcDbLine
 10
562.0967176838703
 20
130.7961075127186
 30
0.0
 11
562.0967176838703
 21
127.2961075127196
 31
0.0
  0
LINE
  5
564D
330
54F2
100
AcDbEntity
  8
1外形線
 48
3.0
100
AcDbLine
 10
567.8005652611618
 20
130.7961075127189
 30
0.0
 11
571.8276495809541
 21
128.4710692966387
 31
0.0
  0
LINE
  5
564E
330
54F2
100
AcDbEntity
  8
1外形線
 48
3.0
100
AcDbLine
 10
859.5962872179379
 20
119.7961075127196
 30
0.0
 11
825.5962872179379
 21
119.7961075127196
 31
0.0
  0
LINE
  5
564F
330
54F2
100
AcDbEntity
  8
1外形線
 48
3.0
100
AcDbLine
 10
846.596287217938
 20
125.7961075127195
 30
0.0
 11
856.0962872179379
 21
125.7961075127195
 31
0.0
  0
LINE
  5
5650
330
54F2
100
AcDbEntity
  8
1外形線
 48
3.0
100
AcDbLine
 10
825.5962872179379
 20
122.2961075127195
 30
0.0
 11
846.596287217938
 21
122.2961075127195
 31
0.0
  0
LINE
  5
5651
330
54F2
100
AcDbEntity
  8
1外形線
 48
3.0
100
AcDbLine
 10
825.5962872179379
 20
124.2961075127196
 30
0.0
 11
845.0962872179379
 21
124.2961075127196
 31
0.0
  0
LINE
  5
5652
330
54F2
100
AcDbEntity
  8
1外形線
 48
3.0
100
AcDbLine
 10
825.5962872179379
 20
123.2961075127195
 30
0.0
 11
846.596287217938
 21
123.2961075127195
 31
0.0
  0
LINE
  5
5653
330
54F2
100
AcDbEntity
  8
1外形線
 48
3.0
100
AcDbLine
 10
791.5962872179379
 20
119.7961075127196
 30
0.0
 11
825.5962872179379
 21
119.7961075127196
 31
0.0
  0
LINE
  5
5654
330
54F2
100
AcDbEntity
  8
1外形線
 48
3.0
100
AcDbLine
 10
825.5962872179379
 20
123.2961075127195
 30
0.0
 11
804.596287217938
 21
123.2961075127195
 31
0.0
  0
LINE
  5
5655
330
54F2
100
AcDbEntity
  8
1外形線
 48
3.0
100
AcDbLine
 10
825.5962872179379
 20
122.2961075127195
 30
0.0
 11
804.596287217938
 21
122.2961075127195
 31
0.0
  0
LINE
  5
5656
330
54F2
100
AcDbEntity
  8
1外形線
 48
3.0
100
AcDbLine
 10
806.0962872179379
 20
125.7961075127195
 30
0.0
 11
804.596287217938
 21
125.7961075127195
 31
0.0
  0
LINE
  5
5657
330
54F2
100
AcDbEntity
  8
1外形線
 48
3.0
100
AcDbLine
 10
804.596287217938
 20
125.7961075127195
 30
0.0
 11
795.0962872179379
 21
125.7961075127195
 31
0.0
  0
ARC
  5
5658
330
54F2
100
AcDbEntity
  8
1外形線
 48
3.0
100
AcDbCircle
 10
794.096287217938
 20
128.0847826473136
 30
0.0
 40
1.0
100
AcDbArc
 50
0.0
 51
120.0000000000001
  0
LINE
  5
5659
330
54F2
100
AcDbEntity
  8
1外形線
 48
3.0
100
AcDbLine
 10
795.0962872179379
 20
128.0847826473136
 30
0.0
 11
795.0962872179379
 21
125.7961075127195
 31
0.0
  0
LINE
  5
565A
330
54F2
100
AcDbEntity
  8
1外形線
 48
3.0
100
AcDbLine
 10
793.596287217938
 20
128.9508080510986
 30
0.0
 11
791.2260580191441
 21
127.5823555851343
 31
0.0
  0
LINE
  5
565B
330
54F2
100
AcDbEntity
  8
1外形線
 48
3.0
100
AcDbLine
 10
804.596287217938
 20
125.7961075127195
 30
0.0
 11
804.596287217938
 21
122.2961075127195
 31
0.0
  0
LINE
  5
565C
330
54F2
100
AcDbEntity
  8
1外形線
 48
3.0
100
AcDbLine
 10
825.5962872179379
 20
124.2961075127196
 30
0.0
 11
806.0962872179379
 21
124.2961075127196
 31
0.0
  0
LINE
  5
565D
330
54F2
100
AcDbEntity
  8
1外形線
 48
3.0
100
AcDbLine
 10
806.0962872179379
 20
125.7961075127195
 30
0.0
 11
806.0962872179379
 21
124.2961075127196
 31
0.0
  0
LINE
  5
565E
330
54F2
100
AcDbEntity
  8
1外形線
 48
3.0
100
AcDbLine
 10
845.0962872179379
 20
125.7961075127195
 30
0.0
 11
846.596287217938
 21
125.7961075127195
 31
0.0
  0
LINE
  5
565F
330
54F2
100
AcDbEntity
  8
1外形線
 48
3.0
100
AcDbLine
 10
845.0962872179379
 20
125.7961075127195
 30
0.0
 11
845.0962872179379
 21
124.2961075127196
 31
0.0
  0
LINE
  5
5660
330
54F2
100
AcDbEntity
  8
1外形線
 48
3.0
100
AcDbLine
 10
846.596287217938
 20
125.7961075127195
 30
0.0
 11
846.596287217938
 21
122.2961075127195
 31
0.0
  0
LINE
  5
5661
330
54F2
100
AcDbEntity
  8
1外形線
 48
3.0
100
AcDbLine
 10
856.0962872179379
 20
128.0847826473136
 30
0.0
 11
856.0962872179379
 21
125.7961075127195
 31
0.0
  0
ARC
  5
5662
330
54F2
100
AcDbEntity
  8
1外形線
 48
3.0
100
AcDbCircle
 10
857.0962872179379
 20
128.0847826473136
 30
0.0
 40
1.0
100
AcDbArc
 50
59.99999999999986
 51
180.0
  0
LINE
  5
5663
330
54F2
100
AcDbEntity
  8
1外形線
 48
3.0
100
AcDbLine
 10
857.5962872179379
 20
128.9508080510986
 30
0.0
 11
859.9665164167282
 21
127.5823555851352
 31
0.0
  0
LINE
  5
5665
330
54F2
100
AcDbEntity
  8
1外形線
 62
     3
 48
3.0
100
AcDbLine
 10
734.7229190115313
 20
60.40409215885574
 30
0.0
 11
748.7229190115312
 21
60.40409215885574
 31
0.0
  0
LINE
  5
5666
330
54F2
100
AcDbEntity
  8
1外形線
 62
     3
 48
3.0
100
AcDbLine
 10
734.7229190115313
 20
18.40409215885575
 30
0.0
 11
748.7229190115312
 21
18.40409215885575
 31
0.0
  0
LINE
  5
5667
330
54F2
100
AcDbEntity
  8
1外形線
 62
     3
 48
3.0
100
AcDbLine
 10
734.7229190115313
 20
73.90409215885575
 30
0.0
 11
734.7229190115313
 21
72.60409215885579
 31
0.0
  0
LINE
  5
5668
330
54F2
100
AcDbEntity
  8
1外形線
 62
     3
 48
3.0
100
AcDbLine
 10
734.7229190115313
 20
72.60409215885579
 30
0.0
 11
734.7229190115313
 21
39.40409215885575
 31
0.0
  0
LINE
  5
5669
330
54F2
100
AcDbEntity
  8
1外形線
 62
     3
 48
3.0
100
AcDbLine
 10
636.7229190115312
 20
63.35616481405622
 30
0.0
 11
636.7229190115312
 21
62.04253129330755
 31
0.0
  0
LINE
  5
566A
330
54F2
100
AcDbEntity
  8
1外形線
 62
     3
 48
3.0
100
AcDbLine
 10
636.7229190115312
 20
62.04253129330755
 30
0.0
 11
636.7229190115312
 21
39.40409215885575
 31
0.0
  0
LINE
  5
566B
330
54F2
100
AcDbEntity
  8
1外形線
 62
     3
 48
3.0
100
AcDbLine
 10
636.7229190115312
 20
16.76565302440417
 30
0.0
 11
654.7229190115331
 21
13.93846598581444
 31
0.0
  0
LINE
  5
566C
330
54F2
100
AcDbEntity
  8
1外形線
 62
     3
 48
3.0
100
AcDbLine
 10
636.7229190115312
 20
15.45201950365526
 30
0.0
 11
636.7229190115312
 21
16.76565302440417
 31
0.0
  0
LINE
  5
566D
330
54F2
100
AcDbEntity
  8
1外形線
 62
     3
 48
3.0
100
AcDbLine
 10
636.7229190115312
 20
16.76565302440417
 30
0.0
 11
636.7229190115312
 21
39.40409215885575
 31
0.0
  0
LINE
  5
566E
330
54F2
100
AcDbEntity
  8
1外形線
 62
     3
 48
3.0
100
AcDbLine
 10
621.7229190115313
 20
39.40409215885575
 30
0.0
 11
621.7229190115313
 21
27.90409215885575
 31
0.0
  0
LINE
  5
566F
330
54F2
100
AcDbEntity
  8
1外形線
 62
     3
 48
3.0
100
AcDbLine
 10
622.7229190115313
 20
26.90409215885575
 30
0.0
 11
636.7229190115312
 21
26.90409215885575
 31
0.0
  0
ARC
  5
5670
330
54F2
100
AcDbEntity
  8
1外形線
 62
     3
 48
3.0
100
AcDbCircle
 10
622.7229190115313
 20
27.90409215885575
 30
0.0
 40
1.0
100
AcDbArc
 50
180.0
 51
270.0
  0
LINE
  5
5671
330
54F2
100
AcDbEntity
  8
1外形線
 62
     3
 48
3.0
100
AcDbLine
 10
621.7229190115313
 20
39.40409215885575
 30
0.0
 11
621.7229190115313
 21
50.90409215885575
 31
0.0
  0
LINE
  5
5672
330
54F2
100
AcDbEntity
  8
1外形線
 62
     3
 48
3.0
100
AcDbLine
 10
622.7229190115313
 20
51.90409215885575
 30
0.0
 11
636.7229190115312
 21
51.90409215885575
 31
0.0
  0
ARC
  5
5673
330
54F2
100
AcDbEntity
  8
1外形線
 62
     3
 48
3.0
100
AcDbCircle
 10
622.7229190115313
 20
50.90409215885575
 30
0.0
 40
1.0
100
AcDbArc
 50
90.0
 51
180.0
  0
LINE
  5
5674
330
54F2
100
AcDbEntity
  8
1外形線
 62
     3
 48
3.0
100
AcDbLine
 10
732.7229190115312
 20
30.40409215885575
 30
0.0
 11
732.7229190115312
 21
39.40409215885575
 31
0.0
  0
LINE
  5
5675
330
54F2
100
AcDbEntity
  8
1外形線
 62
     3
 48
3.0
100
AcDbLine
 10
734.7229190115313
 20
4.904092158855746
 30
0.0
 11
734.7229190115313
 21
6.204092158855701
 31
0.0
  0
LINE
  5
5676
330
54F2
100
AcDbEntity
  8
1外形線
 62
     3
 48
3.0
100
AcDbLine
 10
734.7229190115313
 20
6.704092158855701
 30
0.0
 11
734.7229190115313
 21
39.40409215885575
 31
0.0
  0
CIRCLE
  5
5677
330
54F2
100
AcDbEntity
  8
1外形線
 62
     3
 48
3.0
100
AcDbCircle
 10
698.7229190115312
 20
19.40409215885575
 30
0.0
 40
2.1
  0
ARC
  5
5678
330
54F2
100
AcDbEntity
  8
1外形線
 62
     3
 48
3.0
100
AcDbCircle
 10
812.6152521487664
 20
6918.561497264885
 30
0.0
 40
6912.834615202021
100
AcDbArc
 50
269.2051882477535
 51
269.3267647350536
  0
LINE
  5
5679
330
54F2
100
AcDbEntity
  8
1外形線
 62
     3
 48
3.0
100
AcDbLine
 10
731.3901254261772
 20
6.204092158855701
 30
0.0
 11
734.7229190115313
 21
6.204092158855701
 31
0.0
  0
LINE
  5
567A
330
54F2
100
AcDbEntity
  8
1外形線
 62
     3
 48
3.0
100
AcDbLine
 10
716.7229190115349
 20
6.392005883705223
 30
0.0
 11
716.7229190115349
 21
5.09044261183908
 31
0.0
  0
LINE
  5
567B
330
54F2
100
AcDbEntity
  8
1外形線
 62
     3
 48
3.0
100
AcDbLine
 10
732.7229190115312
 20
48.40409215885575
 30
0.0
 11
732.7229190115312
 21
39.40409215885575
 31
0.0
  0
LINE
  5
567C
330
54F2
100
AcDbEntity
  8
1外形線
 62
     3
 48
3.0
100
AcDbLine
 10
654.7229190115331
 20
13.93846598581444
 30
0.0
 11
654.7229190115331
 21
12.62483246506599
 31
0.0
  0
ARC
  5
567D
330
54F2
100
AcDbEntity
  8
1外形線
 62
     3
 48
3.0
100
AcDbCircle
 10
654.7229190115313
 20
39.40409215885575
 30
0.0
 40
2.1
100
AcDbArc
 50
0.0
 51
180.0
  0
ARC
  5
567E
330
54F2
100
AcDbEntity
  8
1外形線
 62
     3
 48
3.0
100
AcDbCircle
 10
654.7229190115313
 20
39.40409215885575
 30
0.0
 40
2.1
100
AcDbArc
 50
180.0
 51
0.0
  0
LINE
  5
567F
330
54F2
100
AcDbEntity
  8
1外形線
 62
     3
 48
3.0
100
AcDbLine
 10
662.7229190115313
 20
30.40409215885575
 30
0.0
 11
662.7229190115313
 21
39.40409215885575
 31
0.0
  0
LINE
  5
5680
330
54F2
100
AcDbEntity
  8
1外形線
 62
     3
 48
3.0
100
AcDbLine
 10
662.7229190115313
 20
48.40409215885575
 30
0.0
 11
662.7229190115313
 21
39.40409215885575
 31
0.0
  0
LINE
  5
5681
330
54F2
100
AcDbEntity
  8
1外形線
 62
     3
 48
3.0
100
AcDbLine
 10
662.7229190115313
 20
30.40409215885575
 30
0.0
 11
732.7229190115312
 21
30.40409215885575
 31
0.0
  0
LINE
  5
5682
330
54F2
100
AcDbEntity
  8
1外形線
 62
     3
 48
3.0
100
AcDbLine
 10
662.7229190115313
 20
48.40409215885575
 30
0.0
 11
732.7229190115312
 21
48.40409215885575
 31
0.0
  0
LINE
  5
5683
330
54F2
100
AcDbEntity
  8
1外形線
 62
     3
 48
3.0
100
AcDbLine
 10
636.7229190115312
 20
62.04253129330755
 30
0.0
 11
654.7229190115331
 21
64.8697183318975
 31
0.0
  0
LINE
  5
5684
330
54F2
100
AcDbEntity
  8
1外形線
 62
     3
 48
3.0
100
AcDbLine
 10
716.7229190115331
 20
72.41617843400627
 30
0.0
 11
716.7229190115331
 21
73.71774170587241
 31
0.0
  0
CIRCLE
  5
5685
330
54F2
100
AcDbEntity
  8
1外形線
 62
     3
 48
3.0
100
AcDbCircle
 10
698.7229190115312
 20
59.40409215885575
 30
0.0
 40
2.1
  0
LINE
  5
5686
330
54F2
100
AcDbEntity
  8
1外形線
 62
     3
 48
3.0
100
AcDbLine
 10
731.3901254261772
 20
72.60409215885579
 30
0.0
 11
734.7229190115313
 21
72.60409215885579
 31
0.0
  0
ARC
  5
5687
330
54F2
100
AcDbEntity
  8
1外形線
 62
     3
 48
3.0
100
AcDbCircle
 10
812.6152521490357
 20
-6839.753312967873
 30
0.0
 40
6912.83461522272
100
AcDbArc
 50
90.67323526494638
 51
90.79481175224655
  0
LINE
  5
5688
330
54F2
100
AcDbEntity
  8
1外形線
 62
     3
 48
3.0
100
AcDbLine
 10
654.7229190115331
 20
64.8697183318975
 30
0.0
 11
654.7229190115331
 21
66.18335185264595
 31
0.0
  0
LINE
  5
5689
330
54F2
100
AcDbEntity
  8
1外形線
 62
     3
 48
3.0
100
AcDbLine
 10
749.7229190115312
 20
39.40409215885575
 30
0.0
 11
749.7229190115312
 21
59.40409215885575
 31
0.0
  0
LINE
  5
568A
330
54F2
100
AcDbEntity
  8
1外形線
 62
     3
 48
3.0
100
AcDbLine
 10
749.7229190115312
 20
39.40409215885575
 30
0.0
 11
749.7229190115312
 21
19.40409215885575
 31
0.0
  0
ARC
  5
568B
330
54F2
100
AcDbEntity
  8
1外形線
 62
     3
 48
3.0
100
AcDbCircle
 10
748.7229190115312
 20
19.40409215885575
 30
0.0
 40
1.0
100
AcDbArc
 50
270.0
 51
0.0
  0
ARC
  5
568C
330
54F2
100
AcDbEntity
  8
1外形線
 62
     3
 48
3.0
100
AcDbCircle
 10
748.7229190115312
 20
59.40409215885575
 30
0.0
 40
1.0
100
AcDbArc
 50
0.0
 51
90.0
  0
ENDSEC
  0
SECTION
  2
OBJECTS
  0
DICTIONARY
  5
54DC
330
0
100
AcDbDictionary
281
     1
  3
ACAD_COLOR
350
54EB
  3
ACAD_GROUP
350
54DD
  3
ACAD_LAYOUT
350
54E9
  3
ACAD_MATERIAL
350
54EA
  3
ACAD_MLINESTYLE
350
54E6
  3
ACAD_PLOTSETTINGS
350
54E8
  3
ACAD_PLOTSTYLENAME
350
54DE
  3
ACAD_TABLESTYLE
350
54EC
  3
ACDBHEADERROUNDTRIPXREC
350
583D
  3
AcDbVariableDictionary
350
56EC
  0
DICTIONARY
  5
54EB
102
{ACAD_REACTORS
330
54DC
102
}
330
54DC
100
AcDbDictionary
281
     1
  0
DICTIONARY
  5
54DD
102
{ACAD_REACTORS
330
54DC
102
}
330
54DC
100
AcDbDictionary
281
     1
  0
DICTIONARY
  5
54E9
102
{ACAD_REACTORS
330
54DC
102
}
330
54DC
100
AcDbDictionary
281
     1
  3
Model
350
54F5
  3
レイアウト1
350
54F1
  0
DICTIONARY
  5
54EA
102
{ACAD_REACTORS
330
54DC
102
}
330
54DC
100
AcDbDictionary
281
     1
  0
DICTIONARY
  5
54E6
102
{ACAD_REACTORS
330
54DC
102
}
330
54DC
100
AcDbDictionary
281
     1
  3
Standard
350
54E7
  0
DICTIONARY
  5
54E8
102
{ACAD_REACTORS
330
54DC
102
}
330
54DC
100
AcDbDictionary
281
     1
  0
ACDBDICTIONARYWDFLT
  5
54DE
102
{ACAD_REACTORS
330
54DC
102
}
330
54DC
100
AcDbDictionary
281
     1
  3
Normal
350
54DF
100
AcDbDictionaryWithDefault
340
54DF
  0
DICTIONARY
  5
54EC
102
{ACAD_REACTORS
330
54DC
102
}
330
54DC
100
AcDbDictionary
281
     1
  3
Standard
350
54ED
  0
DICTIONARY
  5
583D
102
{ACAD_REACTORS
330
54DC
102
}
330
54DC
100
AcDbDictionary
281
     1
  0
DICTIONARY
  5
56EC
102
{ACAD_REACTORS
330
54DC
102
}
330
54DC
100
AcDbDictionary
281
     1
  3
CTABLESTYLE
350
56ED
  3
DIMASSOC
350
582C
  3
PROJECTNAME
350
582D
  0
LAYOUT
  5
54F5
102
{ACAD_XDICTIONARY
360
5840
102
}
102
{ACAD_REACTORS
330
54E9
102
}
330
54E9
100
AcDbPlotSettings
  1

  2
Canon LBP3920/3970 LIPSLX
  4

  6

 40
0.0
 41
0.0
 42
0.0
 43
0.0
 44
0.0
 45
0.0
 46
0.0
 47
0.0
 48
0.0
 49
0.0
140
0.0
141
0.0
142
1.0
143
1.0
 70
  1712
 72
     0
 73
     0
 74
     0
  7
INABA-CAD-Canon.ctb
 75
     0
147
1.0
148
0.0
149
0.0
100
AcDbLayout
  1
Model
 70
     1
 71
     0
 10
0.0
 20
0.0
 11
12.0
 21
9.0
 12
0.0
 22
0.0
 32
0.0
 14
0.0
 24
0.0
 34
0.0
 15
0.0
 25
0.0
 35
0.0
146
0.0
 13
0.0
 23
0.0
 33
0.0
 16
1.0
 26
0.0
 36
0.0
 17
0.0
 27
1.0
 37
0.0
 76
     0
330
54F2
  0
LAYOUT
  5
54F1
102
{ACAD_XDICTIONARY
360
583E
102
}
102
{ACAD_REACTORS
330
54E9
102
}
330
54E9
100
AcDbPlotSettings
  1

  2
Canon LBP3920/3970 LIPSLX
  4

  6

 40
0.0
 41
0.0
 42
0.0
 43
0.0
 44
0.0
 45
0.0
 46
0.0
 47
0.0
 48
0.0
 49
0.0
140
0.0
141
0.0
142
1.0
143
1.0
 70
   688
 72
     0
 73
     0
 74
     5
  7
INABA-CAD-Canon.ctb
 75
    16
147
1.0
148
0.0
149
0.0
100
AcDbLayout
  1
レイアウト1
 70
     1
 71
     1
 10
0.0
 20
0.0
 11
420.0
 21
297.0
 12
0.0
 22
0.0
 32
0.0
 14
1.000000000000000E+20
 24
1.000000000000000E+20
 34
1.000000000000000E+20
 15
-1.000000000000000E+20
 25
-1.000000000000000E+20
 35
-1.000000000000000E+20
146
0.0
 13
0.0
 23
0.0
 33
0.0
 16
1.0
 26
0.0
 36
0.0
 17
0.0
 27
1.0
 37
0.0
 76
     0
330
54EE
  0
MLINESTYLE
  5
54E7
102
{ACAD_REACTORS
330
54E6
102
}
330
54E6
100
AcDbMlineStyle
  2
STANDARD
 70
     0
  3

 62
   256
 51
90.0
 52
90.0
 71
     2
 49
0.5
 62
   256
  6
BYLAYER
 49
-0.5
 62
   256
  6
BYLAYER
  0
ACDBPLACEHOLDER
  5
54DF
102
{ACAD_REACTORS
330
54DE
102
}
330
54DE
  0
TABLESTYLE
  5
54ED
102
{ACAD_REACTORS
330
54EC
102
}
330
54EC
100
AcDbTableStyle
  3
Standard
 70
     0
 71
     0
 40
0.06
 41
0.06
280
     0
281
     0
  7
STANDARD
140
0.18
170
     2
 62
     0
 63
     7
283
     0
274
    -2
284
     1
 64
     0
275
    -2
285
     1
 65
     0
276
    -2
286
     1
 66
     0
277
    -2
287
     1
 67
     0
278
    -2
288
     1
 68
     0
279
    -2
289
     1
 69
     0
  7
STANDARD
140
0.25
170
     5
 62
     0
 63
     7
283
     0
274
    -2
284
     1
 64
     0
275
    -2
285
     1
 65
     0
276
    -2
286
     1
 66
     0
277
    -2
287
     1
 67
     0
278
    -2
288
     1
 68
     0
279
    -2
289
     1
 69
     0
  7
STANDARD
140
0.18
170
     5
 62
     0
 63
     7
283
     0
274
    -2
284
     1
 64
     0
275
    -2
285
     1
 65
     0
276
    -2
286
     1
 66
     0
277
    -2
287
     1
 67
     0
278
    -2
288
     1
 68
     0
279
    -2
289
     1
 69
     0
  0
DICTIONARYVAR
  5
56ED
102
{ACAD_REACTORS
330
56EC
102
}
330
56EC
100
DictionaryVariables
280
     0
  1
STANDARD
  0
DICTIONARYVAR
  5
582C
102
{ACAD_REACTORS
330
56EC
102
}
330
56EC
100
DictionaryVariables
280
     0
  1
1
  0
DICTIONARYVAR
  5
582D
102
{ACAD_REACTORS
330
56EC
102
}
330
56EC
100
DictionaryVariables
280
     0
  1

  0
DICTIONARY
  5
5840
330
54F5
100
AcDbDictionary
280
     1
281
     1
  3
ACAD_XREC_ROUNDTRIP
360
5841
  0
DICTIONARY
  5
583E
330
54F1
100
AcDbDictionary
280
     1
281
     1
  3
ACAD_XREC_ROUNDTRIP
360
583F
  0
XRECORD
  5
5841
102
{ACAD_REACTORS
330
5840
102
}
330
5840
100
AcDbXrecord
280
     1
102
SHADEPLOT
 70
     0
102
SHADEPLOTRESLEVEL
 70
     2
102
SHADEPLOTCUSTOMDPI
 70
   300
  0
XRECORD
  5
583F
102
{ACAD_REACTORS
330
583E
102
}
330
583E
100
AcDbXrecord
280
     1
102
SHADEPLOT
 70
     0
102
SHADEPLOTRESLEVEL
 70
     2
102
SHADEPLOTCUSTOMDPI
 70
   300
  0
ENDSEC
  0
EOF
