  0
SECTION
  2
HEADER
  9
$ACADVER
  1
AC1009
  9
$INSBASE
 10
0.0
 20
0.0
 30
0.0
  9
$EXTMIN
 10
20.717761997079091
 20
-25.750029856048059
 30
-0.0015258207003583
  9
$EXTMAX
 10
615.43703137683963
 20
408.08463664145091
 30
0.0000000349246037
  9
$LIMMIN
 10
0.0
 20
0.0
  9
$LIMMAX
 10
420.0
 20
297.0
  9
$ORTHOMODE
 70
     0
  9
$REGENMODE
 70
     1
  9
$FILLMODE
 70
     1
  9
$QTEXTMODE
 70
     0
  9
$MIRRTEXT
 70
     1
  9
$DRAGMODE
 70
     2
  9
$LTSCALE
 40
1.0
  9
$OSMODE
 70
    37
  9
$ATTMODE
 70
     1
  9
$TEXTSIZE
 40
2.5
  9
$TRACEWID
 40
1.0
  9
$TEXTSTYLE
  7
STANDARD
  9
$CLAYER
  8
0
  9
$CELTYPE
  6
BYLAYER
  9
$CECOLOR
 62
   256
  9
$DIMSCALE
 40
1.0
  9
$DIMASZ
 40
2.5
  9
$DIMEXO
 40
0.625
  9
$DIMDLI
 40
3.75
  9
$DIMRND
 40
0.0
  9
$DIMDLE
 40
0.0
  9
$DIMEXE
 40
1.25
  9
$DIMTP
 40
0.0
  9
$DIMTM
 40
0.0
  9
$DIMTXT
 40
2.5
  9
$DIMCEN
 40
2.5
  9
$DIMTSZ
 40
0.0
  9
$DIMTOL
 70
     0
  9
$DIMLIM
 70
     0
  9
$DIMTIH
 70
     0
  9
$DIMTOH
 70
     0
  9
$DIMSE1
 70
     0
  9
$DIMSE2
 70
     0
  9
$DIMTAD
 70
     1
  9
$DIMZIN
 70
     8
  9
$DIMBLK
  1

  9
$DIMASO
 70
     1
  9
$DIMSHO
 70
     1
  9
$DIMPOST
  1

  9
$DIMAPOST
  1

  9
$DIMALT
 70
     0
  9
$DIMALTD
 70
     3
  9
$DIMALTF
 40
0.03937007874016
  9
$DIMLFAC
 40
1.0
  9
$DIMTOFL
 70
     1
  9
$DIMTVP
 40
0.0
  9
$DIMTIX
 70
     0
  9
$DIMSOXD
 70
     0
  9
$DIMSAH
 70
     0
  9
$DIMBLK1
  1

  9
$DIMBLK2
  1

  9
$DIMSTYLE
  2
ISO-25
  9
$DIMCLRD
 70
     0
  9
$DIMCLRE
 70
     0
  9
$DIMCLRT
 70
     0
  9
$DIMTFAC
 40
1.0
  9
$DIMGAP
 40
0.625
  9
$LUNITS
 70
     2
  9
$LUPREC
 70
     4
  9
$SKETCHINC
 40
1.0
  9
$FILLETRAD
 40
10.0
  9
$AUNITS
 70
     0
  9
$AUPREC
 70
     0
  9
$MENU
  1
.
  9
$ELEVATION
 40
0.0
  9
$PELEVATION
 40
0.0
  9
$THICKNESS
 40
0.0
  9
$LIMCHECK
 70
     0
  9
$BLIPMODE
 70
     0
  9
$CHAMFERA
 40
10.0
  9
$CHAMFERB
 40
10.0
  9
$SKPOLY
 70
     0
  9
$TDCREATE
 40
2452048.587873715
  9
$TDUPDATE
 40
2452048.6047132062
  9
$TDINDWG
 40
0.0168414583
  9
$TDUSRTIMER
 40
0.0168414583
  9
$USRTIMER
 70
     1
  9
$ANGBASE
 50
0.0
  9
$ANGDIR
 70
     0
  9
$PDMODE
 70
     0
  9
$PDSIZE
 40
0.0
  9
$PLINEWID
 40
0.0
  9
$COORDS
 70
     1
  9
$SPLFRAME
 70
     0
  9
$SPLINETYPE
 70
     6
  9
$SPLINESEGS
 70
     8
  9
$ATTDIA
 70
     0
  9
$ATTREQ
 70
     1
  9
$HANDLING
 70
-16383
  9
$HANDSEED
  5
55C8
  9
$SURFTAB1
 70
     6
  9
$SURFTAB2
 70
     6
  9
$SURFTYPE
 70
     6
  9
$SURFU
 70
     6
  9
$SURFV
 70
     6
  9
$UCSNAME
  2

  9
$UCSORG
 10
0.0
 20
0.0
 30
0.0
  9
$UCSXDIR
 10
1.0
 20
0.0
 30
0.0
  9
$UCSYDIR
 10
0.0
 20
1.0
 30
0.0
  9
$PUCSNAME
  2

  9
$PUCSORG
 10
0.0
 20
0.0
 30
0.0
  9
$PUCSXDIR
 10
1.0
 20
0.0
 30
0.0
  9
$PUCSYDIR
 10
0.0
 20
1.0
 30
0.0
  9
$USERI1
 70
     0
  9
$USERI2
 70
     0
  9
$USERI3
 70
     0
  9
$USERI4
 70
     0
  9
$USERI5
 70
     0
  9
$USERR1
 40
0.0
  9
$USERR2
 40
0.0
  9
$USERR3
 40
0.0
  9
$USERR4
 40
0.0
  9
$USERR5
 40
0.0
  9
$WORLDVIEW
 70
     1
  9
$SHADEDGE
 70
     3
  9
$SHADEDIF
 70
    70
  9
$TILEMODE
 70
     1
  9
$MAXACTVP
 70
    64
  9
$PLIMCHECK
 70
     0
  9
$PEXTMIN
 10
1.0000000000000000E+020
 20
1.0000000000000000E+020
 30
1.0000000000000000E+020
  9
$PEXTMAX
 10
-1.0000000000000000E+020
 20
-1.0000000000000000E+020
 30
-1.0000000000000000E+020
  9
$PLIMMIN
 10
0.0
 20
0.0
  9
$PLIMMAX
 10
420.0
 20
297.0
  9
$UNITMODE
 70
     0
  9
$VISRETAIN
 70
     1
  9
$PLINEGEN
 70
     0
  9
$PSLTSCALE
 70
     1
  0
ENDSEC
  0
SECTION
  2
TABLES
  0
TABLE
  2
VPORT
 70
    35
  0
VPORT
  2
*ACTIVE
 70
     0
 10
0.0
 20
0.0
 11
1.0
 21
1.0
 12
243.19809294536361
 22
20.724196922940902
 13
0.0
 23
0.0
 14
10.0
 24
10.0
 15
10.0
 25
10.0
 16
0.0
 26
0.0
 36
1.0
 17
0.0
 27
0.0
 37
0.0
 40
1136.324782680095
 41
0.8452830188679245
 42
50.0
 43
0.0
 44
0.0
 50
0.0
 51
0.0
 71
     0
 72
   100
 73
     1
 74
     3
 75
     0
 76
     0
 77
     0
 78
     0
  0
ENDTAB
  0
TABLE
  2
LTYPE
 70
     1
  0
LTYPE
  2
CONTINUOUS
 70
     0
  3
Solid line
 72
    65
 73
     0
 40
0.0
  0
ENDTAB
  0
TABLE
  2
LAYER
 70
     2
  0
LAYER
  2
0
 70
     0
 62
     7
  6
CONTINUOUS
  0
LAYER
  2
1外形線
 70
     0
 62
     3
  6
CONTINUOUS
  0
ENDTAB
  0
TABLE
  2
STYLE
 70
     2
  0
STYLE
  2
STANDARD
 70
     0
 40
0.0
 41
1.0
 50
0.0
 71
     0
 42
2.5
  3
txt
  4

  0
STYLE
  2
KANJI
 70
     0
 40
0.0
 41
1.0
 50
0.0
 71
     0
 42
10.0
  3
simplex
  4
bigfont
  0
ENDTAB
  0
TABLE
  2
VIEW
 70
     0
  0
ENDTAB
  0
TABLE
  2
UCS
 70
     0
  0
ENDTAB
  0
TABLE
  2
APPID
 70
     1
  0
APPID
  2
ACAD
 70
     0
  0
ENDTAB
  0
TABLE
  2
DIMSTYLE
 70
     2
  0
DIMSTYLE
  2
ISO-25
 70
     0
  3

  4

  5

  6

  7

 40
1.0
 41
2.5
 42
0.625
 43
3.75
 44
1.25
 45
0.0
 46
0.0
 47
0.0
 48
0.0
140
2.5
141
2.5
142
0.0
143
0.03937007874016
144
1.0
145
0.0
146
1.0
147
0.625
 71
     0
 72
     0
 73
     0
 74
     0
 75
     0
 76
     0
 77
     1
 78
     8
170
     0
171
     3
172
     1
173
     0
174
     0
175
     0
176
     0
177
     0
178
     0
  0
DIMSTYLE
  2
STANDARD
 70
     0
  3

  4

  5

  6
1
  7
1
 40
1.0
 41
1.0
 42
1.0
 43
6.0
 44
1.0
 45
0.0
 46
0.0
 47
0.0
 48
0.0
140
2.5
141
0.0
142
0.0
143
25.399999999999999
144
1.0
145
0.0
146
1.0
147
0.5
 71
     0
 72
     0
 73
     0
 74
     0
 75
     0
 76
     0
 77
     1
 78
     8
170
     0
171
     2
172
     1
173
     1
174
     0
175
     0
176
     0
177
     0
178
     0
  0
ENDTAB
  0
ENDSEC
  0
SECTION
  2
BLOCKS
  0
BLOCK
  8
0
  2
$MODEL_SPACE
 70
     0
 10
0.0
 20
0.0
 30
0.0
  3
$MODEL_SPACE
  1

  0
ENDBLK
  5
21
  8
0
  0
BLOCK
 67
     1
  8
0
  2
$PAPER_SPACE
 70
     0
 10
0.0
 20
0.0
 30
0.0
  3
$PAPER_SPACE
  1

  0
ENDBLK
  5
1D
 67
     1
  8
0
  0
BLOCK
  8
0
  2
1
 70
     0
 10
0.0
 20
0.0
 30
0.0
  3
1
  1

  0
SOLID
  5
2C
  8
0
  6
BYBLOCK
 62
     0
 10
-1.811110924292052
 20
0.4852857095671653
 30
0.0
 11
-1.811110924292052
 21
-0.4852857095673642
 31
0.0
 12
0.0
 22
0.0
 32
0.0
 13
0.0
 23
0.0
 33
0.0
  0
ENDBLK
  5
2E
  8
0
  0
ENDSEC
  0
SECTION
  2
ENTITIES
  0
LINE
  5
554B
  8
1外形線
 10
84.246483799163798
 20
106.9065725680633
 30
0.0
 11
53.69434841768043
 21
104.2969110042287
 31
0.0
  0
CIRCLE
  5
554C
  8
1外形線
 10
73.236901798254166
 20
84.257837438818285
 30
0.0
 40
3.6000000000000001
  0
CIRCLE
  5
554D
  8
1外形線
 10
73.236901798254166
 20
84.257837438818285
 30
0.0
 40
2.1000000000000001
  0
LINE
  5
554E
  8
1外形線
 10
84.246483799158355
 20
61.609102309573643
 30
0.0
 11
53.69434841768043
 21
64.218763873408022
 31
0.0
  0
LINE
  5
554F
  8
1外形線
 10
53.236901798254159
 20
27.144110721486872
 30
0.0
 11
161.2369017982557
 21
27.144110721486811
 31
0.0
  0
LINE
  5
5550
  8
1外形線
 10
53.236901798254159
 20
32.144110721486868
 30
0.0
 11
161.23690179825621
 21
32.144110721486868
 31
0.0
  0
CIRCLE
  5
5551
  8
1外形線
 10
73.236901798254166
 20
84.257837438818285
 30
0.0
 40
5.0
  0
LINE
  5
5552
  8
1外形線
 10
61.236901798254159
 20
102.5578374388194
 30
0.0
 11
61.236901798254159
 21
65.957837438817251
 31
0.0
  0
LINE
  5
5553
  8
1外形線
 10
29.274697445775871
 20
108.35783743881871
 30
0.0
 11
29.274697445775811
 21
60.157837438817751
 31
0.0
  0
LINE
  5
5554
  8
1外形線
 10
34.274697445775871
 20
108.35783743881851
 30
0.0
 11
34.274697445775701
 21
60.157837438817751
 31
0.0
  0
LINE
  5
5555
  8
1外形線
 10
29.274697445775871
 20
60.157837438817751
 30
0.0
 11
34.274697445775807
 21
60.157837438817751
 31
0.0
  0
LINE
  5
5556
  8
1外形線
 10
34.27469744577575
 20
64.957837438817023
 30
0.0
 11
29.274697445775811
 21
64.957837438817023
 31
0.0
  0
LINE
  5
5557
  8
1外形線
 10
53.236901798254159
 20
32.144110721486868
 30
0.0
 11
53.236901798254159
 21
27.144110721486872
 31
0.0
  0
LINE
  5
5558
  8
1外形線
 10
36.274697445775757
 20
63.657837438819229
 30
0.0
 11
34.27469744577575
 21
63.657837438819001
 31
0.0
  0
LINE
  5
5559
  8
1外形線
 10
34.27469744577575
 20
62.45783743881919
 30
0.0
 11
36.274697445775757
 21
62.45783743881919
 31
0.0
  0
LINE
  5
555A
  8
1外形線
 10
36.274697445775757
 20
63.657837438819229
 30
0.0
 11
36.274697445775757
 21
62.45783743881919
 31
0.0
  0
ARC
  5
555B
  8
1外形線
 10
36.774697445775871
 20
76.857837438818905
 30
0.0
 40
0.5
 50
0.0
 51
90.000000000002444
  0
LINE
  5
555C
  8
1外形線
 10
36.774697445775807
 20
75.357837438818791
 30
0.0
 11
34.274697445775807
 21
75.357837438818677
 31
0.0
  0
LINE
  5
555D
  8
1外形線
 10
37.274697445775807
 20
75.857837438818791
 30
0.0
 11
37.274697445775871
 21
76.857837438818905
 31
0.0
  0
ARC
  5
555E
  8
1外形線
 10
36.774697445775807
 20
75.857837438818791
 30
0.0
 40
0.5
 50
270.00000000000239
 51
359.99999999999733
  0
LINE
  5
555F
  8
1外形線
 10
36.774697445775871
 20
77.357837438818905
 30
0.0
 11
34.274697445775807
 21
77.357837438818663
 31
0.0
  0
LINE
  5
5560
  8
1外形線
 10
60.236901798254159
 20
64.957837438817251
 30
0.0
 11
53.439701192044701
 21
64.957837438817293
 31
0.0
  0
ARC
  5
5561
  8
1外形線
 10
53.736901798254159
 20
64.716949792319554
 30
0.0
 40
0.5
 50
172.1666544140065
 51
265.11783592116041
  0
ARC
  5
5562
  8
1外形線
 10
53.439701192044701
 20
64.757837438817319
 30
0.0
 40
0.2
 50
90.0
 51
172.1666544140042
  0
ARC
  5
5563
  8
1外形線
 10
60.236901798254159
 20
65.957837438817251
 30
0.0
 40
1.0
 50
270.0
 51
0.0
  0
LINE
  5
5564
  8
1外形線
 10
68.261964612721385
 20
84.757837438821298
 30
0.0
 11
62.736901798255992
 21
84.757837438821454
 31
0.0
  0
LINE
  5
5565
  8
1外形線
 10
68.261964612721144
 20
83.757837438817944
 30
0.0
 11
62.736901798255992
 21
83.757837438817873
 31
0.0
  0
ARC
  5
5566
  8
1外形線
 10
62.736901798255992
 20
84.257837438818285
 30
0.0
 40
0.5000000000017622
 50
90.0
 51
270.0
  0
LINE
  5
5567
  8
1外形線
 10
34.27469744577575
 20
103.5578374388194
 30
0.0
 11
29.274697445775811
 21
103.5578374388194
 31
0.0
  0
LINE
  5
5568
  8
1外形線
 10
29.274697445775811
 20
108.35783743881871
 30
0.0
 11
34.27469744577575
 21
108.35783743881871
 31
0.0
  0
LINE
  5
5569
  8
1外形線
 10
36.774697445775871
 20
91.157837438817893
 30
0.0
 11
34.274697445775807
 21
91.157837438818106
 31
0.0
  0
LINE
  5
556A
  8
1外形線
 10
36.774697445775807
 20
93.157837438818007
 30
0.0
 11
34.274697445775807
 21
93.15783743881812
 31
0.0
  0
LINE
  5
556B
  8
1外形線
 10
37.274697445775807
 20
92.657837438818007
 30
0.0
 11
37.274697445775871
 21
91.657837438817893
 31
0.0
  0
ARC
  5
556C
  8
1外形線
 10
36.774697445775871
 20
91.657837438817893
 30
0.0
 40
0.5
 50
269.9999999999975
 51
0.0
  0
ARC
  5
556D
  8
1外形線
 10
36.774697445775807
 20
92.657837438818007
 30
0.0
 40
0.5
 50
0.0000000000024427
 51
89.999999999997556
  0
LINE
  5
556E
  8
1外形線
 10
36.274697445775757
 20
104.8578374388175
 30
0.0
 11
34.27469744577575
 21
104.8578374388178
 31
0.0
  0
LINE
  5
556F
  8
1外形線
 10
34.27469744577575
 20
106.0578374388176
 30
0.0
 11
36.274697445775757
 21
106.0578374388176
 31
0.0
  0
LINE
  5
5570
  8
1外形線
 10
36.274697445775757
 20
104.8578374388175
 30
0.0
 11
36.274697445775757
 21
106.0578374388176
 31
0.0
  0
LINE
  5
5571
  8
1外形線
 10
60.236901798254159
 20
103.5578374388194
 30
0.0
 11
53.439701192044701
 21
103.5578374388194
 31
0.0
  0
ARC
  5
5572
  8
1外形線
 10
53.736901798254159
 20
103.7987250853172
 30
0.0
 40
0.5
 50
94.882164078839622
 51
187.83334558599981
  0
ARC
  5
5573
  8
1外形線
 10
53.439701192044701
 20
103.75783743881939
 30
0.0
 40
0.2
 50
187.8333455859958
 51
270.0
  0
ARC
  5
5574
  8
1外形線
 10
60.236901798254159
 20
102.5578374388194
 30
0.0
 40
1.0
 50
0.0
 51
90.0
  0
LINE
  5
5575
  8
1外形線
 10
181.66163492580461
 20
108.35783743881851
 30
0.0
 11
181.66163492580441
 21
60.157837438817751
 31
0.0
  0
LINE
  5
5576
  8
1外形線
 10
176.66163492580461
 20
108.35783743881871
 30
0.0
 11
176.66163492580449
 21
60.157837438817751
 31
0.0
  0
CIRCLE
  5
5577
  8
1外形線
 10
141.2369017982557
 20
84.257837438818285
 30
0.0
 40
2.1000000000000001
  0
CIRCLE
  5
5578
  8
1外形線
 10
141.2369017982557
 20
84.257837438818285
 30
0.0
 40
3.6000000000000001
  0
CIRCLE
  5
5579
  8
1外形線
 10
86.236901798255758
 20
84.257837438818115
 30
0.0
 40
2.5
  0
CIRCLE
  5
557A
  8
1外形線
 10
141.2369017982557
 20
84.257837438818285
 30
0.0
 40
5.0
  0
LINE
  5
557B
  8
1外形線
 10
153.23690179825579
 20
105.65783743881801
 30
0.0
 11
153.2369017982561
 21
62.857837438818592
 31
0.0
  0
LINE
  5
557C
  8
1外形線
 10
136.26196461272269
 20
84.757837438819422
 30
0.0
 11
88.686391541038347
 21
84.757837438820744
 31
0.0
  0
LINE
  5
557D
  8
1外形線
 10
136.26196461272269
 20
83.757837438818228
 30
0.0
 11
88.686391541038915
 21
83.757837438818058
 31
0.0
  0
CIRCLE
  5
557E
  8
1外形線
 10
119.2369017982557
 20
69.257837438817319
 30
0.0
 40
2.5
  0
ARC
  5
557F
  8
1外形線
 10
118.2891882581104
 20
460.15783743881792
 30
0.0
 40
400.0
 50
265.11783592116001
 51
269.9999999999996
  0
ARC
  5
5580
  8
1外形線
 10
95.936901798255803
 20
34.644110721486868
 30
0.0
 40
0.5
 50
0.0
 51
90.0
  0
LINE
  5
5581
  8
1外形線
 10
94.436901798255803
 20
32.144110721486868
 30
0.0
 11
94.43690179825569
 21
34.644110721486868
 31
0.0
  0
ARC
  5
5582
  8
1外形線
 10
94.936901798255676
 20
34.644110721486868
 30
0.0
 40
0.5
 50
90.0
 51
180.0
  0
LINE
  5
5583
  8
1外形線
 10
94.936901798255676
 20
35.144110721486861
 30
0.0
 11
95.936901798255803
 21
35.144110721486861
 31
0.0
  0
LINE
  5
5584
  8
1外形線
 10
96.436901798255803
 20
32.144110721486868
 30
0.0
 11
96.436901798255803
 21
34.644110721486868
 31
0.0
  0
CIRCLE
  5
5585
  8
1外形線
 10
95.436901798255789
 20
76.357837438818677
 30
0.0
 40
1.0
  0
LINE
  5
5586
  8
1外形線
 10
83.787412055472601
 20
83.757837438818001
 30
0.0
 11
78.211838983787175
 21
83.757837438817944
 31
0.0
  0
LINE
  5
5587
  8
1外形線
 10
83.787412055473169
 20
84.757837438820886
 30
0.0
 11
78.211838983786947
 21
84.757837438821014
 31
0.0
  0
LINE
  5
5588
  8
1外形線
 10
135.73690179825479
 20
34.144110721486861
 30
0.0
 11
143.73690179825479
 21
34.144110721486861
 31
0.0
  0
ARC
  5
5589
  8
1外形線
 10
135.73690179825479
 20
33.144110721486861
 30
0.0
 40
1.0
 50
90.0
 51
180.0
  0
LINE
  5
558A
  8
1外形線
 10
134.73690179825479
 20
33.144110721486861
 30
0.0
 11
134.73690179825479
 21
32.144110721486868
 31
0.0
  0
LINE
  5
558B
  8
1外形線
 10
151.2369017982557
 20
27.144110721486811
 30
0.0
 11
151.2369017982557
 21
32.144110721486868
 31
0.0
  0
LINE
  5
558C
  8
1外形線
 10
144.73690179825479
 20
33.144110721486861
 30
0.0
 11
144.73690179825479
 21
32.144110721486868
 31
0.0
  0
ARC
  5
558D
  8
1外形線
 10
143.73690179825479
 20
33.144110721486861
 30
0.0
 40
1.0
 50
0.0
 51
90.0
  0
LINE
  5
558E
  8
1外形線
 10
161.2369017982557
 20
27.144110721486811
 30
0.0
 11
161.23690179825621
 21
32.144110721486868
 31
0.0
  0
LINE
  5
558F
  8
1外形線
 10
144.73690179825479
 20
63.657837438818717
 30
0.0
 11
134.73690179825479
 21
63.657837438818881
 31
0.0
  0
LINE
  5
5590
  8
1外形線
 10
144.73690179825479
 20
62.457837438818721
 30
0.0
 11
134.73690179825479
 21
62.457837438818899
 31
0.0
  0
LINE
  5
5591
  8
1外形線
 10
150.23938937583861
 20
60.157837438817637
 30
0.0
 11
118.2891882581085
 21
60.157837438817872
 31
0.0
  0
LINE
  5
5592
  8
1外形線
 10
134.73690179825479
 20
63.657837438818881
 30
0.0
 11
134.73690179825471
 21
62.457837438818899
 31
0.0
  0
ARC
  5
5593
  8
1外形線
 10
150.2393893758387
 20
80.15783743881758
 30
0.0
 40
20.0
 50
270.0
 51
275.7105931374989
  0
LINE
  5
5594
  8
1外形線
 10
144.73690179825479
 20
62.457837438818721
 30
0.0
 11
144.73690179825479
 21
63.657837438818717
 31
0.0
  0
ARC
  5
5595
  8
1外形線
 10
160.7369017982557
 20
61.610331219873622
 30
0.0
 40
0.5
 50
275.7105931374993
 51
359.9999999999996
  0
LINE
  5
5596
  8
1外形線
 10
152.22946375625841
 20
60.257093634617767
 30
0.0
 11
160.78665365776621
 21
61.112812624768587
 31
0.0
  0
LINE
  5
5597
  8
1外形線
 10
154.23690179825601
 20
61.857837438818592
 30
0.0
 11
161.0369017982558
 21
61.857837438818763
 31
0.0
  0
ARC
  5
5598
  8
1外形線
 10
154.2369017982561
 20
62.857837438818592
 30
0.0
 40
1.0
 50
180.0000000000004
 51
270.00000000000159
  0
LINE
  5
5599
  8
1外形線
 10
161.2369017982557
 20
61.610331219873622
 30
0.0
 11
161.23690179825579
 21
61.657837438818781
 31
0.0
  0
ARC
  5
559A
  8
1外形線
 10
161.0369017982558
 20
61.657837438818781
 30
0.0
 40
0.2
 50
359.99999999999932
 51
90.000000000001606
  0
LINE
  5
559B
  8
1外形線
 10
151.73690179825559
 20
83.757837438818228
 30
0.0
 11
146.21183898378879
 21
83.757837438818228
 31
0.0
  0
LINE
  5
559C
  8
1外形線
 10
151.73690179825559
 20
84.757837438819024
 30
0.0
 11
146.21183898378871
 21
84.757837438819138
 31
0.0
  0
ARC
  5
559D
  8
1外形線
 10
151.73690179825559
 20
84.257837438818626
 30
0.0
 40
0.5000000000003411
 50
270.0
 51
90.0
  0
ARC
  5
559E
  8
1外形線
 10
184.16163492580449
 20
75.857837438818677
 30
0.0
 40
0.5
 50
270.00000000000239
 51
359.99999999999733
  0
ARC
  5
559F
  8
1外形線
 10
184.16163492580461
 20
76.857837438818791
 30
0.0
 40
0.5
 50
0.0
 51
90.000000000002444
  0
LINE
  5
55A0
  8
1外形線
 10
176.66163492580461
 20
60.157837438817751
 30
0.0
 11
181.66163492580449
 21
60.157837438817751
 31
0.0
  0
LINE
  5
55A1
  8
1外形線
 10
176.66163492580449
 20
61.857837438818677
 30
0.0
 11
181.66163492580441
 21
61.85783743881867
 31
0.0
  0
LINE
  5
55A2
  8
1外形線
 10
183.66163492580449
 20
63.657837438818603
 30
0.0
 11
181.66163492580449
 21
63.657837438818383
 31
0.0
  0
LINE
  5
55A3
  8
1外形線
 10
183.66163492580449
 20
63.657837438818603
 30
0.0
 11
183.66163492580441
 21
62.457837438818551
 31
0.0
  0
LINE
  5
55A4
  8
1外形線
 10
181.66163492580449
 20
62.457837438818551
 30
0.0
 11
183.66163492580441
 21
62.457837438818551
 31
0.0
  0
LINE
  5
55A5
  8
1外形線
 10
184.16163492580449
 20
75.357837438818677
 30
0.0
 11
181.66163492580449
 21
75.357837438818564
 31
0.0
  0
LINE
  5
55A6
  8
1外形線
 10
184.16163492580461
 20
77.357837438818791
 30
0.0
 11
181.66163492580449
 21
77.357837438818564
 31
0.0
  0
LINE
  5
55A7
  8
1外形線
 10
184.66163492580449
 20
75.857837438818677
 30
0.0
 11
184.66163492580449
 21
76.857837438818791
 31
0.0
  0
CIRCLE
  5
55A8
  8
1外形線
 10
119.2369017982557
 20
99.257837438818214
 30
0.0
 40
2.5
  0
ARC
  5
55A9
  8
1外形線
 10
118.28918825811451
 20
-291.64216256118078
 30
0.0
 40
400.0
 50
90.0
 51
94.882164078840006
  0
CIRCLE
  5
55AA
  8
1外形線
 10
95.436901798255789
 20
92.157837438818135
 30
0.0
 40
1.0
  0
LINE
  5
55AB
  8
1外形線
 10
150.2393893758387
 20
108.3578374388191
 30
0.0
 11
118.28918825811451
 21
108.3578374388191
 31
0.0
  0
LINE
  5
55AC
  8
1外形線
 10
144.73690179825479
 20
106.0578374388179
 30
0.0
 11
134.73690179825479
 21
106.0578374388177
 31
0.0
  0
LINE
  5
55AD
  8
1外形線
 10
144.73690179825479
 20
104.8578374388179
 30
0.0
 11
134.73690179825479
 21
104.8578374388178
 31
0.0
  0
LINE
  5
55AE
  8
1外形線
 10
134.73690179825479
 20
104.8578374388178
 30
0.0
 11
134.73690179825471
 21
106.0578374388177
 31
0.0
  0
ARC
  5
55AF
  8
1外形線
 10
150.2393893758387
 20
88.357837438819104
 30
0.0
 40
20.0
 50
84.289406862501053
 51
90.0
  0
LINE
  5
55B0
  8
1外形線
 10
144.73690179825479
 20
106.0578374388179
 30
0.0
 11
144.73690179825479
 21
104.8578374388179
 31
0.0
  0
LINE
  5
55B1
  8
1外形線
 10
152.22946375625841
 20
108.2585812430189
 30
0.0
 11
160.78665365776621
 21
107.4028622528681
 31
0.0
  0
LINE
  5
55B2
  8
1外形線
 10
154.23690179825601
 20
106.65783743881801
 30
0.0
 11
161.0369017982558
 21
106.65783743881789
 31
0.0
  0
ARC
  5
55B3
  8
1外形線
 10
154.23690179825579
 20
105.65783743881801
 30
0.0
 40
1.0
 50
89.999999999998366
 51
180.0000000000002
  0
LINE
  5
55B4
  8
1外形線
 10
161.2369017982557
 20
106.905343657763
 30
0.0
 11
161.23690179825579
 21
106.8578374388179
 31
0.0
  0
ARC
  5
55B5
  8
1外形線
 10
161.0369017982558
 20
106.8578374388179
 30
0.0
 40
0.2
 50
269.99999999999829
 51
0.0000000000004071
  0
ARC
  5
55B6
  8
1外形線
 10
160.7369017982557
 20
106.905343657763
 30
0.0
 40
0.5
 50
0.0000000000004071
 51
84.289406862500627
  0
ARC
  5
55B7
  8
1外形線
 10
184.16163492580449
 20
92.657837438818007
 30
0.0
 40
0.5
 50
0.0000000000024427
 51
89.999999999997556
  0
ARC
  5
55B8
  8
1外形線
 10
184.16163492580461
 20
91.657837438817893
 30
0.0
 40
0.5
 50
269.9999999999975
 51
0.0
  0
LINE
  5
55B9
  8
1外形線
 10
184.16163492580449
 20
93.157837438818007
 30
0.0
 11
181.66163492580449
 21
93.15783743881812
 31
0.0
  0
LINE
  5
55BA
  8
1外形線
 10
184.16163492580461
 20
91.157837438817893
 30
0.0
 11
181.66163492580449
 21
91.157837438818106
 31
0.0
  0
LINE
  5
55BB
  8
1外形線
 10
176.66163492580461
 20
106.65783743881801
 30
0.0
 11
181.66163492580461
 21
106.65783743881801
 31
0.0
  0
LINE
  5
55BC
  8
1外形線
 10
176.66163492580449
 20
108.35783743881871
 30
0.0
 11
181.66163492580441
 21
108.35783743881871
 31
0.0
  0
LINE
  5
55BD
  8
1外形線
 10
183.66163492580449
 20
104.8578374388177
 30
0.0
 11
181.66163492580449
 21
104.8578374388179
 31
0.0
  0
LINE
  5
55BE
  8
1外形線
 10
181.66163492580449
 20
106.0578374388177
 30
0.0
 11
183.66163492580441
 21
106.0578374388177
 31
0.0
  0
LINE
  5
55BF
  8
1外形線
 10
183.66163492580449
 20
104.8578374388177
 30
0.0
 11
183.66163492580441
 21
106.0578374388177
 31
0.0
  0
LINE
  5
55C0
  8
1外形線
 10
184.66163492580449
 20
92.657837438818007
 30
0.0
 11
184.66163492580449
 21
91.657837438817893
 31
0.0
  0
ENDSEC
  0
EOF
