  0
SECTION
  2
HEADER
  9
$ACADVER
  1
AC1009
  9
$INSBASE
 10
0.0
 20
0.0
 30
0.0
  9
$EXTMIN
 10
33.739365993330352
 20
41.5131329734429
 30
0.0
  9
$EXTMAX
 10
1061.3917025741489
 20
100.3522456739924
 30
0.0
  9
$LIMMIN
 10
0.0
 20
0.0
  9
$LIMMAX
 10
420.0
 20
297.0
  9
$ORTHOMODE
 70
     0
  9
$REGENMODE
 70
     1
  9
$FILLMODE
 70
     1
  9
$QTEXTMODE
 70
     0
  9
$MIRRTEXT
 70
     1
  9
$DRAGMODE
 70
     2
  9
$LTSCALE
 40
1.0
  9
$OSMODE
 70
    37
  9
$ATTMODE
 70
     1
  9
$TEXTSIZE
 40
2.5
  9
$TRACEWID
 40
1.0
  9
$TEXTSTYLE
  7
STANDARD
  9
$CLAYER
  8
0
  9
$CELTYPE
  6
BYLAYER
  9
$CECOLOR
 62
   256
  9
$DIMSCALE
 40
1.0
  9
$DIMASZ
 40
2.5
  9
$DIMEXO
 40
0.625
  9
$DIMDLI
 40
3.75
  9
$DIMRND
 40
0.0
  9
$DIMDLE
 40
0.0
  9
$DIMEXE
 40
1.25
  9
$DIMTP
 40
0.0
  9
$DIMTM
 40
0.0
  9
$DIMTXT
 40
2.5
  9
$DIMCEN
 40
2.5
  9
$DIMTSZ
 40
0.0
  9
$DIMTOL
 70
     0
  9
$DIMLIM
 70
     0
  9
$DIMTIH
 70
     0
  9
$DIMTOH
 70
     0
  9
$DIMSE1
 70
     0
  9
$DIMSE2
 70
     0
  9
$DIMTAD
 70
     1
  9
$DIMZIN
 70
     8
  9
$DIMBLK
  1

  9
$DIMASO
 70
     1
  9
$DIMSHO
 70
     1
  9
$DIMPOST
  1

  9
$DIMAPOST
  1

  9
$DIMALT
 70
     0
  9
$DIMALTD
 70
     3
  9
$DIMALTF
 40
0.03937007874016
  9
$DIMLFAC
 40
1.0
  9
$DIMTOFL
 70
     1
  9
$DIMTVP
 40
0.0
  9
$DIMTIX
 70
     0
  9
$DIMSOXD
 70
     0
  9
$DIMSAH
 70
     0
  9
$DIMBLK1
  1

  9
$DIMBLK2
  1

  9
$DIMSTYLE
  2
ISO-25
  9
$DIMCLRD
 70
     0
  9
$DIMCLRE
 70
     0
  9
$DIMCLRT
 70
     0
  9
$DIMTFAC
 40
1.0
  9
$DIMGAP
 40
0.625
  9
$LUNITS
 70
     2
  9
$LUPREC
 70
     4
  9
$SKETCHINC
 40
1.0
  9
$FILLETRAD
 40
10.0
  9
$AUNITS
 70
     0
  9
$AUPREC
 70
     0
  9
$MENU
  1
.
  9
$ELEVATION
 40
0.0
  9
$PELEVATION
 40
0.0
  9
$THICKNESS
 40
0.0
  9
$LIMCHECK
 70
     0
  9
$BLIPMODE
 70
     0
  9
$CHAMFERA
 40
10.0
  9
$CHAMFERB
 40
10.0
  9
$SKPOLY
 70
     0
  9
$TDCREATE
 40
2452048.5593920141
  9
$TDUPDATE
 40
2452048.5596140968
  9
$TDINDWG
 40
0.0002225463
  9
$TDUSRTIMER
 40
0.0002225463
  9
$USRTIMER
 70
     1
  9
$ANGBASE
 50
0.0
  9
$ANGDIR
 70
     0
  9
$PDMODE
 70
     0
  9
$PDSIZE
 40
0.0
  9
$PLINEWID
 40
0.0
  9
$COORDS
 70
     1
  9
$SPLFRAME
 70
     0
  9
$SPLINETYPE
 70
     6
  9
$SPLINESEGS
 70
     8
  9
$ATTDIA
 70
     0
  9
$ATTREQ
 70
     1
  9
$HANDLING
 70
-16383
  9
$HANDSEED
  5
9D
  9
$SURFTAB1
 70
     6
  9
$SURFTAB2
 70
     6
  9
$SURFTYPE
 70
     6
  9
$SURFU
 70
     6
  9
$SURFV
 70
     6
  9
$UCSNAME
  2

  9
$UCSORG
 10
0.0
 20
0.0
 30
0.0
  9
$UCSXDIR
 10
1.0
 20
0.0
 30
0.0
  9
$UCSYDIR
 10
0.0
 20
1.0
 30
0.0
  9
$PUCSNAME
  2

  9
$PUCSORG
 10
0.0
 20
0.0
 30
0.0
  9
$PUCSXDIR
 10
1.0
 20
0.0
 30
0.0
  9
$PUCSYDIR
 10
0.0
 20
1.0
 30
0.0
  9
$USERI1
 70
     0
  9
$USERI2
 70
     0
  9
$USERI3
 70
     0
  9
$USERI4
 70
     0
  9
$USERI5
 70
     0
  9
$USERR1
 40
0.0
  9
$USERR2
 40
0.0
  9
$USERR3
 40
0.0
  9
$USERR4
 40
0.0
  9
$USERR5
 40
0.0
  9
$WORLDVIEW
 70
     1
  9
$SHADEDGE
 70
     3
  9
$SHADEDIF
 70
    70
  9
$TILEMODE
 70
     1
  9
$MAXACTVP
 70
    64
  9
$PLIMCHECK
 70
     0
  9
$PEXTMIN
 10
1.0000000000000000E+020
 20
1.0000000000000000E+020
 30
1.0000000000000000E+020
  9
$PEXTMAX
 10
-1.0000000000000000E+020
 20
-1.0000000000000000E+020
 30
-1.0000000000000000E+020
  9
$PLIMMIN
 10
0.0
 20
0.0
  9
$PLIMMAX
 10
420.0
 20
297.0
  9
$UNITMODE
 70
     0
  9
$VISRETAIN
 70
     1
  9
$PLINEGEN
 70
     0
  9
$PSLTSCALE
 70
     1
  0
ENDSEC
  0
SECTION
  2
TABLES
  0
TABLE
  2
VPORT
 70
     3
  0
VPORT
  2
*ACTIVE
 70
     0
 10
0.0
 20
0.0
 11
1.0
 21
1.0
 12
261.5498120300752
 22
148.5
 13
0.0
 23
0.0
 14
10.0
 24
10.0
 15
10.0
 25
10.0
 16
0.0
 26
0.0
 36
1.0
 17
0.0
 27
0.0
 37
0.0
 40
297.0
 41
1.7612781954887211
 42
50.0
 43
0.0
 44
0.0
 50
0.0
 51
0.0
 71
     0
 72
   100
 73
     1
 74
     3
 75
     0
 76
     0
 77
     0
 78
     0
  0
ENDTAB
  0
TABLE
  2
LTYPE
 70
     2
  0
LTYPE
  2
CONTINUOUS
 70
     0
  3
Solid line
 72
    65
 73
     0
 40
0.0
  0
LTYPE
  2
CENTER
 70
     0
  3
____ _ ____ _ ____ _ ____ _ ____ _ ____ _ ____ 
 72
    65
 73
     4
 40
2.0
 49
1.25
 49
-0.25
 49
0.25
 49
-0.25
  0
ENDTAB
  0
TABLE
  2
LAYER
 70
     2
  0
LAYER
  2
0
 70
     0
 62
     7
  6
CONTINUOUS
  0
LAYER
  2
1外形線
 70
     0
 62
     3
  6
CONTINUOUS
  0
ENDTAB
  0
TABLE
  2
STYLE
 70
     2
  0
STYLE
  2
STANDARD
 70
     0
 40
0.0
 41
1.0
 50
0.0
 71
     0
 42
2.5
  3
txt
  4

  0
STYLE
  2
KANJI
 70
     0
 40
0.0
 41
1.0
 50
0.0
 71
     0
 42
2.0
  3
simplex
  4
bigfont
  0
ENDTAB
  0
TABLE
  2
VIEW
 70
     0
  0
ENDTAB
  0
TABLE
  2
UCS
 70
     0
  0
ENDTAB
  0
TABLE
  2
APPID
 70
     1
  0
APPID
  2
ACAD
 70
     0
  0
ENDTAB
  0
TABLE
  2
DIMSTYLE
 70
     2
  0
DIMSTYLE
  2
ISO-25
 70
     0
  3

  4

  5

  6

  7

 40
1.0
 41
2.5
 42
0.625
 43
3.75
 44
1.25
 45
0.0
 46
0.0
 47
0.0
 48
0.0
140
2.5
141
2.5
142
0.0
143
0.03937007874016
144
1.0
145
0.0
146
1.0
147
0.625
 71
     0
 72
     0
 73
     0
 74
     0
 75
     0
 76
     0
 77
     1
 78
     8
170
     0
171
     3
172
     1
173
     0
174
     0
175
     0
176
     0
177
     0
178
     0
  0
DIMSTYLE
  2
STANDARD
 70
     0
  3

  4

  5

  6
1
  7
1
 40
1.0
 41
1.0
 42
1.0
 43
6.0
 44
1.0
 45
0.0
 46
0.0
 47
0.0
 48
0.0
140
2.5
141
0.0
142
0.0
143
25.399999999999999
144
1.0
145
0.0
146
1.0
147
0.5
 71
     0
 72
     0
 73
     0
 74
     0
 75
     0
 76
     0
 77
     1
 78
     8
170
     0
171
     2
172
     1
173
     1
174
     0
175
     0
176
     0
177
     0
178
     0
  0
ENDTAB
  0
ENDSEC
  0
SECTION
  2
BLOCKS
  0
BLOCK
  8
0
  2
$MODEL_SPACE
 70
     0
 10
0.0
 20
0.0
 30
0.0
  3
$MODEL_SPACE
  1

  0
ENDBLK
  5
21
  8
0
  0
BLOCK
 67
     1
  8
0
  2
$PAPER_SPACE
 70
     0
 10
0.0
 20
0.0
 30
0.0
  3
$PAPER_SPACE
  1

  0
ENDBLK
  5
1D
 67
     1
  8
0
  0
BLOCK
  8
0
  2
1
 70
     0
 10
0.0
 20
0.0
 30
0.0
  3
1
  1

  0
SOLID
  5
2C
  8
0
  6
BYBLOCK
 62
     0
 10
-1.811110924292052
 20
0.4852857095671653
 30
0.0
 11
-1.811110924292052
 21
-0.4852857095673642
 31
0.0
 12
0.0
 22
0.0
 32
0.0
 13
0.0
 23
0.0
 33
0.0
  0
ENDBLK
  5
2E
  8
0
  0
ENDSEC
  0
SECTION
  2
ENTITIES
  0
LINE
  5
67
  8
1外形線
 10
61.391702574149122
 20
41.5131329734429
 30
0.0
 11
1061.3917025741489
 21
41.5131329734429
 31
0.0
  0
LINE
  5
68
  8
1外形線
 10
61.391702574149122
 20
46.5131329734429
 30
0.0
 11
1061.3917025741489
 21
46.5131329734429
 31
0.0
  0
LINE
  5
69
  8
1外形線
 10
61.391702574149122
 20
46.813132973442862
 30
0.0
 11
1061.3917025741489
 21
46.813132973442862
 31
0.0
  0
LINE
  5
6A
  8
1外形線
 10
61.391702574149122
 20
55.652245673992397
 30
0.0
 11
1061.3917025741489
 21
55.652245673992397
 31
0.0
  0
LINE
  5
6B
  8
1外形線
 10
61.391702574149122
 20
58.40224567399359
 30
0.0
 11
1061.3917025741489
 21
58.40224567399359
 31
0.0
  0
LINE
  5
6C
  8
1外形線
 10
61.391702574149122
 20
59.002245673993613
 30
0.0
 11
1061.3917025741489
 21
59.002245673993613
 31
0.0
  0
LINE
  5
6D
  8
1外形線
 10
61.391702574149122
 20
77.702245673992408
 30
0.0
 11
1061.3917025741489
 21
77.702245673992408
 31
0.0
  0
LINE
  5
6E
  8
1外形線
 10
61.391702574149122
 20
78.302245673992431
 30
0.0
 11
1061.3917025741489
 21
78.302245673992431
 31
0.0
  0
LINE
  5
6F
  8
1外形線
 10
61.391702574149122
 20
97.002245673991226
 30
0.0
 11
1061.3917025741489
 21
97.002245673991226
 31
0.0
  0
LINE
  5
70
  8
1外形線
 10
61.391702574149122
 20
97.602245673991249
 30
0.0
 11
1061.3917025741489
 21
97.602245673991249
 31
0.0
  0
LINE
  5
71
  8
1外形線
 10
61.391702574149122
 20
100.3522456739924
 30
0.0
 11
1061.3917025741489
 21
100.3522456739924
 31
0.0
  0
LINE
  5
72
  8
1外形線
 10
61.391702574149122
 20
46.813132973442862
 30
0.0
 11
61.391702574149122
 21
41.5131329734429
 31
0.0
  0
LINE
  5
73
  8
1外形線
 10
61.391702574149122
 20
100.3522456739924
 30
0.0
 11
61.391702574149122
 21
55.652245673992397
 31
0.0
  0
LINE
  5
74
  8
1外形線
 62
     3
 10
38.739365993330459
 20
97.602245673991206
 30
0.0
 11
38.739365993330459
 21
100.3522456739924
 31
0.0
  0
LINE
  5
75
  8
1外形線
 62
     3
 10
33.739365993330352
 20
100.3522456739922
 30
0.0
 11
33.739365993330352
 21
98.352245673992215
 31
0.0
  0
LINE
  5
76
  8
1外形線
 62
     3
 10
36.739365993330459
 20
76.002245673992419
 30
0.0
 11
36.739365993330459
 21
80.002245673992405
 31
0.0
  0
LINE
  5
77
  8
1外形線
 62
     3
 10
38.739365993330352
 20
59.002245673993613
 30
0.0
 11
38.739365993330352
 21
77.702245673992408
 31
0.0
  0
LINE
  5
78
  8
1外形線
 62
     3
 10
36.739365993330352
 20
58.652245673992631
 30
0.0
 11
36.739365993330352
 21
72.002245673992419
 31
0.0
  0
ARC
  5
79
  8
1外形線
 62
     3
 10
35.739365993330317
 20
58.65224567399261
 30
0.0
 40
1.0
 50
270.0
 51
0.0
  0
LINE
  5
7A
  8
1外形線
 62
     3
 10
38.739365993330459
 20
55.652245673992397
 30
0.0
 11
33.739365993330459
 21
55.652245673992397
 31
0.0
  0
LINE
  5
7B
  8
1外形線
 62
     3
 10
35.739365993330352
 20
57.652245673992617
 30
0.0
 11
33.739365993330352
 21
57.652245673992617
 31
0.0
  0
LINE
  5
7C
  8
1外形線
 62
     3
 10
33.739365993330352
 20
55.652245673992617
 30
0.0
 11
33.739365993330352
 21
57.652245673992589
 31
0.0
  0
LINE
  5
7D
  8
1外形線
 62
     3
 10
38.739365993330459
 20
58.402245673993882
 30
0.0
 11
38.739365993330459
 21
55.652245673992397
 31
0.0
  0
LINE
  5
7E
  8
1外形線
 62
     3
 10
38.739365993330352
 20
59.002245673993613
 30
0.0
 11
39.039365993330421
 21
59.002245673993613
 31
0.0
  0
LINE
  5
7F
  8
1外形線
 62
     3
 10
38.739365993330459
 20
59.002245673993613
 30
0.0
 11
39.039365993330421
 21
59.002245673993613
 31
0.0
  0
LINE
  5
80
  8
1外形線
 10
39.039365993330421
 20
59.002245673993613
 30
0.0
 11
38.739365993330352
 21
58.40224567399359
 31
0.0
  0
ARC
  5
81
  8
1外形線
 62
     3
 10
35.739365993330317
 20
72.002245673992419
 30
0.0
 40
1.0
 50
0.0
 51
90.0
  0
ARC
  5
82
  8
1外形線
 62
     3
 10
35.739365993330431
 20
76.002245673992419
 30
0.0
 40
1.0
 50
270.0
 51
0.0
  0
LINE
  5
83
  8
1外形線
  6
CENTER
 62
     3
 10
33.739365993330459
 20
73.002245673992419
 30
0.0
 11
35.739365993330459
 21
73.002245673992419
 31
0.0
  0
LINE
  5
84
  8
1外形線
  6
CENTER
 62
     3
 10
33.739365993330352
 20
75.002245673992419
 30
0.0
 11
35.739365993330459
 21
75.002245673992419
 31
0.0
  0
LINE
  5
85
  8
1外形線
 62
     3
 10
33.739365993330459
 20
73.002245673992419
 30
0.0
 11
33.739365993330459
 21
75.002245673992419
 31
0.0
  0
LINE
  5
86
  8
1外形線
 62
     3
 10
38.739365993330352
 20
78.302245673992431
 30
0.0
 11
38.739365993330459
 21
97.002245673991226
 31
0.0
  0
LINE
  5
87
  8
1外形線
 62
     3
 10
36.739365993330459
 20
84.002245673992405
 30
0.0
 11
36.739365993330459
 21
97.352245673992215
 31
0.0
  0
ARC
  5
88
  8
1外形線
 62
     3
 10
35.739365993330352
 20
84.002245673992405
 30
0.0
 40
1.0
 50
270.0
 51
0.0
  0
ARC
  5
89
  8
1外形線
 62
     3
 10
35.739365993330431
 20
80.002245673992405
 30
0.0
 40
1.0
 50
0.0
 51
90.0
  0
LINE
  5
8A
  8
1外形線
  6
CENTER
 62
     3
 10
33.739365993330352
 20
81.002245673992434
 30
0.0
 11
35.739365993330459
 21
81.002245673992434
 31
0.0
  0
LINE
  5
8B
  8
1外形線
  6
CENTER
 62
     3
 10
33.739365993330459
 20
83.002245673992419
 30
0.0
 11
35.739365993330459
 21
83.002245673992419
 31
0.0
  0
LINE
  5
8C
  8
1外形線
 62
     3
 10
33.739365993330459
 20
81.002245673992434
 30
0.0
 11
33.739365993330459
 21
83.002245673992419
 31
0.0
  0
ARC
  5
8D
  8
1外形線
 10
38.739365993330317
 20
78.002245673992419
 30
0.0
 40
0.3
 50
90.0
 51
270.0
  0
ARC
  5
8E
  8
1外形線
 62
     3
 10
35.739365993330352
 20
97.352245673992215
 30
0.0
 40
1.0
 50
0.0
 51
90.0
  0
LINE
  5
8F
  8
1外形線
 62
     3
 10
35.739365993330352
 20
98.352245673992215
 30
0.0
 11
33.739365993330352
 21
98.352245673992215
 31
0.0
  0
LINE
  5
90
  8
1外形線
 62
     3
 10
38.739365993330352
 20
97.002245673991226
 30
0.0
 11
39.039365993330421
 21
97.002245673991226
 31
0.0
  0
LINE
  5
91
  8
1外形線
 10
39.039365993330421
 20
97.002245673991226
 30
0.0
 11
38.739365993330352
 21
97.602245673991249
 31
0.0
  0
LINE
  5
92
  8
1外形線
 62
     3
 10
38.739365993330459
 20
97.002245673991226
 30
0.0
 11
39.039365993330421
 21
97.002245673991226
 31
0.0
  0
LINE
  5
93
  8
1外形線
 62
     3
 10
38.739365993330459
 20
100.3522456739924
 30
0.0
 11
33.739365993330459
 21
100.3522456739924
 31
0.0
  0
LINE
  5
94
  8
1外形線
 10
1061.3917025741489
 20
46.813132973442862
 30
0.0
 11
1061.3917025741489
 21
41.5131329734429
 31
0.0
  0
LINE
  5
95
  8
1外形線
 10
1061.3917025741489
 20
55.652245673992397
 30
0.0
 11
1061.3917025741489
 21
100.3522456739924
 31
0.0
  0
ENDSEC
  0
EOF
