  0
SECTION
  2
HEADER
  9
$ACADVER
  1
AC1009
  9
$INSBASE
 10
0.0
 20
0.0
 30
0.0
  9
$EXTMIN
 10
77.647378046065171
 20
56.425651365046001
 30
0.0
  9
$EXTMAX
 10
304.84296939378402
 20
305.8475981765788
 30
0.0
  9
$LIMMIN
 10
0.0
 20
0.0
  9
$LIMMAX
 10
420.0
 20
297.0
  9
$ORTHOMODE
 70
     0
  9
$REGENMODE
 70
     1
  9
$FILLMODE
 70
     1
  9
$QTEXTMODE
 70
     0
  9
$MIRRTEXT
 70
     1
  9
$DRAGMODE
 70
     2
  9
$LTSCALE
 40
1.0
  9
$OSMODE
 70
    37
  9
$ATTMODE
 70
     1
  9
$TEXTSIZE
 40
2.5
  9
$TRACEWID
 40
1.0
  9
$TEXTSTYLE
  7
STANDARD
  9
$CLAYER
  8
0
  9
$CELTYPE
  6
BYLAYER
  9
$CECOLOR
 62
   256
  9
$DIMSCALE
 40
1.0
  9
$DIMASZ
 40
2.5
  9
$DIMEXO
 40
0.625
  9
$DIMDLI
 40
3.75
  9
$DIMRND
 40
0.0
  9
$DIMDLE
 40
0.0
  9
$DIMEXE
 40
1.25
  9
$DIMTP
 40
0.0
  9
$DIMTM
 40
0.0
  9
$DIMTXT
 40
2.5
  9
$DIMCEN
 40
2.5
  9
$DIMTSZ
 40
0.0
  9
$DIMTOL
 70
     0
  9
$DIMLIM
 70
     0
  9
$DIMTIH
 70
     0
  9
$DIMTOH
 70
     0
  9
$DIMSE1
 70
     0
  9
$DIMSE2
 70
     0
  9
$DIMTAD
 70
     1
  9
$DIMZIN
 70
     8
  9
$DIMBLK
  1

  9
$DIMASO
 70
     1
  9
$DIMSHO
 70
     1
  9
$DIMPOST
  1

  9
$DIMAPOST
  1

  9
$DIMALT
 70
     0
  9
$DIMALTD
 70
     3
  9
$DIMALTF
 40
0.03937007874016
  9
$DIMLFAC
 40
1.0
  9
$DIMTOFL
 70
     1
  9
$DIMTVP
 40
0.0
  9
$DIMTIX
 70
     0
  9
$DIMSOXD
 70
     0
  9
$DIMSAH
 70
     0
  9
$DIMBLK1
  1

  9
$DIMBLK2
  1

  9
$DIMSTYLE
  2
ISO-25
  9
$DIMCLRD
 70
     0
  9
$DIMCLRE
 70
     0
  9
$DIMCLRT
 70
     0
  9
$DIMTFAC
 40
1.0
  9
$DIMGAP
 40
0.625
  9
$LUNITS
 70
     2
  9
$LUPREC
 70
     4
  9
$SKETCHINC
 40
1.0
  9
$FILLETRAD
 40
10.0
  9
$AUNITS
 70
     0
  9
$AUPREC
 70
     0
  9
$MENU
  1
.
  9
$ELEVATION
 40
0.0
  9
$PELEVATION
 40
0.0
  9
$THICKNESS
 40
0.0
  9
$LIMCHECK
 70
     0
  9
$BLIPMODE
 70
     0
  9
$CHAMFERA
 40
10.0
  9
$CHAMFERB
 40
10.0
  9
$SKPOLY
 70
     0
  9
$TDCREATE
 40
2452451.5885204631
  9
$TDUPDATE
 40
2452451.5888600689
  9
$TDINDWG
 40
0.0003401852
  9
$TDUSRTIMER
 40
0.0003400694
  9
$USRTIMER
 70
     1
  9
$ANGBASE
 50
0.0
  9
$ANGDIR
 70
     0
  9
$PDMODE
 70
     0
  9
$PDSIZE
 40
0.0
  9
$PLINEWID
 40
0.0
  9
$COORDS
 70
     1
  9
$SPLFRAME
 70
     0
  9
$SPLINETYPE
 70
     6
  9
$SPLINESEGS
 70
     8
  9
$ATTDIA
 70
     0
  9
$ATTREQ
 70
     1
  9
$HANDLING
 70
-16383
  9
$HANDSEED
  5
224
  9
$SURFTAB1
 70
     6
  9
$SURFTAB2
 70
     6
  9
$SURFTYPE
 70
     6
  9
$SURFU
 70
     6
  9
$SURFV
 70
     6
  9
$UCSNAME
  2

  9
$UCSORG
 10
0.0
 20
0.0
 30
0.0
  9
$UCSXDIR
 10
1.0
 20
0.0
 30
0.0
  9
$UCSYDIR
 10
0.0
 20
1.0
 30
0.0
  9
$PUCSNAME
  2

  9
$PUCSORG
 10
0.0
 20
0.0
 30
0.0
  9
$PUCSXDIR
 10
1.0
 20
0.0
 30
0.0
  9
$PUCSYDIR
 10
0.0
 20
1.0
 30
0.0
  9
$USERI1
 70
     0
  9
$USERI2
 70
     0
  9
$USERI3
 70
     0
  9
$USERI4
 70
     0
  9
$USERI5
 70
     0
  9
$USERR1
 40
0.0
  9
$USERR2
 40
0.0
  9
$USERR3
 40
0.0
  9
$USERR4
 40
0.0
  9
$USERR5
 40
0.0
  9
$WORLDVIEW
 70
     1
  9
$SHADEDGE
 70
     3
  9
$SHADEDIF
 70
    70
  9
$TILEMODE
 70
     1
  9
$MAXACTVP
 70
    64
  9
$PLIMCHECK
 70
     0
  9
$PEXTMIN
 10
1.0000000000000000E+020
 20
1.0000000000000000E+020
 30
1.0000000000000000E+020
  9
$PEXTMAX
 10
-1.0000000000000000E+020
 20
-1.0000000000000000E+020
 30
-1.0000000000000000E+020
  9
$PLIMMIN
 10
0.0
 20
0.0
  9
$PLIMMAX
 10
420.0
 20
297.0
  9
$UNITMODE
 70
     0
  9
$VISRETAIN
 70
     1
  9
$PLINEGEN
 70
     0
  9
$PSLTSCALE
 70
     1
  0
ENDSEC
  0
SECTION
  2
TABLES
  0
TABLE
  2
VPORT
 70
     3
  0
VPORT
  2
*ACTIVE
 70
     0
 10
0.0
 20
0.0
 11
1.0
 21
1.0
 12
209.99999999999989
 22
159.7959183673469
 13
0.0
 23
0.0
 14
10.0
 24
10.0
 15
10.0
 25
10.0
 16
0.0
 26
0.0
 36
1.0
 17
0.0
 27
0.0
 37
0.0
 40
319.5918367346938
 41
1.3141762452107271
 42
50.0
 43
0.0
 44
0.0
 50
0.0
 51
0.0
 71
     0
 72
   100
 73
     1
 74
     3
 75
     0
 76
     0
 77
     0
 78
     0
  0
ENDTAB
  0
TABLE
  2
LTYPE
 70
     1
  0
LTYPE
  2
CONTINUOUS
 70
     0
  3
Solid line
 72
    65
 73
     0
 40
0.0
  0
ENDTAB
  0
TABLE
  2
LAYER
 70
     2
  0
LAYER
  2
0
 70
     0
 62
     7
  6
CONTINUOUS
  0
LAYER
  2
1外形線
 70
     0
 62
     3
  6
CONTINUOUS
  0
ENDTAB
  0
TABLE
  2
STYLE
 70
     2
  0
STYLE
  2
STANDARD
 70
     0
 40
0.0
 41
1.0
 50
0.0
 71
     0
 42
2.5
  3
txt
  4

  0
STYLE
  2
KANJI
 70
     0
 40
0.0
 41
1.0
 50
0.0
 71
     0
 42
2.0
  3
simplex
  4
bigfont
  0
ENDTAB
  0
TABLE
  2
VIEW
 70
     0
  0
ENDTAB
  0
TABLE
  2
UCS
 70
     0
  0
ENDTAB
  0
TABLE
  2
APPID
 70
     1
  0
APPID
  2
ACAD
 70
     0
  0
ENDTAB
  0
TABLE
  2
DIMSTYLE
 70
     2
  0
DIMSTYLE
  2
ISO-25
 70
     0
  3

  4

  5

  6

  7

 40
1.0
 41
2.5
 42
0.625
 43
3.75
 44
1.25
 45
0.0
 46
0.0
 47
0.0
 48
0.0
140
2.5
141
2.5
142
0.0
143
0.03937007874016
144
1.0
145
0.0
146
1.0
147
0.625
 71
     0
 72
     0
 73
     0
 74
     0
 75
     0
 76
     0
 77
     1
 78
     8
170
     0
171
     3
172
     1
173
     0
174
     0
175
     0
176
     0
177
     0
178
     0
  0
DIMSTYLE
  2
STANDARD
 70
     0
  3

  4

  5

  6
1
  7
1
 40
1.0
 41
1.0
 42
1.0
 43
6.0
 44
1.0
 45
0.0
 46
0.0
 47
0.0
 48
0.0
140
2.5
141
0.0
142
0.0
143
25.399999999999999
144
1.0
145
0.0
146
1.0
147
0.5
 71
     0
 72
     0
 73
     0
 74
     0
 75
     0
 76
     0
 77
     1
 78
     8
170
     0
171
     2
172
     1
173
     1
174
     0
175
     0
176
     0
177
     0
178
     0
  0
ENDTAB
  0
ENDSEC
  0
SECTION
  2
BLOCKS
  0
BLOCK
  8
0
  2
$MODEL_SPACE
 70
     0
 10
0.0
 20
0.0
 30
0.0
  3
$MODEL_SPACE
  1

  0
ENDBLK
  5
21
  8
0
  0
BLOCK
 67
     1
  8
0
  2
$PAPER_SPACE
 70
     0
 10
0.0
 20
0.0
 30
0.0
  3
$PAPER_SPACE
  1

  0
ENDBLK
  5
1D
 67
     1
  8
0
  0
BLOCK
  8
0
  2
1
 70
     0
 10
0.0
 20
0.0
 30
0.0
  3
1
  1

  0
SOLID
  5
2C
  8
0
  6
BYBLOCK
 62
     0
 10
-1.811110924292052
 20
0.4852857095671653
 30
0.0
 11
-1.811110924292052
 21
-0.4852857095673642
 31
0.0
 12
0.0
 22
0.0
 32
0.0
 13
0.0
 23
0.0
 33
0.0
  0
ENDBLK
  5
2E
  8
0
  0
ENDSEC
  0
SECTION
  2
ENTITIES
  0
ARC
  5
12A
  8
1外形線
 10
156.90082351185771
 20
126.99505389768861
 30
0.0
 40
0.5
 50
90.0
 51
180.0
  0
ARC
  5
12B
  8
1外形線
 10
156.70984050623369
 20
120.9967191769115
 30
0.0
 40
0.5
 50
206.56505117707539
 51
269.99999999999022
  0
ARC
  5
12C
  8
1外形線
 10
156.70984050623369
 20
66.99671917691137
 30
0.0
 40
0.5
 50
90.000000000009777
 51
153.4349488229245
  0
ARC
  5
12D
  8
1外形線
 10
156.90082351185771
 20
60.998384456134197
 30
0.0
 40
0.5
 50
180.0
 51
270.0
  0
LINE
  5
12E
  8
1外形線
 10
198.71844585793011
 20
162.429787609915
 30
0.0
 11
79.718445857930192
 21
162.429787609915
 31
0.0
  0
LINE
  5
12F
  8
1外形線
 10
172.4595962567262
 20
211.4297876099142
 30
0.0
 11
88.977295459134325
 21
211.42978760991451
 31
0.0
  0
LINE
  5
130
  8
1外形線
 10
89.718445857930405
 20
232.77653036471341
 30
0.0
 11
171.71844585793011
 21
232.77653036471341
 31
0.0
  0
LINE
  5
131
  8
1外形線
 10
89.718445857930405
 20
303.77653036471332
 30
0.0
 11
171.71844585792991
 21
303.77653036471332
 31
0.0
  0
LINE
  5
132
  8
1外形線
 10
95.900823511857993
 20
129.4967191769114
 30
0.0
 11
177.90082351185751
 21
129.4967191769114
 31
0.0
  0
LINE
  5
133
  8
1外形線
 10
95.900823511857993
 20
127.49505389768881
 30
0.0
 11
177.90082351185751
 21
127.49505389768881
 31
0.0
  0
LINE
  5
134
  8
1外形線
 10
95.900823511857993
 20
58.496719176911483
 30
0.0
 11
177.90082351185771
 21
58.496719176911483
 31
0.0
  0
LINE
  5
135
  8
1外形線
 10
95.900823511857993
 20
60.49838445613409
 30
0.0
 11
177.90082351185771
 21
60.49838445613409
 31
0.0
  0
LINE
  5
136
  8
1外形線
 10
150.90082349154551
 20
87.996719176911469
 30
0.0
 11
187.40082351185799
 21
87.996719176911469
 31
0.0
  0
LINE
  5
137
  8
1外形線
 10
150.90082349154551
 20
99.996719176911483
 30
0.0
 11
187.40082351185799
 21
99.996719176911483
 31
0.0
  0
LINE
  5
138
  8
1外形線
 10
161.90082351185731
 20
73.496719176911483
 30
0.0
 11
153.9008235118576
 21
73.496719176911483
 31
0.0
  0
LINE
  5
139
  8
1外形線
 10
161.90082351185731
 20
114.4967191769114
 30
0.0
 11
153.9008235118576
 21
114.4967191769114
 31
0.0
  0
LINE
  5
13A
  8
1外形線
 10
111.90082351185779
 20
65.49671917690705
 30
0.0
 11
115.09180651748279
 21
65.496719176907391
 31
0.0
  0
LINE
  5
13B
  8
1外形線
 10
119.90082351185799
 20
73.496719176911483
 30
0.0
 11
111.90082351185821
 21
73.496719176911483
 31
0.0
  0
LINE
  5
13C
  8
1外形線
 10
119.90082351185799
 20
114.4967191769114
 30
0.0
 11
111.90082351185821
 21
114.4967191769114
 31
0.0
  0
LINE
  5
13D
  8
1外形線
 10
111.90082351185779
 20
122.4967191769159
 30
0.0
 11
115.09180651748279
 21
122.49671917691551
 31
0.0
  0
LINE
  5
13E
  8
1外形線
 10
85.900823511858448
 20
119.4967191769114
 30
0.0
 11
85.900823511858221
 21
68.496719176911483
 31
0.0
  0
LINE
  5
13F
  8
1外形線
 10
87.902488791081055
 20
119.4967191769114
 30
0.0
 11
87.902488791080813
 21
68.496719176911483
 31
0.0
  0
ARC
  5
140
  8
1外形線
 10
95.900823511858221
 20
68.496719176911483
 30
0.0
 40
10.0
 50
180.0
 51
270.0
  0
ARC
  5
141
  8
1外形線
 10
95.900823511858221
 20
68.496719176911483
 30
0.0
 40
7.9983347207773932
 50
180.0
 51
270.0
  0
ARC
  5
142
  8
1外形線
 10
95.000823511857902
 20
68.496719176911597
 30
0.0
 40
2.1000000000000001
 50
90.0
 51
270.0
  0
ARC
  5
143
  8
1外形線
 10
98.800823511858084
 20
68.496719176911597
 30
0.0
 40
2.1000000000000001
 50
270.0
 51
90.0
  0
ARC
  5
144
  8
1外形線
 10
111.90082351185769
 20
66.496719176912848
 30
0.0
 40
1.0
 50
179.99999999999471
 51
269.99999999999341
  0
LINE
  5
145
  8
1外形線
 10
98.40082351185788
 20
62.498384456134197
 30
0.0
 11
104.4008235118576
 21
62.498384456134197
 31
0.0
  0
LINE
  5
146
  8
1外形線
 10
98.800823511858084
 20
66.396719176911688
 30
0.0
 11
95.000823511857902
 21
66.396719176911574
 31
0.0
  0
LINE
  5
147
  8
1外形線
 10
98.40082351185788
 20
62.498384456134197
 30
0.0
 11
98.40082351185788
 21
60.49838445613431
 31
0.0
  0
LINE
  5
148
  8
1外形線
 10
104.4008235118574
 20
62.498384456134197
 30
0.0
 11
104.4008235118576
 21
60.49838445613409
 31
0.0
  0
LINE
  5
149
  8
1外形線
 10
95.000823511857902
 20
70.596719176911606
 30
0.0
 11
98.800823511858084
 21
70.596719176911392
 31
0.0
  0
LINE
  5
14A
  8
1外形線
 10
110.90082351185769
 20
66.496719176912848
 30
0.0
 11
110.90082351185821
 21
72.496719176911711
 31
0.0
  0
ARC
  5
14B
  8
1外形線
 10
111.90082351185821
 20
72.496719176911483
 30
0.0
 40
1.0
 50
90.0
 51
179.99999999999551
  0
ARC
  5
14C
  8
1外形線
 10
95.900823511858448
 20
119.4967191769114
 30
0.0
 40
10.0
 50
90.0
 51
180.0
  0
ARC
  5
14D
  8
1外形線
 10
95.900823511858448
 20
119.4967191769114
 30
0.0
 40
7.9983347207773932
 50
90.0
 51
180.0
  0
LINE
  5
14E
  8
1外形線
 10
95.000823511857902
 20
117.3967191769113
 30
0.0
 11
98.800823511858084
 21
117.3967191769115
 31
0.0
  0
LINE
  5
14F
  8
1外形線
 10
98.800823511858084
 20
121.59671917691119
 30
0.0
 11
95.000823511857902
 21
121.59671917691129
 31
0.0
  0
ARC
  5
150
  8
1外形線
 10
95.000823511857902
 20
119.4967191769113
 30
0.0
 40
2.1000000000000001
 50
90.0
 51
270.0
  0
ARC
  5
151
  8
1外形線
 10
98.800823511858084
 20
119.4967191769113
 30
0.0
 40
2.1000000000000001
 50
270.0
 51
90.0
  0
ARC
  5
152
  8
1外形線
 10
111.90082351185769
 20
121.4967191769101
 30
0.0
 40
1.0
 50
90.000000000006509
 51
180.0000000000052
  0
ARC
  5
153
  8
1外形線
 10
111.90082351185821
 20
115.4967191769114
 30
0.0
 40
1.0
 50
180.00000000000441
 51
270.0
  0
LINE
  5
154
  8
1外形線
 10
110.90082351185769
 20
121.4967191769101
 30
0.0
 11
110.90082351185821
 21
115.4967191769112
 31
0.0
  0
LINE
  5
155
  8
1外形線
 10
98.40082351185788
 20
125.49505389768861
 30
0.0
 11
104.4008235118576
 21
125.49505389768861
 31
0.0
  0
LINE
  5
156
  8
1外形線
 10
98.40082351185788
 20
125.49505389768861
 30
0.0
 11
98.40082351185788
 21
127.49505389768839
 31
0.0
  0
LINE
  5
157
  8
1外形線
 10
104.4008235118574
 20
125.49505389768861
 30
0.0
 11
104.4008235118576
 21
127.49505389768881
 31
0.0
  0
CIRCLE
  5
158
  8
1外形線
 62
     3
 10
136.90082351185771
 20
93.996719176911483
 30
0.0
 40
2.1000000000000001
  0
LINE
  5
159
  8
1外形線
 10
150.90082349154551
 20
99.996719176911483
 30
0.0
 11
150.90082349154551
 21
87.996719176911469
 31
0.0
  0
LINE
  5
15A
  8
1外形線
 10
127.2098405062318
 20
65.496719176908982
 30
0.0
 11
146.5918065174838
 21
65.496719176911142
 31
0.0
  0
LINE
  5
15B
  8
1外形線
 10
117.40082351185769
 20
62.49671917691159
 30
0.0
 11
156.40082351185771
 21
62.49671917691159
 31
0.0
  0
LINE
  5
15C
  8
1外形線
 10
151.90082351185751
 20
80.996719176911483
 30
0.0
 11
121.90082351185799
 21
80.996719176911483
 31
0.0
  0
LINE
  5
15D
  8
1外形線
 10
116.26262691073271
 20
67.220325974661364
 30
0.0
 11
115.5390201129827
 21
65.773112379161603
 31
0.0
  0
LINE
  5
15E
  8
1外形線
 10
117.5390201129818
 20
67.220325974661364
 30
0.0
 11
118.2626269107317
 21
65.773112379161148
 31
0.0
  0
LINE
  5
15F
  8
1外形線
 10
124.76262691073261
 20
67.220325974661364
 30
0.0
 11
124.0390201129827
 21
65.773112379161603
 31
0.0
  0
LINE
  5
160
  8
1外形線
 10
126.0390201129818
 20
67.220325974661364
 30
0.0
 11
126.7626269107317
 21
65.773112379161148
 31
0.0
  0
ARC
  5
161
  8
1外形線
 10
123.59180651748269
 20
65.996719176911483
 30
0.0
 40
0.5
 50
269.99999999999341
 51
333.43494882292202
  0
ARC
  5
162
  8
1外形線
 10
118.7098405062317
 20
65.996719176911142
 30
0.0
 40
0.5
 50
206.5650511770761
 51
269.99999999999341
  0
ARC
  5
163
  8
1外形線
 10
116.90082351185769
 20
60.998384456134197
 30
0.0
 40
0.5
 50
270.0
 51
359.99999999999341
  0
ARC
  5
164
  8
1外形線
 10
115.09180651748269
 20
65.996719176911483
 30
0.0
 40
0.5
 50
269.99999999999341
 51
333.43494882292202
  0
LINE
  5
165
  8
1外形線
 10
117.40082351185769
 20
62.49671917691159
 30
0.0
 11
117.40082351185769
 21
60.998384456134197
 31
0.0
  0
LINE
  5
166
  8
1外形線
 10
118.7098405062319
 20
65.496719176907845
 30
0.0
 11
123.59180651748279
 21
65.496719176908528
 31
0.0
  0
ARC
  5
167
  8
1外形線
 10
127.2098405062317
 20
65.996719176911142
 30
0.0
 40
0.5
 50
206.5650511770761
 51
269.99999999999341
  0
ARC
  5
168
  8
1外形線
 10
121.90082351185799
 20
79.996719176911483
 30
0.0
 40
1.0
 50
90.0
 51
180.0
  0
LINE
  5
169
  8
1外形線
 10
117.0918065174818
 20
67.49671917691137
 30
0.0
 11
116.7098405062326
 21
67.496719176911483
 31
0.0
  0
ARC
  5
16A
  8
1外形線
 10
116.7098405062325
 20
66.996719176911483
 30
0.0
 40
0.5
 50
89.999999999993491
 51
153.4349488229212
  0
ARC
  5
16B
  8
1外形線
 10
117.0918065174818
 20
66.99671917691137
 30
0.0
 40
0.5
 50
26.565051177075439
 51
89.999999999990223
  0
LINE
  5
16C
  8
1外形線
 10
120.90082351185799
 20
79.996719176911483
 30
0.0
 11
120.90082351185799
 21
74.496719176911483
 31
0.0
  0
ARC
  5
16D
  8
1外形線
 10
119.90082351185799
 20
74.496719176911483
 30
0.0
 40
1.0
 50
270.0
 51
0.0
  0
ARC
  5
16E
  8
1外形線
 10
125.2098405062325
 20
66.996719176911483
 30
0.0
 40
0.5
 50
89.999999999993491
 51
153.4349488229212
  0
LINE
  5
16F
  8
1外形線
 10
125.5918065174818
 20
67.49671917691137
 30
0.0
 11
125.2098405062326
 21
67.496719176911483
 31
0.0
  0
ARC
  5
170
  8
1外形線
 10
125.5918065174818
 20
66.99671917691137
 30
0.0
 40
0.5
 50
26.565051177075439
 51
89.999999999990223
  0
LINE
  5
171
  8
1外形線
 10
149.0390201129828
 20
67.220325974661364
 30
0.0
 11
149.76262691073279
 21
65.773112379161603
 31
0.0
  0
LINE
  5
172
  8
1外形線
 10
147.7626269107337
 20
67.220325974661364
 30
0.0
 11
147.03902011298371
 21
65.773112379161148
 31
0.0
  0
LINE
  5
173
  8
1外形線
 10
156.2626269107337
 20
67.220325974661364
 30
0.0
 11
155.53902011298371
 21
65.773112379161148
 31
0.0
  0
LINE
  5
174
  8
1外形線
 10
150.20984050623281
 20
65.496719176911483
 30
0.0
 11
155.0918065174838
 21
65.496719176911938
 31
0.0
  0
ARC
  5
175
  8
1外形線
 10
150.20984050623281
 20
65.996719176911483
 30
0.0
 40
0.5
 50
206.565051177078
 51
270.00000000000648
  0
ARC
  5
176
  8
1外形線
 10
146.59180651748369
 20
65.996719176911142
 30
0.0
 40
0.5
 50
270.00000000000648
 51
333.43494882292379
  0
LINE
  5
177
  8
1外形線
 10
156.40082351185771
 20
62.49671917691159
 30
0.0
 11
156.40082351185771
 21
60.998384456134197
 31
0.0
  0
ARC
  5
178
  8
1外形線
 10
155.09180651748369
 20
65.996719176911142
 30
0.0
 40
0.5
 50
270.00000000000648
 51
333.43494882292379
  0
ARC
  5
179
  8
1外形線
 10
151.90082351185751
 20
79.996719176911483
 30
0.0
 40
1.0
 50
0.0
 51
90.0
  0
LINE
  5
17A
  8
1外形線
 10
148.20984050623369
 20
67.49671917691137
 30
0.0
 11
148.59180651748281
 21
67.496719176911483
 31
0.0
  0
ARC
  5
17B
  8
1外形線
 10
148.59180651748289
 20
66.996719176911483
 30
0.0
 40
0.5
 50
26.565051177078718
 51
90.000000000006509
  0
ARC
  5
17C
  8
1外形線
 10
148.20984050623369
 20
66.99671917691137
 30
0.0
 40
0.5
 50
90.000000000009777
 51
153.4349488229245
  0
LINE
  5
17D
  8
1外形線
 10
152.90082351185751
 20
79.996719176911483
 30
0.0
 11
152.9008235118576
 21
74.496719176911483
 31
0.0
  0
ARC
  5
17E
  8
1外形線
 10
153.9008235118576
 20
74.496719176911483
 30
0.0
 40
1.0
 50
180.00000000000159
 51
270.0
  0
LINE
  5
17F
  8
1外形線
 10
127.2098405062318
 20
122.4967191769139
 30
0.0
 11
146.5918065174838
 21
122.4967191769118
 31
0.0
  0
LINE
  5
180
  8
1外形線
 10
117.40082351185769
 20
125.4967191769113
 30
0.0
 11
156.40082351185771
 21
125.4967191769113
 31
0.0
  0
LINE
  5
181
  8
1外形線
 10
151.90082351185751
 20
106.9967191769114
 30
0.0
 11
121.90082351185799
 21
106.9967191769114
 31
0.0
  0
ARC
  5
182
  8
1外形線
 10
123.59180651748269
 20
121.9967191769114
 30
0.0
 40
0.5
 50
26.565051177077979
 51
90.000000000006509
  0
LINE
  5
183
  8
1外形線
 10
120.90082351185799
 20
107.9967191769114
 30
0.0
 11
120.90082351185799
 21
113.4967191769114
 31
0.0
  0
ARC
  5
184
  8
1外形線
 10
121.90082351185799
 20
107.9967191769114
 30
0.0
 40
1.0
 50
180.0
 51
270.0
  0
ARC
  5
185
  8
1外形線
 10
118.7098405062317
 20
121.9967191769118
 30
0.0
 40
0.5
 50
90.000000000006509
 51
153.43494882292379
  0
LINE
  5
186
  8
1外形線
 10
117.0918065174818
 20
120.4967191769116
 30
0.0
 11
116.7098405062326
 21
120.4967191769114
 31
0.0
  0
LINE
  5
187
  8
1外形線
 10
116.26262691073271
 20
120.7731123791615
 30
0.0
 11
115.5390201129827
 21
122.22032597466131
 31
0.0
  0
ARC
  5
188
  8
1外形線
 10
116.7098405062325
 20
120.9967191769114
 30
0.0
 40
0.5
 50
206.56505117707869
 51
270.00000000000648
  0
ARC
  5
189
  8
1外形線
 10
115.09180651748269
 20
121.9967191769114
 30
0.0
 40
0.5
 50
26.565051177077979
 51
90.000000000006509
  0
LINE
  5
18A
  8
1外形線
 10
117.5390201129818
 20
120.7731123791615
 30
0.0
 11
118.2626269107317
 21
122.2203259746618
 31
0.0
  0
ARC
  5
18B
  8
1外形線
 10
117.0918065174818
 20
120.9967191769115
 30
0.0
 40
0.5
 50
270.00000000000892
 51
333.43494882292453
  0
ARC
  5
18C
  8
1外形線
 10
119.90082351185799
 20
113.4967191769114
 30
0.0
 40
1.0
 50
0.0
 51
90.0
  0
LINE
  5
18D
  8
1外形線
 10
118.7098405062319
 20
122.49671917691509
 30
0.0
 11
123.59180651748279
 21
122.4967191769144
 31
0.0
  0
LINE
  5
18E
  8
1外形線
 10
126.0390201129818
 20
120.7731123791615
 30
0.0
 11
126.7626269107317
 21
122.2203259746618
 31
0.0
  0
ARC
  5
18F
  8
1外形線
 10
127.2098405062317
 20
121.9967191769118
 30
0.0
 40
0.5
 50
90.000000000006509
 51
153.43494882292379
  0
LINE
  5
190
  8
1外形線
 10
124.76262691073261
 20
120.7731123791615
 30
0.0
 11
124.0390201129827
 21
122.22032597466131
 31
0.0
  0
LINE
  5
191
  8
1外形線
 10
125.5918065174818
 20
120.4967191769116
 30
0.0
 11
125.2098405062326
 21
120.4967191769114
 31
0.0
  0
ARC
  5
192
  8
1外形線
 10
125.2098405062325
 20
120.9967191769114
 30
0.0
 40
0.5
 50
206.56505117707869
 51
270.00000000000648
  0
ARC
  5
193
  8
1外形線
 10
125.5918065174818
 20
120.9967191769115
 30
0.0
 40
0.5
 50
270.00000000000892
 51
333.43494882292453
  0
ARC
  5
194
  8
1外形線
 10
116.90082351185769
 20
126.99505389768861
 30
0.0
 40
0.5
 50
0.0000000000065138
 51
90.0
  0
LINE
  5
195
  8
1外形線
 10
117.40082351185769
 20
125.4967191769113
 30
0.0
 11
117.40082351185769
 21
126.99505389768861
 31
0.0
  0
LINE
  5
196
  8
1外形線
 10
152.90082351185751
 20
107.9967191769114
 30
0.0
 11
152.9008235118576
 21
113.4967191769114
 31
0.0
  0
ARC
  5
197
  8
1外形線
 10
151.90082351185751
 20
107.9967191769114
 30
0.0
 40
1.0
 50
270.0
 51
0.0
  0
LINE
  5
198
  8
1外形線
 10
150.20984050623281
 20
122.4967191769114
 30
0.0
 11
155.0918065174838
 21
122.496719176911
 31
0.0
  0
LINE
  5
199
  8
1外形線
 10
149.0390201129828
 20
120.7731123791615
 30
0.0
 11
149.76262691073279
 21
122.22032597466131
 31
0.0
  0
ARC
  5
19A
  8
1外形線
 10
148.59180651748289
 20
120.9967191769114
 30
0.0
 40
0.5
 50
269.99999999999341
 51
333.43494882292129
  0
LINE
  5
19B
  8
1外形線
 10
148.20984050623369
 20
120.4967191769116
 30
0.0
 11
148.59180651748281
 21
120.4967191769114
 31
0.0
  0
ARC
  5
19C
  8
1外形線
 10
150.20984050623281
 20
121.9967191769114
 30
0.0
 40
0.5
 50
89.999999999993491
 51
153.43494882292191
  0
LINE
  5
19D
  8
1外形線
 10
147.7626269107337
 20
120.7731123791615
 30
0.0
 11
147.03902011298371
 21
122.2203259746618
 31
0.0
  0
ARC
  5
19E
  8
1外形線
 10
146.59180651748369
 20
121.9967191769118
 30
0.0
 40
0.5
 50
26.565051177076171
 51
89.999999999993491
  0
ARC
  5
19F
  8
1外形線
 10
148.20984050623369
 20
120.9967191769115
 30
0.0
 40
0.5
 50
206.56505117707539
 51
269.99999999999022
  0
LINE
  5
1A0
  8
1外形線
 10
156.2626269107337
 20
120.7731123791615
 30
0.0
 11
155.53902011298371
 21
122.2203259746618
 31
0.0
  0
ARC
  5
1A1
  8
1外形線
 10
155.09180651748369
 20
121.9967191769118
 30
0.0
 40
0.5
 50
26.565051177076171
 51
89.999999999993491
  0
ARC
  5
1A2
  8
1外形線
 10
153.9008235118576
 20
113.4967191769114
 30
0.0
 40
1.0
 50
90.0
 51
179.99999999999829
  0
LINE
  5
1A3
  8
1外形線
 10
156.40082351185771
 20
125.4967191769113
 30
0.0
 11
156.40082351185771
 21
126.99505389768861
 31
0.0
  0
LINE
  5
1A4
  8
1外形線
 10
79.718445857930874
 20
293.77653036471332
 30
0.0
 11
79.718445857930647
 21
242.77653036471341
 31
0.0
  0
CIRCLE
  5
1A5
  8
1外形線
 10
130.71844585793011
 20
268.27653036471332
 30
0.0
 40
24.0
  0
CIRCLE
  5
1A6
  8
1外形線
 10
130.71844585793011
 20
268.27653036471332
 30
0.0
 40
20.0
  0
ARC
  5
1A7
  8
1外形線
 10
88.977295459134211
 20
203.429787609915
 30
0.0
 40
8.0
 50
89.999999999998366
 51
178.2465951399283
  0
LINE
  5
1A8
  8
1外形線
 10
79.718445857930192
 20
162.429787609915
 30
0.0
 11
80.981041264817705
 21
203.67457090157771
 31
0.0
  0
ARC
  5
1A9
  8
1外形線
 10
89.718445857930647
 20
242.77653036471341
 30
0.0
 40
10.0
 50
180.0
 51
270.0
  0
ARC
  5
1AA
  8
1外形線
 10
89.718445857930874
 20
293.77653036471332
 30
0.0
 40
10.0
 50
90.0
 51
180.0
  0
LINE
  5
1AB
  8
1外形線
 10
204.9008235118576
 20
74.996719176911824
 30
0.0
 11
190.9008235118574
 21
74.996719176911711
 31
0.0
  0
LINE
  5
1AC
  8
1外形線
 10
196.3896664488617
 20
73.145603470611945
 30
0.0
 11
204.0003272308787
 21
73.906669548813852
 31
0.0
  0
LINE
  5
1AD
  8
1外形線
 10
204.9008235118576
 20
112.9967191769112
 30
0.0
 11
190.9008235118574
 21
112.9967191769112
 31
0.0
  0
LINE
  5
1AE
  8
1外形線
 10
196.3896664488617
 20
114.84783488321099
 30
0.0
 11
204.0003272308787
 21
114.0867688050091
 31
0.0
  0
LINE
  5
1AF
  8
1外形線
  6
CONTINUOUS
 10
189.90082351185771
 20
84.496719176911029
 30
0.0
 11
203.90082351185771
 21
84.496719176911142
 31
0.0
  0
LINE
  5
1B0
  8
1外形線
  6
CONTINUOUS
 10
189.90082351185771
 20
103.49671917691199
 30
0.0
 11
203.90082351185771
 21
103.49671917691209
 31
0.0
  0
LINE
  5
1B1
  8
1外形線
 10
189.90082351185751
 20
76.496719176911029
 30
0.0
 11
189.90082351185589
 21
111.49671917691199
 31
0.0
  0
LINE
  5
1B2
  8
1外形線
 10
187.40082351185751
 20
99.996719176911384
 30
0.0
 11
187.40082351185771
 21
87.99671917691137
 31
0.0
  0
LINE
  5
1B3
  8
1外形線
 10
178.8008235118576
 20
70.596719176911606
 30
0.0
 11
175.00082351185739
 21
70.596719176911392
 31
0.0
  0
LINE
  5
1B4
  8
1外形線
 10
175.00082351185739
 20
66.396719176911688
 30
0.0
 11
178.8008235118576
 21
66.396719176911574
 31
0.0
  0
ARC
  5
1B5
  8
1外形線
 10
177.90082351185751
 20
68.496719176911483
 30
0.0
 40
7.9983347207773932
 50
270.0
 51
359.99999999998897
  0
ARC
  5
1B6
  8
1外形線
 10
177.90082351185751
 20
68.496719176911483
 30
0.0
 40
10.0
 50
270.0
 51
359.99999999998897
  0
ARC
  5
1B7
  8
1外形線
 10
161.90082351185779
 20
66.496719176912848
 30
0.0
 40
1.0
 50
270.00000000000648
 51
0.0000000000052924
  0
ARC
  5
1B8
  8
1外形線
 10
175.00082351185739
 20
68.496719176911597
 30
0.0
 40
2.1000000000000001
 50
90.0
 51
270.0
  0
LINE
  5
1B9
  8
1外形線
 10
157.5390201129828
 20
67.220325974661364
 30
0.0
 11
158.26262691073279
 21
65.773112379161603
 31
0.0
  0
LINE
  5
1BA
  8
1外形線
 10
158.70984050623269
 20
65.496719176912393
 30
0.0
 11
161.90082351185791
 21
65.496719176912833
 31
0.0
  0
ARC
  5
1BB
  8
1外形線
 10
158.70984050623269
 20
65.996719176911483
 30
0.0
 40
0.5
 50
206.565051177078
 51
270.00000000000648
  0
LINE
  5
1BC
  8
1外形線
 10
175.4008235118576
 20
62.498384456134197
 30
0.0
 11
169.40082351185779
 21
62.498384456134197
 31
0.0
  0
LINE
  5
1BD
  8
1外形線
 10
169.40082351185799
 20
62.498384456134197
 30
0.0
 11
169.40082351185779
 21
60.49838445613409
 31
0.0
  0
LINE
  5
1BE
  8
1外形線
 10
175.4008235118576
 20
62.498384456134197
 30
0.0
 11
175.4008235118576
 21
60.49838445613431
 31
0.0
  0
LINE
  5
1BF
  8
1外形線
 10
156.70984050623369
 20
67.49671917691137
 30
0.0
 11
157.09180651748281
 21
67.496719176911483
 31
0.0
  0
ARC
  5
1C0
  8
1外形線
 10
157.09180651748289
 20
66.996719176911483
 30
0.0
 40
0.5
 50
26.565051177078718
 51
90.000000000006509
  0
LINE
  5
1C1
  8
1外形線
 10
162.90082351185779
 20
66.496719176912848
 30
0.0
 11
162.90082351185731
 21
72.496719176911711
 31
0.0
  0
ARC
  5
1C2
  8
1外形線
 10
161.90082351185731
 20
72.496719176911483
 30
0.0
 40
1.0
 50
0.0000000000044782
 51
90.0
  0
ARC
  5
1C3
  8
1外形線
 10
178.8008235118576
 20
68.496719176911597
 30
0.0
 40
2.1000000000000001
 50
270.0
 51
90.0
  0
ARC
  5
1C4
  8
1外形線
 10
190.9008235118574
 20
69.996719176911711
 30
0.0
 40
3.0
 50
90.0
 51
180.0
  0
ARC
  5
1C5
  8
1外形線
 10
188.9008235118568
 20
76.496719176911029
 30
0.0
 40
1.0
 50
269.9999999999967
 51
0.0
  0
ARC
  5
1C6
  8
1外形線
 10
190.9008235118574
 20
69.995053897689104
 30
0.0
 40
5.001665279222606
 50
90.0
 51
180.0
  0
LINE
  5
1C7
  8
1外形線
 10
187.901886556374
 20
68.495656132394288
 30
0.0
 11
187.901886556374
 21
69.996719176911483
 31
0.0
  0
ARC
  5
1C8
  8
1外形線
 10
186.89915823263351
 20
74.496719176911313
 30
0.0
 40
1.0
 50
89.999999999995936
 51
180.00000000000159
  0
LINE
  5
1C9
  8
1外形線
 10
185.89915823263439
 20
74.496719176911256
 30
0.0
 11
185.89915823263459
 21
68.496719176911483
 31
0.0
  0
LINE
  5
1CA
  8
1外形線
 10
188.9008235118568
 20
75.496719176911029
 30
0.0
 11
186.8991582326336
 21
75.496719176911142
 31
0.0
  0
ARC
  5
1CB
  8
1外形線
 10
193.4045548782311
 20
102.9967191769115
 30
0.0
 40
30.0
 50
270.0
 51
275.71059313750061
  0
LINE
  5
1CC
  8
1外形線
 10
193.4045548782311
 20
72.996719176911711
 30
0.0
 11
190.9008235118574
 21
72.996719176911711
 31
0.0
  0
LINE
  5
1CD
  8
1外形線
 10
178.8008235118576
 20
117.3967191769113
 30
0.0
 11
175.00082351185739
 21
117.3967191769115
 31
0.0
  0
LINE
  5
1CE
  8
1外形線
 10
175.00082351185739
 20
121.59671917691119
 30
0.0
 11
178.8008235118576
 21
121.59671917691129
 31
0.0
  0
ARC
  5
1CF
  8
1外形線
 10
177.90082351185751
 20
119.4967191769114
 30
0.0
 40
7.9983347207773932
 50
0.000000000010992
 51
90.0
  0
ARC
  5
1D0
  8
1外形線
 10
177.90082351185751
 20
119.4967191769114
 30
0.0
 40
10.0
 50
0.000000000010992
 51
90.0
  0
LINE
  5
1D1
  8
1外形線
 10
158.70984050623269
 20
122.4967191769105
 30
0.0
 11
161.90082351185791
 21
122.4967191769101
 31
0.0
  0
LINE
  5
1D2
  8
1外形線
 10
157.5390201129828
 20
120.7731123791615
 30
0.0
 11
158.26262691073279
 21
122.22032597466131
 31
0.0
  0
LINE
  5
1D3
  8
1外形線
 10
156.70984050623369
 20
120.4967191769116
 30
0.0
 11
157.09180651748281
 21
120.4967191769114
 31
0.0
  0
ARC
  5
1D4
  8
1外形線
 10
157.09180651748289
 20
120.9967191769114
 30
0.0
 40
0.5
 50
269.99999999999341
 51
333.43494882292129
  0
ARC
  5
1D5
  8
1外形線
 10
158.70984050623269
 20
121.9967191769114
 30
0.0
 40
0.5
 50
89.999999999993491
 51
153.43494882292191
  0
ARC
  5
1D6
  8
1外形線
 10
161.90082351185779
 20
121.4967191769101
 30
0.0
 40
1.0
 50
359.99999999999471
 51
89.999999999993491
  0
ARC
  5
1D7
  8
1外形線
 10
161.90082351185731
 20
115.4967191769114
 30
0.0
 40
1.0
 50
270.0
 51
359.99999999999551
  0
LINE
  5
1D8
  8
1外形線
 10
162.90082351185779
 20
121.4967191769101
 30
0.0
 11
162.90082351185731
 21
115.4967191769112
 31
0.0
  0
ARC
  5
1D9
  8
1外形線
 10
175.00082351185739
 20
119.4967191769113
 30
0.0
 40
2.1000000000000001
 50
90.0
 51
270.0
  0
LINE
  5
1DA
  8
1外形線
 10
175.4008235118576
 20
125.49505389768861
 30
0.0
 11
169.40082351185779
 21
125.49505389768861
 31
0.0
  0
LINE
  5
1DB
  8
1外形線
 10
169.40082351185799
 20
125.49505389768861
 30
0.0
 11
169.40082351185779
 21
127.49505389768881
 31
0.0
  0
LINE
  5
1DC
  8
1外形線
 10
175.4008235118576
 20
125.49505389768861
 30
0.0
 11
175.4008235118576
 21
127.49505389768839
 31
0.0
  0
ARC
  5
1DD
  8
1外形線
 10
190.9008235118574
 20
117.9967191769112
 30
0.0
 40
3.0
 50
180.0
 51
270.0
  0
ARC
  5
1DE
  8
1外形線
 10
188.9008235118568
 20
111.49671917691199
 30
0.0
 40
1.0
 50
0.0
 51
90.0
  0
ARC
  5
1DF
  8
1外形線
 10
190.9008235118574
 20
117.99838445613381
 30
0.0
 40
5.001665279222606
 50
180.0
 51
270.0
  0
ARC
  5
1E0
  8
1外形線
 10
178.8008235118576
 20
119.4967191769113
 30
0.0
 40
2.1000000000000001
 50
270.0
 51
90.0
  0
LINE
  5
1E1
  8
1外形線
 10
187.901886556374
 20
119.49778222142839
 30
0.0
 11
187.901886556374
 21
117.9967191769112
 31
0.0
  0
ARC
  5
1E2
  8
1外形線
 10
186.89915823263419
 20
113.4967191769119
 30
0.0
 40
1.0
 50
180.0
 51
270.0
  0
LINE
  5
1E3
  8
1外形線
 10
185.89915823263439
 20
119.4967191769114
 30
0.0
 11
185.89915823263419
 21
113.4967191769119
 31
0.0
  0
LINE
  5
1E4
  8
1外形線
 10
188.9008235118568
 20
112.49671917691199
 30
0.0
 11
186.89915823263419
 21
112.49671917691199
 31
0.0
  0
ARC
  5
1E5
  8
1外形線
 10
193.4045548782311
 20
84.996719176911355
 30
0.0
 40
30.0
 50
84.289406862499391
 51
90.0
  0
LINE
  5
1E6
  8
1外形線
 10
193.4045548782311
 20
114.9967191769112
 30
0.0
 11
190.9008235118574
 21
114.9967191769112
 31
0.0
  0
LINE
  5
1E7
  8
1外形線
 10
204.9008235118576
 20
113.091731614799
 30
0.0
 11
204.9008235118576
 21
74.901706739023894
 31
0.0
  0
LINE
  5
1E8
  8
1外形線
 10
204.90082351185771
 20
85.496719176911029
 30
0.0
 11
204.90082351185791
 21
102.4967191769115
 31
0.0
  0
ARC
  5
1E9
  8
1外形線
 10
203.9008235118576
 20
74.901706739023894
 30
0.0
 40
1.0
 50
275.71059313750061
 51
0.0
  0
ARC
  5
1EA
  8
1外形線
 10
203.90082351185771
 20
85.496719176911469
 30
0.0
 40
1.0
 50
270.0
 51
0.0
  0
ARC
  5
1EB
  8
1外形線
 10
203.90082351185771
 20
102.4967191769115
 30
0.0
 40
1.0
 50
0.0
 51
90.0
  0
ARC
  5
1EC
  8
1外形線
 10
203.9008235118576
 20
113.091731614799
 30
0.0
 40
1.0
 50
0.0
 51
84.289406862498566
  0
LINE
  5
1ED
  8
1外形線
 10
233.53405395328181
 20
162.429787609915
 30
0.0
 11
304.53405395328201
 21
162.42978760991511
 31
0.0
  0
LINE
  5
1EE
  8
1外形線
 10
295.27520435207799
 20
211.42978760991329
 30
0.0
 11
242.79290355448609
 21
211.429787609915
 31
0.0
  0
LINE
  5
1EF
  8
1外形線
 10
198.71844585792999
 20
287.37154280260091
 30
0.0
 11
198.71844585792999
 21
249.18151792682571
 31
0.0
  0
LINE
  5
1F0
  8
1外形線
 10
181.71844585792991
 20
293.7765303647156
 30
0.0
 11
181.71844585792991
 21
242.77653036471341
 31
0.0
  0
ARC
  5
1F1
  8
1外形線
 10
172.45959625672609
 20
203.429787609915
 30
0.0
 40
8.0
 50
2.6052512650524822
 51
90.000000000001606
  0
LINE
  5
1F2
  8
1外形線
  6
CONTINUOUS
 10
198.71844585793011
 20
162.429787609915
 30
0.0
 11
198.71844585792991
 21
199.02480004780639
 31
0.0
  0
LINE
  5
1F3
  8
1外形線
 10
181.71844585793011
 20
162.429787609915
 30
0.0
 11
180.45345956823871
 21
203.75267307317179
 31
0.0
  0
ARC
  5
1F4
  8
1外形線
 10
187.22217722430321
 20
170.92978760991841
 30
0.0
 40
30.0
 50
84.289406862500243
 51
90.0
  0
LINE
  5
1F5
  8
1外形線
  6
CONTINUOUS
 10
183.4482267446441
 20
200.92978760991409
 30
0.0
 11
187.22217722430321
 21
200.929787609914
 31
0.0
  0
ARC
  5
1F6
  8
1外形線
 10
183.4482267446441
 20
203.92978760991409
 30
0.0
 40
3.0
 50
182.6052512650528
 51
269.9999999999992
  0
LINE
  5
1F7
  8
1外形線
 10
190.20728879493331
 20
200.78090331621831
 30
0.0
 11
197.81794957695081
 21
200.01983723801649
 31
0.0
  0
ARC
  5
1F8
  8
1外形線
 10
197.71844585792979
 20
199.02480004780639
 30
0.0
 40
1.0
 50
0.0
 51
84.289406862500243
  0
ARC
  5
1F9
  8
1外形線
 10
171.71844585792991
 20
242.77653036471341
 30
0.0
 40
10.0
 50
270.0
 51
359.99999999998897
  0
ARC
  5
1FA
  8
1外形線
 10
187.22217722430349
 20
277.27653036471349
 30
0.0
 40
30.0
 50
270.0
 51
275.71059313750061
  0
ARC
  5
1FB
  8
1外形線
 10
184.71844585792991
 20
244.27653036471381
 30
0.0
 40
3.0
 50
90.0
 51
180.0
  0
LINE
  5
1FC
  8
1外形線
 10
187.22217722430349
 20
247.27653036471381
 30
0.0
 11
184.71844585792991
 21
247.27653036471381
 31
0.0
  0
LINE
  5
1FD
  8
1外形線
 10
190.2072887949341
 20
247.42541465841381
 30
0.0
 11
197.81794957695109
 21
248.18648073661569
 31
0.0
  0
ARC
  5
1FE
  8
1外形線
 10
197.71844585792999
 20
249.18151792682571
 30
0.0
 40
1.0
 50
275.71059313750061
 51
0.0
  0
ARC
  5
1FF
  8
1外形線
 10
242.7929035544858
 20
203.429787609915
 30
0.0
 40
8.0
 50
89.999999999998366
 51
178.2465951399283
  0
LINE
  5
200
  8
1外形線
 10
233.53405395328181
 20
162.429787609915
 30
0.0
 11
234.7966493601694
 21
203.67457090157771
 31
0.0
  0
ARC
  5
201
  8
1外形線
 10
171.71844585792991
 20
293.77653036471332
 30
0.0
 40
10.0
 50
0.000000000010992
 51
90.0
  0
ARC
  5
202
  8
1外形線
 10
187.22217722430349
 20
259.27653036471321
 30
0.0
 40
30.0
 50
84.289406862499391
 51
90.0
  0
ARC
  5
203
  8
1外形線
 10
184.71844585792991
 20
292.27653036471332
 30
0.0
 40
3.0
 50
180.0
 51
270.0
  0
LINE
  5
204
  8
1外形線
 10
187.22217722430349
 20
289.27653036471332
 30
0.0
 11
184.71844585792991
 21
289.27653036471332
 31
0.0
  0
LINE
  5
205
  8
1外形線
 10
190.2072887949341
 20
289.12764607101292
 30
0.0
 11
197.81794957695109
 21
288.36657999281101
 31
0.0
  0
ARC
  5
206
  8
1外形線
 10
197.71844585792999
 20
287.37154280260091
 30
0.0
 40
1.0
 50
0.0
 51
84.289406862498566
  0
LINE
  5
207
  8
1外形線
 62
     3
 10
283.03405395328178
 20
164.92978760991491
 30
0.0
 11
288.03405395328178
 21
164.92978760991491
 31
0.0
  0
ARC
  5
208
  8
1外形線
 10
269.03405395328218
 20
179.929787609915
 30
0.0
 40
21.0
 50
0.0
 51
180.0
  0
ARC
  5
209
  8
1外形線
 10
269.03405395328218
 20
179.929787609915
 30
0.0
 40
19.0
 50
0.0
 51
180.0
  0
LINE
  5
20A
  8
1外形線
  6
CONTINUOUS
 62
     3
 10
261.03405395328178
 20
166.92978760991511
 30
0.0
 11
277.03405395328178
 21
166.92978760991511
 31
0.0
  0
LINE
  5
20B
  8
1外形線
 62
     3
 10
259.53405395328178
 20
164.92978760991511
 30
0.0
 11
278.53405395328139
 21
164.92978760991511
 31
0.0
  0
LINE
  5
20C
  8
1外形線
 62
     3
 10
250.03405395328181
 20
164.92978760991511
 30
0.0
 11
255.03405395328289
 21
164.92978760991511
 31
0.0
  0
LINE
  5
20D
  8
1外形線
 10
248.03405395328181
 20
162.429787609915
 30
0.0
 11
248.03405395328181
 21
179.929787609915
 31
0.0
  0
LINE
  5
20E
  8
1外形線
 10
250.03405395328181
 20
162.429787609915
 30
0.0
 11
250.03405395328181
 21
179.929787609915
 31
0.0
  0
LINE
  5
20F
  8
1外形線
  6
CONTINUOUS
 62
     3
 10
261.03405395328178
 20
168.42978760991511
 30
0.0
 11
261.03405395328178
 21
166.92978760991511
 31
0.0
  0
LINE
  5
210
  8
1外形線
  6
CONTINUOUS
 62
     3
 10
259.53405395328178
 20
168.42978760991511
 30
0.0
 11
259.53405395328178
 21
164.92978760991511
 31
0.0
  0
ARC
  5
211
  8
1外形線
 62
     3
 10
256.03405395328269
 20
167.42978760991491
 30
0.0
 40
1.0
 50
90.0
 51
180.00000000000281
  0
LINE
  5
212
  8
1外形線
 62
     3
 10
255.03405395328269
 20
167.42978760991491
 30
0.0
 11
255.03405395328289
 21
164.92978760991511
 31
0.0
  0
LINE
  5
213
  8
1外形線
  6
CONTINUOUS
 62
     3
 10
256.03405395328269
 20
168.42978760991491
 30
0.0
 11
261.03405395328178
 21
168.42978760991511
 31
0.0
  0
ARC
  5
214
  8
1外形線
 62
     3
 10
282.0340539532819
 20
167.42978760991491
 30
0.0
 40
1.0
 50
359.9999999999971
 51
90.0
  0
LINE
  5
215
  8
1外形線
  6
CONTINUOUS
 62
     3
 10
277.03405395328178
 20
168.42978760991511
 30
0.0
 11
277.03405395328178
 21
166.92978760991511
 31
0.0
  0
LINE
  5
216
  8
1外形線
  6
CONTINUOUS
 62
     3
 10
278.53405395328178
 20
168.42978760991511
 30
0.0
 11
278.53405395328178
 21
164.92978760991511
 31
0.0
  0
LINE
  5
217
  8
1外形線
 62
     3
 10
283.0340539532819
 20
167.42978760991491
 30
0.0
 11
283.03405395328178
 21
164.92978760991511
 31
0.0
  0
LINE
  5
218
  8
1外形線
  6
CONTINUOUS
 62
     3
 10
282.0340539532819
 20
168.42978760991491
 30
0.0
 11
277.03405395328178
 21
168.42978760991511
 31
0.0
  0
ARC
  5
219
  8
1外形線
 10
295.27520435207782
 20
203.429787609915
 30
0.0
 40
8.0
 50
1.7534048600717049
 51
89.999999999998366
  0
LINE
  5
21A
  8
1外形線
 10
304.53405395328201
 20
162.42978760991511
 30
0.0
 11
303.27145854639417
 21
203.67457090157771
 31
0.0
  0
LINE
  5
21B
  8
1外形線
 10
290.03405395328178
 20
162.429787609915
 30
0.0
 11
290.03405395328178
 21
179.929787609915
 31
0.0
  0
LINE
  5
21C
  8
1外形線
 10
288.03405395328178
 20
162.429787609915
 30
0.0
 11
288.03405395328178
 21
179.929787609915
 31
0.0
  0
ENDSEC
  0
EOF
