  0
SECTION
  2
HEADER
  9
$ACADVER
  1
AC1009
  9
$INSBASE
 10
0.0
 20
0.0
 30
0.0
  9
$EXTMIN
 10
51.142524361636731
 20
33.597664115557052
 30
0.0
  9
$EXTMAX
 10
272.83204068537668
 20
297.74649201807171
 30
0.0
  9
$LIMMIN
 10
0.0
 20
0.0
  9
$LIMMAX
 10
420.0
 20
297.0
  9
$ORTHOMODE
 70
     0
  9
$REGENMODE
 70
     1
  9
$FILLMODE
 70
     1
  9
$QTEXTMODE
 70
     0
  9
$MIRRTEXT
 70
     1
  9
$DRAGMODE
 70
     2
  9
$LTSCALE
 40
1.0
  9
$OSMODE
 70
    37
  9
$ATTMODE
 70
     1
  9
$TEXTSIZE
 40
2.5
  9
$TRACEWID
 40
1.0
  9
$TEXTSTYLE
  7
STANDARD
  9
$CLAYER
  8
0
  9
$CELTYPE
  6
BYLAYER
  9
$CECOLOR
 62
   256
  9
$DIMSCALE
 40
1.0
  9
$DIMASZ
 40
2.5
  9
$DIMEXO
 40
0.625
  9
$DIMDLI
 40
3.75
  9
$DIMRND
 40
0.0
  9
$DIMDLE
 40
0.0
  9
$DIMEXE
 40
1.25
  9
$DIMTP
 40
0.0
  9
$DIMTM
 40
0.0
  9
$DIMTXT
 40
2.5
  9
$DIMCEN
 40
2.5
  9
$DIMTSZ
 40
0.0
  9
$DIMTOL
 70
     0
  9
$DIMLIM
 70
     0
  9
$DIMTIH
 70
     0
  9
$DIMTOH
 70
     0
  9
$DIMSE1
 70
     0
  9
$DIMSE2
 70
     0
  9
$DIMTAD
 70
     1
  9
$DIMZIN
 70
     8
  9
$DIMBLK
  1

  9
$DIMASO
 70
     1
  9
$DIMSHO
 70
     1
  9
$DIMPOST
  1

  9
$DIMAPOST
  1

  9
$DIMALT
 70
     0
  9
$DIMALTD
 70
     3
  9
$DIMALTF
 40
0.03937007874016
  9
$DIMLFAC
 40
1.0
  9
$DIMTOFL
 70
     1
  9
$DIMTVP
 40
0.0
  9
$DIMTIX
 70
     0
  9
$DIMSOXD
 70
     0
  9
$DIMSAH
 70
     0
  9
$DIMBLK1
  1

  9
$DIMBLK2
  1

  9
$DIMSTYLE
  2
ISO-25
  9
$DIMCLRD
 70
     0
  9
$DIMCLRE
 70
     0
  9
$DIMCLRT
 70
     0
  9
$DIMTFAC
 40
1.0
  9
$DIMGAP
 40
0.625
  9
$LUNITS
 70
     2
  9
$LUPREC
 70
     4
  9
$SKETCHINC
 40
1.0
  9
$FILLETRAD
 40
10.0
  9
$AUNITS
 70
     0
  9
$AUPREC
 70
     0
  9
$MENU
  1
.
  9
$ELEVATION
 40
0.0
  9
$PELEVATION
 40
0.0
  9
$THICKNESS
 40
0.0
  9
$LIMCHECK
 70
     0
  9
$BLIPMODE
 70
     0
  9
$CHAMFERA
 40
10.0
  9
$CHAMFERB
 40
10.0
  9
$SKPOLY
 70
     0
  9
$TDCREATE
 40
2452451.5889723841
  9
$TDUPDATE
 40
2452451.5891186572
  9
$TDINDWG
 40
0.0001463889
  9
$TDUSRTIMER
 40
0.0001463889
  9
$USRTIMER
 70
     1
  9
$ANGBASE
 50
0.0
  9
$ANGDIR
 70
     0
  9
$PDMODE
 70
     0
  9
$PDSIZE
 40
0.0
  9
$PLINEWID
 40
0.0
  9
$COORDS
 70
     1
  9
$SPLFRAME
 70
     0
  9
$SPLINETYPE
 70
     6
  9
$SPLINESEGS
 70
     8
  9
$ATTDIA
 70
     0
  9
$ATTREQ
 70
     1
  9
$HANDLING
 70
-16383
  9
$HANDSEED
  5
224
  9
$SURFTAB1
 70
     6
  9
$SURFTAB2
 70
     6
  9
$SURFTYPE
 70
     6
  9
$SURFU
 70
     6
  9
$SURFV
 70
     6
  9
$UCSNAME
  2

  9
$UCSORG
 10
0.0
 20
0.0
 30
0.0
  9
$UCSXDIR
 10
1.0
 20
0.0
 30
0.0
  9
$UCSYDIR
 10
0.0
 20
1.0
 30
0.0
  9
$PUCSNAME
  2

  9
$PUCSORG
 10
0.0
 20
0.0
 30
0.0
  9
$PUCSXDIR
 10
1.0
 20
0.0
 30
0.0
  9
$PUCSYDIR
 10
0.0
 20
1.0
 30
0.0
  9
$USERI1
 70
     0
  9
$USERI2
 70
     0
  9
$USERI3
 70
     0
  9
$USERI4
 70
     0
  9
$USERI5
 70
     0
  9
$USERR1
 40
0.0
  9
$USERR2
 40
0.0
  9
$USERR3
 40
0.0
  9
$USERR4
 40
0.0
  9
$USERR5
 40
0.0
  9
$WORLDVIEW
 70
     1
  9
$SHADEDGE
 70
     3
  9
$SHADEDIF
 70
    70
  9
$TILEMODE
 70
     1
  9
$MAXACTVP
 70
    64
  9
$PLIMCHECK
 70
     0
  9
$PEXTMIN
 10
1.0000000000000000E+020
 20
1.0000000000000000E+020
 30
1.0000000000000000E+020
  9
$PEXTMAX
 10
-1.0000000000000000E+020
 20
-1.0000000000000000E+020
 30
-1.0000000000000000E+020
  9
$PLIMMIN
 10
0.0
 20
0.0
  9
$PLIMMAX
 10
420.0
 20
297.0
  9
$UNITMODE
 70
     0
  9
$VISRETAIN
 70
     1
  9
$PLINEGEN
 70
     0
  9
$PSLTSCALE
 70
     1
  0
ENDSEC
  0
SECTION
  2
TABLES
  0
TABLE
  2
VPORT
 70
     3
  0
VPORT
  2
*ACTIVE
 70
     0
 10
0.0
 20
0.0
 11
1.0
 21
1.0
 12
209.99999999999989
 22
159.7959183673469
 13
0.0
 23
0.0
 14
10.0
 24
10.0
 15
10.0
 25
10.0
 16
0.0
 26
0.0
 36
1.0
 17
0.0
 27
0.0
 37
0.0
 40
319.5918367346938
 41
1.3141762452107271
 42
50.0
 43
0.0
 44
0.0
 50
0.0
 51
0.0
 71
     0
 72
   100
 73
     1
 74
     3
 75
     0
 76
     0
 77
     0
 78
     0
  0
ENDTAB
  0
TABLE
  2
LTYPE
 70
     1
  0
LTYPE
  2
CONTINUOUS
 70
     0
  3
Solid line
 72
    65
 73
     0
 40
0.0
  0
ENDTAB
  0
TABLE
  2
LAYER
 70
     2
  0
LAYER
  2
0
 70
     0
 62
     7
  6
CONTINUOUS
  0
LAYER
  2
1外形線
 70
     0
 62
     3
  6
CONTINUOUS
  0
ENDTAB
  0
TABLE
  2
STYLE
 70
     2
  0
STYLE
  2
STANDARD
 70
     0
 40
0.0
 41
1.0
 50
0.0
 71
     0
 42
2.5
  3
txt
  4

  0
STYLE
  2
KANJI
 70
     0
 40
0.0
 41
1.0
 50
0.0
 71
     0
 42
2.0
  3
simplex
  4
bigfont
  0
ENDTAB
  0
TABLE
  2
VIEW
 70
     0
  0
ENDTAB
  0
TABLE
  2
UCS
 70
     0
  0
ENDTAB
  0
TABLE
  2
APPID
 70
     1
  0
APPID
  2
ACAD
 70
     0
  0
ENDTAB
  0
TABLE
  2
DIMSTYLE
 70
     2
  0
DIMSTYLE
  2
ISO-25
 70
     0
  3

  4

  5

  6

  7

 40
1.0
 41
2.5
 42
0.625
 43
3.75
 44
1.25
 45
0.0
 46
0.0
 47
0.0
 48
0.0
140
2.5
141
2.5
142
0.0
143
0.03937007874016
144
1.0
145
0.0
146
1.0
147
0.625
 71
     0
 72
     0
 73
     0
 74
     0
 75
     0
 76
     0
 77
     1
 78
     8
170
     0
171
     3
172
     1
173
     0
174
     0
175
     0
176
     0
177
     0
178
     0
  0
DIMSTYLE
  2
STANDARD
 70
     0
  3

  4

  5

  6
1
  7
1
 40
1.0
 41
1.0
 42
1.0
 43
6.0
 44
1.0
 45
0.0
 46
0.0
 47
0.0
 48
0.0
140
2.5
141
0.0
142
0.0
143
25.399999999999999
144
1.0
145
0.0
146
1.0
147
0.5
 71
     0
 72
     0
 73
     0
 74
     0
 75
     0
 76
     0
 77
     1
 78
     8
170
     0
171
     2
172
     1
173
     1
174
     0
175
     0
176
     0
177
     0
178
     0
  0
ENDTAB
  0
ENDSEC
  0
SECTION
  2
BLOCKS
  0
BLOCK
  8
0
  2
$MODEL_SPACE
 70
     0
 10
0.0
 20
0.0
 30
0.0
  3
$MODEL_SPACE
  1

  0
ENDBLK
  5
21
  8
0
  0
BLOCK
 67
     1
  8
0
  2
$PAPER_SPACE
 70
     0
 10
0.0
 20
0.0
 30
0.0
  3
$PAPER_SPACE
  1

  0
ENDBLK
  5
1D
 67
     1
  8
0
  0
BLOCK
  8
0
  2
1
 70
     0
 10
0.0
 20
0.0
 30
0.0
  3
1
  1

  0
SOLID
  5
2C
  8
0
  6
BYBLOCK
 62
     0
 10
-1.811110924292052
 20
0.4852857095671653
 30
0.0
 11
-1.811110924292052
 21
-0.4852857095673642
 31
0.0
 12
0.0
 22
0.0
 32
0.0
 13
0.0
 23
0.0
 33
0.0
  0
ENDBLK
  5
2E
  8
0
  0
ENDSEC
  0
SECTION
  2
ENTITIES
  0
ARC
  5
12A
  8
1外形線
 10
210.8300360987609
 20
185.97455114005851
 30
0.0
 40
8.0
 50
90.000000000003254
 51
178.46565850029901
  0
LINE
  5
12B
  8
1外形線
 10
201.5414524296724
 20
137.97455114005831
 30
0.0
 11
272.5414524296728
 21
137.9745511400582
 31
0.0
  0
LINE
  5
12C
  8
1外形線
 10
117.52260916787679
 20
99.668731927422527
 30
0.0
 11
122.4045751791278
 21
99.668731927422073
 31
0.0
  0
LINE
  5
12D
  8
1外形線
 10
84.713592173501738
 20
102.6687319274224
 30
0.0
 11
123.7135921735017
 21
102.6687319274224
 31
0.0
  0
LINE
  5
12E
  8
1外形線
 10
119.2135921735015
 20
84.168731927422527
 30
0.0
 11
89.213592173501979
 21
84.168731927422527
 31
0.0
  0
LINE
  5
12F
  8
1外形線
 10
117.52260916787679
 20
42.66873192742252
 30
0.0
 11
122.4045751791278
 21
42.668731927422982
 31
0.0
  0
LINE
  5
130
  8
1外形線
 10
84.713592173501738
 20
39.668731927422641
 30
0.0
 11
123.7135921735017
 21
39.668731927422641
 31
0.0
  0
LINE
  5
131
  8
1外形線
 10
119.2135921735015
 20
58.168731927422527
 30
0.0
 11
89.213592173501979
 21
58.168731927422527
 31
0.0
  0
LINE
  5
132
  8
1外形線
 10
63.213592173501979
 20
106.6687319274225
 30
0.0
 11
145.2135921735015
 21
106.6687319274225
 31
0.0
  0
LINE
  5
133
  8
1外形線
 10
63.213592173501979
 20
104.66706664819991
 30
0.0
 11
145.2135921735015
 21
104.66706664819991
 31
0.0
  0
LINE
  5
134
  8
1外形線
 10
63.213592173501979
 20
35.668731927422527
 30
0.0
 11
145.2135921735017
 21
35.668731927422527
 31
0.0
  0
LINE
  5
135
  8
1外形線
 10
63.213592173501979
 20
37.670397206645127
 30
0.0
 11
145.2135921735017
 21
37.670397206645127
 31
0.0
  0
LINE
  5
136
  8
1外形線
 10
53.213592173502427
 20
96.668731927422527
 30
0.0
 11
53.2135921735022
 21
45.66873192742252
 31
0.0
  0
LINE
  5
137
  8
1外形線
 10
55.215257452725041
 20
96.668731927422527
 30
0.0
 11
55.215257452724813
 21
45.66873192742252
 31
0.0
  0
ARC
  5
138
  8
1外形線
 10
63.2135921735022
 20
45.66873192742252
 30
0.0
 40
10.0
 50
180.0
 51
270.0
  0
ARC
  5
139
  8
1外形線
 10
66.11359217350207
 20
45.668731927422641
 30
0.0
 40
2.1000000000000001
 50
270.0
 51
90.0
  0
ARC
  5
13A
  8
1外形線
 10
62.313592173501881
 20
45.668731927422641
 30
0.0
 40
2.1000000000000001
 50
90.0
 51
270.0
  0
LINE
  5
13B
  8
1外形線
 10
66.11359217350207
 20
43.568731927422732
 30
0.0
 11
62.313592173501881
 21
43.568731927422618
 31
0.0
  0
ARC
  5
13C
  8
1外形線
 10
63.2135921735022
 20
45.66873192742252
 30
0.0
 40
7.9983347207773932
 50
180.0
 51
270.0
  0
LINE
  5
13D
  8
1外形線
 10
65.713592173501866
 20
39.670397206645248
 30
0.0
 11
71.713592173501638
 21
39.670397206645248
 31
0.0
  0
LINE
  5
13E
  8
1外形線
 10
65.713592173501866
 20
39.670397206645248
 30
0.0
 11
65.713592173501866
 21
37.670397206645362
 31
0.0
  0
LINE
  5
13F
  8
1外形線
 10
71.713592173501411
 20
39.670397206645248
 30
0.0
 11
71.713592173501638
 21
37.670397206645127
 31
0.0
  0
LINE
  5
140
  8
1外形線
 10
62.313592173501881
 20
47.768731927422657
 30
0.0
 11
66.11359217350207
 21
47.768731927422429
 31
0.0
  0
ARC
  5
141
  8
1外形線
 10
63.213592173502427
 20
96.668731927422527
 30
0.0
 40
10.0
 50
90.0
 51
180.0
  0
ARC
  5
142
  8
1外形線
 10
63.213592173502427
 20
96.668731927422527
 30
0.0
 40
7.9983347207773932
 50
90.0
 51
180.0
  0
LINE
  5
143
  8
1外形線
 10
66.11359217350207
 20
98.768731927422323
 30
0.0
 11
62.313592173501881
 21
98.768731927422451
 31
0.0
  0
LINE
  5
144
  8
1外形線
 10
62.313592173501881
 20
94.568731927422391
 30
0.0
 11
66.11359217350207
 21
94.568731927422618
 31
0.0
  0
ARC
  5
145
  8
1外形線
 10
62.313592173501881
 20
96.668731927422414
 30
0.0
 40
2.1000000000000001
 50
90.0
 51
270.0
  0
LINE
  5
146
  8
1外形線
 10
65.713592173501866
 20
102.66706664819959
 30
0.0
 11
71.713592173501638
 21
102.66706664819959
 31
0.0
  0
ARC
  5
147
  8
1外形線
 10
66.11359217350207
 20
96.668731927422414
 30
0.0
 40
2.1000000000000001
 50
270.0
 51
90.0
  0
LINE
  5
148
  8
1外形線
 10
65.713592173501866
 20
102.66706664819959
 30
0.0
 11
65.713592173501866
 21
104.66706664819939
 31
0.0
  0
LINE
  5
149
  8
1外形線
 10
71.713592173501411
 20
102.66706664819959
 30
0.0
 11
71.713592173501638
 21
104.66706664819991
 31
0.0
  0
LINE
  5
14A
  8
1外形線
 10
94.522609167875885
 20
42.668731927420033
 30
0.0
 11
113.9045751791278
 21
42.668731927422179
 31
0.0
  0
LINE
  5
14B
  8
1外形線
 10
78.213592173501752
 20
43.668731927423892
 30
0.0
 11
78.213592173502207
 21
49.668731927422762
 31
0.0
  0
LINE
  5
14C
  8
1外形線
 10
84.851788774625774
 20
44.392338725172408
 30
0.0
 11
85.575395572375783
 21
42.945125129672192
 31
0.0
  0
LINE
  5
14D
  8
1外形線
 10
79.213592173501866
 20
42.668731927418087
 30
0.0
 11
82.404575179126823
 21
42.668731927418428
 31
0.0
  0
ARC
  5
14E
  8
1外形線
 10
79.213592173501752
 20
43.668731927423892
 30
0.0
 40
1.0
 50
179.99999999999471
 51
269.99999999999341
  0
LINE
  5
14F
  8
1外形線
 10
84.713592173501738
 20
39.668731927422641
 30
0.0
 11
84.713592173501738
 21
38.170397206645241
 31
0.0
  0
ARC
  5
150
  8
1外形線
 10
84.213592173501752
 20
38.170397206645241
 30
0.0
 40
0.5
 50
270.0
 51
359.99999999999341
  0
ARC
  5
151
  8
1外形線
 10
84.4045751791258
 20
44.168731927422407
 30
0.0
 40
0.5
 50
26.565051177075802
 51
89.999999999990223
  0
ARC
  5
152
  8
1外形線
 10
84.022609167876567
 20
44.168731927422527
 30
0.0
 40
0.5
 50
89.999999999993491
 51
153.4349488229218
  0
LINE
  5
153
  8
1外形線
 10
83.575395572376706
 20
44.392338725172408
 30
0.0
 11
82.851788774626684
 21
42.945125129672647
 31
0.0
  0
LINE
  5
154
  8
1外形線
 10
84.4045751791258
 20
44.668731927422407
 30
0.0
 11
84.022609167876681
 21
44.66873192742252
 31
0.0
  0
ARC
  5
155
  8
1外形線
 10
82.404575179126724
 20
43.16873192742252
 30
0.0
 40
0.5
 50
269.99999999999341
 51
333.43494882292168
  0
LINE
  5
156
  8
1外形線
 10
86.022609167875885
 20
42.668731927418889
 30
0.0
 11
90.904575179126823
 21
42.668731927419557
 31
0.0
  0
ARC
  5
157
  8
1外形線
 10
86.022609167875757
 20
43.168731927422179
 30
0.0
 40
0.5
 50
206.5650511770763
 51
269.99999999999341
  0
ARC
  5
158
  8
1外形線
 10
94.522609167875785
 20
43.168731927422179
 30
0.0
 40
0.5
 50
206.5650511770763
 51
269.99999999999341
  0
ARC
  5
159
  8
1外形線
 10
92.9045751791258
 20
44.168731927422407
 30
0.0
 40
0.5
 50
26.565051177075802
 51
89.999999999990223
  0
LINE
  5
15A
  8
1外形線
 10
92.9045751791258
 20
44.668731927422407
 30
0.0
 11
92.522609167876666
 21
44.66873192742252
 31
0.0
  0
ARC
  5
15B
  8
1外形線
 10
92.522609167876567
 20
44.168731927422527
 30
0.0
 40
0.5
 50
89.999999999993491
 51
153.4349488229218
  0
LINE
  5
15C
  8
1外形線
 10
92.075395572376692
 20
44.392338725172408
 30
0.0
 11
91.351788774626684
 21
42.945125129672647
 31
0.0
  0
ARC
  5
15D
  8
1外形線
 10
90.904575179126709
 20
43.16873192742252
 30
0.0
 40
0.5
 50
269.99999999999341
 51
333.43494882292168
  0
LINE
  5
15E
  8
1外形線
 10
93.351788774625788
 20
44.392338725172408
 30
0.0
 11
94.075395572375783
 21
42.945125129672192
 31
0.0
  0
LINE
  5
15F
  8
1外形線
 10
87.213592173501965
 20
50.668731927422527
 30
0.0
 11
79.213592173502207
 21
50.668731927422527
 31
0.0
  0
ARC
  5
160
  8
1外形線
 10
79.213592173502207
 20
49.66873192742252
 30
0.0
 40
1.0
 50
90.0
 51
179.99999999999551
  0
LINE
  5
161
  8
1外形線
 10
88.213592173501965
 20
57.16873192742252
 30
0.0
 11
88.213592173501965
 21
51.668731927422527
 31
0.0
  0
ARC
  5
162
  8
1外形線
 10
87.213592173501965
 20
51.668731927422527
 30
0.0
 40
1.0
 50
270.0
 51
0.0
  0
ARC
  5
163
  8
1外形線
 10
89.213592173501979
 20
57.16873192742252
 30
0.0
 40
1.0
 50
90.0
 51
180.0
  0
ARC
  5
164
  8
1外形線
 10
117.52260916787679
 20
43.16873192742252
 30
0.0
 40
0.5
 50
206.56505117707809
 51
270.00000000000648
  0
LINE
  5
165
  8
1外形線
 10
116.3517887746268
 20
44.392338725172408
 30
0.0
 11
117.07539557237681
 21
42.945125129672647
 31
0.0
  0
ARC
  5
166
  8
1外形線
 10
115.5226091678777
 20
44.168731927422407
 30
0.0
 40
0.5
 50
90.000000000009777
 51
153.4349488229241
  0
LINE
  5
167
  8
1外形線
 10
115.0753955723777
 20
44.392338725172408
 30
0.0
 11
114.35178877462771
 21
42.945125129672192
 31
0.0
  0
ARC
  5
168
  8
1外形線
 10
113.9045751791277
 20
43.168731927422179
 30
0.0
 40
0.5
 50
270.00000000000648
 51
333.43494882292362
  0
LINE
  5
169
  8
1外形線
 10
115.5226091678777
 20
44.668731927422407
 30
0.0
 11
115.90457517912679
 21
44.66873192742252
 31
0.0
  0
ARC
  5
16A
  8
1外形線
 10
115.90457517912689
 20
44.168731927422527
 30
0.0
 40
0.5
 50
26.56505117707853
 51
90.000000000006509
  0
CIRCLE
  5
16B
  8
1外形線
 62
     3
 10
104.2135921735017
 20
71.168731927422527
 30
0.0
 40
2.1000000000000001
  0
LINE
  5
16C
  8
1外形線
 10
94.522609167875885
 20
99.668731927425043
 30
0.0
 11
113.9045751791278
 21
99.668731927422868
 31
0.0
  0
LINE
  5
16D
  8
1外形線
 10
84.851788774625774
 20
97.945125129672661
 30
0.0
 11
85.575395572375783
 21
99.392338725172863
 31
0.0
  0
LINE
  5
16E
  8
1外形線
 10
87.213592173501965
 20
91.668731927422527
 30
0.0
 11
79.213592173502207
 21
91.668731927422527
 31
0.0
  0
LINE
  5
16F
  8
1外形線
 10
79.213592173501866
 20
99.668731927426961
 30
0.0
 11
82.404575179126823
 21
99.66873192742662
 31
0.0
  0
LINE
  5
170
  8
1外形線
 10
78.213592173501752
 20
98.668731927421163
 30
0.0
 11
78.213592173502207
 21
92.668731927422286
 31
0.0
  0
ARC
  5
171
  8
1外形線
 10
79.213592173502207
 20
92.668731927422513
 30
0.0
 40
1.0
 50
180.00000000000441
 51
270.0
  0
ARC
  5
172
  8
1外形線
 10
79.213592173501752
 20
98.668731927421163
 30
0.0
 40
1.0
 50
90.000000000006509
 51
180.0000000000052
  0
LINE
  5
173
  8
1外形線
 10
84.713592173501738
 20
102.6687319274224
 30
0.0
 11
84.713592173501738
 21
104.16706664819969
 31
0.0
  0
ARC
  5
174
  8
1外形線
 10
84.213592173501752
 20
104.16706664819969
 30
0.0
 40
0.5
 50
0.0000000000065138
 51
90.0
  0
ARC
  5
175
  8
1外形線
 10
84.4045751791258
 20
98.168731927422641
 30
0.0
 40
0.5
 50
270.00000000000972
 51
333.43494882292413
  0
ARC
  5
176
  8
1外形線
 10
84.022609167876567
 20
98.168731927422527
 30
0.0
 40
0.5
 50
206.56505117707809
 51
270.00000000000648
  0
LINE
  5
177
  8
1外形線
 10
83.575395572376706
 20
97.945125129672661
 30
0.0
 11
82.851788774626684
 21
99.392338725172422
 31
0.0
  0
LINE
  5
178
  8
1外形線
 10
84.4045751791258
 20
97.668731927422655
 30
0.0
 11
84.022609167876681
 21
97.668731927422513
 31
0.0
  0
ARC
  5
179
  8
1外形線
 10
82.404575179126724
 20
99.168731927422527
 30
0.0
 40
0.5
 50
26.565051177078171
 51
90.000000000006509
  0
ARC
  5
17A
  8
1外形線
 10
87.213592173501965
 20
90.668731927422527
 30
0.0
 40
1.0
 50
0.0
 51
90.0
  0
LINE
  5
17B
  8
1外形線
 10
88.213592173501965
 20
85.168731927422513
 30
0.0
 11
88.213592173501965
 21
90.668731927422527
 31
0.0
  0
ARC
  5
17C
  8
1外形線
 10
89.213592173501979
 20
85.168731927422513
 30
0.0
 40
1.0
 50
180.0
 51
270.0
  0
LINE
  5
17D
  8
1外形線
 10
86.022609167875885
 20
99.668731927426165
 30
0.0
 11
90.904575179126823
 21
99.668731927425483
 31
0.0
  0
ARC
  5
17E
  8
1外形線
 10
86.022609167875757
 20
99.168731927422854
 30
0.0
 40
0.5
 50
90.000000000006509
 51
153.43494882292319
  0
ARC
  5
17F
  8
1外形線
 10
94.522609167875785
 20
99.168731927422854
 30
0.0
 40
0.5
 50
90.000000000006509
 51
153.43494882292319
  0
ARC
  5
180
  8
1外形線
 10
92.9045751791258
 20
98.168731927422641
 30
0.0
 40
0.5
 50
270.00000000000972
 51
333.43494882292413
  0
LINE
  5
181
  8
1外形線
 10
92.9045751791258
 20
97.668731927422655
 30
0.0
 11
92.522609167876666
 21
97.668731927422513
 31
0.0
  0
ARC
  5
182
  8
1外形線
 10
90.904575179126709
 20
99.168731927422527
 30
0.0
 40
0.5
 50
26.565051177078171
 51
90.000000000006509
  0
ARC
  5
183
  8
1外形線
 10
92.522609167876567
 20
98.168731927422527
 30
0.0
 40
0.5
 50
206.56505117707809
 51
270.00000000000648
  0
LINE
  5
184
  8
1外形線
 10
92.075395572376692
 20
97.945125129672661
 30
0.0
 11
91.351788774626684
 21
99.392338725172422
 31
0.0
  0
LINE
  5
185
  8
1外形線
 10
93.351788774625788
 20
97.945125129672661
 30
0.0
 11
94.075395572375783
 21
99.392338725172863
 31
0.0
  0
ARC
  5
186
  8
1外形線
 10
117.52260916787679
 20
99.168731927422527
 30
0.0
 40
0.5
 50
89.999999999993491
 51
153.4349488229218
  0
LINE
  5
187
  8
1外形線
 10
116.3517887746268
 20
97.945125129672661
 30
0.0
 11
117.07539557237681
 21
99.392338725172422
 31
0.0
  0
ARC
  5
188
  8
1外形線
 10
115.5226091678777
 20
98.168731927422641
 30
0.0
 40
0.5
 50
206.5650511770757
 51
269.99999999999022
  0
LINE
  5
189
  8
1外形線
 10
115.0753955723777
 20
97.945125129672661
 30
0.0
 11
114.35178877462771
 21
99.392338725172863
 31
0.0
  0
ARC
  5
18A
  8
1外形線
 10
113.9045751791277
 20
99.168731927422854
 30
0.0
 40
0.5
 50
26.565051177076342
 51
89.999999999993491
  0
LINE
  5
18B
  8
1外形線
 10
115.5226091678777
 20
97.668731927422655
 30
0.0
 11
115.90457517912679
 21
97.668731927422513
 31
0.0
  0
ARC
  5
18C
  8
1外形線
 10
115.90457517912689
 20
98.168731927422527
 30
0.0
 40
0.5
 50
269.99999999999341
 51
333.4349488229214
  0
ARC
  5
18D
  8
1外形線
 10
160.71732353987511
 20
65.168731927422414
 30
0.0
 40
30.0
 50
84.289406862499391
 51
90.0
  0
LINE
  5
18E
  8
1外形線
  6
CONTINUOUS
 10
157.2135921735017
 20
83.668731927423096
 30
0.0
 11
171.2135921735017
 21
83.66873192742321
 31
0.0
  0
LINE
  5
18F
  8
1外形線
  6
CONTINUOUS
 10
157.2135921735017
 20
58.668731927421732
 30
0.0
 11
171.2135921735017
 21
58.668731927421611
 31
0.0
  0
ARC
  5
190
  8
1外形線
 10
160.71732353987511
 20
77.168731927422414
 30
0.0
 40
30.0
 50
270.0
 51
275.71059313750061
  0
LINE
  5
191
  8
1外形線
 10
172.21359217350161
 20
93.168731927422527
 30
0.0
 11
158.1250872656037
 21
93.168731927422584
 31
0.0
  0
LINE
  5
192
  8
1外形線
 10
172.21359217350161
 20
49.1687319274223
 30
0.0
 11
158.1250872656037
 21
49.168731927422243
 31
0.0
  0
LINE
  5
193
  8
1外形線
 10
157.2135921735017
 20
50.668731927421781
 30
0.0
 11
157.21359217349971
 21
91.668731927423153
 31
0.0
  0
LINE
  5
194
  8
1外形線
 10
154.7135921735015
 20
77.168731927422414
 30
0.0
 11
154.7135921735017
 21
65.168731927422414
 31
0.0
  0
LINE
  5
195
  8
1外形線
 10
118.2135921531895
 20
77.168731927422513
 30
0.0
 11
118.2135921531895
 21
65.168731927422513
 31
0.0
  0
LINE
  5
196
  8
1外形線
 10
142.71359217350161
 20
39.670397206645248
 30
0.0
 11
136.71359217350181
 21
39.670397206645248
 31
0.0
  0
LINE
  5
197
  8
1外形線
 10
118.2135921531895
 20
65.168731927422513
 30
0.0
 11
154.71359217350189
 21
65.168731927422513
 31
0.0
  0
LINE
  5
198
  8
1外形線
 10
130.21359217350181
 20
43.668731927423892
 30
0.0
 11
130.2135921735013
 21
49.668731927422762
 31
0.0
  0
LINE
  5
199
  8
1外形線
 10
126.02260916787669
 20
42.668731927423437
 30
0.0
 11
129.21359217350189
 21
42.668731927423892
 31
0.0
  0
LINE
  5
19A
  8
1外形線
 10
123.5753955723777
 20
44.392338725172408
 30
0.0
 11
122.85178877462771
 21
42.945125129672192
 31
0.0
  0
ARC
  5
19B
  8
1外形線
 10
122.4045751791277
 20
43.168731927422179
 30
0.0
 40
0.5
 50
270.00000000000648
 51
333.43494882292362
  0
LINE
  5
19C
  8
1外形線
 10
123.7135921735017
 20
39.668731927422641
 30
0.0
 11
123.7135921735017
 21
38.170397206645241
 31
0.0
  0
ARC
  5
19D
  8
1外形線
 10
124.2135921735017
 20
38.170397206645241
 30
0.0
 40
0.5
 50
180.0
 51
270.0
  0
ARC
  5
19E
  8
1外形線
 10
126.02260916787669
 20
43.16873192742252
 30
0.0
 40
0.5
 50
206.56505117707809
 51
270.00000000000648
  0
LINE
  5
19F
  8
1外形線
 10
124.8517887746268
 20
44.392338725172408
 30
0.0
 11
125.57539557237681
 21
42.945125129672647
 31
0.0
  0
ARC
  5
1A0
  8
1外形線
 10
124.40457517912689
 20
44.168731927422527
 30
0.0
 40
0.5
 50
26.56505117707853
 51
90.000000000006509
  0
LINE
  5
1A1
  8
1外形線
 10
124.0226091678777
 20
44.668731927422407
 30
0.0
 11
124.40457517912679
 21
44.66873192742252
 31
0.0
  0
ARC
  5
1A2
  8
1外形線
 10
124.0226091678777
 20
44.168731927422407
 30
0.0
 40
0.5
 50
90.000000000009777
 51
153.4349488229241
  0
ARC
  5
1A3
  8
1外形線
 10
129.21359217350181
 20
43.668731927423892
 30
0.0
 40
1.0
 50
270.00000000000648
 51
0.0000000000052924
  0
LINE
  5
1A4
  8
1外形線
 10
136.71359217350201
 20
39.670397206645248
 30
0.0
 11
136.71359217350181
 21
37.670397206645127
 31
0.0
  0
LINE
  5
1A5
  8
1外形線
 10
129.2135921735013
 20
50.668731927422527
 30
0.0
 11
121.2135921735016
 21
50.668731927422527
 31
0.0
  0
ARC
  5
1A6
  8
1外形線
 10
121.2135921735016
 20
51.668731927422527
 30
0.0
 40
1.0
 50
180.00000000000159
 51
270.0
  0
ARC
  5
1A7
  8
1外形線
 10
119.2135921735015
 20
57.16873192742252
 30
0.0
 40
1.0
 50
0.0
 51
90.0
  0
LINE
  5
1A8
  8
1外形線
 10
120.2135921735015
 20
57.16873192742252
 30
0.0
 11
120.2135921735016
 21
51.668731927422527
 31
0.0
  0
ARC
  5
1A9
  8
1外形線
 10
129.2135921735013
 20
49.66873192742252
 30
0.0
 40
1.0
 50
0.0000000000044782
 51
90.0
  0
ARC
  5
1AA
  8
1外形線
 10
158.12676374364651
 20
44.1687319274223
 30
0.0
 40
3.0
 50
90.0
 51
173.37419043517789
  0
ARC
  5
1AB
  8
1外形線
 10
158.1250872656037
 20
44.1687319274223
 30
0.0
 40
5.0
 50
90.0
 51
173.37333776574729
  0
LINE
  5
1AC
  8
1外形線
 10
153.21192689427889
 20
45.6687319274223
 30
0.0
 11
153.21192689427889
 21
48.668731927421732
 31
0.0
  0
ARC
  5
1AD
  8
1外形線
 10
142.31359217350141
 20
45.668731927422641
 30
0.0
 40
2.1000000000000001
 50
90.0
 51
270.0
  0
ARC
  5
1AE
  8
1外形線
 10
146.11359217350159
 20
45.668731927422641
 30
0.0
 40
2.1000000000000001
 50
270.0
 51
90.0
  0
ARC
  5
1AF
  8
1外形線
 10
145.2135921735015
 20
45.6687319274223
 30
0.0
 40
10.0
 50
270.0
 51
353.37419043517713
  0
ARC
  5
1B0
  8
1外形線
 10
145.2135921735015
 20
45.6687319274223
 30
0.0
 40
7.9983347207773932
 50
270.0
 51
0.0
  0
LINE
  5
1B1
  8
1外形線
 10
142.31359217350141
 20
43.568731927422732
 30
0.0
 11
146.11359217350159
 21
43.568731927422618
 31
0.0
  0
LINE
  5
1B2
  8
1外形線
 10
142.71359217350161
 20
39.670397206645248
 30
0.0
 11
142.71359217350161
 21
37.670397206645362
 31
0.0
  0
LINE
  5
1B3
  8
1外形線
 10
160.71732353987511
 20
47.168731927422293
 30
0.0
 11
158.12676374364651
 21
47.168731927422293
 31
0.0
  0
LINE
  5
1B4
  8
1外形線
 10
146.11359217350159
 20
47.768731927422657
 30
0.0
 11
142.31359217350141
 21
47.768731927422429
 31
0.0
  0
LINE
  5
1B5
  8
1外形線
 10
156.21359217350081
 20
49.668731927421732
 30
0.0
 11
154.21192689427781
 21
49.668731927421732
 31
0.0
  0
ARC
  5
1B6
  8
1外形線
 10
154.21192689427781
 20
48.668731927421732
 30
0.0
 40
1.0
 50
90.0
 51
180.0
  0
ARC
  5
1B7
  8
1外形線
 10
156.21359217350081
 20
50.668731927421732
 30
0.0
 40
1.0
 50
270.0
 51
0.0
  0
LINE
  5
1B8
  8
1外形線
 10
142.71359217350161
 20
102.66706664819959
 30
0.0
 11
136.71359217350181
 21
102.66706664819959
 31
0.0
  0
LINE
  5
1B9
  8
1外形線
 10
118.2135921531895
 20
77.168731927422513
 30
0.0
 11
154.71359217350189
 21
77.168731927422513
 31
0.0
  0
LINE
  5
1BA
  8
1外形線
 10
129.2135921735013
 20
91.668731927422527
 30
0.0
 11
121.2135921735016
 21
91.668731927422527
 31
0.0
  0
LINE
  5
1BB
  8
1外形線
 10
126.02260916787669
 20
99.668731927421632
 30
0.0
 11
129.21359217350189
 21
99.668731927421163
 31
0.0
  0
ARC
  5
1BC
  8
1外形線
 10
121.2135921735016
 20
90.668731927422527
 30
0.0
 40
1.0
 50
90.0
 51
179.99999999999829
  0
LINE
  5
1BD
  8
1外形線
 10
120.2135921735015
 20
85.168731927422513
 30
0.0
 11
120.2135921735016
 21
90.668731927422527
 31
0.0
  0
ARC
  5
1BE
  8
1外形線
 10
119.2135921735015
 20
85.168731927422513
 30
0.0
 40
1.0
 50
270.0
 51
0.0
  0
LINE
  5
1BF
  8
1外形線
 10
123.5753955723777
 20
97.945125129672661
 30
0.0
 11
122.85178877462771
 21
99.392338725172863
 31
0.0
  0
ARC
  5
1C0
  8
1外形線
 10
122.4045751791277
 20
99.168731927422854
 30
0.0
 40
0.5
 50
26.565051177076342
 51
89.999999999993491
  0
LINE
  5
1C1
  8
1外形線
 10
123.7135921735017
 20
102.6687319274224
 30
0.0
 11
123.7135921735017
 21
104.16706664819969
 31
0.0
  0
ARC
  5
1C2
  8
1外形線
 10
124.2135921735017
 20
104.16706664819969
 30
0.0
 40
0.5
 50
90.0
 51
180.0
  0
ARC
  5
1C3
  8
1外形線
 10
126.02260916787669
 20
99.168731927422527
 30
0.0
 40
0.5
 50
89.999999999993491
 51
153.4349488229218
  0
ARC
  5
1C4
  8
1外形線
 10
124.40457517912689
 20
98.168731927422527
 30
0.0
 40
0.5
 50
269.99999999999341
 51
333.4349488229214
  0
ARC
  5
1C5
  8
1外形線
 10
124.0226091678777
 20
98.168731927422641
 30
0.0
 40
0.5
 50
206.5650511770757
 51
269.99999999999022
  0
LINE
  5
1C6
  8
1外形線
 10
124.0226091678777
 20
97.668731927422655
 30
0.0
 11
124.40457517912679
 21
97.668731927422513
 31
0.0
  0
LINE
  5
1C7
  8
1外形線
 10
124.8517887746268
 20
97.945125129672661
 30
0.0
 11
125.57539557237681
 21
99.392338725172422
 31
0.0
  0
LINE
  5
1C8
  8
1外形線
 10
130.21359217350181
 20
98.668731927421163
 30
0.0
 11
130.2135921735013
 21
92.668731927422286
 31
0.0
  0
ARC
  5
1C9
  8
1外形線
 10
129.2135921735013
 20
92.668731927422513
 30
0.0
 40
1.0
 50
270.0
 51
359.99999999999551
  0
ARC
  5
1CA
  8
1外形線
 10
129.21359217350181
 20
98.668731927421163
 30
0.0
 40
1.0
 50
359.99999999999471
 51
89.999999999993491
  0
LINE
  5
1CB
  8
1外形線
 10
136.71359217350201
 20
102.66706664819959
 30
0.0
 11
136.71359217350181
 21
104.66706664819991
 31
0.0
  0
ARC
  5
1CC
  8
1外形線
 10
145.2135921735015
 20
96.668731927422527
 30
0.0
 40
10.0
 50
6.6258095648228741
 51
90.0
  0
ARC
  5
1CD
  8
1外形線
 10
145.2135921735015
 20
96.668731927422527
 30
0.0
 40
7.9983347207773932
 50
0.0000000000012213
 51
90.0
  0
LINE
  5
1CE
  8
1外形線
 10
142.31359217350141
 20
98.768731927422323
 30
0.0
 11
146.11359217350159
 21
98.768731927422451
 31
0.0
  0
LINE
  5
1CF
  8
1外形線
 10
146.11359217350159
 20
94.568731927422391
 30
0.0
 11
142.31359217350141
 21
94.568731927422618
 31
0.0
  0
LINE
  5
1D0
  8
1外形線
 10
142.71359217350161
 20
102.66706664819959
 30
0.0
 11
142.71359217350161
 21
104.66706664819939
 31
0.0
  0
ARC
  5
1D1
  8
1外形線
 10
142.31359217350141
 20
96.668731927422414
 30
0.0
 40
2.1000000000000001
 50
90.0
 51
270.0
  0
ARC
  5
1D2
  8
1外形線
 10
146.11359217350159
 20
96.668731927422414
 30
0.0
 40
2.1000000000000001
 50
270.0
 51
90.0
  0
ARC
  5
1D3
  8
1外形線
 10
158.12676374364651
 20
98.168731927422527
 30
0.0
 40
3.0
 50
186.62580956482199
 51
270.0
  0
ARC
  5
1D4
  8
1外形線
 10
158.1250872656037
 20
98.168731927422527
 30
0.0
 40
5.0
 50
186.62666223425271
 51
270.0
  0
LINE
  5
1D5
  8
1外形線
 10
156.21359217350081
 20
92.668731927423096
 30
0.0
 11
154.21192689427801
 21
92.668731927423096
 31
0.0
  0
ARC
  5
1D6
  8
1外形線
 10
154.21192689427801
 20
93.668731927423096
 30
0.0
 40
1.0
 50
180.0
 51
270.0
  0
LINE
  5
1D7
  8
1外形線
 10
153.21192689427889
 20
96.668731927422527
 30
0.0
 11
153.21192689427889
 21
93.668731927423096
 31
0.0
  0
ARC
  5
1D8
  8
1外形線
 10
156.21359217350081
 20
91.668731927423096
 30
0.0
 40
1.0
 50
0.0
 51
90.0
  0
LINE
  5
1D9
  8
1外形線
 10
160.71732353987511
 20
95.168731927422513
 30
0.0
 11
158.12676374364651
 21
95.168731927422513
 31
0.0
  0
LINE
  5
1DA
  8
1外形線
 10
172.2135921735015
 20
93.263744365310103
 30
0.0
 11
172.2135921735015
 21
49.07371948953471
 31
0.0
  0
LINE
  5
1DB
  8
1外形線
 10
172.2135921735017
 20
62.668731927422073
 30
0.0
 11
172.21359217350189
 21
79.668731927422641
 31
0.0
  0
LINE
  5
1DC
  8
1外形線
 10
163.7024351105056
 20
47.317616221122762
 30
0.0
 11
171.3130958925226
 21
48.078682299324662
 31
0.0
  0
ARC
  5
1DD
  8
1外形線
 10
171.2135921735017
 20
59.668731927422193
 30
0.0
 40
1.0
 50
270.0
 51
0.0
  0
ARC
  5
1DE
  8
1外形線
 10
171.21359217350161
 20
49.07371948953471
 30
0.0
 40
1.0
 50
275.71059313750061
 51
0.0
  0
ARC
  5
1DF
  8
1外形線
 10
171.2135921735017
 20
82.668731927422655
 30
0.0
 40
1.0
 50
0.0
 51
90.0
  0
ARC
  5
1E0
  8
1外形線
 10
171.21359217350161
 20
93.263744365310103
 30
0.0
 40
1.0
 50
0.0
 51
84.289406862499391
  0
LINE
  5
1E1
  8
1外形線
 10
163.7024351105056
 20
95.019847633722065
 30
0.0
 11
171.3130958925226
 21
94.258781555520159
 31
0.0
  0
CIRCLE
  5
1E2
  8
1外形線
 10
104.2135921735017
 20
260.17542420620617
 30
0.0
 40
20.0
  0
CIRCLE
  5
1E3
  8
1外形線
 10
104.2135921735017
 20
260.17542420620617
 30
0.0
 40
24.0
  0
LINE
  5
1E4
  8
1外形線
 10
172.2135921735017
 20
137.97455114005811
 30
0.0
 11
53.213592173501752
 21
137.97455114005811
 31
0.0
  0
LINE
  5
1E5
  8
1外形線
 10
145.9250085044136
 20
193.9745511400595
 30
0.0
 11
62.502175842590077
 21
193.9745511400601
 31
0.0
  0
LINE
  5
1E6
  8
1外形線
 10
63.213592173501979
 20
224.67542420620629
 30
0.0
 11
145.2135921735017
 21
224.67542420620629
 31
0.0
  0
LINE
  5
1E7
  8
1外形線
 10
63.213592173501979
 20
295.67542420620617
 30
0.0
 11
145.2135921735015
 21
295.67542420620617
 31
0.0
  0
LINE
  5
1E8
  8
1外形線
 10
53.213592173502427
 20
285.67542420620617
 30
0.0
 11
53.2135921735022
 21
234.6754242062062
 31
0.0
  0
ARC
  5
1E9
  8
1外形線
 10
62.502175842589963
 20
185.9745511400601
 30
0.0
 40
8.0
 50
90.0
 51
178.46565850029941
  0
LINE
  5
1EA
  8
1外形線
 10
53.213592173501752
 20
137.97455114005811
 30
0.0
 11
54.505044197162988
 21
186.1887600234198
 31
0.0
  0
ARC
  5
1EB
  8
1外形線
 10
63.2135921735022
 20
234.6754242062062
 30
0.0
 40
10.0
 50
180.0
 51
270.0
  0
ARC
  5
1EC
  8
1外形線
 10
63.213592173502427
 20
285.67542420620617
 30
0.0
 40
10.0
 50
90.0
 51
180.0
  0
LINE
  5
1ED
  8
1外形線
 10
172.21359217350161
 20
282.27043664409382
 30
0.0
 11
172.21359217350161
 21
238.08041176831861
 31
0.0
  0
LINE
  5
1EE
  8
1外形線
 10
155.2135921735015
 20
285.67542420620839
 30
0.0
 11
155.2135921735015
 21
234.6754242062062
 31
0.0
  0
ARC
  5
1EF
  8
1外形線
 10
160.71732353987511
 20
266.17542420620629
 30
0.0
 40
30.0
 50
270.0
 51
275.71059313750061
  0
ARC
  5
1F0
  8
1外形線
 10
160.71732353987471
 20
152.47455114006249
 30
0.0
 40
30.0
 50
84.289406862499391
 51
90.0
  0
ARC
  5
1F1
  8
1外形線
 10
145.92500850441351
 20
185.9745511400601
 30
0.0
 40
8.0
 50
1.534341499698493
 51
90.0
  0
LINE
  5
1F2
  8
1外形線
 10
155.2135921735017
 20
137.97455114005811
 30
0.0
 11
153.94342239666071
 21
185.39422280879819
 31
0.0
  0
ARC
  5
1F3
  8
1外形線
 10
156.94234676369581
 20
185.47455114005811
 30
0.0
 40
3.0
 50
181.5343414997005
 51
269.9999999999967
  0
LINE
  5
1F4
  8
1外形線
 10
153.94342239666071
 20
185.3942228087983
 30
0.0
 11
153.92214014984049
 21
186.1887600234198
 31
0.0
  0
LINE
  5
1F5
  8
1外形線
  6
CONTINUOUS
 10
156.94234676369561
 20
182.474551140058
 30
0.0
 11
160.71732353987471
 21
182.474551140058
 31
0.0
  0
ARC
  5
1F6
  8
1外形線
 10
145.2135921735015
 20
234.6754242062062
 30
0.0
 40
10.0
 50
270.0
 51
0.0
  0
ARC
  5
1F7
  8
1外形線
 10
158.12676374364651
 20
233.1754242062062
 30
0.0
 40
3.0
 50
90.0
 51
173.37419043517789
  0
LINE
  5
1F8
  8
1外形線
 10
160.71732353987511
 20
236.1754242062062
 30
0.0
 11
158.12676374364651
 21
236.1754242062062
 31
0.0
  0
LINE
  5
1F9
  8
1外形線
  6
CONTINUOUS
 10
172.2135921735017
 20
137.97455114005811
 30
0.0
 11
172.2135921735015
 21
180.5695635779505
 31
0.0
  0
ARC
  5
1FA
  8
1外形線
 10
171.21359217350141
 20
180.5695635779505
 30
0.0
 40
1.0
 50
0.0
 51
84.289406862499391
  0
LINE
  5
1FB
  8
1外形線
 10
163.70243511050489
 20
182.3256668463624
 30
0.0
 11
171.31309589252231
 21
181.5646007681606
 31
0.0
  0
LINE
  5
1FC
  8
1外形線
 10
201.5414524296724
 20
137.9745511400582
 30
0.0
 11
202.8329044533339
 21
186.18876002341821
 31
0.0
  0
ARC
  5
1FD
  8
1外形線
 10
171.21359217350161
 20
238.08041176831861
 30
0.0
 40
1.0
 50
275.71059313750061
 51
0.0
  0
LINE
  5
1FE
  8
1外形線
 10
163.7024351105056
 20
236.32430849990669
 30
0.0
 11
171.3130958925226
 21
237.0853745781086
 31
0.0
  0
ARC
  5
1FF
  8
1外形線
 10
160.71732353987511
 20
254.17542420620609
 30
0.0
 40
30.0
 50
84.289406862499391
 51
90.0
  0
ARC
  5
200
  8
1外形線
 10
145.2135921735015
 20
285.67542420620617
 30
0.0
 40
10.0
 50
0.0
 51
90.0
  0
ARC
  5
201
  8
1外形線
 10
158.12676374364651
 20
287.17542420620617
 30
0.0
 40
3.0
 50
186.62580956482199
 51
270.0
  0
LINE
  5
202
  8
1外形線
 10
160.71732353987511
 20
284.17542420620617
 30
0.0
 11
158.12676374364651
 21
284.17542420620617
 31
0.0
  0
ARC
  5
203
  8
1外形線
 10
171.21359217350161
 20
282.27043664409382
 30
0.0
 40
1.0
 50
0.0
 51
84.289406862499391
  0
LINE
  5
204
  8
1外形線
 10
163.7024351105056
 20
284.02653991250571
 30
0.0
 11
171.3130958925226
 21
283.2654738343038
 31
0.0
  0
LINE
  5
205
  8
1外形線
  6
CONTINUOUS
 62
     3
 10
226.0414524296726
 20
142.47455114005811
 30
0.0
 11
248.0414524296726
 21
142.47455114005811
 31
0.0
  0
LINE
  5
206
  8
1外形線
 62
     3
 10
224.5414524296726
 20
140.47455114005811
 30
0.0
 11
249.5414524296726
 21
140.47455114005811
 31
0.0
  0
LINE
  5
207
  8
1外形線
 10
213.0414524296726
 20
137.97455114005811
 30
0.0
 11
261.04145242967257
 21
137.97455114005811
 31
0.0
  0
ARC
  5
208
  8
1外形線
 10
237.0414524296726
 20
158.4745511400582
 30
0.0
 40
24.0
 50
0.0
 51
180.0
  0
ARC
  5
209
  8
1外形線
 10
237.0414524296726
 20
158.4745511400582
 30
0.0
 40
22.0
 50
0.0
 51
180.0
  0
LINE
  5
20A
  8
1外形線
 10
263.25286876058448
 20
193.97455114005851
 30
0.0
 11
210.83003609876121
 21
193.9745511400601
 31
0.0
  0
LINE
  5
20B
  8
1外形線
  6
CONTINUOUS
 62
     3
 10
224.04145242967351
 20
143.97455114005791
 30
0.0
 11
226.0414524296726
 21
143.97455114005791
 31
0.0
  0
LINE
  5
20C
  8
1外形線
 62
     3
 10
223.0414524296726
 20
140.4745511400578
 30
0.0
 11
215.0414524296726
 21
140.47455114005791
 31
0.0
  0
LINE
  5
20D
  8
1外形線
 10
215.0414524296726
 20
137.97455114005811
 30
0.0
 11
215.0414524296726
 21
158.4745511400582
 31
0.0
  0
LINE
  5
20E
  8
1外形線
 10
213.0414524296726
 20
137.97455114005811
 30
0.0
 11
213.0414524296726
 21
158.4745511400582
 31
0.0
  0
ARC
  5
20F
  8
1外形線
 62
     3
 10
224.04145242967351
 20
142.97455114005791
 30
0.0
 40
1.0
 50
90.0
 51
180.00000000000281
  0
LINE
  5
210
  8
1外形線
 62
     3
 10
223.04145242967351
 20
142.97455114005791
 30
0.0
 11
223.04145242967371
 21
140.47455114005811
 31
0.0
  0
LINE
  5
211
  8
1外形線
  6
CONTINUOUS
 62
     3
 10
224.5414524296726
 20
143.97455114005811
 30
0.0
 11
224.5414524296726
 21
140.47455114005811
 31
0.0
  0
LINE
  5
212
  8
1外形線
  6
CONTINUOUS
 62
     3
 10
226.0414524296726
 20
143.97455114005811
 30
0.0
 11
226.0414524296726
 21
142.47455114005811
 31
0.0
  0
ARC
  5
213
  8
1外形線
 10
263.25286876058431
 20
185.97455114005851
 30
0.0
 40
8.0
 50
1.534341499700935
 51
89.999999999996746
  0
LINE
  5
214
  8
1外形線
 62
     3
 10
251.0414524296726
 20
140.4745511400578
 30
0.0
 11
259.04145242967252
 21
140.47455114005791
 31
0.0
  0
LINE
  5
215
  8
1外形線
  6
CONTINUOUS
 62
     3
 10
249.5414524296726
 20
143.97455114005811
 30
0.0
 11
249.5414524296726
 21
140.47455114005811
 31
0.0
  0
ARC
  5
216
  8
1外形線
 62
     3
 10
250.04145242967269
 20
142.97455114005791
 30
0.0
 40
1.0
 50
359.9999999999971
 51
90.0
  0
LINE
  5
217
  8
1外形線
 62
     3
 10
251.04145242967269
 20
142.97455114005791
 30
0.0
 11
251.0414524296726
 21
140.47455114005811
 31
0.0
  0
LINE
  5
218
  8
1外形線
  6
CONTINUOUS
 62
     3
 10
248.0414524296726
 20
143.97455114005811
 30
0.0
 11
248.0414524296726
 21
142.47455114005811
 31
0.0
  0
LINE
  5
219
  8
1外形線
  6
CONTINUOUS
 62
     3
 10
250.04145242967269
 20
143.97455114005791
 30
0.0
 11
248.0414524296726
 21
143.97455114005791
 31
0.0
  0
LINE
  5
21A
  8
1外形線
 10
261.04145242967257
 20
137.97455114005811
 30
0.0
 11
261.04145242967257
 21
158.4745511400582
 31
0.0
  0
LINE
  5
21B
  8
1外形線
 10
259.04145242967257
 20
137.97455114005811
 30
0.0
 11
259.04145242967257
 21
158.4745511400582
 31
0.0
  0
LINE
  5
21C
  8
1外形線
 10
272.5414524296728
 20
137.9745511400582
 30
0.0
 11
271.25000040601128
 21
186.18876002341821
 31
0.0
  0
ENDSEC
  0
EOF
