  0
SECTION
  2
HEADER
  9
$ACADVER
  1
AC1009
  9
$INSBASE
 10
0.0
 20
0.0
 30
0.0
  9
$EXTMIN
 10
57.259029178187632
 20
46.642228256344481
 30
0.0
  9
$EXTMAX
 10
284.45462052590642
 20
296.06417506787727
 30
0.0
  9
$LIMMIN
 10
0.0
 20
0.0
  9
$LIMMAX
 10
420.0
 20
297.0
  9
$ORTHOMODE
 70
     0
  9
$REGENMODE
 70
     1
  9
$FILLMODE
 70
     1
  9
$QTEXTMODE
 70
     0
  9
$MIRRTEXT
 70
     1
  9
$DRAGMODE
 70
     2
  9
$LTSCALE
 40
1.0
  9
$OSMODE
 70
    37
  9
$ATTMODE
 70
     1
  9
$TEXTSIZE
 40
2.5
  9
$TRACEWID
 40
1.0
  9
$TEXTSTYLE
  7
STANDARD
  9
$CLAYER
  8
0
  9
$CELTYPE
  6
BYLAYER
  9
$CECOLOR
 62
   256
  9
$DIMSCALE
 40
1.0
  9
$DIMASZ
 40
2.5
  9
$DIMEXO
 40
0.625
  9
$DIMDLI
 40
3.75
  9
$DIMRND
 40
0.0
  9
$DIMDLE
 40
0.0
  9
$DIMEXE
 40
1.25
  9
$DIMTP
 40
0.0
  9
$DIMTM
 40
0.0
  9
$DIMTXT
 40
2.5
  9
$DIMCEN
 40
2.5
  9
$DIMTSZ
 40
0.0
  9
$DIMTOL
 70
     0
  9
$DIMLIM
 70
     0
  9
$DIMTIH
 70
     0
  9
$DIMTOH
 70
     0
  9
$DIMSE1
 70
     0
  9
$DIMSE2
 70
     0
  9
$DIMTAD
 70
     1
  9
$DIMZIN
 70
     8
  9
$DIMBLK
  1

  9
$DIMASO
 70
     1
  9
$DIMSHO
 70
     1
  9
$DIMPOST
  1

  9
$DIMAPOST
  1

  9
$DIMALT
 70
     0
  9
$DIMALTD
 70
     3
  9
$DIMALTF
 40
0.03937007874016
  9
$DIMLFAC
 40
1.0
  9
$DIMTOFL
 70
     1
  9
$DIMTVP
 40
0.0
  9
$DIMTIX
 70
     0
  9
$DIMSOXD
 70
     0
  9
$DIMSAH
 70
     0
  9
$DIMBLK1
  1

  9
$DIMBLK2
  1

  9
$DIMSTYLE
  2
ISO-25
  9
$DIMCLRD
 70
     0
  9
$DIMCLRE
 70
     0
  9
$DIMCLRT
 70
     0
  9
$DIMTFAC
 40
1.0
  9
$DIMGAP
 40
0.625
  9
$LUNITS
 70
     2
  9
$LUPREC
 70
     4
  9
$SKETCHINC
 40
1.0
  9
$FILLETRAD
 40
10.0
  9
$AUNITS
 70
     0
  9
$AUPREC
 70
     0
  9
$MENU
  1
.
  9
$ELEVATION
 40
0.0
  9
$PELEVATION
 40
0.0
  9
$THICKNESS
 40
0.0
  9
$LIMCHECK
 70
     0
  9
$BLIPMODE
 70
     0
  9
$CHAMFERA
 40
10.0
  9
$CHAMFERB
 40
10.0
  9
$SKPOLY
 70
     0
  9
$TDCREATE
 40
2452451.5893990388
  9
$TDUPDATE
 40
2452451.5896969209
  9
$TDINDWG
 40
0.0002981134
  9
$TDUSRTIMER
 40
0.0002981134
  9
$USRTIMER
 70
     1
  9
$ANGBASE
 50
0.0
  9
$ANGDIR
 70
     0
  9
$PDMODE
 70
     0
  9
$PDSIZE
 40
0.0
  9
$PLINEWID
 40
0.0
  9
$COORDS
 70
     1
  9
$SPLFRAME
 70
     0
  9
$SPLINETYPE
 70
     6
  9
$SPLINESEGS
 70
     8
  9
$ATTDIA
 70
     0
  9
$ATTREQ
 70
     1
  9
$HANDLING
 70
-16383
  9
$HANDSEED
  5
224
  9
$SURFTAB1
 70
     6
  9
$SURFTAB2
 70
     6
  9
$SURFTYPE
 70
     6
  9
$SURFU
 70
     6
  9
$SURFV
 70
     6
  9
$UCSNAME
  2

  9
$UCSORG
 10
0.0
 20
0.0
 30
0.0
  9
$UCSXDIR
 10
1.0
 20
0.0
 30
0.0
  9
$UCSYDIR
 10
0.0
 20
1.0
 30
0.0
  9
$PUCSNAME
  2

  9
$PUCSORG
 10
0.0
 20
0.0
 30
0.0
  9
$PUCSXDIR
 10
1.0
 20
0.0
 30
0.0
  9
$PUCSYDIR
 10
0.0
 20
1.0
 30
0.0
  9
$USERI1
 70
     0
  9
$USERI2
 70
     0
  9
$USERI3
 70
     0
  9
$USERI4
 70
     0
  9
$USERI5
 70
     0
  9
$USERR1
 40
0.0
  9
$USERR2
 40
0.0
  9
$USERR3
 40
0.0
  9
$USERR4
 40
0.0
  9
$USERR5
 40
0.0
  9
$WORLDVIEW
 70
     1
  9
$SHADEDGE
 70
     3
  9
$SHADEDIF
 70
    70
  9
$TILEMODE
 70
     1
  9
$MAXACTVP
 70
    64
  9
$PLIMCHECK
 70
     0
  9
$PEXTMIN
 10
1.0000000000000000E+020
 20
1.0000000000000000E+020
 30
1.0000000000000000E+020
  9
$PEXTMAX
 10
-1.0000000000000000E+020
 20
-1.0000000000000000E+020
 30
-1.0000000000000000E+020
  9
$PLIMMIN
 10
0.0
 20
0.0
  9
$PLIMMAX
 10
420.0
 20
297.0
  9
$UNITMODE
 70
     0
  9
$VISRETAIN
 70
     1
  9
$PLINEGEN
 70
     0
  9
$PSLTSCALE
 70
     1
  0
ENDSEC
  0
SECTION
  2
TABLES
  0
TABLE
  2
VPORT
 70
     3
  0
VPORT
  2
*ACTIVE
 70
     0
 10
0.0
 20
0.0
 11
1.0
 21
1.0
 12
209.99999999999989
 22
159.7959183673469
 13
0.0
 23
0.0
 14
10.0
 24
10.0
 15
10.0
 25
10.0
 16
0.0
 26
0.0
 36
1.0
 17
0.0
 27
0.0
 37
0.0
 40
319.5918367346938
 41
1.3141762452107271
 42
50.0
 43
0.0
 44
0.0
 50
0.0
 51
0.0
 71
     0
 72
   100
 73
     1
 74
     3
 75
     0
 76
     0
 77
     0
 78
     0
  0
ENDTAB
  0
TABLE
  2
LTYPE
 70
     1
  0
LTYPE
  2
CONTINUOUS
 70
     0
  3
Solid line
 72
    65
 73
     0
 40
0.0
  0
ENDTAB
  0
TABLE
  2
LAYER
 70
     2
  0
LAYER
  2
0
 70
     0
 62
     7
  6
CONTINUOUS
  0
LAYER
  2
1外形線
 70
     0
 62
     3
  6
CONTINUOUS
  0
ENDTAB
  0
TABLE
  2
STYLE
 70
     2
  0
STYLE
  2
STANDARD
 70
     0
 40
0.0
 41
1.0
 50
0.0
 71
     0
 42
2.5
  3
txt
  4

  0
STYLE
  2
KANJI
 70
     0
 40
0.0
 41
1.0
 50
0.0
 71
     0
 42
2.0
  3
simplex
  4
bigfont
  0
ENDTAB
  0
TABLE
  2
VIEW
 70
     0
  0
ENDTAB
  0
TABLE
  2
UCS
 70
     0
  0
ENDTAB
  0
TABLE
  2
APPID
 70
     1
  0
APPID
  2
ACAD
 70
     0
  0
ENDTAB
  0
TABLE
  2
DIMSTYLE
 70
     2
  0
DIMSTYLE
  2
ISO-25
 70
     0
  3

  4

  5

  6

  7

 40
1.0
 41
2.5
 42
0.625
 43
3.75
 44
1.25
 45
0.0
 46
0.0
 47
0.0
 48
0.0
140
2.5
141
2.5
142
0.0
143
0.03937007874016
144
1.0
145
0.0
146
1.0
147
0.625
 71
     0
 72
     0
 73
     0
 74
     0
 75
     0
 76
     0
 77
     1
 78
     8
170
     0
171
     3
172
     1
173
     0
174
     0
175
     0
176
     0
177
     0
178
     0
  0
DIMSTYLE
  2
STANDARD
 70
     0
  3

  4

  5

  6
1
  7
1
 40
1.0
 41
1.0
 42
1.0
 43
6.0
 44
1.0
 45
0.0
 46
0.0
 47
0.0
 48
0.0
140
2.5
141
0.0
142
0.0
143
25.399999999999999
144
1.0
145
0.0
146
1.0
147
0.5
 71
     0
 72
     0
 73
     0
 74
     0
 75
     0
 76
     0
 77
     1
 78
     8
170
     0
171
     2
172
     1
173
     1
174
     0
175
     0
176
     0
177
     0
178
     0
  0
ENDTAB
  0
ENDSEC
  0
SECTION
  2
BLOCKS
  0
BLOCK
  8
0
  2
$MODEL_SPACE
 70
     0
 10
0.0
 20
0.0
 30
0.0
  3
$MODEL_SPACE
  1

  0
ENDBLK
  5
21
  8
0
  0
BLOCK
 67
     1
  8
0
  2
$PAPER_SPACE
 70
     0
 10
0.0
 20
0.0
 30
0.0
  3
$PAPER_SPACE
  1

  0
ENDBLK
  5
1D
 67
     1
  8
0
  0
BLOCK
  8
0
  2
1
 70
     0
 10
0.0
 20
0.0
 30
0.0
  3
1
  1

  0
SOLID
  5
2C
  8
0
  6
BYBLOCK
 62
     0
 10
-1.811110924292052
 20
0.4852857095671653
 30
0.0
 11
-1.811110924292052
 21
-0.4852857095673642
 31
0.0
 12
0.0
 22
0.0
 32
0.0
 13
0.0
 23
0.0
 33
0.0
  0
ENDBLK
  5
2E
  8
0
  0
ENDSEC
  0
SECTION
  2
ENTITIES
  0
ARC
  5
12A
  8
1外形線
 10
68.588946591256672
 20
193.6463645012135
 30
0.0
 40
8.0
 50
89.999999999997968
 51
178.2465951399283
  0
ARC
  5
12B
  8
1外形線
 10
152.0712473888486
 20
193.6463645012135
 30
0.0
 40
8.0
 50
2.605251265052464
 51
90.000000000002046
  0
ARC
  5
12C
  8
1外形線
 10
222.40455468660829
 20
193.6463645012135
 30
0.0
 40
8.0
 50
89.999999999997968
 51
178.2465951399283
  0
ARC
  5
12D
  8
1外形線
 10
274.88685548420023
 20
193.6463645012135
 30
0.0
 40
8.0
 50
1.7534048600717049
 51
89.999999999998366
  0
ARC
  5
12E
  8
1外形線
 10
136.5124746439802
 20
117.21163078898709
 30
0.0
 40
0.5
 50
90.0
 51
180.0
  0
ARC
  5
12F
  8
1外形線
 10
136.32149163835609
 20
111.21329606821
 30
0.0
 40
0.5
 50
206.56505117707539
 51
269.99999999999062
  0
LINE
  5
130
  8
1外形線
 10
141.51247464397969
 20
104.7132960682099
 30
0.0
 11
133.51247464398011
 21
104.7132960682099
 31
0.0
  0
LINE
  5
131
  8
1外形線
 10
130.512474623668
 20
90.213296068209957
 30
0.0
 11
167.0124746439804
 21
90.213296068209957
 31
0.0
  0
LINE
  5
132
  8
1外形線
 10
152.07124738884869
 20
201.6463645012127
 30
0.0
 11
68.588946591256786
 21
201.64636450121299
 31
0.0
  0
LINE
  5
133
  8
1外形線
 10
178.3300969900526
 20
152.64636450121341
 30
0.0
 11
59.330096990052652
 21
152.64636450121341
 31
0.0
  0
LINE
  5
134
  8
1外形線
 10
75.512474643980454
 20
119.7132960682099
 30
0.0
 11
157.51247464397991
 21
119.7132960682099
 31
0.0
  0
LINE
  5
135
  8
1外形線
 10
75.512474643980454
 20
117.71163078898731
 30
0.0
 11
157.51247464397991
 21
117.71163078898731
 31
0.0
  0
LINE
  5
136
  8
1外形線
 10
141.51247464397969
 20
63.713296068209957
 30
0.0
 11
133.51247464398011
 21
63.713296068209957
 31
0.0
  0
ARC
  5
137
  8
1外形線
 10
136.32149163835609
 20
57.213296068209843
 30
0.0
 40
0.5
 50
90.000000000009365
 51
153.4349488229245
  0
ARC
  5
138
  8
1外形線
 10
136.5124746439802
 20
51.21496134743267
 30
0.0
 40
0.5
 50
180.0
 51
270.0
  0
LINE
  5
139
  8
1外形線
 10
130.512474623668
 20
78.213296068209957
 30
0.0
 11
167.0124746439804
 21
78.213296068209957
 31
0.0
  0
LINE
  5
13A
  8
1外形線
 10
75.512474643980454
 20
48.713296068209957
 30
0.0
 11
157.5124746439802
 21
48.713296068209957
 31
0.0
  0
LINE
  5
13B
  8
1外形線
 10
75.512474643980454
 20
50.714961347432563
 30
0.0
 11
157.5124746439802
 21
50.714961347432563
 31
0.0
  0
LINE
  5
13C
  8
1外形線
 10
65.512474643980909
 20
109.7132960682099
 30
0.0
 11
65.512474643980681
 21
58.713296068209957
 31
0.0
  0
LINE
  5
13D
  8
1外形線
 10
67.514139923203516
 20
109.7132960682099
 30
0.0
 11
67.514139923203288
 21
58.713296068209957
 31
0.0
  0
LINE
  5
13E
  8
1外形線
 10
130.512474623668
 20
90.213296068209957
 30
0.0
 11
130.512474623668
 21
78.213296068209957
 31
0.0
  0
LINE
  5
13F
  8
1外形線
 10
91.51247464398034
 20
55.713296068205523
 30
0.0
 11
94.703457649605298
 21
55.713296068205871
 31
0.0
  0
LINE
  5
140
  8
1外形線
 10
99.512474643980454
 20
63.713296068209957
 30
0.0
 11
91.512474643980681
 21
63.713296068209957
 31
0.0
  0
ARC
  5
141
  8
1外形線
 10
75.512474643980681
 20
58.713296068209957
 30
0.0
 40
10.0
 50
180.0
 51
270.0
  0
ARC
  5
142
  8
1外形線
 10
75.512474643980681
 20
58.713296068209957
 30
0.0
 40
7.9983347207773932
 50
180.0
 51
270.0
  0
ARC
  5
143
  8
1外形線
 10
91.512474643980681
 20
62.713296068209949
 30
0.0
 40
1.0
 50
90.0
 51
179.99999999999551
  0
LINE
  5
144
  8
1外形線
 10
78.01247464398034
 20
52.714961347432677
 30
0.0
 11
84.012474643980113
 21
52.714961347432677
 31
0.0
  0
LINE
  5
145
  8
1外形線
 10
78.01247464398034
 20
52.714961347432677
 30
0.0
 11
78.01247464398034
 21
50.714961347432791
 31
0.0
  0
LINE
  5
146
  8
1外形線
 10
78.412474643980545
 20
56.613296068210161
 30
0.0
 11
74.612474643980363
 21
56.613296068210047
 31
0.0
  0
LINE
  5
147
  8
1外形線
 10
74.612474643980363
 20
60.813296068210093
 30
0.0
 11
78.412474643980545
 21
60.813296068209858
 31
0.0
  0
ARC
  5
148
  8
1外形線
 10
74.612474643980363
 20
58.71329606821007
 30
0.0
 40
2.1000000000000001
 50
90.0
 51
270.0
  0
ARC
  5
149
  8
1外形線
 10
78.412474643980545
 20
58.71329606821007
 30
0.0
 40
2.1000000000000001
 50
270.0
 51
90.0
  0
LINE
  5
14A
  8
1外形線
 10
84.012474643979886
 20
52.714961347432677
 30
0.0
 11
84.012474643980113
 21
50.714961347432563
 31
0.0
  0
LINE
  5
14B
  8
1外形線
 10
90.512474643980227
 20
56.713296068211321
 30
0.0
 11
90.512474643980681
 21
62.713296068210177
 31
0.0
  0
ARC
  5
14C
  8
1外形線
 10
91.512474643980227
 20
56.713296068211321
 30
0.0
 40
1.0
 50
179.99999999999471
 51
269.99999999999341
  0
LINE
  5
14D
  8
1外形線
 10
131.51247464397991
 20
71.213296068209957
 30
0.0
 11
101.5124746439804
 21
71.213296068209957
 31
0.0
  0
LINE
  5
14E
  8
1外形線
 10
106.8214916383543
 20
55.713296068207462
 30
0.0
 11
126.20345764960631
 21
55.713296068209608
 31
0.0
  0
LINE
  5
14F
  8
1外形線
 10
97.012474643980227
 20
52.71329606821007
 30
0.0
 11
136.0124746439802
 21
52.71329606821007
 31
0.0
  0
ARC
  5
150
  8
1外形線
 10
103.2034576496051
 20
56.213296068209957
 30
0.0
 40
0.5
 50
269.99999999999341
 51
333.43494882292168
  0
LINE
  5
151
  8
1外形線
 10
97.012474643980227
 20
52.71329606821007
 30
0.0
 11
97.012474643980227
 21
51.21496134743267
 31
0.0
  0
ARC
  5
152
  8
1外形線
 10
96.512474643980227
 20
51.21496134743267
 30
0.0
 40
0.5
 50
270.0
 51
359.99999999999341
  0
ARC
  5
153
  8
1外形線
 10
98.321491638354246
 20
56.213296068209608
 30
0.0
 40
0.5
 50
206.5650511770763
 51
269.99999999999301
  0
LINE
  5
154
  8
1外形線
 10
97.150671245104263
 20
57.436902865959837
 30
0.0
 11
97.874278042854257
 21
55.989689270459621
 31
0.0
  0
ARC
  5
155
  8
1外形線
 10
96.703457649604275
 20
57.213296068209843
 30
0.0
 40
0.5
 50
26.565051177075439
 51
89.999999999990635
  0
ARC
  5
156
  8
1外形線
 10
96.321491638355056
 20
57.213296068209957
 30
0.0
 40
0.5
 50
89.999999999993491
 51
153.4349488229214
  0
ARC
  5
157
  8
1外形線
 10
94.703457649605184
 20
56.213296068209957
 30
0.0
 40
0.5
 50
269.99999999999341
 51
333.43494882292168
  0
LINE
  5
158
  8
1外形線
 10
95.874278042855167
 20
57.436902865959837
 30
0.0
 11
95.150671245105173
 21
55.989689270460083
 31
0.0
  0
LINE
  5
159
  8
1外形線
 10
96.703457649604275
 20
57.713296068209843
 30
0.0
 11
96.321491638355155
 21
57.713296068209949
 31
0.0
  0
LINE
  5
15A
  8
1外形線
 10
98.321491638354374
 20
55.713296068206319
 30
0.0
 11
103.2034576496053
 21
55.713296068207001
 31
0.0
  0
LINE
  5
15B
  8
1外形線
 10
105.65067124510421
 20
57.436902865959837
 30
0.0
 11
106.3742780428542
 21
55.989689270459621
 31
0.0
  0
ARC
  5
15C
  8
1外形線
 10
106.8214916383542
 20
56.213296068209608
 30
0.0
 40
0.5
 50
206.5650511770763
 51
269.99999999999301
  0
LINE
  5
15D
  8
1外形線
 10
105.2034576496042
 20
57.713296068209843
 30
0.0
 11
104.8214916383551
 21
57.713296068209949
 31
0.0
  0
ARC
  5
15E
  8
1外形線
 10
105.2034576496042
 20
57.213296068209843
 30
0.0
 40
0.5
 50
26.565051177075439
 51
89.999999999990635
  0
LINE
  5
15F
  8
1外形線
 10
104.3742780428551
 20
57.436902865959837
 30
0.0
 11
103.6506712451051
 21
55.989689270460083
 31
0.0
  0
ARC
  5
160
  8
1外形線
 10
104.821491638355
 20
57.213296068209957
 30
0.0
 40
0.5
 50
89.999999999993491
 51
153.4349488229214
  0
ARC
  5
161
  8
1外形線
 10
101.5124746439804
 20
70.213296068209957
 30
0.0
 40
1.0
 50
90.0
 51
180.0
  0
LINE
  5
162
  8
1外形線
 10
100.5124746439804
 20
70.213296068209957
 30
0.0
 11
100.5124746439804
 21
64.713296068209957
 31
0.0
  0
ARC
  5
163
  8
1外形線
 10
99.512474643980454
 20
64.713296068209957
 30
0.0
 40
1.0
 50
270.0
 51
0.0
  0
LINE
  5
164
  8
1外形線
 10
136.0124746439802
 20
52.71329606821007
 30
0.0
 11
136.0124746439802
 21
51.21496134743267
 31
0.0
  0
LINE
  5
165
  8
1外形線
 10
129.82149163835521
 20
55.713296068209949
 30
0.0
 11
134.70345764960629
 21
55.713296068210411
 31
0.0
  0
ARC
  5
166
  8
1外形線
 10
129.82149163835521
 20
56.213296068209957
 30
0.0
 40
0.5
 50
206.56505117707809
 51
270.00000000000648
  0
ARC
  5
167
  8
1外形線
 10
128.20345764960541
 20
57.213296068209957
 30
0.0
 40
0.5
 50
26.56505117707853
 51
90.000000000006509
  0
LINE
  5
168
  8
1外形線
 10
127.82149163835609
 20
57.713296068209843
 30
0.0
 11
128.2034576496053
 21
57.713296068209949
 31
0.0
  0
LINE
  5
169
  8
1外形線
 10
128.6506712451052
 20
57.436902865959837
 30
0.0
 11
129.3742780428552
 21
55.989689270460083
 31
0.0
  0
LINE
  5
16A
  8
1外形線
 10
127.3742780428561
 20
57.436902865959837
 30
0.0
 11
126.6506712451062
 21
55.989689270459621
 31
0.0
  0
ARC
  5
16B
  8
1外形線
 10
126.20345764960619
 20
56.213296068209608
 30
0.0
 40
0.5
 50
270.00000000000648
 51
333.43494882292362
  0
ARC
  5
16C
  8
1外形線
 10
127.82149163835609
 20
57.213296068209843
 30
0.0
 40
0.5
 50
90.000000000009365
 51
153.4349488229245
  0
LINE
  5
16D
  8
1外形線
 10
135.8742780428561
 20
57.436902865959837
 30
0.0
 11
135.1506712451062
 21
55.989689270459621
 31
0.0
  0
ARC
  5
16E
  8
1外形線
 10
134.70345764960621
 20
56.213296068209608
 30
0.0
 40
0.5
 50
270.00000000000648
 51
333.43494882292362
  0
ARC
  5
16F
  8
1外形線
 10
131.51247464397991
 20
70.213296068209957
 30
0.0
 40
1.0
 50
0.0
 51
90.0
  0
LINE
  5
170
  8
1外形線
 10
132.51247464397991
 20
70.213296068209957
 30
0.0
 11
132.51247464398011
 21
64.713296068209957
 31
0.0
  0
ARC
  5
171
  8
1外形線
 10
133.51247464398011
 20
64.713296068209957
 30
0.0
 40
1.0
 50
180.00000000000159
 51
270.0
  0
LINE
  5
172
  8
1外形線
 10
91.51247464398034
 20
112.71329606821431
 30
0.0
 11
94.703457649605298
 21
112.71329606821401
 31
0.0
  0
LINE
  5
173
  8
1外形線
 10
99.512474643980454
 20
104.7132960682099
 30
0.0
 11
91.512474643980681
 21
104.7132960682099
 31
0.0
  0
ARC
  5
174
  8
1外形線
 10
78.412474643980545
 20
109.7132960682098
 30
0.0
 40
2.1000000000000001
 50
270.0
 51
90.0
  0
ARC
  5
175
  8
1外形線
 10
74.612474643980363
 20
109.7132960682098
 30
0.0
 40
2.1000000000000001
 50
90.0
 51
270.0
  0
LINE
  5
176
  8
1外形線
 10
90.512474643980227
 20
111.71329606820851
 30
0.0
 11
90.512474643980681
 21
105.7132960682097
 31
0.0
  0
LINE
  5
177
  8
1外形線
 10
74.612474643980363
 20
107.61329606820981
 30
0.0
 11
78.412474643980545
 21
107.61329606821
 31
0.0
  0
ARC
  5
178
  8
1外形線
 10
91.512474643980681
 20
105.7132960682099
 30
0.0
 40
1.0
 50
180.00000000000441
 51
270.0
  0
ARC
  5
179
  8
1外形線
 10
75.512474643980909
 20
109.7132960682099
 30
0.0
 40
7.9983347207773932
 50
90.0
 51
180.0
  0
ARC
  5
17A
  8
1外形線
 10
75.512474643980909
 20
109.7132960682099
 30
0.0
 40
10.0
 50
90.0
 51
180.0
  0
LINE
  5
17B
  8
1外形線
 10
78.01247464398034
 20
115.71163078898709
 30
0.0
 11
84.012474643980113
 21
115.71163078898709
 31
0.0
  0
LINE
  5
17C
  8
1外形線
 10
78.01247464398034
 20
115.71163078898709
 30
0.0
 11
78.01247464398034
 21
117.7116307889868
 31
0.0
  0
LINE
  5
17D
  8
1外形線
 10
78.412474643980545
 20
111.8132960682097
 30
0.0
 11
74.612474643980363
 21
111.81329606820979
 31
0.0
  0
LINE
  5
17E
  8
1外形線
 10
84.012474643979886
 20
115.71163078898709
 30
0.0
 11
84.012474643980113
 21
117.71163078898731
 31
0.0
  0
ARC
  5
17F
  8
1外形線
 10
91.512474643980227
 20
111.71329606820851
 30
0.0
 40
1.0
 50
90.000000000006509
 51
180.0000000000052
  0
CIRCLE
  5
180
  8
1外形線
 62
     3
 10
116.5124746439802
 20
84.213296068209957
 30
0.0
 40
2.1000000000000001
  0
LINE
  5
181
  8
1外形線
 10
131.51247464397991
 20
97.213296068209957
 30
0.0
 11
101.5124746439804
 21
97.213296068209957
 31
0.0
  0
LINE
  5
182
  8
1外形線
 10
100.5124746439804
 20
98.213296068209957
 30
0.0
 11
100.5124746439804
 21
103.7132960682099
 31
0.0
  0
ARC
  5
183
  8
1外形線
 10
101.5124746439804
 20
98.213296068209957
 30
0.0
 40
1.0
 50
180.0
 51
270.0
  0
ARC
  5
184
  8
1外形線
 10
99.512474643980454
 20
103.7132960682099
 30
0.0
 40
1.0
 50
0.0
 51
90.0
  0
LINE
  5
185
  8
1外形線
 10
132.51247464397991
 20
98.213296068209957
 30
0.0
 11
132.51247464398011
 21
103.7132960682099
 31
0.0
  0
ARC
  5
186
  8
1外形線
 10
131.51247464397991
 20
98.213296068209957
 30
0.0
 40
1.0
 50
270.0
 51
0.0
  0
ARC
  5
187
  8
1外形線
 10
133.51247464398011
 20
103.7132960682099
 30
0.0
 40
1.0
 50
90.0
 51
179.99999999999829
  0
LINE
  5
188
  8
1外形線
 10
106.8214916383543
 20
112.7132960682124
 30
0.0
 11
126.20345764960631
 21
112.7132960682103
 31
0.0
  0
LINE
  5
189
  8
1外形線
 10
97.012474643980227
 20
115.7132960682098
 30
0.0
 11
136.0124746439802
 21
115.7132960682098
 31
0.0
  0
ARC
  5
18A
  8
1外形線
 10
103.2034576496051
 20
112.2132960682099
 30
0.0
 40
0.5
 50
26.565051177078171
 51
90.000000000006509
  0
LINE
  5
18B
  8
1外形線
 10
97.012474643980227
 20
115.7132960682098
 30
0.0
 11
97.012474643980227
 21
117.21163078898709
 31
0.0
  0
ARC
  5
18C
  8
1外形線
 10
98.321491638354246
 20
112.2132960682103
 30
0.0
 40
0.5
 50
90.000000000006509
 51
153.43494882292359
  0
ARC
  5
18D
  8
1外形線
 10
96.703457649604275
 20
111.21329606821
 30
0.0
 40
0.5
 50
270.00000000000932
 51
333.43494882292453
  0
LINE
  5
18E
  8
1外形線
 10
97.150671245104263
 20
110.98968927046
 30
0.0
 11
97.874278042854257
 21
112.43690286596021
 31
0.0
  0
ARC
  5
18F
  8
1外形線
 10
94.703457649605184
 20
112.2132960682099
 30
0.0
 40
0.5
 50
26.565051177078171
 51
90.000000000006509
  0
ARC
  5
190
  8
1外形線
 10
96.321491638355056
 20
111.2132960682099
 30
0.0
 40
0.5
 50
206.56505117707849
 51
270.00000000000648
  0
LINE
  5
191
  8
1外形線
 10
95.874278042855167
 20
110.98968927046
 30
0.0
 11
95.150671245105173
 21
112.43690286595979
 31
0.0
  0
LINE
  5
192
  8
1外形線
 10
96.703457649604275
 20
110.71329606821
 30
0.0
 11
96.321491638355155
 21
110.7132960682099
 31
0.0
  0
LINE
  5
193
  8
1外形線
 10
98.321491638354374
 20
112.7132960682135
 30
0.0
 11
103.2034576496053
 21
112.7132960682129
 31
0.0
  0
ARC
  5
194
  8
1外形線
 10
96.512474643980227
 20
117.21163078898709
 30
0.0
 40
0.5
 50
0.0000000000065138
 51
90.0
  0
ARC
  5
195
  8
1外形線
 10
106.8214916383542
 20
112.2132960682103
 30
0.0
 40
0.5
 50
90.000000000006509
 51
153.43494882292359
  0
LINE
  5
196
  8
1外形線
 10
105.65067124510421
 20
110.98968927046
 30
0.0
 11
106.3742780428542
 21
112.43690286596021
 31
0.0
  0
LINE
  5
197
  8
1外形線
 10
105.2034576496042
 20
110.71329606821
 30
0.0
 11
104.8214916383551
 21
110.7132960682099
 31
0.0
  0
ARC
  5
198
  8
1外形線
 10
105.2034576496042
 20
111.21329606821
 30
0.0
 40
0.5
 50
270.00000000000932
 51
333.43494882292453
  0
LINE
  5
199
  8
1外形線
 10
104.3742780428551
 20
110.98968927046
 30
0.0
 11
103.6506712451051
 21
112.43690286595979
 31
0.0
  0
ARC
  5
19A
  8
1外形線
 10
104.821491638355
 20
111.2132960682099
 30
0.0
 40
0.5
 50
206.56505117707849
 51
270.00000000000648
  0
LINE
  5
19B
  8
1外形線
 10
136.0124746439802
 20
115.7132960682098
 30
0.0
 11
136.0124746439802
 21
117.21163078898709
 31
0.0
  0
LINE
  5
19C
  8
1外形線
 10
129.82149163835521
 20
112.7132960682099
 30
0.0
 11
134.70345764960629
 21
112.7132960682095
 31
0.0
  0
ARC
  5
19D
  8
1外形線
 10
129.82149163835521
 20
112.2132960682099
 30
0.0
 40
0.5
 50
89.999999999993491
 51
153.4349488229218
  0
LINE
  5
19E
  8
1外形線
 10
127.82149163835609
 20
110.71329606821
 30
0.0
 11
128.2034576496053
 21
110.7132960682099
 31
0.0
  0
ARC
  5
19F
  8
1外形線
 10
128.20345764960541
 20
111.2132960682099
 30
0.0
 40
0.5
 50
269.99999999999341
 51
333.4349488229214
  0
LINE
  5
1A0
  8
1外形線
 10
128.6506712451052
 20
110.98968927046
 30
0.0
 11
129.3742780428552
 21
112.43690286595979
 31
0.0
  0
LINE
  5
1A1
  8
1外形線
 10
127.3742780428561
 20
110.98968927046
 30
0.0
 11
126.6506712451062
 21
112.43690286596021
 31
0.0
  0
ARC
  5
1A2
  8
1外形線
 10
126.20345764960619
 20
112.2132960682103
 30
0.0
 40
0.5
 50
26.565051177076342
 51
89.999999999993079
  0
ARC
  5
1A3
  8
1外形線
 10
127.82149163835609
 20
111.21329606821
 30
0.0
 40
0.5
 50
206.56505117707539
 51
269.99999999999062
  0
ARC
  5
1A4
  8
1外形線
 10
134.70345764960621
 20
112.2132960682103
 30
0.0
 40
0.5
 50
26.565051177076342
 51
89.999999999993079
  0
LINE
  5
1A5
  8
1外形線
 10
135.8742780428561
 20
110.98968927046
 30
0.0
 11
135.1506712451062
 21
112.43690286596021
 31
0.0
  0
LINE
  5
1A6
  8
1外形線
 10
59.330096990052652
 20
152.64636450121341
 30
0.0
 11
60.592692396940151
 21
193.89114779287621
 31
0.0
  0
LINE
  5
1A7
  8
1外形線
 10
184.51247464398011
 20
103.3083085060975
 30
0.0
 11
184.51247464398011
 21
65.118283630322367
 31
0.0
  0
LINE
  5
1A8
  8
1外形線
 10
184.5124746439802
 20
75.713296068209502
 30
0.0
 11
184.5124746439804
 21
92.71329606821007
 31
0.0
  0
LINE
  5
1A9
  8
1外形線
 10
167.01247464398
 20
90.213296068209843
 30
0.0
 11
167.0124746439802
 21
78.213296068209843
 31
0.0
  0
LINE
  5
1AA
  8
1外形線
 10
169.51247464398
 20
66.713296068209502
 30
0.0
 11
169.51247464397841
 21
101.7132960682105
 31
0.0
  0
LINE
  5
1AB
  8
1外形線
 10
184.51247464398011
 20
65.213296068210298
 30
0.0
 11
170.5124746439798
 21
65.213296068210184
 31
0.0
  0
LINE
  5
1AC
  8
1外形線
 10
176.00131758098411
 20
63.362180361910411
 30
0.0
 11
183.6119783630011
 21
64.123246440112325
 31
0.0
  0
LINE
  5
1AD
  8
1外形線
  6
CONTINUOUS
 10
169.5124746439802
 20
74.713296068209502
 30
0.0
 11
183.5124746439802
 21
74.713296068209615
 31
0.0
  0
ARC
  5
1AE
  8
1外形線
 10
157.51247464397991
 20
58.713296068209957
 30
0.0
 40
10.0
 50
270.0
 51
359.99999999998897
  0
ARC
  5
1AF
  8
1外形線
 10
157.51247464397991
 20
58.713296068209957
 30
0.0
 40
7.9983347207773932
 50
270.0
 51
359.99999999998897
  0
LINE
  5
1B0
  8
1外形線
 10
154.61247464397991
 20
56.613296068210161
 30
0.0
 11
158.41247464398
 21
56.613296068210047
 31
0.0
  0
LINE
  5
1B1
  8
1外形線
 10
158.41247464398
 20
60.813296068210093
 30
0.0
 11
154.61247464397991
 21
60.813296068209858
 31
0.0
  0
ARC
  5
1B2
  8
1外形線
 10
141.51247464397969
 20
62.713296068209949
 30
0.0
 40
1.0
 50
0.0000000000044782
 51
90.0
  0
LINE
  5
1B3
  8
1外形線
 10
138.32149163835521
 20
55.713296068210873
 30
0.0
 11
141.5124746439804
 21
55.713296068211321
 31
0.0
  0
ARC
  5
1B4
  8
1外形線
 10
138.32149163835521
 20
56.213296068209957
 30
0.0
 40
0.5
 50
206.56505117707809
 51
270.00000000000648
  0
LINE
  5
1B5
  8
1外形線
 10
137.1506712451052
 20
57.436902865959837
 30
0.0
 11
137.8742780428552
 21
55.989689270460083
 31
0.0
  0
ARC
  5
1B6
  8
1外形線
 10
136.70345764960541
 20
57.213296068209957
 30
0.0
 40
0.5
 50
26.56505117707853
 51
90.000000000006509
  0
LINE
  5
1B7
  8
1外形線
 10
136.32149163835609
 20
57.713296068209843
 30
0.0
 11
136.70345764960521
 21
57.713296068209949
 31
0.0
  0
LINE
  5
1B8
  8
1外形線
 10
142.51247464398031
 20
56.713296068211321
 30
0.0
 11
142.51247464397969
 21
62.713296068210177
 31
0.0
  0
ARC
  5
1B9
  8
1外形線
 10
141.51247464398031
 20
56.713296068211321
 30
0.0
 40
1.0
 50
270.00000000000648
 51
0.0000000000052924
  0
LINE
  5
1BA
  8
1外形線
 10
155.01247464398011
 20
52.714961347432677
 30
0.0
 11
149.01247464398031
 21
52.714961347432677
 31
0.0
  0
LINE
  5
1BB
  8
1外形線
 10
149.01247464398051
 20
52.714961347432677
 30
0.0
 11
149.01247464398031
 21
50.714961347432563
 31
0.0
  0
LINE
  5
1BC
  8
1外形線
 10
155.01247464398011
 20
52.714961347432677
 30
0.0
 11
155.01247464398011
 21
50.714961347432791
 31
0.0
  0
ARC
  5
1BD
  8
1外形線
 10
154.61247464397991
 20
58.71329606821007
 30
0.0
 40
2.1000000000000001
 50
90.0
 51
270.0
  0
LINE
  5
1BE
  8
1外形線
 10
165.51080936475699
 20
64.713296068209715
 30
0.0
 11
165.51080936475711
 21
58.713296068209957
 31
0.0
  0
ARC
  5
1BF
  8
1外形線
 10
170.5124746439798
 20
60.213296068210177
 30
0.0
 40
3.0
 50
90.0
 51
180.0
  0
ARC
  5
1C0
  8
1外形線
 10
170.5124746439798
 20
60.211630788987577
 30
0.0
 40
5.001665279222606
 50
90.0
 51
180.0
  0
ARC
  5
1C1
  8
1外形線
 10
158.41247464398
 20
58.71329606821007
 30
0.0
 40
2.1000000000000001
 50
270.0
 51
90.0
  0
LINE
  5
1C2
  8
1外形線
 10
167.51353768849651
 20
58.712233023692761
 30
0.0
 11
167.51353768849651
 21
60.213296068209949
 31
0.0
  0
ARC
  5
1C3
  8
1外形線
 10
168.51247464397929
 20
66.713296068209502
 30
0.0
 40
1.0
 50
269.9999999999967
 51
0.0
  0
ARC
  5
1C4
  8
1外形線
 10
166.510809364756
 20
64.713296068209772
 30
0.0
 40
1.0
 50
89.999999999996334
 51
180.00000000000159
  0
LINE
  5
1C5
  8
1外形線
 10
168.51247464397929
 20
65.713296068209502
 30
0.0
 11
166.510809364756
 21
65.713296068209644
 31
0.0
  0
ARC
  5
1C6
  8
1外形線
 10
173.0162060103535
 20
93.213296068210084
 30
0.0
 40
30.0
 50
270.0
 51
275.71059313750061
  0
LINE
  5
1C7
  8
1外形線
 10
173.0162060103535
 20
63.213296068210177
 30
0.0
 11
170.5124746439798
 21
63.213296068210177
 31
0.0
  0
ARC
  5
1C8
  8
1外形線
 10
183.51247464398011
 20
65.118283630322367
 30
0.0
 40
1.0
 50
275.71059313750101
 51
0.0
  0
ARC
  5
1C9
  8
1外形線
 10
183.5124746439802
 20
75.713296068209957
 30
0.0
 40
1.0
 50
270.0
 51
0.0
  0
LINE
  5
1CA
  8
1外形線
 10
274.88685548420051
 20
201.64636450121171
 30
0.0
 11
222.40455468660849
 21
201.6463645012135
 31
0.0
  0
LINE
  5
1CB
  8
1外形線
 10
213.14570508540419
 20
152.64636450121341
 30
0.0
 11
284.14570508540447
 21
152.64636450121361
 31
0.0
  0
LINE
  5
1CC
  8
1外形線
 10
184.51247464398011
 20
103.2132960682097
 30
0.0
 11
170.5124746439798
 21
103.2132960682097
 31
0.0
  0
LINE
  5
1CD
  8
1外形線
 10
176.00131758098411
 20
105.0644117745094
 30
0.0
 11
183.6119783630011
 21
104.3033456963075
 31
0.0
  0
LINE
  5
1CE
  8
1外形線
  6
CONTINUOUS
 10
169.5124746439802
 20
93.713296068210525
 30
0.0
 11
183.5124746439802
 21
93.713296068210624
 31
0.0
  0
ARC
  5
1CF
  8
1外形線
 10
154.61247464397991
 20
109.7132960682098
 30
0.0
 40
2.1000000000000001
 50
90.0
 51
270.0
  0
ARC
  5
1D0
  8
1外形線
 10
158.41247464398
 20
109.7132960682098
 30
0.0
 40
2.1000000000000001
 50
270.0
 51
90.0
  0
LINE
  5
1D1
  8
1外形線
 10
167.51353768849651
 20
109.7143591127269
 30
0.0
 11
167.51353768849651
 21
108.2132960682097
 31
0.0
  0
LINE
  5
1D2
  8
1外形線
 10
165.51080936475691
 20
109.7132960682099
 30
0.0
 11
165.5108093647566
 21
103.7132960682105
 31
0.0
  0
LINE
  5
1D3
  8
1外形線
 10
142.51247464398031
 20
111.71329606820851
 30
0.0
 11
142.51247464397969
 21
105.7132960682097
 31
0.0
  0
LINE
  5
1D4
  8
1外形線
 10
158.41247464398
 20
107.61329606820981
 30
0.0
 11
154.61247464397991
 21
107.61329606821
 31
0.0
  0
ARC
  5
1D5
  8
1外形線
 10
141.51247464397969
 20
105.7132960682099
 30
0.0
 40
1.0
 50
270.0
 51
359.99999999999551
  0
ARC
  5
1D6
  8
1外形線
 10
168.51247464397929
 20
101.7132960682105
 30
0.0
 40
1.0
 50
0.0
 51
90.000000000000398
  0
ARC
  5
1D7
  8
1外形線
 10
170.5124746439798
 20
108.2132960682097
 30
0.0
 40
3.0
 50
180.0
 51
270.0
  0
ARC
  5
1D8
  8
1外形線
 10
170.5124746439798
 20
108.21496134743229
 30
0.0
 40
5.001665279222606
 50
180.0
 51
270.0
  0
ARC
  5
1D9
  8
1外形線
 10
166.5108093647558
 20
103.7132960682104
 30
0.0
 40
1.0
 50
180.0
 51
270.0
  0
LINE
  5
1DA
  8
1外形線
 10
168.51247464397929
 20
102.7132960682105
 30
0.0
 11
166.5108093647558
 21
102.7132960682105
 31
0.0
  0
ARC
  5
1DB
  8
1外形線
 10
173.0162060103535
 20
75.213296068209843
 30
0.0
 40
30.0
 50
84.289406862498979
 51
90.0
  0
LINE
  5
1DC
  8
1外形線
 10
173.0162060103535
 20
105.2132960682097
 30
0.0
 11
170.5124746439798
 21
105.2132960682097
 31
0.0
  0
ARC
  5
1DD
  8
1外形線
 10
157.51247464397991
 20
109.7132960682099
 30
0.0
 40
7.9983347207773932
 50
0.000000000010992
 51
90.0
  0
LINE
  5
1DE
  8
1外形線
 10
154.61247464397991
 20
111.8132960682097
 30
0.0
 11
158.41247464398
 21
111.81329606820979
 31
0.0
  0
ARC
  5
1DF
  8
1外形線
 10
157.51247464397991
 20
109.7132960682099
 30
0.0
 40
10.0
 50
0.000000000010992
 51
90.0
  0
LINE
  5
1E0
  8
1外形線
 10
138.32149163835521
 20
112.713296068209
 30
0.0
 11
141.5124746439804
 21
112.71329606820851
 31
0.0
  0
ARC
  5
1E1
  8
1外形線
 10
138.32149163835521
 20
112.2132960682099
 30
0.0
 40
0.5
 50
89.999999999993491
 51
153.4349488229218
  0
ARC
  5
1E2
  8
1外形線
 10
136.70345764960541
 20
111.2132960682099
 30
0.0
 40
0.5
 50
269.99999999999341
 51
333.4349488229214
  0
LINE
  5
1E3
  8
1外形線
 10
136.32149163835609
 20
110.71329606821
 30
0.0
 11
136.70345764960521
 21
110.7132960682099
 31
0.0
  0
LINE
  5
1E4
  8
1外形線
 10
137.1506712451052
 20
110.98968927046
 30
0.0
 11
137.8742780428552
 21
112.43690286595979
 31
0.0
  0
ARC
  5
1E5
  8
1外形線
 10
141.51247464398031
 20
111.71329606820851
 30
0.0
 40
1.0
 50
359.99999999999471
 51
89.999999999993491
  0
LINE
  5
1E6
  8
1外形線
 10
155.01247464398011
 20
115.71163078898709
 30
0.0
 11
155.01247464398011
 21
117.7116307889868
 31
0.0
  0
LINE
  5
1E7
  8
1外形線
 10
149.01247464398051
 20
115.71163078898709
 30
0.0
 11
149.01247464398031
 21
117.71163078898731
 31
0.0
  0
LINE
  5
1E8
  8
1外形線
 10
155.01247464398011
 20
115.71163078898709
 30
0.0
 11
149.01247464398031
 21
115.71163078898709
 31
0.0
  0
ARC
  5
1E9
  8
1外形線
 10
183.5124746439802
 20
92.71329606821007
 30
0.0
 40
1.0
 50
0.0
 51
90.0
  0
ARC
  5
1EA
  8
1外形線
 10
183.51247464398011
 20
103.3083085060975
 30
0.0
 40
1.0
 50
0.0
 51
84.289406862498979
  0
LINE
  5
1EB
  8
1外形線
 10
161.3300969900526
 20
152.64636450121341
 30
0.0
 11
160.0651107003612
 21
193.96924996447029
 31
0.0
  0
LINE
  5
1EC
  8
1外形線
  6
CONTINUOUS
 10
178.3300969900526
 20
152.64636450121341
 30
0.0
 11
178.3300969900524
 21
189.2413769391049
 31
0.0
  0
ARC
  5
1ED
  8
1外形線
 10
166.83382835642561
 20
161.14636450121691
 30
0.0
 40
30.0
 50
84.289406862500243
 51
89.999999999999588
  0
LINE
  5
1EE
  8
1外形線
  6
CONTINUOUS
 10
163.05987787676651
 20
191.1463645012125
 30
0.0
 11
166.83382835642561
 21
191.14636450121239
 31
0.0
  0
ARC
  5
1EF
  8
1外形線
 10
163.05987787676651
 20
194.1463645012125
 30
0.0
 40
3.0
 50
182.6052512650528
 51
269.99999999999869
  0
LINE
  5
1F0
  8
1外形線
 10
169.81893992705571
 20
190.9974802075167
 30
0.0
 11
177.42960070907321
 21
190.23641412931499
 31
0.0
  0
ARC
  5
1F1
  8
1外形線
 10
177.33009699005231
 20
189.2413769391049
 30
0.0
 40
1.0
 50
0.0
 51
84.289406862500243
  0
LINE
  5
1F2
  8
1外形線
 10
213.14570508540419
 20
152.64636450121341
 30
0.0
 11
214.40830049229189
 21
193.8911477928761
 31
0.0
  0
LINE
  5
1F3
  8
1外形線
 62
     3
 10
262.6457050854043
 20
155.1463645012133
 30
0.0
 11
267.6457050854043
 21
155.14636450121341
 31
0.0
  0
ARC
  5
1F4
  8
1外形線
 10
248.6457050854047
 20
170.14636450121341
 30
0.0
 40
19.0
 50
0.0
 51
180.0
  0
ARC
  5
1F5
  8
1外形線
 10
248.6457050854047
 20
170.14636450121341
 30
0.0
 40
21.0
 50
0.0
 51
180.0
  0
LINE
  5
1F6
  8
1外形線
  6
CONTINUOUS
 62
     3
 10
240.6457050854043
 20
157.1463645012135
 30
0.0
 11
256.64570508540419
 21
157.1463645012135
 31
0.0
  0
LINE
  5
1F7
  8
1外形線
 62
     3
 10
239.1457050854043
 20
155.1463645012135
 30
0.0
 11
258.14570508540379
 21
155.1463645012135
 31
0.0
  0
LINE
  5
1F8
  8
1外形線
  6
CONTINUOUS
 62
     3
 10
239.1457050854043
 20
158.6463645012135
 30
0.0
 11
239.1457050854043
 21
155.1463645012135
 31
0.0
  0
LINE
  5
1F9
  8
1外形線
 10
229.64570508540419
 20
152.64636450121341
 30
0.0
 11
229.64570508540419
 21
170.14636450121341
 31
0.0
  0
LINE
  5
1FA
  8
1外形線
 10
227.64570508540419
 20
152.64636450121341
 30
0.0
 11
227.64570508540419
 21
170.14636450121341
 31
0.0
  0
LINE
  5
1FB
  8
1外形線
 62
     3
 10
234.64570508540521
 20
157.64636450121341
 30
0.0
 11
234.64570508540541
 21
155.1463645012135
 31
0.0
  0
LINE
  5
1FC
  8
1外形線
 62
     3
 10
229.64570508540419
 20
155.1463645012135
 30
0.0
 11
234.64570508540541
 21
155.1463645012135
 31
0.0
  0
LINE
  5
1FD
  8
1外形線
  6
CONTINUOUS
 62
     3
 10
235.64570508540521
 20
158.64636450121341
 30
0.0
 11
240.6457050854043
 21
158.6463645012135
 31
0.0
  0
ARC
  5
1FE
  8
1外形線
 62
     3
 10
235.64570508540521
 20
157.64636450121341
 30
0.0
 40
1.0
 50
90.0
 51
180.00000000000281
  0
LINE
  5
1FF
  8
1外形線
  6
CONTINUOUS
 62
     3
 10
240.6457050854043
 20
158.6463645012135
 30
0.0
 11
240.6457050854043
 21
157.1463645012135
 31
0.0
  0
LINE
  5
200
  8
1外形線
 62
     3
 10
262.64570508540442
 20
157.64636450121341
 30
0.0
 11
262.6457050854043
 21
155.1463645012135
 31
0.0
  0
LINE
  5
201
  8
1外形線
  6
CONTINUOUS
 62
     3
 10
258.1457050854043
 20
158.6463645012135
 30
0.0
 11
258.1457050854043
 21
155.1463645012135
 31
0.0
  0
LINE
  5
202
  8
1外形線
  6
CONTINUOUS
 62
     3
 10
261.64570508540442
 20
158.64636450121341
 30
0.0
 11
256.64570508540419
 21
158.6463645012135
 31
0.0
  0
LINE
  5
203
  8
1外形線
  6
CONTINUOUS
 62
     3
 10
256.64570508540419
 20
158.6463645012135
 30
0.0
 11
256.64570508540419
 21
157.1463645012135
 31
0.0
  0
ARC
  5
204
  8
1外形線
 62
     3
 10
261.64570508540442
 20
157.64636450121341
 30
0.0
 40
1.0
 50
359.9999999999971
 51
90.0
  0
LINE
  5
205
  8
1外形線
 10
284.14570508540447
 20
152.64636450121361
 30
0.0
 11
282.88310967851669
 21
193.8911477928761
 31
0.0
  0
LINE
  5
206
  8
1外形線
 10
267.6457050854043
 20
152.64636450121341
 30
0.0
 11
267.6457050854043
 21
170.14636450121341
 31
0.0
  0
LINE
  5
207
  8
1外形線
 10
269.64570508540419
 20
152.64636450121341
 30
0.0
 11
269.64570508540419
 21
170.14636450121341
 31
0.0
  0
LINE
  5
208
  8
1外形線
 10
69.33009699005288
 20
293.9931072560118
 30
0.0
 11
151.3300969900524
 21
293.9931072560118
 31
0.0
  0
LINE
  5
209
  8
1外形線
 10
69.33009699005288
 20
222.99310725601191
 30
0.0
 11
151.3300969900526
 21
222.99310725601191
 31
0.0
  0
LINE
  5
20A
  8
1外形線
 10
59.330096990053327
 20
283.9931072560118
 30
0.0
 11
59.3300969900531
 21
232.9931072560118
 31
0.0
  0
CIRCLE
  5
20B
  8
1外形線
 10
110.3300969900526
 20
258.4931072560118
 30
0.0
 40
24.0
  0
CIRCLE
  5
20C
  8
1外形線
 10
110.3300969900526
 20
258.4931072560118
 30
0.0
 40
20.0
  0
ARC
  5
20D
  8
1外形線
 10
69.330096990053093
 20
232.9931072560118
 30
0.0
 40
10.0
 50
180.0
 51
270.0
  0
ARC
  5
20E
  8
1外形線
 10
69.330096990053335
 20
283.9931072560118
 30
0.0
 40
10.0
 50
90.0
 51
180.0
  0
LINE
  5
20F
  8
1外形線
 10
161.3300969900524
 20
283.99310725601413
 30
0.0
 11
161.3300969900524
 21
232.9931072560118
 31
0.0
  0
LINE
  5
210
  8
1外形線
 10
178.33009699005251
 20
277.58811969389939
 30
0.0
 11
178.33009699005251
 21
239.39809481812421
 31
0.0
  0
ARC
  5
211
  8
1外形線
 10
151.3300969900524
 20
232.9931072560118
 30
0.0
 40
10.0
 50
270.0
 51
359.99999999998897
  0
ARC
  5
212
  8
1外形線
 10
166.83382835642601
 20
267.49310725601191
 30
0.0
 40
30.0
 50
270.0
 51
275.71059313750061
  0
ARC
  5
213
  8
1外形線
 10
164.3300969900524
 20
234.49310725601231
 30
0.0
 40
3.0
 50
90.0
 51
180.0
  0
LINE
  5
214
  8
1外形線
 10
166.83382835642601
 20
237.49310725601219
 30
0.0
 11
164.3300969900524
 21
237.49310725601219
 31
0.0
  0
LINE
  5
215
  8
1外形線
 10
169.8189399270565
 20
237.64199154971229
 30
0.0
 11
177.42960070907361
 21
238.40305762791419
 31
0.0
  0
ARC
  5
216
  8
1外形線
 10
177.33009699005251
 20
239.39809481812421
 30
0.0
 40
1.0
 50
275.71059313750101
 51
0.0
  0
ARC
  5
217
  8
1外形線
 10
151.3300969900524
 20
283.9931072560118
 30
0.0
 40
10.0
 50
0.000000000010992
 51
90.0
  0
LINE
  5
218
  8
1外形線
 10
169.8189399270565
 20
279.34422296231139
 30
0.0
 11
177.42960070907361
 21
278.58315688410948
 31
0.0
  0
ARC
  5
219
  8
1外形線
 10
164.3300969900524
 20
282.4931072560118
 30
0.0
 40
3.0
 50
180.0
 51
270.0
  0
ARC
  5
21A
  8
1外形線
 10
177.33009699005251
 20
277.58811969389939
 30
0.0
 40
1.0
 50
0.0
 51
84.289406862498979
  0
ARC
  5
21B
  8
1外形線
 10
166.83382835642601
 20
249.49310725601171
 30
0.0
 40
30.0
 50
84.289406862498979
 51
90.0
  0
LINE
  5
21C
  8
1外形線
 10
166.83382835642601
 20
279.4931072560118
 30
0.0
 11
164.3300969900524
 21
279.4931072560118
 31
0.0
  0
ENDSEC
  0
EOF
