  0
SECTION
  2
HEADER
  9
$ACADVER
  1
AC1009
  9
$INSBASE
 10
0.0
 20
0.0
 30
0.0
  9
$EXTMIN
 10
47.504854554341676
 20
50.710088271725439
 30
0.0
  9
$EXTMAX
 10
95.304854554341688
 20
125.8814833187606
 30
0.0
  9
$LIMMIN
 10
0.0
 20
0.0
  9
$LIMMAX
 10
420.0
 20
297.0
  9
$ORTHOMODE
 70
     0
  9
$REGENMODE
 70
     1
  9
$FILLMODE
 70
     1
  9
$QTEXTMODE
 70
     0
  9
$MIRRTEXT
 70
     1
  9
$DRAGMODE
 70
     2
  9
$LTSCALE
 40
1.0
  9
$OSMODE
 70
    37
  9
$ATTMODE
 70
     1
  9
$TEXTSIZE
 40
2.5
  9
$TRACEWID
 40
1.0
  9
$TEXTSTYLE
  7
STANDARD
  9
$CLAYER
  8
0
  9
$CELTYPE
  6
BYLAYER
  9
$CECOLOR
 62
   256
  9
$DIMSCALE
 40
1.0
  9
$DIMASZ
 40
2.5
  9
$DIMEXO
 40
0.625
  9
$DIMDLI
 40
3.75
  9
$DIMRND
 40
0.0
  9
$DIMDLE
 40
0.0
  9
$DIMEXE
 40
1.25
  9
$DIMTP
 40
0.0
  9
$DIMTM
 40
0.0
  9
$DIMTXT
 40
2.5
  9
$DIMCEN
 40
2.5
  9
$DIMTSZ
 40
0.0
  9
$DIMTOL
 70
     0
  9
$DIMLIM
 70
     0
  9
$DIMTIH
 70
     0
  9
$DIMTOH
 70
     0
  9
$DIMSE1
 70
     0
  9
$DIMSE2
 70
     0
  9
$DIMTAD
 70
     1
  9
$DIMZIN
 70
     8
  9
$DIMBLK
  1

  9
$DIMASO
 70
     1
  9
$DIMSHO
 70
     1
  9
$DIMPOST
  1

  9
$DIMAPOST
  1

  9
$DIMALT
 70
     0
  9
$DIMALTD
 70
     3
  9
$DIMALTF
 40
0.03937007874016
  9
$DIMLFAC
 40
1.0
  9
$DIMTOFL
 70
     1
  9
$DIMTVP
 40
0.0
  9
$DIMTIX
 70
     0
  9
$DIMSOXD
 70
     0
  9
$DIMSAH
 70
     0
  9
$DIMBLK1
  1

  9
$DIMBLK2
  1

  9
$DIMSTYLE
  2
ISO-25
  9
$DIMCLRD
 70
     0
  9
$DIMCLRE
 70
     0
  9
$DIMCLRT
 70
     0
  9
$DIMTFAC
 40
1.0
  9
$DIMGAP
 40
0.625
  9
$LUNITS
 70
     2
  9
$LUPREC
 70
     4
  9
$SKETCHINC
 40
1.0
  9
$FILLETRAD
 40
10.0
  9
$AUNITS
 70
     0
  9
$AUPREC
 70
     0
  9
$MENU
  1
.
  9
$ELEVATION
 40
0.0
  9
$PELEVATION
 40
0.0
  9
$THICKNESS
 40
0.0
  9
$LIMCHECK
 70
     0
  9
$BLIPMODE
 70
     0
  9
$CHAMFERA
 40
10.0
  9
$CHAMFERB
 40
10.0
  9
$SKPOLY
 70
     0
  9
$TDCREATE
 40
2452451.5900781481
  9
$TDUPDATE
 40
2452451.5902980212
  9
$TDINDWG
 40
0.0002201042
  9
$TDUSRTIMER
 40
0.0002201042
  9
$USRTIMER
 70
     1
  9
$ANGBASE
 50
0.0
  9
$ANGDIR
 70
     0
  9
$PDMODE
 70
     0
  9
$PDSIZE
 40
0.0
  9
$PLINEWID
 40
0.0
  9
$COORDS
 70
     1
  9
$SPLFRAME
 70
     0
  9
$SPLINETYPE
 70
     6
  9
$SPLINESEGS
 70
     8
  9
$ATTDIA
 70
     0
  9
$ATTREQ
 70
     1
  9
$HANDLING
 70
-16383
  9
$HANDSEED
  5
91
  9
$SURFTAB1
 70
     6
  9
$SURFTAB2
 70
     6
  9
$SURFTYPE
 70
     6
  9
$SURFU
 70
     6
  9
$SURFV
 70
     6
  9
$UCSNAME
  2

  9
$UCSORG
 10
0.0
 20
0.0
 30
0.0
  9
$UCSXDIR
 10
1.0
 20
0.0
 30
0.0
  9
$UCSYDIR
 10
0.0
 20
1.0
 30
0.0
  9
$PUCSNAME
  2

  9
$PUCSORG
 10
0.0
 20
0.0
 30
0.0
  9
$PUCSXDIR
 10
1.0
 20
0.0
 30
0.0
  9
$PUCSYDIR
 10
0.0
 20
1.0
 30
0.0
  9
$USERI1
 70
     0
  9
$USERI2
 70
     0
  9
$USERI3
 70
     0
  9
$USERI4
 70
     0
  9
$USERI5
 70
     0
  9
$USERR1
 40
0.0
  9
$USERR2
 40
0.0
  9
$USERR3
 40
0.0
  9
$USERR4
 40
0.0
  9
$USERR5
 40
0.0
  9
$WORLDVIEW
 70
     1
  9
$SHADEDGE
 70
     3
  9
$SHADEDIF
 70
    70
  9
$TILEMODE
 70
     1
  9
$MAXACTVP
 70
    64
  9
$PLIMCHECK
 70
     0
  9
$PEXTMIN
 10
1.0000000000000000E+020
 20
1.0000000000000000E+020
 30
1.0000000000000000E+020
  9
$PEXTMAX
 10
-1.0000000000000000E+020
 20
-1.0000000000000000E+020
 30
-1.0000000000000000E+020
  9
$PLIMMIN
 10
0.0
 20
0.0
  9
$PLIMMAX
 10
420.0
 20
297.0
  9
$UNITMODE
 70
     0
  9
$VISRETAIN
 70
     1
  9
$PLINEGEN
 70
     0
  9
$PSLTSCALE
 70
     1
  0
ENDSEC
  0
SECTION
  2
TABLES
  0
TABLE
  2
VPORT
 70
     3
  0
VPORT
  2
*ACTIVE
 70
     0
 10
0.0
 20
0.0
 11
1.0
 21
1.0
 12
209.99999999999989
 22
159.7959183673469
 13
0.0
 23
0.0
 14
10.0
 24
10.0
 15
10.0
 25
10.0
 16
0.0
 26
0.0
 36
1.0
 17
0.0
 27
0.0
 37
0.0
 40
319.5918367346938
 41
1.3141762452107271
 42
50.0
 43
0.0
 44
0.0
 50
0.0
 51
0.0
 71
     0
 72
   100
 73
     1
 74
     3
 75
     0
 76
     0
 77
     0
 78
     0
  0
ENDTAB
  0
TABLE
  2
LTYPE
 70
     2
  0
LTYPE
  2
CONTINUOUS
 70
     0
  3
Solid line
 72
    65
 73
     0
 40
0.0
  0
LTYPE
  2
CENTER
 70
     0
  3
____ _ ____ _ ____ _ ____ _ ____ _ ____ _ ____ 
 72
    65
 73
     4
 40
2.0
 49
1.25
 49
-0.25
 49
0.25
 49
-0.25
  0
ENDTAB
  0
TABLE
  2
LAYER
 70
     2
  0
LAYER
  2
0
 70
     0
 62
     7
  6
CONTINUOUS
  0
LAYER
  2
1外形線
 70
     0
 62
     3
  6
CONTINUOUS
  0
ENDTAB
  0
TABLE
  2
STYLE
 70
     2
  0
STYLE
  2
STANDARD
 70
     0
 40
0.0
 41
1.0
 50
0.0
 71
     0
 42
2.5
  3
txt
  4

  0
STYLE
  2
KANJI
 70
     0
 40
0.0
 41
1.0
 50
0.0
 71
     0
 42
8.0
  3
simplex
  4
bigfont
  0
ENDTAB
  0
TABLE
  2
VIEW
 70
     0
  0
ENDTAB
  0
TABLE
  2
UCS
 70
     0
  0
ENDTAB
  0
TABLE
  2
APPID
 70
     1
  0
APPID
  2
ACAD
 70
     0
  0
ENDTAB
  0
TABLE
  2
DIMSTYLE
 70
     2
  0
DIMSTYLE
  2
ISO-25
 70
     0
  3

  4

  5

  6

  7

 40
1.0
 41
2.5
 42
0.625
 43
3.75
 44
1.25
 45
0.0
 46
0.0
 47
0.0
 48
0.0
140
2.5
141
2.5
142
0.0
143
0.03937007874016
144
1.0
145
0.0
146
1.0
147
0.625
 71
     0
 72
     0
 73
     0
 74
     0
 75
     0
 76
     0
 77
     1
 78
     8
170
     0
171
     3
172
     1
173
     0
174
     0
175
     0
176
     0
177
     0
178
     0
  0
DIMSTYLE
  2
STANDARD
 70
     0
  3

  4

  5

  6
1
  7
1
 40
1.0
 41
1.0
 42
1.0
 43
6.0
 44
1.0
 45
0.0
 46
0.0
 47
0.0
 48
0.0
140
2.5
141
0.0
142
0.0
143
25.399999999999999
144
1.0
145
0.0
146
1.0
147
0.5
 71
     0
 72
     0
 73
     0
 74
     0
 75
     0
 76
     0
 77
     1
 78
     8
170
     0
171
     2
172
     1
173
     1
174
     0
175
     0
176
     0
177
     0
178
     0
  0
ENDTAB
  0
ENDSEC
  0
SECTION
  2
BLOCKS
  0
BLOCK
  8
0
  2
$MODEL_SPACE
 70
     0
 10
0.0
 20
0.0
 30
0.0
  3
$MODEL_SPACE
  1

  0
ENDBLK
  5
21
  8
0
  0
BLOCK
 67
     1
  8
0
  2
$PAPER_SPACE
 70
     0
 10
0.0
 20
0.0
 30
0.0
  3
$PAPER_SPACE
  1

  0
ENDBLK
  5
1D
 67
     1
  8
0
  0
BLOCK
  8
0
  2
1
 70
     0
 10
0.0
 20
0.0
 30
0.0
  3
1
  1

  0
SOLID
  5
2C
  8
0
  6
BYBLOCK
 62
     0
 10
-1.811110924292052
 20
0.4852857095671653
 30
0.0
 11
-1.811110924292052
 21
-0.4852857095673642
 31
0.0
 12
0.0
 22
0.0
 32
0.0
 13
0.0
 23
0.0
 33
0.0
  0
ENDBLK
  5
2E
  8
0
  0
ENDSEC
  0
SECTION
  2
ENTITIES
  0
CIRCLE
  5
61
  8
1外形線
 10
71.404854554341682
 20
101.9814833187606
 30
0.0
 40
23.899999999999999
  0
CIRCLE
  5
62
  8
1外形線
 10
71.404854554341682
 20
101.9814833187606
 30
0.0
 40
20.0
  0
LINE
  5
63
  8
1外形線
 10
95.304854554341645
 20
51.751509627964182
 30
0.0
 11
47.504854554341698
 21
51.751509627964538
 31
0.0
  0
LINE
  5
64
  8
1外形線
 10
95.304854554341645
 20
53.751509627964978
 30
0.0
 11
47.504854554341698
 21
53.751509627964992
 31
0.0
  0
LINE
  5
65
  8
1外形線
 10
47.504854554341698
 20
53.751509627964992
 30
0.0
 11
47.504854554341698
 21
51.75150962796419
 31
0.0
  0
ARC
  5
66
  8
1外形線
 10
52.204854554341573
 20
50.951509627964121
 30
0.0
 40
0.2
 50
270.0
 51
0.0000000000016284
  0
ARC
  5
67
  8
1外形線
 10
51.604854554341728
 20
50.951509627964121
 30
0.0
 40
0.2
 50
180.00000000000321
 51
269.99999999999829
  0
LINE
  5
68
  8
1外形線
 10
52.204854554341573
 20
50.751509627964197
 30
0.0
 11
51.604854554341728
 21
50.751509627964197
 31
0.0
  0
LINE
  5
69
  8
1外形線
 10
51.404854554341682
 20
51.75150962796431
 30
0.0
 11
51.404854554341803
 21
50.951509627964128
 31
0.0
  0
LINE
  5
6A
  8
1外形線
 10
52.404854554341568
 20
51.75150962796419
 30
0.0
 11
52.404854554341568
 21
50.951509627964128
 31
0.0
  0
ARC
  5
6B
  8
1外形線
 10
72.20485455434175
 20
50.951509627962857
 30
0.0
 40
0.2
 50
270.00000000000409
 51
0.0
  0
ARC
  5
6C
  8
1外形線
 10
70.604854554341671
 20
50.951509627962743
 30
0.0
 40
0.2
 50
180.00000000000159
 51
270.00000000000409
  0
LINE
  5
6D
  8
1外形線
 10
70.604854554341671
 20
50.751509627962712
 30
0.0
 11
72.20485455434175
 21
50.751509627962832
 31
0.0
  0
LINE
  5
6E
  8
1外形線
 10
72.404854554341682
 20
50.951509627962878
 30
0.0
 11
72.404854554341682
 21
51.751509627964083
 31
0.0
  0
LINE
  5
6F
  8
1外形線
 10
70.404854554341682
 20
50.951509627962757
 30
0.0
 11
70.404854554341682
 21
51.751509627964417
 31
0.0
  0
ARC
  5
70
  8
1外形線
 10
91.204854554341637
 20
50.951509627964107
 30
0.0
 40
0.2
 50
270.00000000000159
 51
359.9999999999967
  0
ARC
  5
71
  8
1外形線
 10
90.604854554341728
 20
50.951509627964107
 30
0.0
 40
0.2
 50
179.99999999999829
 51
270.00000000000159
  0
LINE
  5
72
  8
1外形線
 10
90.604854554341728
 20
50.751509627964182
 30
0.0
 11
91.204854554341637
 21
50.751509627964182
 31
0.0
  0
LINE
  5
73
  8
1外形線
 10
90.404854554341796
 20
51.751509627964182
 30
0.0
 11
90.404854554341796
 21
50.951509627964107
 31
0.0
  0
LINE
  5
74
  8
1外形線
 10
91.404854554341682
 20
51.751509627964289
 30
0.0
 11
91.404854554341568
 21
50.951509627964107
 31
0.0
  0
LINE
  5
75
  8
1外形線
 10
95.304854554341645
 20
53.751509627964978
 30
0.0
 11
95.304854554341645
 21
51.751509627964182
 31
0.0
  0
ARC
  5
76
  8
1外形線
 10
72.204854554341694
 20
82.781483318760579
 30
0.0
 40
0.2
 50
0.0
 51
90.0
  0
LINE
  5
77
  8
1外形線
  6
CENTER
 10
72.404854554341682
 20
82.006498963322542
 30
0.0
 11
72.404854554341682
 21
82.781483318760579
 31
0.0
  0
ARC
  5
78
  8
1外形線
 10
70.604854554341713
 20
82.781483318760579
 30
0.0
 40
0.2
 50
90.0
 51
179.99999999999631
  0
LINE
  5
79
  8
1外形線
  6
CENTER
 10
70.404854554341682
 20
82.006498963322542
 30
0.0
 11
70.404854554341739
 21
82.781483318760579
 31
0.0
  0
LINE
  5
7A
  8
1外形線
 10
70.604854554341713
 20
82.981483318760525
 30
0.0
 11
72.204854554341694
 21
82.981483318760525
 31
0.0
  0
ARC
  5
7B
  8
1外形線
 10
52.204854554341637
 20
102.78148331876061
 30
0.0
 40
0.2
 50
0.0
 51
89.999999999998366
  0
ARC
  5
7C
  8
1外形線
 10
52.204854554341637
 20
101.1814833187605
 30
0.0
 40
0.2
 50
270.0
 51
0.0
  0
LINE
  5
7D
  8
1外形線
  6
CENTER
 10
51.429870198903473
 20
100.9814833187606
 30
0.0
 11
52.204854554341637
 21
100.9814833187606
 31
0.0
  0
LINE
  5
7E
  8
1外形線
  6
CENTER
 10
51.429870198903473
 20
102.9814833187606
 30
0.0
 11
52.204854554341637
 21
102.9814833187606
 31
0.0
  0
LINE
  5
7F
  8
1外形線
 10
52.404854554341618
 20
102.78148331876061
 30
0.0
 11
52.404854554341618
 21
101.1814833187605
 31
0.0
  0
ARC
  5
80
  8
1外形線
 10
90.604854554341728
 20
102.78148331876049
 30
0.0
 40
0.2
 50
90.000000000001606
 51
180.00000000000119
  0
ARC
  5
81
  8
1外形線
 10
90.604854554341728
 20
101.1814833187605
 30
0.0
 40
0.2
 50
180.0
 51
270.0
  0
LINE
  5
82
  8
1外形線
 10
90.404854554341796
 20
102.78148331876061
 30
0.0
 11
90.404854554341796
 21
101.1814833187605
 31
0.0
  0
LINE
  5
83
  8
1外形線
  6
CENTER
 10
91.379838909779906
 20
102.9814833187606
 30
0.0
 11
90.604854554341728
 21
102.9814833187606
 31
0.0
  0
LINE
  5
84
  8
1外形線
  6
CENTER
 10
91.379838909779906
 20
100.9814833187606
 30
0.0
 11
90.604854554341728
 21
100.9814833187606
 31
0.0
  0
ARC
  5
85
  8
1外形線
 10
72.204854554341694
 20
121.1814833187606
 30
0.0
 40
0.2
 50
270.0
 51
0.0
  0
LINE
  5
86
  8
1外形線
  6
CENTER
 10
72.404854554341682
 20
121.95646767419881
 30
0.0
 11
72.404854554341682
 21
121.1814833187606
 31
0.0
  0
ARC
  5
87
  8
1外形線
 10
70.604854554341713
 20
121.1814833187606
 30
0.0
 40
0.2
 50
180.00000000000321
 51
270.0
  0
LINE
  5
88
  8
1外形線
  6
CENTER
 10
70.404854554341682
 20
121.95646767419881
 30
0.0
 11
70.404854554341682
 21
121.1814833187606
 31
0.0
  0
LINE
  5
89
  8
1外形線
 10
70.604854554341713
 20
120.9814833187607
 30
0.0
 11
72.204854554341694
 21
120.9814833187607
 31
0.0
  0
ENDSEC
  0
EOF
