  0
SECTION
  2
HEADER
  9
$ACADVER
  1
AC1009
  9
$INSBASE
 10
0.0
 20
0.0
 30
0.0
  9
$EXTMIN
 10
31.585071777070251
 20
-25.750029856048059
 30
-0.0015258207003583
  9
$EXTMAX
 10
410.02066347332948
 20
186.25841171300181
 30
0.0000000349246037
  9
$LIMMIN
 10
0.0
 20
0.0
  9
$LIMMAX
 10
420.0
 20
297.0
  9
$ORTHOMODE
 70
     0
  9
$REGENMODE
 70
     1
  9
$FILLMODE
 70
     1
  9
$QTEXTMODE
 70
     0
  9
$MIRRTEXT
 70
     1
  9
$DRAGMODE
 70
     2
  9
$LTSCALE
 40
1.0
  9
$OSMODE
 70
    37
  9
$ATTMODE
 70
     1
  9
$TEXTSIZE
 40
2.5
  9
$TRACEWID
 40
1.0
  9
$TEXTSTYLE
  7
STANDARD
  9
$CLAYER
  8
0
  9
$CELTYPE
  6
BYLAYER
  9
$CECOLOR
 62
   256
  9
$DIMSCALE
 40
1.0
  9
$DIMASZ
 40
2.5
  9
$DIMEXO
 40
0.625
  9
$DIMDLI
 40
3.75
  9
$DIMRND
 40
0.0
  9
$DIMDLE
 40
0.0
  9
$DIMEXE
 40
1.25
  9
$DIMTP
 40
0.0
  9
$DIMTM
 40
0.0
  9
$DIMTXT
 40
2.5
  9
$DIMCEN
 40
2.5
  9
$DIMTSZ
 40
0.0
  9
$DIMTOL
 70
     0
  9
$DIMLIM
 70
     0
  9
$DIMTIH
 70
     0
  9
$DIMTOH
 70
     0
  9
$DIMSE1
 70
     0
  9
$DIMSE2
 70
     0
  9
$DIMTAD
 70
     1
  9
$DIMZIN
 70
     8
  9
$DIMBLK
  1

  9
$DIMASO
 70
     1
  9
$DIMSHO
 70
     1
  9
$DIMPOST
  1

  9
$DIMAPOST
  1

  9
$DIMALT
 70
     0
  9
$DIMALTD
 70
     3
  9
$DIMALTF
 40
0.03937007874016
  9
$DIMLFAC
 40
1.0
  9
$DIMTOFL
 70
     1
  9
$DIMTVP
 40
0.0
  9
$DIMTIX
 70
     0
  9
$DIMSOXD
 70
     0
  9
$DIMSAH
 70
     0
  9
$DIMBLK1
  1

  9
$DIMBLK2
  1

  9
$DIMSTYLE
  2
ISO-25
  9
$DIMCLRD
 70
     0
  9
$DIMCLRE
 70
     0
  9
$DIMCLRT
 70
     0
  9
$DIMTFAC
 40
1.0
  9
$DIMGAP
 40
0.625
  9
$LUNITS
 70
     2
  9
$LUPREC
 70
     4
  9
$SKETCHINC
 40
1.0
  9
$FILLETRAD
 40
10.0
  9
$AUNITS
 70
     0
  9
$AUPREC
 70
     0
  9
$MENU
  1
.
  9
$ELEVATION
 40
0.0
  9
$PELEVATION
 40
0.0
  9
$THICKNESS
 40
0.0
  9
$LIMCHECK
 70
     0
  9
$BLIPMODE
 70
     0
  9
$CHAMFERA
 40
10.0
  9
$CHAMFERB
 40
10.0
  9
$SKPOLY
 70
     0
  9
$TDCREATE
 40
2452048.587873715
  9
$TDUPDATE
 40
2452048.5944173839
  9
$TDINDWG
 40
0.0065443634
  9
$TDUSRTIMER
 40
0.0065443634
  9
$USRTIMER
 70
     1
  9
$ANGBASE
 50
0.0
  9
$ANGDIR
 70
     0
  9
$PDMODE
 70
     0
  9
$PDSIZE
 40
0.0
  9
$PLINEWID
 40
0.0
  9
$COORDS
 70
     1
  9
$SPLFRAME
 70
     0
  9
$SPLINETYPE
 70
     6
  9
$SPLINESEGS
 70
     8
  9
$ATTDIA
 70
     0
  9
$ATTREQ
 70
     1
  9
$HANDLING
 70
-16383
  9
$HANDSEED
  5
A88
  9
$SURFTAB1
 70
     6
  9
$SURFTAB2
 70
     6
  9
$SURFTYPE
 70
     6
  9
$SURFU
 70
     6
  9
$SURFV
 70
     6
  9
$UCSNAME
  2

  9
$UCSORG
 10
0.0
 20
0.0
 30
0.0
  9
$UCSXDIR
 10
1.0
 20
0.0
 30
0.0
  9
$UCSYDIR
 10
0.0
 20
1.0
 30
0.0
  9
$PUCSNAME
  2

  9
$PUCSORG
 10
0.0
 20
0.0
 30
0.0
  9
$PUCSXDIR
 10
1.0
 20
0.0
 30
0.0
  9
$PUCSYDIR
 10
0.0
 20
1.0
 30
0.0
  9
$USERI1
 70
     0
  9
$USERI2
 70
     0
  9
$USERI3
 70
     0
  9
$USERI4
 70
     0
  9
$USERI5
 70
     0
  9
$USERR1
 40
0.0
  9
$USERR2
 40
0.0
  9
$USERR3
 40
0.0
  9
$USERR4
 40
0.0
  9
$USERR5
 40
0.0
  9
$WORLDVIEW
 70
     1
  9
$SHADEDGE
 70
     3
  9
$SHADEDIF
 70
    70
  9
$TILEMODE
 70
     1
  9
$MAXACTVP
 70
    64
  9
$PLIMCHECK
 70
     0
  9
$PEXTMIN
 10
1.0000000000000000E+020
 20
1.0000000000000000E+020
 30
1.0000000000000000E+020
  9
$PEXTMAX
 10
-1.0000000000000000E+020
 20
-1.0000000000000000E+020
 30
-1.0000000000000000E+020
  9
$PLIMMIN
 10
0.0
 20
0.0
  9
$PLIMMAX
 10
420.0
 20
297.0
  9
$UNITMODE
 70
     0
  9
$VISRETAIN
 70
     1
  9
$PLINEGEN
 70
     0
  9
$PSLTSCALE
 70
     1
  0
ENDSEC
  0
SECTION
  2
TABLES
  0
TABLE
  2
VPORT
 70
    15
  0
VPORT
  2
*ACTIVE
 70
     0
 10
0.0
 20
0.0
 11
1.0
 21
1.0
 12
166.35681071652851
 22
20.724196577187389
 13
0.0
 23
0.0
 14
10.0
 24
10.0
 15
10.0
 25
10.0
 16
0.0
 26
0.0
 36
1.0
 17
0.0
 27
0.0
 37
0.0
 40
1136.324781988588
 41
0.8452830188679245
 42
50.0
 43
0.0
 44
0.0
 50
0.0
 51
0.0
 71
     0
 72
   100
 73
     1
 74
     3
 75
     0
 76
     0
 77
     0
 78
     0
  0
ENDTAB
  0
TABLE
  2
LTYPE
 70
     1
  0
LTYPE
  2
CONTINUOUS
 70
     0
  3
Solid line
 72
    65
 73
     0
 40
0.0
  0
ENDTAB
  0
TABLE
  2
LAYER
 70
     2
  0
LAYER
  2
0
 70
     0
 62
     7
  6
CONTINUOUS
  0
LAYER
  2
1外形線
 70
     0
 62
     3
  6
CONTINUOUS
  0
ENDTAB
  0
TABLE
  2
STYLE
 70
     2
  0
STYLE
  2
STANDARD
 70
     0
 40
0.0
 41
1.0
 50
0.0
 71
     0
 42
2.5
  3
txt
  4

  0
STYLE
  2
KANJI
 70
     0
 40
0.0
 41
1.0
 50
0.0
 71
     0
 42
10.0
  3
simplex
  4
bigfont
  0
ENDTAB
  0
TABLE
  2
VIEW
 70
     0
  0
ENDTAB
  0
TABLE
  2
UCS
 70
     0
  0
ENDTAB
  0
TABLE
  2
APPID
 70
     1
  0
APPID
  2
ACAD
 70
     0
  0
ENDTAB
  0
TABLE
  2
DIMSTYLE
 70
     2
  0
DIMSTYLE
  2
ISO-25
 70
     0
  3

  4

  5

  6

  7

 40
1.0
 41
2.5
 42
0.625
 43
3.75
 44
1.25
 45
0.0
 46
0.0
 47
0.0
 48
0.0
140
2.5
141
2.5
142
0.0
143
0.03937007874016
144
1.0
145
0.0
146
1.0
147
0.625
 71
     0
 72
     0
 73
     0
 74
     0
 75
     0
 76
     0
 77
     1
 78
     8
170
     0
171
     3
172
     1
173
     0
174
     0
175
     0
176
     0
177
     0
178
     0
  0
DIMSTYLE
  2
STANDARD
 70
     0
  3

  4

  5

  6
1
  7
1
 40
1.0
 41
1.0
 42
1.0
 43
6.0
 44
1.0
 45
0.0
 46
0.0
 47
0.0
 48
0.0
140
2.5
141
0.0
142
0.0
143
25.399999999999999
144
1.0
145
0.0
146
1.0
147
0.5
 71
     0
 72
     0
 73
     0
 74
     0
 75
     0
 76
     0
 77
     1
 78
     8
170
     0
171
     2
172
     1
173
     1
174
     0
175
     0
176
     0
177
     0
178
     0
  0
ENDTAB
  0
ENDSEC
  0
SECTION
  2
BLOCKS
  0
BLOCK
  8
0
  2
$MODEL_SPACE
 70
     0
 10
0.0
 20
0.0
 30
0.0
  3
$MODEL_SPACE
  1

  0
ENDBLK
  5
21
  8
0
  0
BLOCK
 67
     1
  8
0
  2
$PAPER_SPACE
 70
     0
 10
0.0
 20
0.0
 30
0.0
  3
$PAPER_SPACE
  1

  0
ENDBLK
  5
1D
 67
     1
  8
0
  0
BLOCK
  8
0
  2
1
 70
     0
 10
0.0
 20
0.0
 30
0.0
  3
1
  1

  0
SOLID
  5
2C
  8
0
  6
BYBLOCK
 62
     0
 10
-1.811110924292052
 20
0.4852857095671653
 30
0.0
 11
-1.811110924292052
 21
-0.4852857095673642
 31
0.0
 12
0.0
 22
0.0
 32
0.0
 13
0.0
 23
0.0
 33
0.0
  0
ENDBLK
  5
2E
  8
0
  0
ENDSEC
  0
SECTION
  2
ENTITIES
  0
LINE
  5
9B0
  8
1外形線
 10
93.585071777070766
 20
97.424053417227924
 30
0.0
 11
93.585071777070766
 21
137.42405341722761
 31
0.0
  0
LINE
  5
9B1
  8
1外形線
 10
138.58507177707071
 20
136.4728041975099
 30
0.0
 11
138.58507177707071
 21
98.375302636945548
 31
0.0
  0
ARC
  5
9B2
  8
1外形線
 10
61.585071777071683
 20
108.42405341722861
 30
0.0
 40
30.0
 50
90.0
 51
180.0
  0
ARC
  5
9B3
  8
1外形線
 10
81.585071777070254
 20
56.979608972797223
 30
0.0
 40
50.0
 50
179.99999999999341
 51
192.680383491821
  0
LINE
  5
9B4
  8
1外形線
 10
73.585071777075925
 20
31.42405341722883
 30
0.0
 11
73.585071777076166
 21
76.424053417228833
 31
0.0
  0
LINE
  5
9B5
  8
1外形線
 10
73.585071777075925
 20
31.42405341722883
 30
0.0
 11
36.885071777073392
 21
31.42405341722883
 31
0.0
  0
LINE
  5
9B6
  8
1外形線
 10
32.804583972192233
 20
46.003999216699633
 30
0.0
 11
35.909462020975809
 21
32.204541222106847
 31
0.0
  0
ARC
  5
9B7
  8
1外形線
 10
36.885071777073328
 20
32.424053417228833
 30
0.0
 40
1.0
 50
192.680383491821
 51
270.0
  0
LINE
  5
9B8
  8
1外形線
 10
117.33585205206271
 20
96.424053417224627
 30
0.0
 11
94.585071777070524
 21
96.424053417227924
 31
0.0
  0
ARC
  5
9B9
  8
1外形線
 10
131.58507177707159
 20
93.882333955786848
 30
0.0
 40
100.0
 50
180.0
 51
188.530765609952
  0
ARC
  5
9BA
  8
1外形線
 10
-26.414928222926282
 20
93.882333955787075
 30
0.0
 40
100.0
 50
351.46923439004792
 51
0.0
  0
LINE
  5
9BB
  8
1外形線
 10
32.585071777072748
 20
76.424053417228833
 30
0.0
 11
73.585071777076166
 21
76.424053417228833
 31
0.0
  0
LINE
  5
9BC
  8
1外形線
 10
31.585071777070251
 20
56.979608972804037
 30
0.0
 11
31.585071777072748
 21
75.424053417228833
 31
0.0
  0
ARC
  5
9BD
  8
1外形線
 10
32.585071777072748
 20
75.424053417228833
 30
0.0
 40
1.0
 50
90.0
 51
179.99999999999019
  0
LINE
  5
9BE
  8
1外形線
 10
33.08507177707213
 20
76.424053417228833
 30
0.0
 11
32.691436490242609
 21
79.048288662757841
 31
0.0
  0
LINE
  5
9BF
  8
1外形線
 10
72.085071777073267
 20
76.424053417228833
 30
0.0
 11
72.478707063902789
 21
79.048288662758296
 31
0.0
  0
LINE
  5
9C0
  8
1外形線
 10
31.585071777071668
 20
108.4240534172289
 30
0.0
 11
31.585071777071668
 21
93.882333955787075
 31
0.0
  0
ARC
  5
9C1
  8
1外形線
 10
76.126791238513192
 20
196.42405341722659
 30
0.0
 40
100.0
 50
270.0
 51
278.53076560995203
  0
ARC
  5
9C2
  8
1外形線
 10
75.585071777073722
 20
94.424053417226787
 30
0.0
 40
2.0
 50
90.0
 51
180.0
  0
LINE
  5
9C3
  8
1外形線
 10
73.585071777073722
 20
94.424053417226787
 30
0.0
 11
73.585071777073722
 21
93.882333955787317
 31
0.0
  0
LINE
  5
9C4
  8
1外形線
 10
75.585071777073722
 20
96.424053417226773
 30
0.0
 11
76.126791238512965
 21
96.424053417226773
 31
0.0
  0
LINE
  5
9C5
  8
1外形線
 10
93.585071777070766
 20
97.924053417227015
 30
0.0
 11
90.960836531542213
 21
97.53041813039772
 31
0.0
  0
ARC
  5
9C6
  8
1外形線
 10
94.585071777070709
 20
97.424053417227924
 30
0.0
 40
1.0
 50
179.99999999999341
 51
269.99999999999022
  0
LINE
  5
9C7
  8
1外形線
 10
119.832732899258
 20
96.486436473332105
 30
0.0
 11
137.63500939401439
 21
97.376550298067627
 31
0.0
  0
ARC
  5
9C8
  8
1外形線
 10
117.3358520520699
 20
146.42405341722451
 30
0.0
 40
50.0
 50
269.99999999999022
 51
272.86240522610279
  0
ARC
  5
9C9
  8
1外形線
 10
137.58507177707071
 20
98.375302636945676
 30
0.0
 40
1.0
 50
272.86240522610279
 51
0.0
  0
LINE
  5
9CA
  8
1外形線
 10
117.33585205206271
 20
138.42405341723091
 30
0.0
 11
94.585071777070524
 21
138.4240534172277
 31
0.0
  0
LINE
  5
9CB
  8
1外形線
 10
61.585071777071448
 20
138.42405341722861
 30
0.0
 11
76.126791238513192
 21
138.42405341722881
 31
0.0
  0
ARC
  5
9CC
  8
1外形線
 10
76.12679123851342
 20
38.424053417228833
 30
0.0
 40
100.0
 50
81.469234390047902
 51
90.0
  0
LINE
  5
9CD
  8
1外形線
 10
93.585071777070766
 20
136.92405341722841
 30
0.0
 11
90.960836531542427
 21
137.31768870405779
 31
0.0
  0
ARC
  5
9CE
  8
1外形線
 10
94.585071777070766
 20
137.42405341722761
 30
0.0
 40
1.0
 50
90.000000000009777
 51
179.9999999999967
  0
LINE
  5
9CF
  8
1外形線
 10
119.832732899258
 20
138.36167036112349
 30
0.0
 11
137.63500939401439
 21
137.47155653638799
 31
0.0
  0
ARC
  5
9D0
  8
1外形線
 10
117.3358520520699
 20
88.42405341723088
 30
0.0
 40
50.0
 50
87.137594773897163
 51
90.000000000009777
  0
ARC
  5
9D1
  8
1外形線
 10
137.58507177707071
 20
136.4728041975099
 30
0.0
 40
1.0
 50
0.0
 51
87.137594773897163
  0
LINE
  5
9D2
  8
1外形線
 10
289.12428123905062
 20
125.4240534172316
 30
0.0
 11
289.12428123905062
 21
109.4240534172215
 31
0.0
  0
LINE
  5
9D3
  8
1外形線
 10
269.12428123905062
 20
136.42405341722761
 30
0.0
 11
269.12428123905062
 21
98.424053417227697
 31
0.0
  0
CIRCLE
  5
9D4
  8
1外形線
 10
278.62428123905107
 20
117.424053417228
 30
0.0
 40
2.1000000000000001
  0
LINE
  5
9D5
  8
1外形線
 10
254.1242812390509
 20
136.4728041975099
 30
0.0
 11
254.1242812390509
 21
98.375302636945548
 31
0.0
  0
ARC
  5
9D6
  8
1外形線
 10
331.12428123904988
 20
108.42405341722861
 30
0.0
 40
30.0
 50
0.0
 51
90.0
  0
LINE
  5
9D7
  8
1外形線
 10
215.875413944586
 20
125.424053417228
 30
0.0
 11
215.875413944586
 21
109.4240534172275
 31
0.0
  0
ARC
  5
9D8
  8
1外形線
 10
199.3754139445833
 20
117.4240534172278
 30
0.0
 40
14.0
 50
334.62306647486821
 51
25.376933525131751
  0
ARC
  5
9D9
  8
1外形線
 10
202.87541394458501
 20
117.4240534172278
 30
0.0
 40
19.000000000000011
 50
90.000000000009777
 51
269.99999999999341
  0
ARC
  5
9DA
  8
1外形線
 10
202.87541394458501
 20
117.4240534172278
 30
0.0
 40
20.000000000000011
 50
90.000000000009777
 51
269.99999999999341
  0
ARC
  5
9DB
  8
1外形線
 10
199.37541394458469
 20
117.4240534172278
 30
0.0
 40
21.0
 50
90.000000000009777
 51
269.99999999999341
  0
LINE
  5
9DC
  8
1外形線
 10
220.37541394458529
 20
138.4240534172277
 30
0.0
 11
220.37541394458631
 21
96.42405341722781
 31
0.0
  0
LINE
  5
9DD
  8
1外形線
 10
217.875413944586
 20
126.92405341722819
 30
0.0
 11
217.875413944586
 21
107.9240534172273
 31
0.0
  0
LINE
  5
9DE
  8
1外形線
 10
360.12428123904891
 20
76.424053417228833
 30
0.0
 11
319.1242812390455
 21
76.424053417228833
 31
0.0
  0
LINE
  5
9DF
  8
1外形線
 10
319.12428123904567
 20
31.42405341722883
 30
0.0
 11
355.82428123904822
 21
31.42405341722883
 31
0.0
  0
LINE
  5
9E0
  8
1外形線
 10
319.12428123904567
 20
31.42405341722883
 30
0.0
 11
319.1242812390455
 21
76.424053417228833
 31
0.0
  0
ARC
  5
9E1
  8
1外形線
 10
228.3754139445816
 20
52.673273142229618
 30
0.0
 40
50.0
 50
179.99999999999019
 51
182.86240522610279
  0
LINE
  5
9E2
  8
1外形線
 10
181.67541394458479
 20
59.924053417229509
 30
0.0
 11
181.67541394458479
 21
47.924053417229281
 31
0.0
  0
LINE
  5
9E3
  8
1外形線
 10
180.3754139445787
 20
31.42405341722883
 30
0.0
 11
180.37541394458449
 21
73.924053417228833
 31
0.0
  0
ARC
  5
9E4
  8
1外形線
 10
170.37541394458799
 20
52.673273142229618
 30
0.0
 40
50.0
 50
357.13759477389709
 51
0.0000000000097707
  0
LINE
  5
9E5
  8
1外形線
 10
217.07541394458579
 20
59.924053417229509
 30
0.0
 11
217.07541394458579
 21
47.924053417229281
 31
0.0
  0
LINE
  5
9E6
  8
1外形線
 10
218.375413944591
 20
31.42405341722883
 30
0.0
 11
218.3754139445852
 21
73.924053417229288
 31
0.0
  0
LINE
  5
9E7
  8
1外形線
 10
218.42416472486701
 20
31.42405341722883
 30
0.0
 11
180.3266631643026
 21
31.42405341722883
 31
0.0
  0
LINE
  5
9E8
  8
1外形線
 10
180.37541394458489
 20
46.424053417228599
 30
0.0
 11
218.37541394458489
 21
46.424053417228599
 31
0.0
  0
LINE
  5
9E9
  8
1外形線
 10
189.87541394457989
 20
46.424053417229743
 30
0.0
 11
189.87541394457921
 21
32.424053417229743
 31
0.0
  0
LINE
  5
9EA
  8
1外形線
 10
178.43779700068919
 20
50.176392295041524
 30
0.0
 11
179.32791082542471
 21
32.374115800285153
 31
0.0
  0
LINE
  5
9EB
  8
1外形線
 10
208.87541394459029
 20
46.424053417228151
 30
0.0
 11
208.87541394458961
 21
32.424053417228151
 31
0.0
  0
ARC
  5
9EC
  8
1外形線
 10
180.32666316430269
 20
32.424053417228833
 30
0.0
 40
1.0
 50
182.86240522610279
 51
270.0
  0
ARC
  5
9ED
  8
1外形線
 10
190.8754139445789
 20
32.424053417229743
 30
0.0
 40
1.0
 50
179.9999999999967
 51
269.9999999999967
  0
ARC
  5
9EE
  8
1外形線
 10
207.8754139445893
 20
32.424053417228379
 30
0.0
 40
1.0
 50
269.9999999999967
 51
359.9999999999967
  0
LINE
  5
9EF
  8
1外形線
 10
180.37541394458489
 20
47.924053417228833
 30
0.0
 11
181.67541394458479
 21
47.924053417229061
 31
0.0
  0
LINE
  5
9F0
  8
1外形線
 10
220.3130308884806
 20
50.176392295041524
 30
0.0
 11
219.4229170637451
 21
32.374115800285153
 31
0.0
  0
ARC
  5
9F1
  8
1外形線
 10
218.42416472486701
 20
32.424053417228833
 30
0.0
 40
1.0
 50
270.0
 51
357.13759477389709
  0
LINE
  5
9F2
  8
1外形線
 10
218.3754139445858
 20
47.924053417228833
 30
0.0
 11
217.07541394458579
 21
47.924053417229061
 31
0.0
  0
ARC
  5
9F3
  8
1外形線
 10
278.37541394458378
 20
91.411615529345099
 30
0.0
 40
100.0
 50
180.0
 51
185.71059313748401
  0
ARC
  5
9F4
  8
1外形線
 10
120.3754139445855
 20
91.411615529340452
 30
0.0
 40
100.0
 50
354.28940686251588
 51
0.0
  0
LINE
  5
9F5
  8
1外形線
 10
199.37541394458481
 20
96.424053417230184
 30
0.0
 11
199.37541394458489
 21
66.424053417228606
 31
0.0
  0
LINE
  5
9F6
  8
1外形線
 10
219.37541394458421
 20
76.42405341722872
 30
0.0
 11
200.37541394458421
 21
76.42405341722872
 31
0.0
  0
LINE
  5
9F7
  8
1外形線
 10
209.3754139445908
 20
72.424053417228706
 30
0.0
 11
216.3754139445858
 21
72.424053417228706
 31
0.0
  0
LINE
  5
9F8
  8
1外形線
 10
219.1754139445853
 20
74.424053417229175
 30
0.0
 11
200.37541394458421
 21
74.424053417229175
 31
0.0
  0
LINE
  5
9F9
  8
1外形線
 10
209.3754139445908
 20
66.424053417228606
 30
0.0
 11
216.3754139445858
 21
66.424053417228606
 31
0.0
  0
LINE
  5
9FA
  8
1外形線
 10
194.93131673592899
 20
74.42405341722872
 30
0.0
 11
194.93131673592899
 21
66.424053417228606
 31
0.0
  0
LINE
  5
9FB
  8
1外形線
 10
203.81951115324009
 20
74.42405341722872
 30
0.0
 11
203.81951115324009
 21
66.424053417228606
 31
0.0
  0
LINE
  5
9FC
  8
1外形線
 10
178.37541394458171
 20
52.673273142236887
 30
0.0
 11
178.37541394458501
 21
75.424053417229061
 31
0.0
  0
LINE
  5
9FD
  8
1外形線
 10
191.37541394458091
 20
63.924053417228379
 30
0.0
 11
191.3754139445808
 21
73.92405341722872
 31
0.0
  0
LINE
  5
9FE
  8
1外形線
 10
180.3754139445835
 20
66.424053417214282
 30
0.0
 11
178.871694923582
 21
81.461243627274143
 31
0.0
  0
LINE
  5
9FF
  8
1外形線
 10
189.37541394457989
 20
66.424053417228606
 30
0.0
 11
189.37541394457989
 21
72.424053417228706
 31
0.0
  0
LINE
  5
A00
  8
1外形線
 10
182.37541394458489
 20
72.424053417228706
 30
0.0
 11
182.37541394458489
 21
66.424053417228606
 31
0.0
  0
LINE
  5
A01
  8
1外形線
 10
207.37541394459109
 20
63.924053417228379
 30
0.0
 11
207.3754139445908
 21
73.924053417229175
 31
0.0
  0
LINE
  5
A02
  8
1外形線
 10
209.3754139445908
 20
66.424053417228833
 30
0.0
 11
209.3754139445908
 21
72.424053417228706
 31
0.0
  0
LINE
  5
A03
  8
1外形線
 10
191.37541394458091
 20
66.424053417228606
 30
0.0
 11
207.375413944591
 21
66.424053417228606
 31
0.0
  0
LINE
  5
A04
  8
1外形線
 10
182.37541394458489
 20
66.424053417228606
 30
0.0
 11
189.37541394457989
 21
66.424053417228606
 31
0.0
  0
LINE
  5
A05
  8
1外形線
 10
180.37541394458489
 20
59.924053417229509
 30
0.0
 11
181.67541394458479
 21
59.924053417229509
 31
0.0
  0
LINE
  5
A06
  8
1外形線
 10
191.3754139445808
 20
63.924053417228379
 30
0.0
 11
193.37541394458091
 21
63.924053417228379
 31
0.0
  0
LINE
  5
A07
  8
1外形線
 10
193.3754139445808
 20
63.924053417228379
 30
0.0
 11
193.3754139445808
 21
66.424053417228606
 31
0.0
  0
CIRCLE
  5
A08
  8
1外形線
 10
199.37541394458461
 20
55.924053417229061
 30
0.0
 40
2.1000000000000001
  0
LINE
  5
A09
  8
1外形線
 10
207.3754139445885
 20
63.924053417228379
 30
0.0
 11
205.37541394458839
 21
63.924053417228379
 31
0.0
  0
LINE
  5
A0A
  8
1外形線
 10
205.375413944591
 20
63.924053417228379
 30
0.0
 11
205.375413944591
 21
66.424053417228606
 31
0.0
  0
LINE
  5
A0B
  8
1外形線
 10
209.3754139445908
 20
66.424053417228606
 30
0.0
 11
210.37541394458529
 21
66.424053417228606
 31
0.0
  0
LINE
  5
A0C
  8
1外形線
 10
179.37541394458489
 20
76.42405341722872
 30
0.0
 11
198.37541394458489
 21
76.42405341722872
 31
0.0
  0
LINE
  5
A0D
  8
1外形線
 10
179.5754139445844
 20
74.42405341722872
 30
0.0
 11
198.37541394458489
 21
74.42405341722872
 31
0.0
  0
ARC
  5
A0E
  8
1外形線
 10
179.37541394458489
 20
75.424053417228833
 30
0.0
 40
1.0
 50
89.999999999993491
 51
179.99999999999019
  0
LINE
  5
A0F
  8
1外形線
 10
189.37541394457989
 20
72.424053417228706
 30
0.0
 11
182.37541394458489
 21
72.424053417228706
 31
0.0
  0
ARC
  5
A10
  8
1外形線
 10
180.87541394458481
 20
73.92405341722872
 30
0.0
 40
0.5
 50
90.0
 51
180.0
  0
ARC
  5
A11
  8
1外形線
 10
190.87541394458071
 20
73.92405341722872
 30
0.0
 40
0.5
 50
0.0
 51
90.0
  0
LINE
  5
A12
  8
1外形線
 10
198.37541394458489
 20
76.42405341722872
 30
0.0
 11
198.37541394458489
 21
74.42405341722872
 31
0.0
  0
LINE
  5
A13
  8
1外形線
 10
200.37541394458421
 20
76.42405341722872
 30
0.0
 11
200.37541394458421
 21
74.42405341722872
 31
0.0
  0
ARC
  5
A14
  8
1外形線
 10
207.87541394459069
 20
73.924053417229175
 30
0.0
 40
0.5
 50
90.0
 51
180.0
  0
LINE
  5
A15
  8
1外形線
 10
220.3754139445881
 20
52.673273142236887
 30
0.0
 11
220.37541394458481
 21
75.424053417229061
 31
0.0
  0
LINE
  5
A16
  8
1外形線
 10
218.3754139445862
 20
66.424053417214282
 30
0.0
 11
219.8791329655873
 21
81.461243627269596
 31
0.0
  0
LINE
  5
A17
  8
1外形線
 10
216.3754139445858
 20
72.424053417228706
 30
0.0
 11
216.3754139445858
 21
66.424053417228833
 31
0.0
  0
LINE
  5
A18
  8
1外形線
 10
218.3754139445858
 20
59.924053417229509
 30
0.0
 11
217.07541394458579
 21
59.924053417229509
 31
0.0
  0
ARC
  5
A19
  8
1外形線
 10
219.37541394458469
 20
75.424053417228833
 30
0.0
 40
1.0
 50
0.0000000000097707
 51
89.999999999996746
  0
ARC
  5
A1A
  8
1外形線
 10
217.87541394458569
 20
73.924053417229175
 30
0.0
 40
0.5
 50
359.9999999999967
 51
90.0
  0
LINE
  5
A1B
  8
1外形線
 10
214.37541394458671
 20
107.9240534172273
 30
0.0
 11
217.87541394458671
 21
107.9240534172273
 31
0.0
  0
LINE
  5
A1C
  8
1外形線
 10
220.37541394458529
 20
98.42405341722781
 30
0.0
 11
202.8754139445827
 21
98.424053417229871
 31
0.0
  0
LINE
  5
A1D
  8
1外形線
 10
220.37541394458529
 20
97.42405341722781
 30
0.0
 11
202.87541394458259
 21
97.424053417229857
 31
0.0
  0
LINE
  5
A1E
  8
1外形線
 10
220.37541394458501
 20
96.42405341722781
 30
0.0
 11
199.37541394458211
 21
96.424053417230326
 31
0.0
  0
ARC
  5
A1F
  8
1外形線
 10
212.20220886383009
 20
100.72405341722769
 30
0.0
 40
1.0
 50
90.0
 51
209.99999999999599
  0
LINE
  5
A20
  8
1外形線
 10
208.3754139445856
 20
103.00184831536831
 30
0.0
 11
208.3754139445858
 21
99.424053417227825
 31
0.0
  0
ARC
  5
A21
  8
1外形線
 10
199.3754139445833
 20
117.42405341722279
 30
0.0
 40
19.0
 50
298.27371363137559
 51
322.13635363828712
  0
LINE
  5
A22
  8
1外形線
 10
178.3754139445835
 20
117.4240534172278
 30
0.0
 11
178.3754139445837
 21
91.41161552934409
 31
0.0
  0
POINT
  5
A23
  8
1外形線
 10
178.3754139445837
 20
93.882333955783665
 30
0.0
  0
LINE
  5
A24
  8
1外形線
 10
212.37541394458671
 20
98.42405341722781
 30
0.0
 11
211.33618346004559
 21
100.22405341722779
 31
0.0
  0
ARC
  5
A25
  8
1外形線
 10
209.3754139445858
 20
99.424053417227825
 30
0.0
 40
1.0
 50
180.0
 51
270.0
  0
LINE
  5
A26
  8
1外形線
 10
214.3754139445858
 20
109.4240534172273
 30
0.0
 11
215.87541394458671
 21
109.4240534172275
 31
0.0
  0
LINE
  5
A27
  8
1外形線
 10
214.37541394458671
 20
101.72405341722769
 30
0.0
 11
212.20220886383009
 21
101.72405341722769
 31
0.0
  0
ARC
  5
A28
  8
1外形線
 10
199.3754139445833
 20
117.42405341722279
 30
0.0
 40
17.0
 50
301.96571875080753
 51
331.9275130641671
  0
LINE
  5
A29
  8
1外形線
 10
214.37541394458651
 20
101.72405341722769
 30
0.0
 11
214.37541394458691
 21
109.4240534172273
 31
0.0
  0
LINE
  5
A2A
  8
1外形線
 10
212.0245245852567
 20
111.4240534172278
 30
0.0
 11
215.875413944587
 21
111.4240534172278
 31
0.0
  0
LINE
  5
A2B
  8
1外形線
 10
220.3754139445858
 20
117.4240534172278
 30
0.0
 11
220.37541394458549
 21
91.411615529339542
 31
0.0
  0
POINT
  5
A2C
  8
1外形線
 10
220.3754139445856
 20
93.882333955783665
 30
0.0
  0
ARC
  5
A2D
  8
1外形線
 10
419.12428123904789
 20
93.882333955787075
 30
0.0
 40
100.0
 50
180.0
 51
188.530765609952
  0
LINE
  5
A2E
  8
1外形線
 10
320.6242812390484
 20
76.424053417228833
 30
0.0
 11
320.23064595221882
 21
79.048288662758296
 31
0.0
  0
LINE
  5
A2F
  8
1外形線
 10
297.12428123905067
 20
112.9799562085725
 30
0.0
 11
289.12428123905062
 21
112.9799562085725
 31
0.0
  0
LINE
  5
A30
  8
1外形線
 10
289.12428123903629
 20
98.424053417226332
 30
0.0
 11
304.16147144909161
 21
96.920334396225272
 31
0.0
  0
LINE
  5
A31
  8
1外形線
 10
295.12428123905067
 20
100.4240534172267
 30
0.0
 11
289.1242812390509
 21
100.4240534172267
 31
0.0
  0
LINE
  5
A32
  8
1外形線
 10
289.1242812390509
 20
107.4240534172217
 30
0.0
 11
295.12428123905067
 21
107.4240534172217
 31
0.0
  0
LINE
  5
A33
  8
1外形線
 10
286.62428123905039
 20
109.4240534172214
 30
0.0
 11
296.62428123905119
 21
109.4240534172217
 31
0.0
  0
LINE
  5
A34
  8
1外形線
 10
275.37350096405891
 20
96.424053417224513
 30
0.0
 11
298.12428123905107
 21
96.42405341722781
 31
0.0
  0
LINE
  5
A35
  8
1外形線
 10
254.1242812390509
 20
98.424053417221543
 30
0.0
 11
296.6242812390513
 21
98.424053417227356
 31
0.0
  0
LINE
  5
A36
  8
1外形線
 10
289.12428123905062
 20
107.4240534172217
 30
0.0
 11
289.12428123905062
 21
100.4240534172267
 31
0.0
  0
LINE
  5
A37
  8
1外形線
 10
272.87662011686348
 20
96.486436473332006
 30
0.0
 11
255.07434362210719
 21
97.376550298067514
 31
0.0
  0
LINE
  5
A38
  8
1外形線
 10
282.62428123905153
 20
99.724053417226756
 30
0.0
 11
270.6242812390513
 21
99.724053417226756
 31
0.0
  0
ARC
  5
A39
  8
1外形線
 10
255.1242812390509
 20
98.375302636945676
 30
0.0
 40
1.0
 50
180.0
 51
267.13759477389709
  0
LINE
  5
A3A
  8
1外形線
 10
270.6242812390509
 20
98.424053417226787
 30
0.0
 11
270.62428123905107
 21
99.724053417226756
 31
0.0
  0
ARC
  5
A3B
  8
1外形線
 10
275.37350096405169
 20
146.4240534172246
 30
0.0
 40
50.0
 50
267.13759477389709
 51
270.00000000000972
  0
LINE
  5
A3C
  8
1外形線
 10
282.62428123905153
 20
98.424053417226787
 30
0.0
 11
282.62428123905153
 21
99.724053417226756
 31
0.0
  0
LINE
  5
A3D
  8
1外形線
 10
269.12428123905022
 20
107.9240534172222
 30
0.0
 11
255.12428123905019
 21
107.92405341722289
 31
0.0
  0
ARC
  5
A3E
  8
1外形線
 10
255.12428123905039
 20
108.92405341722321
 30
0.0
 40
1.0
 50
179.9999999999967
 51
269.9999999999967
  0
LINE
  5
A3F
  8
1外形線
 10
286.62428123905039
 20
109.424053417224
 30
0.0
 11
286.62428123905039
 21
111.4240534172241
 31
0.0
  0
LINE
  5
A40
  8
1外形線
 10
289.12428123905062
 20
107.4240534172217
 30
0.0
 11
289.12428123905062
 21
106.4240534172272
 31
0.0
  0
LINE
  5
A41
  8
1外形線
 10
286.62428123905039
 20
111.4240534172215
 30
0.0
 11
289.12428123905062
 21
111.4240534172215
 31
0.0
  0
LINE
  5
A42
  8
1外形線
 10
299.12428123905079
 20
97.424053417228379
 30
0.0
 11
299.12428123905079
 21
116.42405341722829
 31
0.0
  0
LINE
  5
A43
  8
1外形線
 10
295.12428123905067
 20
107.4240534172217
 30
0.0
 11
295.12428123905067
 21
100.4240534172267
 31
0.0
  0
LINE
  5
A44
  8
1外形線
 10
297.12428123905119
 20
97.62405341722706
 30
0.0
 11
297.12428123905119
 21
116.42405341722829
 31
0.0
  0
ARC
  5
A45
  8
1外形線
 10
314.11184335116258
 20
196.42405341722699
 30
0.0
 40
100.0
 50
264.28940686251588
 51
270.0
  0
ARC
  5
A46
  8
1外形線
 10
298.12428123905079
 20
97.424053417227924
 30
0.0
 40
1.0
 50
270.00000000000972
 51
359.9999999999967
  0
ARC
  5
A47
  8
1外形線
 10
296.62428123905119
 20
98.924053417226915
 30
0.0
 40
0.5
 50
269.9999999999967
 51
0.0
  0
ARC
  5
A48
  8
1外形線
 10
317.12428123904789
 20
94.424053417226787
 30
0.0
 40
2.0
 50
0.0
 51
90.0
  0
LINE
  5
A49
  8
1外形線
 10
319.12428123904789
 20
94.424053417226787
 30
0.0
 11
319.12428123904789
 21
93.882333955787317
 31
0.0
  0
LINE
  5
A4A
  8
1外形線
 10
317.12428123904789
 20
96.424053417226773
 30
0.0
 11
314.11184335116258
 21
96.424053417226773
 31
0.0
  0
ARC
  5
A4B
  8
1外形線
 10
296.62428123905119
 20
108.9240534172219
 30
0.0
 40
0.5
 50
0.0
 51
90.0
  0
LINE
  5
A4C
  8
1外形線
 10
299.12428123905079
 20
116.42405341722829
 30
0.0
 11
297.12428123905067
 21
116.42405341722829
 31
0.0
  0
ARC
  5
A4D
  8
1外形線
 10
311.12428123905141
 20
56.979608972797223
 30
0.0
 40
50.0
 50
347.31961650817891
 51
0.0000000000065138
  0
LINE
  5
A4E
  8
1外形線
 10
359.90476904392938
 20
46.003999216699633
 30
0.0
 11
356.7998909951458
 21
32.204541222106847
 31
0.0
  0
ARC
  5
A4F
  8
1外形線
 10
355.82428123904828
 20
32.424053417228833
 30
0.0
 40
1.0
 50
270.0
 51
347.31961650817891
  0
ARC
  5
A50
  8
1外形線
 10
261.12428123904999
 20
93.882333955786848
 30
0.0
 40
100.0
 50
351.46923439004792
 51
0.0
  0
LINE
  5
A51
  8
1外形線
 10
361.12428123905141
 20
56.979608972804037
 30
0.0
 11
361.12428123904891
 21
75.424053417228833
 31
0.0
  0
ARC
  5
A52
  8
1外形線
 10
360.12428123904891
 20
75.424053417228833
 30
0.0
 40
1.0
 50
0.0000000000097707
 51
90.0
  0
LINE
  5
A53
  8
1外形線
 10
359.62428123904948
 20
76.424053417228833
 30
0.0
 11
360.017916525879
 21
79.048288662757841
 31
0.0
  0
LINE
  5
A54
  8
1外形線
 10
361.12428123904999
 20
108.4240534172289
 30
0.0
 11
361.12428123904999
 21
93.882333955787075
 31
0.0
  0
LINE
  5
A55
  8
1外形線
 10
331.12428123905022
 20
138.42405341722861
 30
0.0
 11
314.11184335116872
 21
138.42405341722889
 31
0.0
  0
LINE
  5
A56
  8
1外形線
 10
214.37541394458671
 20
126.92405341722819
 30
0.0
 11
217.87541394458671
 21
126.92405341722819
 31
0.0
  0
LINE
  5
A57
  8
1外形線
 10
220.37541394458529
 20
136.42405341722781
 30
0.0
 11
202.87541394458231
 21
136.42405341722531
 31
0.0
  0
LINE
  5
A58
  8
1外形線
 10
220.37541394458529
 20
137.42405341722781
 30
0.0
 11
202.87541394458219
 21
137.42405341722531
 31
0.0
  0
LINE
  5
A59
  8
1外形線
 10
220.37541394458501
 20
138.42405341722781
 30
0.0
 11
199.37541394458171
 21
138.4240534172248
 31
0.0
  0
LINE
  5
A5A
  8
1外形線
 10
212.37541394458671
 20
136.42405341722781
 30
0.0
 11
211.33618346004559
 21
134.62405341722771
 31
0.0
  0
LINE
  5
A5B
  8
1外形線
 10
208.3754139445858
 20
131.8462585190772
 30
0.0
 11
208.3754139445858
 21
135.42405341722781
 31
0.0
  0
ARC
  5
A5C
  8
1外形線
 10
199.3754139445833
 20
117.42405341722279
 30
0.0
 40
17.0
 50
28.072486935837201
 51
58.034281249185149
  0
LINE
  5
A5D
  8
1外形線
 10
214.37541394458671
 20
133.12405341722791
 30
0.0
 11
214.37541394458691
 21
125.42405341722819
 31
0.0
  0
LINE
  5
A5E
  8
1外形線
 10
214.3754139445804
 20
125.42405341722819
 30
0.0
 11
215.87541394458671
 21
125.424053417228
 31
0.0
  0
LINE
  5
A5F
  8
1外形線
 10
212.0245245852567
 20
123.4240534172278
 30
0.0
 11
215.875413944587
 21
123.4240534172278
 31
0.0
  0
ARC
  5
A60
  8
1外形線
 10
212.20220886383009
 20
134.1240534172278
 30
0.0
 40
1.0
 50
150.00000000000389
 51
270.0
  0
LINE
  5
A61
  8
1外形線
 10
214.37541394458671
 20
133.1240534172278
 30
0.0
 11
212.20220886383009
 21
133.1240534172278
 31
0.0
  0
ARC
  5
A62
  8
1外形線
 10
199.3754139445833
 20
117.42405341722279
 30
0.0
 40
19.0
 50
37.863646361712618
 51
61.726286368617011
  0
POINT
  5
A63
  8
1外形線
 10
202.87541394458231
 20
136.42405341722531
 30
0.0
  0
ARC
  5
A64
  8
1外形線
 10
209.3754139445858
 20
135.42405341722781
 30
0.0
 40
1.0
 50
90.0
 51
180.0
  0
POINT
  5
A65
  8
1外形線
 10
220.37541394458529
 20
136.42405341722781
 30
0.0
  0
POINT
  5
A66
  8
1外形線
 10
220.37541394458529
 20
136.42405341722781
 30
0.0
  0
LINE
  5
A67
  8
1外形線
 10
297.12428123905067
 20
121.8681506258835
 30
0.0
 11
289.12428123905062
 21
121.8681506258835
 31
0.0
  0
LINE
  5
A68
  8
1外形線
 10
289.12428123903629
 20
136.424053417229
 30
0.0
 11
304.1614714490961
 21
137.92777243823059
 31
0.0
  0
LINE
  5
A69
  8
1外形線
 10
295.12428123905067
 20
134.42405341722761
 30
0.0
 11
289.12428123905062
 21
134.42405341722761
 31
0.0
  0
LINE
  5
A6A
  8
1外形線
 10
289.12428123905062
 20
127.4240534172327
 30
0.0
 11
295.12428123905067
 21
127.4240534172327
 31
0.0
  0
LINE
  5
A6B
  8
1外形線
 10
286.62428123905039
 20
125.4240534172316
 30
0.0
 11
296.62428123905079
 21
125.4240534172317
 31
0.0
  0
LINE
  5
A6C
  8
1外形線
 10
275.37350096405891
 20
138.42405341723079
 30
0.0
 11
298.12428123905107
 21
138.4240534172275
 31
0.0
  0
LINE
  5
A6D
  8
1外形線
 10
254.1242812390509
 20
136.42405341723381
 30
0.0
 11
296.62428123905079
 21
136.42405341722801
 31
0.0
  0
ARC
  5
A6E
  8
1外形線
 10
255.12428123905181
 20
125.92405341723369
 30
0.0
 40
1.0
 50
89.999999999996746
 51
179.9999999999967
  0
LINE
  5
A6F
  8
1外形線
 10
269.12428123905181
 20
126.9240534172326
 30
0.0
 11
255.12428123905181
 21
126.9240534172333
 31
0.0
  0
LINE
  5
A70
  8
1外形線
 10
286.62428123905039
 20
125.4240534172317
 30
0.0
 11
286.62428123905039
 21
123.4240534172316
 31
0.0
  0
LINE
  5
A71
  8
1外形線
 10
286.62428123905039
 20
123.4240534172317
 30
0.0
 11
289.12428123905062
 21
123.4240534172317
 31
0.0
  0
LINE
  5
A72
  8
1外形線
 10
289.12428123905062
 20
134.42405341722761
 30
0.0
 11
289.12428123905062
 21
127.4240534172327
 31
0.0
  0
LINE
  5
A73
  8
1外形線
 10
272.87662011686348
 20
138.3616703611234
 30
0.0
 11
255.07434362210719
 21
137.47155653638779
 31
0.0
  0
LINE
  5
A74
  8
1外形線
 10
282.62428123905153
 20
135.12405341722771
 30
0.0
 11
270.6242812390513
 21
135.12405341722771
 31
0.0
  0
ARC
  5
A75
  8
1外形線
 10
255.1242812390509
 20
136.4728041975099
 30
0.0
 40
1.0
 50
92.862405226102837
 51
180.0
  0
LINE
  5
A76
  8
1外形線
 10
270.6242812390509
 20
136.42405341722761
 30
0.0
 11
270.62428123905107
 21
135.12405341722771
 31
0.0
  0
ARC
  5
A77
  8
1外形線
 10
275.37350096405169
 20
88.424053417230979
 30
0.0
 40
50.0
 50
89.999999999990223
 51
92.862405226102837
  0
LINE
  5
A78
  8
1外形線
 10
282.62428123905153
 20
136.42405341722761
 30
0.0
 11
282.62428123905153
 21
135.12405341722771
 31
0.0
  0
LINE
  5
A79
  8
1外形線
 10
299.12428123905079
 20
137.42405341722761
 30
0.0
 11
299.12428123905079
 21
118.4240534172277
 31
0.0
  0
LINE
  5
A7A
  8
1外形線
 10
297.12428123905067
 20
137.22405341722799
 30
0.0
 11
297.12428123905067
 21
118.4240534172277
 31
0.0
  0
LINE
  5
A7B
  8
1外形線
 10
299.12428123905079
 20
118.4240534172277
 30
0.0
 11
297.12428123905067
 21
118.4240534172277
 31
0.0
  0
ARC
  5
A7C
  8
1外形線
 10
296.62428123905079
 20
125.9240534172318
 30
0.0
 40
0.5
 50
270.0
 51
0.0
  0
LINE
  5
A7D
  8
1外形線
 10
295.12428123905067
 20
127.4240534172327
 30
0.0
 11
295.12428123905067
 21
134.42405341722761
 31
0.0
  0
ARC
  5
A7E
  8
1外形線
 10
314.11184335116712
 20
38.424053417228833
 30
0.0
 40
100.0
 50
90.0
 51
95.710593137484054
  0
ARC
  5
A7F
  8
1外形線
 10
298.12428123905079
 20
137.42405341722761
 30
0.0
 40
1.0
 50
0.0
 51
89.999999999990223
  0
ARC
  5
A80
  8
1外形線
 10
296.62428123905079
 20
135.92405341722781
 30
0.0
 40
0.5
 50
0.0
 51
90.0
  0
ENDSEC
  0
EOF
