  0
SECTION
  2
HEADER
  9
$ACADVER
  1
AC1009
  9
$INSBASE
 10
0.0
 20
0.0
 30
0.0
  9
$EXTMIN
 10
31.585071777070251
 20
-25.750029856048059
 30
-0.0015258207003583
  9
$EXTMAX
 10
410.02066347332948
 20
186.25841171300181
 30
0.0000000349246037
  9
$LIMMIN
 10
0.0
 20
0.0
  9
$LIMMAX
 10
420.0
 20
297.0
  9
$ORTHOMODE
 70
     0
  9
$REGENMODE
 70
     1
  9
$FILLMODE
 70
     1
  9
$QTEXTMODE
 70
     0
  9
$MIRRTEXT
 70
     1
  9
$DRAGMODE
 70
     2
  9
$LTSCALE
 40
1.0
  9
$OSMODE
 70
    37
  9
$ATTMODE
 70
     1
  9
$TEXTSIZE
 40
2.5
  9
$TRACEWID
 40
1.0
  9
$TEXTSTYLE
  7
STANDARD
  9
$CLAYER
  8
0
  9
$CELTYPE
  6
BYLAYER
  9
$CECOLOR
 62
   256
  9
$DIMSCALE
 40
1.0
  9
$DIMASZ
 40
2.5
  9
$DIMEXO
 40
0.625
  9
$DIMDLI
 40
3.75
  9
$DIMRND
 40
0.0
  9
$DIMDLE
 40
0.0
  9
$DIMEXE
 40
1.25
  9
$DIMTP
 40
0.0
  9
$DIMTM
 40
0.0
  9
$DIMTXT
 40
2.5
  9
$DIMCEN
 40
2.5
  9
$DIMTSZ
 40
0.0
  9
$DIMTOL
 70
     0
  9
$DIMLIM
 70
     0
  9
$DIMTIH
 70
     0
  9
$DIMTOH
 70
     0
  9
$DIMSE1
 70
     0
  9
$DIMSE2
 70
     0
  9
$DIMTAD
 70
     1
  9
$DIMZIN
 70
     8
  9
$DIMBLK
  1

  9
$DIMASO
 70
     1
  9
$DIMSHO
 70
     1
  9
$DIMPOST
  1

  9
$DIMAPOST
  1

  9
$DIMALT
 70
     0
  9
$DIMALTD
 70
     3
  9
$DIMALTF
 40
0.03937007874016
  9
$DIMLFAC
 40
1.0
  9
$DIMTOFL
 70
     1
  9
$DIMTVP
 40
0.0
  9
$DIMTIX
 70
     0
  9
$DIMSOXD
 70
     0
  9
$DIMSAH
 70
     0
  9
$DIMBLK1
  1

  9
$DIMBLK2
  1

  9
$DIMSTYLE
  2
ISO-25
  9
$DIMCLRD
 70
     0
  9
$DIMCLRE
 70
     0
  9
$DIMCLRT
 70
     0
  9
$DIMTFAC
 40
1.0
  9
$DIMGAP
 40
0.625
  9
$LUNITS
 70
     2
  9
$LUPREC
 70
     4
  9
$SKETCHINC
 40
1.0
  9
$FILLETRAD
 40
10.0
  9
$AUNITS
 70
     0
  9
$AUPREC
 70
     0
  9
$MENU
  1
.
  9
$ELEVATION
 40
0.0
  9
$PELEVATION
 40
0.0
  9
$THICKNESS
 40
0.0
  9
$LIMCHECK
 70
     0
  9
$BLIPMODE
 70
     0
  9
$CHAMFERA
 40
10.0
  9
$CHAMFERB
 40
10.0
  9
$SKPOLY
 70
     0
  9
$TDCREATE
 40
2452048.587873715
  9
$TDUPDATE
 40
2452048.594808796
  9
$TDINDWG
 40
0.0069357755
  9
$TDUSRTIMER
 40
0.0069357755
  9
$USRTIMER
 70
     1
  9
$ANGBASE
 50
0.0
  9
$ANGDIR
 70
     0
  9
$PDMODE
 70
     0
  9
$PDSIZE
 40
0.0
  9
$PLINEWID
 40
0.0
  9
$COORDS
 70
     1
  9
$SPLFRAME
 70
     0
  9
$SPLINETYPE
 70
     6
  9
$SPLINESEGS
 70
     8
  9
$ATTDIA
 70
     0
  9
$ATTREQ
 70
     1
  9
$HANDLING
 70
-16383
  9
$HANDSEED
  5
C27
  9
$SURFTAB1
 70
     6
  9
$SURFTAB2
 70
     6
  9
$SURFTYPE
 70
     6
  9
$SURFU
 70
     6
  9
$SURFV
 70
     6
  9
$UCSNAME
  2

  9
$UCSORG
 10
0.0
 20
0.0
 30
0.0
  9
$UCSXDIR
 10
1.0
 20
0.0
 30
0.0
  9
$UCSYDIR
 10
0.0
 20
1.0
 30
0.0
  9
$PUCSNAME
  2

  9
$PUCSORG
 10
0.0
 20
0.0
 30
0.0
  9
$PUCSXDIR
 10
1.0
 20
0.0
 30
0.0
  9
$PUCSYDIR
 10
0.0
 20
1.0
 30
0.0
  9
$USERI1
 70
     0
  9
$USERI2
 70
     0
  9
$USERI3
 70
     0
  9
$USERI4
 70
     0
  9
$USERI5
 70
     0
  9
$USERR1
 40
0.0
  9
$USERR2
 40
0.0
  9
$USERR3
 40
0.0
  9
$USERR4
 40
0.0
  9
$USERR5
 40
0.0
  9
$WORLDVIEW
 70
     1
  9
$SHADEDGE
 70
     3
  9
$SHADEDIF
 70
    70
  9
$TILEMODE
 70
     1
  9
$MAXACTVP
 70
    64
  9
$PLIMCHECK
 70
     0
  9
$PEXTMIN
 10
1.0000000000000000E+020
 20
1.0000000000000000E+020
 30
1.0000000000000000E+020
  9
$PEXTMAX
 10
-1.0000000000000000E+020
 20
-1.0000000000000000E+020
 30
-1.0000000000000000E+020
  9
$PLIMMIN
 10
0.0
 20
0.0
  9
$PLIMMAX
 10
420.0
 20
297.0
  9
$UNITMODE
 70
     0
  9
$VISRETAIN
 70
     1
  9
$PLINEGEN
 70
     0
  9
$PSLTSCALE
 70
     1
  0
ENDSEC
  0
SECTION
  2
TABLES
  0
TABLE
  2
VPORT
 70
    16
  0
VPORT
  2
*ACTIVE
 70
     0
 10
0.0
 20
0.0
 11
1.0
 21
1.0
 12
166.35681071652851
 22
20.724196577187389
 13
0.0
 23
0.0
 14
10.0
 24
10.0
 15
10.0
 25
10.0
 16
0.0
 26
0.0
 36
1.0
 17
0.0
 27
0.0
 37
0.0
 40
1136.324781988588
 41
0.8452830188679245
 42
50.0
 43
0.0
 44
0.0
 50
0.0
 51
0.0
 71
     0
 72
   100
 73
     1
 74
     3
 75
     0
 76
     0
 77
     0
 78
     0
  0
ENDTAB
  0
TABLE
  2
LTYPE
 70
     1
  0
LTYPE
  2
CONTINUOUS
 70
     0
  3
Solid line
 72
    65
 73
     0
 40
0.0
  0
ENDTAB
  0
TABLE
  2
LAYER
 70
     2
  0
LAYER
  2
0
 70
     0
 62
     7
  6
CONTINUOUS
  0
LAYER
  2
1外形線
 70
     0
 62
     3
  6
CONTINUOUS
  0
ENDTAB
  0
TABLE
  2
STYLE
 70
     2
  0
STYLE
  2
STANDARD
 70
     0
 40
0.0
 41
1.0
 50
0.0
 71
     0
 42
2.5
  3
txt
  4

  0
STYLE
  2
KANJI
 70
     0
 40
0.0
 41
1.0
 50
0.0
 71
     0
 42
10.0
  3
simplex
  4
bigfont
  0
ENDTAB
  0
TABLE
  2
VIEW
 70
     0
  0
ENDTAB
  0
TABLE
  2
UCS
 70
     0
  0
ENDTAB
  0
TABLE
  2
APPID
 70
     1
  0
APPID
  2
ACAD
 70
     0
  0
ENDTAB
  0
TABLE
  2
DIMSTYLE
 70
     2
  0
DIMSTYLE
  2
ISO-25
 70
     0
  3

  4

  5

  6

  7

 40
1.0
 41
2.5
 42
0.625
 43
3.75
 44
1.25
 45
0.0
 46
0.0
 47
0.0
 48
0.0
140
2.5
141
2.5
142
0.0
143
0.03937007874016
144
1.0
145
0.0
146
1.0
147
0.625
 71
     0
 72
     0
 73
     0
 74
     0
 75
     0
 76
     0
 77
     1
 78
     8
170
     0
171
     3
172
     1
173
     0
174
     0
175
     0
176
     0
177
     0
178
     0
  0
DIMSTYLE
  2
STANDARD
 70
     0
  3

  4

  5

  6
1
  7
1
 40
1.0
 41
1.0
 42
1.0
 43
6.0
 44
1.0
 45
0.0
 46
0.0
 47
0.0
 48
0.0
140
2.5
141
0.0
142
0.0
143
25.399999999999999
144
1.0
145
0.0
146
1.0
147
0.5
 71
     0
 72
     0
 73
     0
 74
     0
 75
     0
 76
     0
 77
     1
 78
     8
170
     0
171
     2
172
     1
173
     1
174
     0
175
     0
176
     0
177
     0
178
     0
  0
ENDTAB
  0
ENDSEC
  0
SECTION
  2
BLOCKS
  0
BLOCK
  8
0
  2
$MODEL_SPACE
 70
     0
 10
0.0
 20
0.0
 30
0.0
  3
$MODEL_SPACE
  1

  0
ENDBLK
  5
21
  8
0
  0
BLOCK
 67
     1
  8
0
  2
$PAPER_SPACE
 70
     0
 10
0.0
 20
0.0
 30
0.0
  3
$PAPER_SPACE
  1

  0
ENDBLK
  5
1D
 67
     1
  8
0
  0
BLOCK
  8
0
  2
1
 70
     0
 10
0.0
 20
0.0
 30
0.0
  3
1
  1

  0
SOLID
  5
2C
  8
0
  6
BYBLOCK
 62
     0
 10
-1.811110924292052
 20
0.4852857095671653
 30
0.0
 11
-1.811110924292052
 21
-0.4852857095673642
 31
0.0
 12
0.0
 22
0.0
 32
0.0
 13
0.0
 23
0.0
 33
0.0
  0
ENDBLK
  5
2E
  8
0
  0
ENDSEC
  0
SECTION
  2
ENTITIES
  0
ARC
  5
B56
  8
1外形線
 10
90.142008782848166
 20
76.239350564185841
 30
0.0
 40
50.0
 50
179.99999999999179
 51
192.6803834918193
  0
LINE
  5
B57
  8
1外形線
 10
88.142008782850667
 20
50.683795008616968
 30
0.0
 11
88.142008782850894
 21
95.683795008616968
 31
0.0
  0
LINE
  5
B58
  8
1外形線
 10
88.142008782850667
 20
50.683795008616968
 30
0.0
 11
45.442008782851069
 21
50.683795008616968
 31
0.0
  0
LINE
  5
B59
  8
1外形線
 10
41.361520977970137
 20
65.263740808088343
 30
0.0
 11
44.466399026753493
 21
51.464282813494989
 31
0.0
  0
ARC
  5
B5A
  8
1外形線
 10
45.442008782851069
 20
51.683795008616983
 30
0.0
 40
1.0
 50
192.68038349182009
 51
270.0
  0
LINE
  5
B5B
  8
1外形線
 10
164.14200878285041
 20
128.63504422834001
 30
0.0
 11
164.14200878285021
 21
172.73254578889311
 31
0.0
  0
LINE
  5
B5C
  8
1外形線
 10
119.1420087828502
 20
173.6837950086107
 30
0.0
 11
119.1420087828503
 21
127.6837950086219
 31
0.0
  0
LINE
  5
B5D
  8
1外形線
 10
40.142008782851349
 20
107.1754511163266
 30
0.0
 11
40.142008782856578
 21
144.68379500861491
 31
0.0
  0
LINE
  5
B5E
  8
1外形線
 10
107.6503526751265
 20
126.6837950086165
 30
0.0
 11
90.142008782848848
 21
126.6837950086188
 31
0.0
  0
LINE
  5
B5F
  8
1外形線
 10
88.142008782850894
 20
107.17545111634109
 30
0.0
 11
88.142008782848634
 21
124.6837950086186
 31
0.0
  0
LINE
  5
B60
  8
1外形線
 10
41.142008782850667
 20
95.683795008616968
 30
0.0
 11
88.142008782850894
 21
95.683795008616968
 31
0.0
  0
LINE
  5
B61
  8
1外形線
 10
40.142008782850887
 20
94.683795008616968
 30
0.0
 11
40.142008782850887
 21
76.239350564185813
 31
0.0
  0
LINE
  5
B62
  8
1外形線
 10
41.642008782851228
 20
95.683795008616954
 30
0.0
 11
40.363281725485528
 21
104.20864205771819
 31
0.0
  0
ARC
  5
B63
  8
1外形線
 10
41.142008782850667
 20
94.683795008616997
 30
0.0
 40
1.0
 50
90.0
 51
179.99999999999221
  0
ARC
  5
B64
  8
1外形線
 10
60.142008782851349
 20
107.1754511163238
 30
0.0
 40
20.0
 50
179.99999999999179
 51
188.53076560995041
  0
LINE
  5
B65
  8
1外形線
 10
86.642008782850993
 20
95.683795008617068
 30
0.0
 11
87.920735840218526
 21
104.2086420577337
 31
0.0
  0
ARC
  5
B66
  8
1外形線
 10
68.142008782852713
 20
107.17545111633839
 30
0.0
 40
20.0
 50
351.4692343900515
 51
0.0000000000118062
  0
ARC
  5
B67
  8
1外形線
 10
90.14200878284862
 20
124.6837950086188
 30
0.0
 40
2.0
 50
89.999999999990223
 51
180.0000000000085
  0
LINE
  5
B68
  8
1外形線
 10
142.8927890578382
 20
126.683795008619
 30
0.0
 11
120.1420087828502
 21
126.6837950086219
 31
0.0
  0
LINE
  5
B69
  8
1外形線
 10
119.1420087828503
 20
128.1837950086163
 30
0.0
 11
110.6171617337489
 21
126.9050679512507
 31
0.0
  0
ARC
  5
B6A
  8
1外形線
 10
107.650352675129
 20
146.68379500861491
 30
0.0
 40
20.0
 50
269.99999999998698
 51
278.53076560994879
  0
ARC
  5
B6B
  8
1外形線
 10
120.1420087828503
 20
127.6837950086219
 30
0.0
 40
1.0
 50
180.0000000000004
 51
269.99999999999341
  0
LINE
  5
B6C
  8
1外形線
 10
145.3896699050336
 20
126.74617806472629
 30
0.0
 11
163.19194639979409
 21
127.636291889462
 31
0.0
  0
ARC
  5
B6D
  8
1外形線
 10
142.89278905784511
 20
176.68379500861889
 30
0.0
 40
50.0
 50
269.99999999999341
 51
272.86240522610598
  0
ARC
  5
B6E
  8
1外形線
 10
163.14200878285041
 20
128.63504422834001
 30
0.0
 40
1.0
 50
272.86240522610598
 51
0.0000000000004071
  0
LINE
  5
B6F
  8
1外形線
 10
107.6503526751406
 20
174.6837950086161
 30
0.0
 11
70.142008782852258
 21
174.68379500861059
 31
0.0
  0
ARC
  5
B70
  8
1外形線
 10
70.142008782856806
 20
144.68379500861059
 30
0.0
 40
30.0
 50
90.000000000009777
 51
179.99999999999179
  0
LINE
  5
B71
  8
1外形線
 10
142.89278905784221
 20
174.68379500861391
 30
0.0
 11
120.14200878285
 21
174.6837950086107
 31
0.0
  0
LINE
  5
B72
  8
1外形線
 10
119.1420087828503
 20
173.18379500861641
 30
0.0
 11
110.6171617337489
 21
174.46252206598189
 31
0.0
  0
ARC
  5
B73
  8
1外形線
 10
107.65035267514359
 20
154.6837950086161
 30
0.0
 40
20.0
 50
81.469234390051184
 51
90.000000000009777
  0
ARC
  5
B74
  8
1外形線
 10
120.1420087828502
 20
173.6837950086107
 30
0.0
 40
1.0
 50
90.000000000009777
 51
180.0000000000004
  0
LINE
  5
B75
  8
1外形線
 10
145.38966990503741
 20
174.62141195250629
 30
0.0
 11
163.19194639979389
 21
173.731298127771
 31
0.0
  0
ARC
  5
B76
  8
1外形線
 10
142.89278905784951
 20
124.683795008614
 30
0.0
 40
50.0
 50
87.137594773897163
 51
90.000000000009777
  0
ARC
  5
B77
  8
1外形線
 10
163.14200878285021
 20
172.73254578889311
 30
0.0
 40
1.0
 50
0.0000000000004071
 51
87.137594773897163
  0
LINE
  5
B78
  8
1外形線
 10
328.684507823768
 20
50.683795008616968
 30
0.0
 11
328.68450782376777
 21
95.683795008616968
 31
0.0
  0
ARC
  5
B79
  8
1外形線
 10
326.6845078237705
 20
76.239350564185841
 30
0.0
 40
50.0
 50
347.31961650818062
 51
0.0000000000081422
  0
LINE
  5
B7A
  8
1外形線
 10
186.14743788580151
 20
79.183795008617594
 30
0.0
 11
186.14743788580151
 21
67.183795008617381
 31
0.0
  0
CIRCLE
  5
B7B
  8
1外形線
 10
206.8474378857965
 20
75.183795008617153
 30
0.0
 40
2.1000000000000001
  0
LINE
  5
B7C
  8
1外形線
 10
227.54743788579199
 20
79.183795008617594
 30
0.0
 11
227.54743788579199
 21
67.183795008617381
 31
0.0
  0
LINE
  5
B7D
  8
1外形線
 10
184.8474378857963
 20
50.683795008616919
 30
0.0
 11
184.84743788580209
 21
93.183795008616926
 31
0.0
  0
LINE
  5
B7E
  8
1外形線
 10
182.84743788579931
 20
71.933014733624987
 30
0.0
 11
182.84743788580241
 21
94.683795008617153
 31
0.0
  0
LINE
  5
B7F
  8
1外形線
 10
228.84743788579721
 20
50.683795008616919
 30
0.0
 11
228.84743788579141
 21
93.183795008617381
 31
0.0
  0
LINE
  5
B80
  8
1外形線
 10
230.84743788579419
 20
71.933014733629065
 30
0.0
 11
230.84743788579121
 21
94.683795008617153
 31
0.0
  0
LINE
  5
B81
  8
1外形線
 10
328.684507823768
 20
50.683795008616968
 30
0.0
 11
371.38450782376759
 21
50.683795008616968
 31
0.0
  0
LINE
  5
B82
  8
1外形線
 10
228.8961886660733
 20
50.683795008616919
 30
0.0
 11
184.7986871055202
 21
50.683795008616919
 31
0.0
  0
LINE
  5
B83
  8
1外形線
 10
184.8474378858015
 20
65.683795008616698
 30
0.0
 11
228.84743788579101
 21
65.683795008616698
 31
0.0
  0
LINE
  5
B84
  8
1外形線
 10
194.3474378857965
 20
65.683795008617835
 30
0.0
 11
194.34743788579581
 21
51.683795008617828
 31
0.0
  0
LINE
  5
B85
  8
1外形線
 10
182.9098209419069
 20
69.436133886429715
 30
0.0
 11
183.79993476664231
 21
51.633857391673239
 31
0.0
  0
ARC
  5
B86
  8
1外形線
 10
184.7986871055202
 20
51.68379500861694
 30
0.0
 40
1.0
 50
182.86240522610441
 51
270.0
  0
ARC
  5
B87
  8
1外形線
 10
195.34743788579561
 20
51.683795008617849
 30
0.0
 40
1.0
 50
179.99999999999631
 51
269.9999999999967
  0
LINE
  5
B88
  8
1外形線
 10
184.8474378858015
 20
67.183795008616926
 30
0.0
 11
186.14743788580151
 21
67.183795008617153
 31
0.0
  0
ARC
  5
B89
  8
1外形線
 10
232.8474378857992
 20
71.933014733617838
 30
0.0
 40
50.0
 50
179.99999999999179
 51
182.86240522610441
  0
LINE
  5
B8A
  8
1外形線
 10
219.3474378857965
 20
65.683795008616244
 30
0.0
 11
219.34743788579581
 21
51.683795008616237
 31
0.0
  0
LINE
  5
B8B
  8
1外形線
 10
230.7850548296868
 20
69.436133886433694
 30
0.0
 11
229.89494100495119
 21
51.633857391673239
 31
0.0
  0
ARC
  5
B8C
  8
1外形線
 10
218.34743788579561
 20
51.683795008616478
 30
0.0
 40
1.0
 50
269.9999999999967
 51
359.99999999999631
  0
ARC
  5
B8D
  8
1外形線
 10
228.8961886660733
 20
51.68379500861694
 30
0.0
 40
1.0
 50
270.0
 51
357.1375947738955
  0
LINE
  5
B8E
  8
1外形線
 10
228.84743788579189
 20
67.183795008616926
 30
0.0
 11
227.54743788579199
 21
67.183795008617153
 31
0.0
  0
ARC
  5
B8F
  8
1外形線
 10
180.84743788579431
 20
71.933014733622045
 30
0.0
 40
50.0
 50
357.1375947738955
 51
0.0000000000081422
  0
LINE
  5
B90
  8
1外形線
 10
375.46499562864852
 20
65.263740808088343
 30
0.0
 11
372.36011757986518
 21
51.464282813494989
 31
0.0
  0
ARC
  5
B91
  8
1外形線
 10
371.38450782376759
 20
51.683795008616983
 30
0.0
 40
1.0
 50
270.0
 51
347.31961650817982
  0
LINE
  5
B92
  8
1外形線
 10
375.684507823768
 20
95.683795008616968
 30
0.0
 11
328.68450782376777
 21
95.683795008616968
 31
0.0
  0
LINE
  5
B93
  8
1外形線
 10
308.68202024625589
 20
174.6837950086161
 30
0.0
 11
346.68450782376641
 21
174.68379500861059
 31
0.0
  0
LINE
  5
B94
  8
1外形線
 10
297.68450782376868
 20
127.683795008622
 30
0.0
 11
297.68450782376868
 21
149.68379500861829
 31
0.0
  0
LINE
  5
B95
  8
1外形線
 10
287.68450782376812
 20
161.6837950086159
 30
0.0
 11
287.68450782376817
 21
139.6837950086161
 31
0.0
  0
LINE
  5
B96
  8
1外形線
 10
295.68450782376868
 20
127.8837950086215
 30
0.0
 11
295.68450782376863
 21
149.68379500861829
 31
0.0
  0
LINE
  5
B97
  8
1外形線
 10
267.68450782376812
 20
172.68379500861181
 30
0.0
 11
267.68450782376812
 21
128.68379500862221
 31
0.0
  0
LINE
  5
B98
  8
1外形線
 10
252.6845078237682
 20
128.63504422834001
 30
0.0
 11
252.6845078237684
 21
172.73254578889311
 31
0.0
  0
ARC
  5
B99
  8
1外形線
 10
206.847437885793
 20
150.6837950086161
 30
0.0
 40
17.0
 50
328.03428124920282
 51
31.965718750797102
  0
LINE
  5
B9A
  8
1外形線
 10
228.3474378857957
 20
163.1837950086165
 30
0.0
 11
228.3474378857957
 21
138.18379500861471
 31
0.0
  0
LINE
  5
B9B
  8
1外形線
 10
226.3474378857957
 20
161.68379500861681
 30
0.0
 11
226.3474378857957
 21
139.68379500861451
 31
0.0
  0
LINE
  5
B9C
  8
1外形線
 10
230.8474378857955
 20
174.68379500861761
 30
0.0
 11
230.8474378857955
 21
126.68379500861531
 31
0.0
  0
ARC
  5
B9D
  8
1外形線
 10
210.3474378857957
 20
150.6837950086163
 30
0.0
 40
23.0
 50
90.000000000006509
 51
269.99999999999341
  0
ARC
  5
B9E
  8
1外形線
 10
210.3474378857957
 20
150.6837950086163
 30
0.0
 40
22.0
 50
90.000000000006509
 51
269.99999999999341
  0
LINE
  5
B9F
  8
1外形線
 10
230.8474378857955
 20
150.6837950086161
 30
0.0
 11
230.8474378857955
 21
106.68130743110061
 31
0.0
  0
LINE
  5
BA0
  8
1外形線
 10
182.8474378857982
 20
150.6837950086161
 30
0.0
 11
182.8474378857982
 21
106.6813074311016
 31
0.0
  0
ARC
  5
BA1
  8
1外形線
 10
206.84743788579689
 20
150.6837950086161
 30
0.0
 40
23.999999999998689
 50
90.0
 51
270.0
  0
LINE
  5
BA2
  8
1外形線
 10
271.43684670158513
 20
126.74617806472639
 30
0.0
 11
253.63457020682461
 21
127.636291889462
 31
0.0
  0
LINE
  5
BA3
  8
1外形線
 10
267.68450782376772
 20
138.18379500861681
 30
0.0
 11
253.6845078237676
 21
138.18379500861749
 31
0.0
  0
LINE
  5
BA4
  8
1外形線
 10
252.68450782376831
 20
128.6837950086161
 30
0.0
 11
295.1845078237688
 21
128.6837950086219
 31
0.0
  0
LINE
  5
BA5
  8
1外形線
 10
206.84743788579689
 20
126.68379500861739
 30
0.0
 11
206.84743788579681
 21
85.683795008616727
 31
0.0
  0
LINE
  5
BA6
  8
1外形線
 10
229.84743788579129
 20
95.683795008617267
 30
0.0
 11
207.84743788579499
 21
95.683795008617267
 31
0.0
  0
LINE
  5
BA7
  8
1外形線
 10
229.6474378857917
 20
93.683795008617267
 30
0.0
 11
207.84743788579499
 21
93.683795008617281
 31
0.0
  0
LINE
  5
BA8
  8
1外形線
 10
215.84743788579641
 20
83.183795008616812
 30
0.0
 11
217.84743788579729
 21
83.183795008616812
 31
0.0
  0
LINE
  5
BA9
  8
1外形線
 10
195.84743788579749
 20
85.683795008616727
 30
0.0
 11
217.84743788579721
 21
85.683795008616698
 31
0.0
  0
LINE
  5
BAA
  8
1外形線
 10
202.07774187872869
 20
85.683795008616698
 30
0.0
 11
202.07774187872869
 21
93.683795008617267
 31
0.0
  0
LINE
  5
BAB
  8
1外形線
 10
211.61713389286481
 20
85.683795008616698
 30
0.0
 11
211.61713389286481
 21
93.683795008617267
 31
0.0
  0
LINE
  5
BAC
  8
1外形線
 10
184.8474378858011
 20
85.683795008602374
 30
0.0
 11
182.94669408159791
 21
104.6912330506871
 31
0.0
  0
LINE
  5
BAD
  8
1外形線
 10
195.84743788579749
 20
83.183795008616698
 30
0.0
 11
195.84743788579749
 21
93.183795008616812
 31
0.0
  0
LINE
  5
BAE
  8
1外形線
 10
197.84743788579701
 20
83.183795008616812
 30
0.0
 11
197.84743788579681
 21
85.683795008616684
 31
0.0
  0
LINE
  5
BAF
  8
1外形線
 10
184.8474378858015
 20
79.183795008617594
 30
0.0
 11
186.14743788580151
 21
79.183795008617594
 31
0.0
  0
LINE
  5
BB0
  8
1外形線
 10
195.84743788579749
 20
83.183795008616812
 30
0.0
 11
197.84743788579721
 21
83.183795008616812
 31
0.0
  0
LINE
  5
BB1
  8
1外形線
 10
193.8474378857965
 20
91.683795008616798
 30
0.0
 11
186.8474378858015
 21
91.683795008616798
 31
0.0
  0
LINE
  5
BB2
  8
1外形線
 10
186.8474378858015
 20
85.683795008616698
 30
0.0
 11
193.8474378857965
 21
85.683795008616698
 31
0.0
  0
LINE
  5
BB3
  8
1外形線
 10
186.8474378858015
 20
91.683795008616798
 30
0.0
 11
186.8474378858015
 21
85.683795008616698
 31
0.0
  0
LINE
  5
BB4
  8
1外形線
 10
193.8474378857965
 20
85.683795008616698
 30
0.0
 11
193.8474378857965
 21
91.683795008616798
 31
0.0
  0
LINE
  5
BB5
  8
1外形線
 10
215.84743788579641
 20
83.183795008616812
 30
0.0
 11
215.84743788579669
 21
85.683795008616684
 31
0.0
  0
LINE
  5
BB6
  8
1外形線
 10
205.8474378857984
 20
95.683795008617267
 30
0.0
 11
183.84743788580241
 21
95.683795008617267
 31
0.0
  0
LINE
  5
BB7
  8
1外形線
 10
184.0474378858018
 20
93.683795008616812
 30
0.0
 11
205.8474378857984
 21
93.683795008616812
 31
0.0
  0
ARC
  5
BB8
  8
1外形線
 10
183.84743788580241
 20
94.683795008616926
 30
0.0
 40
1.0
 50
90.0
 51
179.99999999999139
  0
ARC
  5
BB9
  8
1外形線
 10
185.3474378858015
 20
93.183795008616826
 30
0.0
 40
0.5
 50
90.0
 51
180.0
  0
ARC
  5
BBA
  8
1外形線
 10
195.3474378857974
 20
93.183795008616826
 30
0.0
 40
0.5
 50
0.0
 51
90.0
  0
ARC
  5
BBB
  8
1外形線
 10
202.8474378857982
 20
106.6813074311016
 30
0.0
 40
20.0
 50
180.0
 51
185.71059313748381
  0
LINE
  5
BBC
  8
1外形線
 10
205.8474378857984
 20
93.683795008616812
 30
0.0
 11
205.8474378857984
 21
95.683795008617267
 31
0.0
  0
LINE
  5
BBD
  8
1外形線
 10
207.84743788579499
 20
93.683795008616812
 30
0.0
 11
207.84743788579499
 21
95.683795008617267
 31
0.0
  0
LINE
  5
BBE
  8
1外形線
 10
228.8474378857924
 20
85.683795008602374
 30
0.0
 11
230.74818168999579
 21
104.6912330506857
 31
0.0
  0
LINE
  5
BBF
  8
1外形線
 10
217.84743788579729
 20
83.183795008616812
 30
0.0
 11
217.84743788579689
 21
93.183795008617267
 31
0.0
  0
LINE
  5
BC0
  8
1外形線
 10
228.84743788579189
 20
79.183795008617594
 30
0.0
 11
227.54743788579199
 21
79.183795008617594
 31
0.0
  0
LINE
  5
BC1
  8
1外形線
 10
219.84743788579689
 20
91.683795008616798
 30
0.0
 11
226.847437885792
 21
91.683795008616798
 31
0.0
  0
LINE
  5
BC2
  8
1外形線
 10
219.84743788579689
 20
85.683795008616698
 30
0.0
 11
226.847437885792
 21
85.683795008616698
 31
0.0
  0
LINE
  5
BC3
  8
1外形線
 10
219.84743788579689
 20
85.683795008616926
 30
0.0
 11
219.84743788579689
 21
91.683795008616798
 31
0.0
  0
LINE
  5
BC4
  8
1外形線
 10
226.847437885792
 20
91.683795008616798
 30
0.0
 11
226.847437885792
 21
85.683795008616926
 31
0.0
  0
ARC
  5
BC5
  8
1外形線
 10
218.34743788579701
 20
93.183795008617295
 30
0.0
 40
0.5
 50
90.0
 51
180.00000000000159
  0
ARC
  5
BC6
  8
1外形線
 10
229.84743788579129
 20
94.683795008617054
 30
0.0
 40
1.0
 50
0.0000000000081422
 51
90.0
  0
ARC
  5
BC7
  8
1外形線
 10
228.34743788579189
 20
93.183795008617295
 30
0.0
 40
0.5
 50
359.9999999999979
 51
90.0
  0
ARC
  5
BC8
  8
1外形線
 10
210.8474378857955
 20
106.68130743110061
 30
0.0
 40
20.0
 50
354.28940686251531
 51
0.0
  0
LINE
  5
BC9
  8
1外形線
 10
230.8474378857955
 20
126.68379500861541
 30
0.0
 11
206.8474378857901
 21
126.6837950086184
 31
0.0
  0
LINE
  5
BCA
  8
1外形線
 10
230.8474378857957
 20
127.68379500861541
 30
0.0
 11
210.347437885793
 21
127.68379500861791
 31
0.0
  0
LINE
  5
BCB
  8
1外形線
 10
230.8474378857957
 20
128.68379500861539
 30
0.0
 11
210.347437885793
 21
128.68379500861789
 31
0.0
  0
LINE
  5
BCC
  8
1外形線
 10
218.8474378857951
 20
129.68379500861519
 30
0.0
 11
218.8474378857951
 21
134.68379500861769
 31
0.0
  0
LINE
  5
BCD
  8
1外形線
 10
224.84743788579621
 20
139.68379500861491
 30
0.0
 11
224.84743788579641
 21
132.18379500861519
 31
0.0
  0
ARC
  5
BCE
  8
1外形線
 10
206.847437885793
 20
150.6837950086161
 30
0.0
 40
22.0
 50
303.05573115085548
 51
324.90319877242769
  0
LINE
  5
BCF
  8
1外形線
 10
224.8474378857959
 20
132.18379500861519
 30
0.0
 11
222.55876275120011
 21
132.18379500861519
 31
0.0
  0
ARC
  5
BD0
  8
1外形線
 10
222.55876275120011
 20
131.18379500861519
 30
0.0
 40
1.0
 50
90.0
 51
210.0000000000004
  0
LINE
  5
BD1
  8
1外形線
 10
222.8474378857957
 20
128.68379500861519
 30
0.0
 11
221.69273734741671
 21
130.68379500861519
 31
0.0
  0
ARC
  5
BD2
  8
1外形線
 10
219.8474378857951
 20
129.68379500861519
 30
0.0
 40
1.0
 50
180.0
 51
270.0
  0
LINE
  5
BD3
  8
1外形線
 10
224.8474378857957
 20
138.18379500861471
 30
0.0
 11
228.3474378857957
 21
138.18379500861471
 31
0.0
  0
LINE
  5
BD4
  8
1外形線
 10
221.26964298764901
 20
141.6837950086161
 30
0.0
 11
226.3474378857957
 21
141.6837950086161
 31
0.0
  0
LINE
  5
BD5
  8
1外形線
 10
223.55073097428229
 20
139.68379500861491
 30
0.0
 11
226.3474378857957
 21
139.68379500861451
 31
0.0
  0
ARC
  5
BD6
  8
1外形線
 10
206.847437885793
 20
150.6837950086161
 30
0.0
 40
20.0
 50
306.86989764584621
 51
326.63298703076509
  0
ARC
  5
BD7
  8
1外形線
 10
253.68450782376831
 20
128.63504422833989
 30
0.0
 40
1.0
 50
180.0
 51
267.13759477389709
  0
ARC
  5
BD8
  8
1外形線
 10
253.68450782376789
 20
139.18379500861769
 30
0.0
 40
1.0
 50
179.99999999999631
 51
269.9999999999967
  0
LINE
  5
BD9
  8
1外形線
 10
328.68450782376777
 20
107.17545111634109
 30
0.0
 11
328.6845078237701
 21
124.6837950086186
 31
0.0
  0
LINE
  5
BDA
  8
1外形線
 10
330.18450782376772
 20
95.683795008617068
 30
0.0
 11
328.9057807664002
 21
104.2086420577337
 31
0.0
  0
ARC
  5
BDB
  8
1外形線
 10
348.68450782376601
 20
107.17545111633839
 30
0.0
 40
20.0
 50
179.9999999999882
 51
188.53076560994839
  0
LINE
  5
BDC
  8
1外形線
 10
287.68450782375379
 20
128.6837950086209
 30
0.0
 11
306.69194586583728
 21
126.7830512044175
 31
0.0
  0
LINE
  5
BDD
  8
1外形線
 10
293.68450782376817
 20
130.6837950086213
 30
0.0
 11
287.6845078237684
 21
130.6837950086213
 31
0.0
  0
LINE
  5
BDE
  8
1外形線
 10
285.18450782376817
 20
139.68379500861599
 30
0.0
 11
295.18450782376868
 21
139.6837950086163
 31
0.0
  0
LINE
  5
BDF
  8
1外形線
 10
287.6845078237684
 20
137.6837950086163
 30
0.0
 11
293.68450782376817
 21
137.6837950086163
 31
0.0
  0
LINE
  5
BE0
  8
1外形線
 10
273.9337275487805
 20
126.683795008619
 30
0.0
 11
296.68450782376863
 21
126.683795008622
 31
0.0
  0
LINE
  5
BE1
  8
1外形線
 10
281.18450782376902
 20
129.98379500862131
 30
0.0
 11
269.1845078237688
 21
129.98379500862131
 31
0.0
  0
ARC
  5
BE2
  8
1外形線
 10
273.9337275487735
 20
176.683795008619
 30
0.0
 40
50.0
 50
267.13759477389709
 51
270.00000000000648
  0
LINE
  5
BE3
  8
1外形線
 10
269.1845078237684
 20
128.6837950086213
 30
0.0
 11
269.18450782376863
 21
129.98379500862131
 31
0.0
  0
LINE
  5
BE4
  8
1外形線
 10
287.68450782376817
 20
137.6837950086163
 30
0.0
 11
287.68450782376817
 21
130.6837950086213
 31
0.0
  0
LINE
  5
BE5
  8
1外形線
 10
281.18450782376902
 20
128.6837950086213
 30
0.0
 11
281.18450782376902
 21
129.98379500862131
 31
0.0
  0
LINE
  5
BE6
  8
1外形線
 10
285.18450782376817
 20
141.68379500861681
 30
0.0
 11
287.68450782376817
 21
141.6837950086165
 31
0.0
  0
LINE
  5
BE7
  8
1外形線
 10
285.18450782376817
 20
141.6837950086169
 30
0.0
 11
285.18450782376817
 21
139.68379500861599
 31
0.0
  0
ARC
  5
BE8
  8
1外形線
 10
326.6845078237701
 20
124.6837950086188
 30
0.0
 40
2.0
 50
359.99999999999142
 51
90.000000000009777
  0
LINE
  5
BE9
  8
1外形線
 10
308.68202024625469
 20
126.6837950086165
 30
0.0
 11
326.68450782376982
 21
126.6837950086188
 31
0.0
  0
LINE
  5
BEA
  8
1外形線
 10
293.68450782376817
 20
137.6837950086163
 30
0.0
 11
293.68450782376817
 21
130.6837950086213
 31
0.0
  0
ARC
  5
BEB
  8
1外形線
 10
295.18450782376868
 20
129.1837950086213
 30
0.0
 40
0.5
 50
269.9999999999967
 51
0.0
  0
ARC
  5
BEC
  8
1外形線
 10
296.68450782376851
 20
127.683795008622
 30
0.0
 40
1.0
 50
270.00000000000648
 51
0.0
  0
ARC
  5
BED
  8
1外形線
 10
308.68202024625202
 20
146.68379500861781
 30
0.0
 40
20.0
 50
264.2894068625157
 51
270.0
  0
ARC
  5
BEE
  8
1外形線
 10
295.18450782376868
 20
139.1837950086163
 30
0.0
 40
0.5
 50
0.0
 51
90.0
  0
LINE
  5
BEF
  8
1外形線
 10
267.68450782376931
 20
163.18379500861681
 30
0.0
 11
253.6845078237692
 21
163.18379500861749
 31
0.0
  0
LINE
  5
BF0
  8
1外形線
 10
271.4368467015812
 20
174.62141195250641
 30
0.0
 11
253.63457020682461
 21
173.731298127771
 31
0.0
  0
LINE
  5
BF1
  8
1外形線
 10
252.68450782376831
 20
172.68379500861701
 30
0.0
 11
295.18450782376829
 21
172.68379500861121
 31
0.0
  0
LINE
  5
BF2
  8
1外形線
 10
230.8474378857955
 20
174.68379500861769
 30
0.0
 11
206.84743788578979
 21
174.68379500861431
 31
0.0
  0
LINE
  5
BF3
  8
1外形線
 10
230.8474378857957
 20
172.68379500861769
 30
0.0
 11
210.3474378857928
 21
172.68379500861471
 31
0.0
  0
LINE
  5
BF4
  8
1外形線
 10
230.8474378857957
 20
173.68379500861769
 30
0.0
 11
210.3474378857926
 21
173.68379500861471
 31
0.0
  0
LINE
  5
BF5
  8
1外形線
 10
218.84743788579479
 20
166.68379500861471
 30
0.0
 11
218.84743788579479
 21
171.6837950086161
 31
0.0
  0
ARC
  5
BF6
  8
1外形線
 10
206.847437885793
 20
150.6837950086161
 30
0.0
 40
22.0
 50
35.096801227572271
 51
56.94426884914111
  0
LINE
  5
BF7
  8
1外形線
 10
224.8474378857957
 20
169.1837950086161
 30
0.0
 11
224.8474378857959
 21
161.6837950086165
 31
0.0
  0
LINE
  5
BF8
  8
1外形線
 10
224.8474378857957
 20
163.1837950086165
 30
0.0
 11
228.3474378857957
 21
163.1837950086165
 31
0.0
  0
LINE
  5
BF9
  8
1外形線
 10
221.26964298764901
 20
159.6837950086161
 30
0.0
 11
226.3474378857957
 21
159.6837950086161
 31
0.0
  0
LINE
  5
BFA
  8
1外形線
 10
223.5507309742826
 20
161.68379500861681
 30
0.0
 11
226.3474378857957
 21
161.6837950086163
 31
0.0
  0
ARC
  5
BFB
  8
1外形線
 10
206.847437885793
 20
150.6837950086161
 30
0.0
 40
20.0
 50
33.367012969233997
 51
53.130102354150281
  0
LINE
  5
BFC
  8
1外形線
 10
224.8474378857957
 20
169.1837950086161
 30
0.0
 11
222.55876275120011
 21
169.1837950086161
 31
0.0
  0
ARC
  5
BFD
  8
1外形線
 10
222.55876275120011
 20
170.1837950086161
 30
0.0
 40
1.0
 50
149.9999999999994
 51
270.0
  0
LINE
  5
BFE
  8
1外形線
 10
222.8474378857957
 20
172.6837950086161
 30
0.0
 11
221.69273734741671
 21
170.6837950086161
 31
0.0
  0
ARC
  5
BFF
  8
1外形線
 10
219.84743788579479
 20
171.6837950086161
 30
0.0
 40
1.0
 50
90.0
 51
180.0
  0
ARC
  5
C00
  8
1外形線
 10
253.6845078237692
 20
162.18379500861769
 30
0.0
 40
1.0
 50
89.999999999996746
 51
179.99999999999631
  0
ARC
  5
C01
  8
1外形線
 10
253.68450782376831
 20
172.73254578889311
 30
0.0
 40
1.0
 50
92.862405226102837
 51
180.0
  0
LINE
  5
C02
  8
1外形線
 10
287.68450782376817
 20
145.91409900154849
 30
0.0
 11
295.68450782376868
 21
145.91409900154849
 31
0.0
  0
LINE
  5
C03
  8
1外形線
 10
287.68450782376817
 20
155.45349101568451
 30
0.0
 11
295.68450782376868
 21
155.45349101568451
 31
0.0
  0
LINE
  5
C04
  8
1外形線
 10
287.68450782375379
 20
172.68379500861221
 30
0.0
 11
306.69194586583859
 21
174.5845388128154
 31
0.0
  0
LINE
  5
C05
  8
1外形線
 10
285.18450782376812
 20
161.6837950086159
 30
0.0
 11
295.18450782376829
 21
161.6837950086159
 31
0.0
  0
LINE
  5
C06
  8
1外形線
 10
293.68450782376817
 20
170.68379500861181
 30
0.0
 11
287.68450782376817
 21
170.68379500861181
 31
0.0
  0
LINE
  5
C07
  8
1外形線
 10
287.68450782376817
 20
163.68379500861681
 30
0.0
 11
293.68450782376817
 21
163.68379500861681
 31
0.0
  0
LINE
  5
C08
  8
1外形線
 10
273.9337275487764
 20
174.683795008614
 30
0.0
 11
296.68450782376863
 21
174.6837950086109
 31
0.0
  0
CIRCLE
  5
C09
  8
1外形線
 10
277.18450782376863
 20
150.68379500861681
 30
0.0
 40
2.1000000000000001
  0
LINE
  5
C0A
  8
1外形線
 10
281.18450782376902
 20
171.3837950086118
 30
0.0
 11
269.1845078237688
 21
171.3837950086118
 31
0.0
  0
LINE
  5
C0B
  8
1外形線
 10
269.1845078237684
 20
172.68379500861181
 30
0.0
 11
269.18450782376863
 21
171.3837950086118
 31
0.0
  0
ARC
  5
C0C
  8
1外形線
 10
273.9337275487693
 20
124.683795008614
 30
0.0
 40
50.0
 50
89.999999999990223
 51
92.862405226102837
  0
LINE
  5
C0D
  8
1外形線
 10
287.68450782376817
 20
170.68379500861181
 30
0.0
 11
287.68450782376817
 21
163.68379500861681
 31
0.0
  0
LINE
  5
C0E
  8
1外形線
 10
285.18450782376817
 20
159.6837950086163
 30
0.0
 11
287.68450782376817
 21
159.6837950086165
 31
0.0
  0
LINE
  5
C0F
  8
1外形線
 10
285.18450782376817
 20
161.6837950086159
 30
0.0
 11
285.18450782376817
 21
159.68379500861599
 31
0.0
  0
LINE
  5
C10
  8
1外形線
 10
281.18450782376902
 20
172.68379500861181
 30
0.0
 11
281.18450782376902
 21
171.3837950086118
 31
0.0
  0
LINE
  5
C11
  8
1外形線
 10
297.68450782376868
 20
151.68379500861479
 30
0.0
 11
297.68450782376868
 21
173.6837950086109
 31
0.0
  0
LINE
  5
C12
  8
1外形線
 10
295.68450782376817
 20
173.48379500861151
 30
0.0
 11
295.68450782376817
 21
151.68379500861479
 31
0.0
  0
LINE
  5
C13
  8
1外形線
 10
295.68450782376817
 20
149.68379500861829
 30
0.0
 11
297.68450782376868
 21
149.68379500861829
 31
0.0
  0
LINE
  5
C14
  8
1外形線
 10
295.68450782376817
 20
151.68379500861479
 30
0.0
 11
297.68450782376868
 21
151.68379500861479
 31
0.0
  0
LINE
  5
C15
  8
1外形線
 10
293.68450782376817
 20
163.68379500861681
 30
0.0
 11
293.68450782376817
 21
170.68379500861181
 31
0.0
  0
ARC
  5
C16
  8
1外形線
 10
295.18450782376829
 20
162.1837950086159
 30
0.0
 40
0.5
 50
270.0
 51
0.0
  0
ARC
  5
C17
  8
1外形線
 10
295.18450782376829
 20
172.18379500861181
 30
0.0
 40
0.5
 50
0.0
 51
90.0
  0
ARC
  5
C18
  8
1外形線
 10
296.6845078237684
 20
173.6837950086109
 30
0.0
 40
1.0
 50
0.0
 51
89.999999999990223
  0
ARC
  5
C19
  8
1外形線
 10
308.68202024625299
 20
154.68379500861499
 30
0.0
 40
20.0
 50
90.0
 51
95.710593137484267
  0
LINE
  5
C1A
  8
1外形線
 10
376.68450782376732
 20
107.1754511163266
 30
0.0
 11
376.68450782376209
 21
144.68379500861491
 31
0.0
  0
LINE
  5
C1B
  8
1外形線
 10
376.68450782376777
 20
94.683795008616968
 30
0.0
 11
376.68450782376777
 21
76.239350564185813
 31
0.0
  0
LINE
  5
C1C
  8
1外形線
 10
375.18450782376738
 20
95.683795008616954
 30
0.0
 11
376.46323488113319
 21
104.20864205771819
 31
0.0
  0
ARC
  5
C1D
  8
1外形線
 10
375.684507823768
 20
94.683795008616997
 30
0.0
 40
1.0
 50
0.0000000000077351
 51
90.0
  0
ARC
  5
C1E
  8
1外形線
 10
356.68450782376732
 20
107.1754511163238
 30
0.0
 40
20.0
 50
351.46923439004951
 51
0.0000000000081422
  0
ARC
  5
C1F
  8
1外形線
 10
346.68450782376192
 20
144.68379500861059
 30
0.0
 40
30.0
 50
0.0000000000081422
 51
89.999999999990223
  0
ENDSEC
  0
EOF
