  0
SECTION
  2
HEADER
  9
$ACADVER
  1
AC1009
  9
$INSBASE
 10
0.0
 20
0.0
 30
0.0
  9
$EXTMIN
 10
24.99622914499696
 20
-25.750029856048059
 30
-0.0015258207003583
  9
$EXTMAX
 10
615.43703137683963
 20
328.01300813666739
 30
0.0000000349246037
  9
$LIMMIN
 10
0.0
 20
0.0
  9
$LIMMAX
 10
420.0
 20
297.0
  9
$ORTHOMODE
 70
     0
  9
$REGENMODE
 70
     1
  9
$FILLMODE
 70
     1
  9
$QTEXTMODE
 70
     0
  9
$MIRRTEXT
 70
     1
  9
$DRAGMODE
 70
     2
  9
$LTSCALE
 40
1.0
  9
$OSMODE
 70
    37
  9
$ATTMODE
 70
     1
  9
$TEXTSIZE
 40
2.5
  9
$TRACEWID
 40
1.0
  9
$TEXTSTYLE
  7
STANDARD
  9
$CLAYER
  8
0
  9
$CELTYPE
  6
BYLAYER
  9
$CECOLOR
 62
   256
  9
$DIMSCALE
 40
1.0
  9
$DIMASZ
 40
2.5
  9
$DIMEXO
 40
0.625
  9
$DIMDLI
 40
3.75
  9
$DIMRND
 40
0.0
  9
$DIMDLE
 40
0.0
  9
$DIMEXE
 40
1.25
  9
$DIMTP
 40
0.0
  9
$DIMTM
 40
0.0
  9
$DIMTXT
 40
2.5
  9
$DIMCEN
 40
2.5
  9
$DIMTSZ
 40
0.0
  9
$DIMTOL
 70
     0
  9
$DIMLIM
 70
     0
  9
$DIMTIH
 70
     0
  9
$DIMTOH
 70
     0
  9
$DIMSE1
 70
     0
  9
$DIMSE2
 70
     0
  9
$DIMTAD
 70
     1
  9
$DIMZIN
 70
     8
  9
$DIMBLK
  1

  9
$DIMASO
 70
     1
  9
$DIMSHO
 70
     1
  9
$DIMPOST
  1

  9
$DIMAPOST
  1

  9
$DIMALT
 70
     0
  9
$DIMALTD
 70
     3
  9
$DIMALTF
 40
0.03937007874016
  9
$DIMLFAC
 40
1.0
  9
$DIMTOFL
 70
     1
  9
$DIMTVP
 40
0.0
  9
$DIMTIX
 70
     0
  9
$DIMSOXD
 70
     0
  9
$DIMSAH
 70
     0
  9
$DIMBLK1
  1

  9
$DIMBLK2
  1

  9
$DIMSTYLE
  2
ISO-25
  9
$DIMCLRD
 70
     0
  9
$DIMCLRE
 70
     0
  9
$DIMCLRT
 70
     0
  9
$DIMTFAC
 40
1.0
  9
$DIMGAP
 40
0.625
  9
$LUNITS
 70
     2
  9
$LUPREC
 70
     4
  9
$SKETCHINC
 40
1.0
  9
$FILLETRAD
 40
10.0
  9
$AUNITS
 70
     0
  9
$AUPREC
 70
     0
  9
$MENU
  1
.
  9
$ELEVATION
 40
0.0
  9
$PELEVATION
 40
0.0
  9
$THICKNESS
 40
0.0
  9
$LIMCHECK
 70
     0
  9
$BLIPMODE
 70
     0
  9
$CHAMFERA
 40
10.0
  9
$CHAMFERB
 40
10.0
  9
$SKPOLY
 70
     0
  9
$TDCREATE
 40
2452048.587873715
  9
$TDUPDATE
 40
2452048.5962137152
  9
$TDINDWG
 40
0.0083418519
  9
$TDUSRTIMER
 40
0.0083418519
  9
$USRTIMER
 70
     1
  9
$ANGBASE
 50
0.0
  9
$ANGDIR
 70
     0
  9
$PDMODE
 70
     0
  9
$PDSIZE
 40
0.0
  9
$PLINEWID
 40
0.0
  9
$COORDS
 70
     1
  9
$SPLFRAME
 70
     0
  9
$SPLINETYPE
 70
     6
  9
$SPLINESEGS
 70
     8
  9
$ATTDIA
 70
     0
  9
$ATTREQ
 70
     1
  9
$HANDLING
 70
-16383
  9
$HANDSEED
  5
469C
  9
$SURFTAB1
 70
     6
  9
$SURFTAB2
 70
     6
  9
$SURFTYPE
 70
     6
  9
$SURFU
 70
     6
  9
$SURFV
 70
     6
  9
$UCSNAME
  2

  9
$UCSORG
 10
0.0
 20
0.0
 30
0.0
  9
$UCSXDIR
 10
1.0
 20
0.0
 30
0.0
  9
$UCSYDIR
 10
0.0
 20
1.0
 30
0.0
  9
$PUCSNAME
  2

  9
$PUCSORG
 10
0.0
 20
0.0
 30
0.0
  9
$PUCSXDIR
 10
1.0
 20
0.0
 30
0.0
  9
$PUCSYDIR
 10
0.0
 20
1.0
 30
0.0
  9
$USERI1
 70
     0
  9
$USERI2
 70
     0
  9
$USERI3
 70
     0
  9
$USERI4
 70
     0
  9
$USERI5
 70
     0
  9
$USERR1
 40
0.0
  9
$USERR2
 40
0.0
  9
$USERR3
 40
0.0
  9
$USERR4
 40
0.0
  9
$USERR5
 40
0.0
  9
$WORLDVIEW
 70
     1
  9
$SHADEDGE
 70
     3
  9
$SHADEDIF
 70
    70
  9
$TILEMODE
 70
     1
  9
$MAXACTVP
 70
    64
  9
$PLIMCHECK
 70
     0
  9
$PEXTMIN
 10
1.0000000000000000E+020
 20
1.0000000000000000E+020
 30
1.0000000000000000E+020
  9
$PEXTMAX
 10
-1.0000000000000000E+020
 20
-1.0000000000000000E+020
 30
-1.0000000000000000E+020
  9
$PLIMMIN
 10
0.0
 20
0.0
  9
$PLIMMAX
 10
420.0
 20
297.0
  9
$UNITMODE
 70
     0
  9
$VISRETAIN
 70
     1
  9
$PLINEGEN
 70
     0
  9
$PSLTSCALE
 70
     1
  0
ENDSEC
  0
SECTION
  2
TABLES
  0
TABLE
  2
VPORT
 70
    19
  0
VPORT
  2
*ACTIVE
 70
     0
 10
0.0
 20
0.0
 11
1.0
 21
1.0
 12
243.19809294536361
 22
20.724196922940902
 13
0.0
 23
0.0
 14
10.0
 24
10.0
 15
10.0
 25
10.0
 16
0.0
 26
0.0
 36
1.0
 17
0.0
 27
0.0
 37
0.0
 40
1136.324782680095
 41
0.8452830188679245
 42
50.0
 43
0.0
 44
0.0
 50
0.0
 51
0.0
 71
     0
 72
   100
 73
     1
 74
     3
 75
     0
 76
     0
 77
     0
 78
     0
  0
ENDTAB
  0
TABLE
  2
LTYPE
 70
     1
  0
LTYPE
  2
CONTINUOUS
 70
     0
  3
Solid line
 72
    65
 73
     0
 40
0.0
  0
ENDTAB
  0
TABLE
  2
LAYER
 70
     2
  0
LAYER
  2
0
 70
     0
 62
     7
  6
CONTINUOUS
  0
LAYER
  2
1外形線
 70
     0
 62
     3
  6
CONTINUOUS
  0
ENDTAB
  0
TABLE
  2
STYLE
 70
     2
  0
STYLE
  2
STANDARD
 70
     0
 40
0.0
 41
1.0
 50
0.0
 71
     0
 42
2.5
  3
txt
  4

  0
STYLE
  2
KANJI
 70
     0
 40
0.0
 41
1.0
 50
0.0
 71
     0
 42
10.0
  3
simplex
  4
bigfont
  0
ENDTAB
  0
TABLE
  2
VIEW
 70
     0
  0
ENDTAB
  0
TABLE
  2
UCS
 70
     0
  0
ENDTAB
  0
TABLE
  2
APPID
 70
     1
  0
APPID
  2
ACAD
 70
     0
  0
ENDTAB
  0
TABLE
  2
DIMSTYLE
 70
     2
  0
DIMSTYLE
  2
ISO-25
 70
     0
  3

  4

  5

  6

  7

 40
1.0
 41
2.5
 42
0.625
 43
3.75
 44
1.25
 45
0.0
 46
0.0
 47
0.0
 48
0.0
140
2.5
141
2.5
142
0.0
143
0.03937007874016
144
1.0
145
0.0
146
1.0
147
0.625
 71
     0
 72
     0
 73
     0
 74
     0
 75
     0
 76
     0
 77
     1
 78
     8
170
     0
171
     3
172
     1
173
     0
174
     0
175
     0
176
     0
177
     0
178
     0
  0
DIMSTYLE
  2
STANDARD
 70
     0
  3

  4

  5

  6
1
  7
1
 40
1.0
 41
1.0
 42
1.0
 43
6.0
 44
1.0
 45
0.0
 46
0.0
 47
0.0
 48
0.0
140
2.5
141
0.0
142
0.0
143
25.399999999999999
144
1.0
145
0.0
146
1.0
147
0.5
 71
     0
 72
     0
 73
     0
 74
     0
 75
     0
 76
     0
 77
     1
 78
     8
170
     0
171
     2
172
     1
173
     1
174
     0
175
     0
176
     0
177
     0
178
     0
  0
ENDTAB
  0
ENDSEC
  0
SECTION
  2
BLOCKS
  0
BLOCK
  8
0
  2
$MODEL_SPACE
 70
     0
 10
0.0
 20
0.0
 30
0.0
  3
$MODEL_SPACE
  1

  0
ENDBLK
  5
21
  8
0
  0
BLOCK
 67
     1
  8
0
  2
$PAPER_SPACE
 70
     0
 10
0.0
 20
0.0
 30
0.0
  3
$PAPER_SPACE
  1

  0
ENDBLK
  5
1D
 67
     1
  8
0
  0
BLOCK
  8
0
  2
1
 70
     0
 10
0.0
 20
0.0
 30
0.0
  3
1
  1

  0
SOLID
  5
2C
  8
0
  6
BYBLOCK
 62
     0
 10
-1.811110924292052
 20
0.4852857095671653
 30
0.0
 11
-1.811110924292052
 21
-0.4852857095673642
 31
0.0
 12
0.0
 22
0.0
 32
0.0
 13
0.0
 23
0.0
 33
0.0
  0
ENDBLK
  5
2E
  8
0
  0
ENDSEC
  0
SECTION
  2
ENTITIES
  0
LINE
  5
45F2
  8
1外形線
 10
112.4201418300698
 20
118.2039966079025
 30
0.0
 11
112.4201418300696
 21
79.703996607902013
 31
0.0
  0
LINE
  5
45F3
  8
1外形線
 10
150.42014183006799
 20
118.2039966079026
 30
0.0
 11
150.42014183006819
 21
79.703996607902013
 31
0.0
  0
LINE
  5
45F4
  8
1外形線
 10
152.27125753636849
 20
109.6928395449049
 30
0.0
 11
151.5101914581667
 21
117.3035003269235
 31
0.0
  0
LINE
  5
45F5
  8
1外形線
 10
110.56902612376921
 20
109.6928395449049
 30
0.0
 11
111.330092201971
 21
117.3035003269235
 31
0.0
  0
LINE
  5
45F6
  8
1外形線
 10
121.9201418300685
 20
103.2039966079025
 30
0.0
 11
121.9201418300685
 21
117.2039966079026
 31
0.0
  0
LINE
  5
45F7
  8
1外形線
 10
140.9201418300685
 20
103.2039966079025
 30
0.0
 11
140.9201418300685
 21
117.2039966079025
 31
0.0
  0
ARC
  5
45F8
  8
1外形線
 10
108.4201418300696
 20
79.703996607902013
 30
0.0
 40
4.0
 50
270.0
 51
0.0
  0
LINE
  5
45F9
  8
1外形線
 10
69.920141830068246
 20
37.703996607903029
 30
0.0
 11
192.92014183006961
 21
37.703996607902802
 31
0.0
  0
LINE
  5
45FA
  8
1外形線
 10
81.416410463696366
 20
35.703996607903029
 30
0.0
 11
181.42387319644141
 21
35.703996607902809
 31
0.0
  0
LINE
  5
45FB
  8
1外形線
 10
69.920141830068246
 20
37.608984170015219
 30
0.0
 11
69.920141830068246
 21
75.79900904578983
 31
0.0
  0
LINE
  5
45FC
  8
1外形線
 10
84.920141830068914
 20
37.703996607902518
 30
0.0
 11
84.92014183006961
 21
75.70399660790207
 31
0.0
  0
LINE
  5
45FD
  8
1外形線
 10
86.420141830068914
 20
39.003996607902472
 30
0.0
 11
101.4201418300689
 21
39.003996607902423
 31
0.0
  0
LINE
  5
45FE
  8
1外形線
 10
78.431298893065787
 20
35.852880901603378
 30
0.0
 11
70.820638111047174
 21
36.613946979805171
 31
0.0
  0
ARC
  5
45FF
  8
1外形線
 10
70.920141830068246
 20
37.608984170015219
 30
0.0
 40
1.0
 50
180.0
 51
264.28940686249859
  0
ARC
  5
4600
  8
1外形線
 10
81.416410463696366
 20
65.703996607903036
 30
0.0
 40
30.0
 50
264.28940686249928
 51
270.0
  0
LINE
  5
4601
  8
1外形線
 10
86.420141830068914
 20
37.703996607902461
 30
0.0
 11
86.420141830068914
 21
39.003996607902472
 31
0.0
  0
LINE
  5
4602
  8
1外形線
 10
84.920141830069042
 20
47.203996607902631
 30
0.0
 11
70.920141830068928
 21
47.203996607902582
 31
0.0
  0
ARC
  5
4603
  8
1外形線
 10
70.920141830068928
 20
48.203996607903044
 30
0.0
 40
1.0
 50
180.0
 51
270.0
  0
LINE
  5
4604
  8
1外形線
 10
101.4201418300689
 20
37.703996607902461
 30
0.0
 11
101.4201418300689
 21
39.003996607902423
 31
0.0
  0
LINE
  5
4605
  8
1外形線
 10
110.4201418300698
 20
106.7077279742761
 30
0.0
 11
110.4201418300696
 21
79.703996607902013
 31
0.0
  0
LINE
  5
4606
  8
1外形線
 10
69.920141830068246
 20
75.703996607902127
 30
0.0
 11
108.4201418300696
 21
75.703996607902013
 31
0.0
  0
LINE
  5
4607
  8
1外形線
 10
81.416410463694774
 20
77.703996607902127
 30
0.0
 11
108.4201418300696
 21
77.703996607902013
 31
0.0
  0
LINE
  5
4608
  8
1外形線
 10
86.420141830069056
 20
74.403996607902855
 30
0.0
 11
101.4201418300691
 21
74.403996607902798
 31
0.0
  0
LINE
  5
4609
  8
1外形線
 10
84.920141830069042
 20
66.203996607902639
 30
0.0
 11
70.920141830069042
 21
66.203996607902525
 31
0.0
  0
ARC
  5
460A
  8
1外形線
 10
70.920141830069042
 20
65.20399660790298
 30
0.0
 40
1.0
 50
90.0
 51
180.0
  0
LINE
  5
460B
  8
1外形線
 10
78.431298893064195
 20
77.555112314201665
 30
0.0
 11
70.820638111047174
 21
76.794046235999744
 31
0.0
  0
ARC
  5
460C
  8
1外形線
 10
70.920141830068246
 20
75.79900904578983
 30
0.0
 40
1.0
 50
95.710593137500595
 51
180.0
  0
ARC
  5
460D
  8
1外形線
 10
81.416410463694774
 20
47.703996607902127
 30
0.0
 40
30.0
 50
90.0
 51
95.710593137500595
  0
LINE
  5
460E
  8
1外形線
 10
86.420141830069056
 20
74.403996607902855
 30
0.0
 11
86.420141830069056
 21
75.703996607902866
 31
0.0
  0
ARC
  5
460F
  8
1外形線
 10
108.4201418300696
 20
79.703996607902013
 30
0.0
 40
2.0
 50
270.0
 51
0.0
  0
LINE
  5
4610
  8
1外形線
 10
101.4201418300691
 20
74.403996607902798
 30
0.0
 11
101.4201418300691
 21
75.703996607902809
 31
0.0
  0
ARC
  5
4611
  8
1外形線
 10
140.4201418300689
 20
106.7077279742745
 30
0.0
 40
30.0
 50
174.28940686249931
 51
180.0
  0
LINE
  5
4612
  8
1外形線
 10
192.92014183006961
 20
37.608984170015219
 30
0.0
 11
192.92014183006961
 21
75.79900904578983
 31
0.0
  0
LINE
  5
4613
  8
1外形線
 10
177.92014183006839
 20
37.70399660790229
 30
0.0
 11
177.92014183006799
 21
75.703996607902127
 31
0.0
  0
CIRCLE
  5
4614
  8
1外形線
 10
131.42014183006879
 20
56.703996607902802
 30
0.0
 40
2.1000000000000001
  0
ARC
  5
4615
  8
1外形線
 10
181.42387319644141
 20
65.703996607903036
 30
0.0
 40
30.0
 50
270.0
 51
275.71059313750061
  0
LINE
  5
4616
  8
1外形線
 10
177.9201418300683
 20
47.203996607902411
 30
0.0
 11
191.92014183006839
 21
47.203996607902297
 31
0.0
  0
LINE
  5
4617
  8
1外形線
 10
176.42014183006839
 20
39.003996607902309
 30
0.0
 11
161.42014183006839
 21
39.003996607902309
 31
0.0
  0
LINE
  5
4618
  8
1外形線
 10
161.42014183006839
 20
37.70399660790229
 30
0.0
 11
161.42014183006839
 21
39.003996607902309
 31
0.0
  0
LINE
  5
4619
  8
1外形線
 10
176.42014183006839
 20
37.70399660790229
 30
0.0
 11
176.42014183006839
 21
39.003996607902309
 31
0.0
  0
LINE
  5
461A
  8
1外形線
 10
184.40898476707201
 20
35.852880901603378
 30
0.0
 11
192.0196455490906
 21
36.613946979805171
 31
0.0
  0
ARC
  5
461B
  8
1外形線
 10
191.92014183006961
 20
37.608984170015219
 30
0.0
 40
1.0
 50
275.71059313750061
 51
0.0
  0
ARC
  5
461C
  8
1外形線
 10
191.92014183006839
 20
48.203996607902752
 30
0.0
 40
1.0
 50
270.0
 51
0.0
  0
LINE
  5
461D
  8
1外形線
 10
192.92014183006961
 20
75.703996607902184
 30
0.0
 11
154.42014183006819
 21
75.703996607902013
 31
0.0
  0
LINE
  5
461E
  8
1外形線
 10
181.423873196443
 20
77.703996607902127
 30
0.0
 11
154.42014183006819
 21
77.703996607902013
 31
0.0
  0
LINE
  5
461F
  8
1外形線
 10
152.42014183006799
 20
106.7077279742761
 30
0.0
 11
152.42014183006819
 21
79.703996607902013
 31
0.0
  0
ARC
  5
4620
  8
1外形線
 10
154.42014183006819
 20
79.703996607902013
 30
0.0
 40
4.0
 50
180.0
 51
270.0
  0
ARC
  5
4621
  8
1外形線
 10
154.42014183006819
 20
79.703996607902013
 30
0.0
 40
2.0
 50
180.0
 51
270.0
  0
LINE
  5
4622
  8
1外形線
 10
112.4201418300698
 20
103.2039966079025
 30
0.0
 11
150.42014183006879
 21
103.2039966079025
 31
0.0
  0
LINE
  5
4623
  8
1外形線
 10
113.7201418300684
 20
101.7039966079027
 30
0.0
 11
113.7201418300684
 21
86.703996607902695
 31
0.0
  0
LINE
  5
4624
  8
1外形線
 10
112.4201418300684
 20
86.703996607902695
 30
0.0
 11
113.7201418300684
 21
86.703996607902695
 31
0.0
  0
LINE
  5
4625
  8
1外形線
 10
133.5201418300687
 20
90.303996607902604
 30
0.0
 11
133.5201418300687
 21
95.103996607902616
 31
0.0
  0
LINE
  5
4626
  8
1外形線
 10
129.32014183006871
 20
90.303996607902604
 30
0.0
 11
129.32014183006871
 21
95.103996607902616
 31
0.0
  0
ARC
  5
4627
  8
1外形線
 10
131.4201418300689
 20
95.103996607902616
 30
0.0
 40
2.0999999999999992
 50
0.0
 51
180.0
  0
ARC
  5
4628
  8
1外形線
 10
131.4201418300689
 20
90.303996607902604
 30
0.0
 40
2.0999999999999992
 50
180.0
 51
0.0
  0
LINE
  5
4629
  8
1外形線
 10
112.4201418300683
 20
101.7039966079027
 30
0.0
 11
113.7201418300684
 21
101.7039966079027
 31
0.0
  0
LINE
  5
462A
  8
1外形線
 10
149.1201418300688
 20
101.7039966079025
 30
0.0
 11
149.12014183006869
 21
86.703996607902468
 31
0.0
  0
LINE
  5
462B
  8
1外形線
 10
149.12014183006869
 20
86.703996607902468
 30
0.0
 11
150.42014183006879
 21
86.703996607902468
 31
0.0
  0
ARC
  5
462C
  8
1外形線
 10
122.4201418300689
 20
106.7077279742745
 30
0.0
 40
30.0
 50
0.0
 51
5.7105931375006138
  0
LINE
  5
462D
  8
1外形線
 10
149.1201418300688
 20
101.7039966079025
 30
0.0
 11
150.42014183006879
 21
101.7039966079025
 31
0.0
  0
ARC
  5
462E
  8
1外形線
 10
181.423873196443
 20
47.703996607902127
 30
0.0
 40
30.0
 50
84.289406862498566
 51
90.0
  0
LINE
  5
462F
  8
1外形線
 10
177.92014183006839
 20
66.203996607902411
 30
0.0
 11
191.92014183006839
 21
66.203996607902241
 31
0.0
  0
LINE
  5
4630
  8
1外形線
 10
176.4201418300685
 20
74.403996607902613
 30
0.0
 11
161.42014183006839
 21
74.403996607902613
 31
0.0
  0
LINE
  5
4631
  8
1外形線
 10
161.42014183006839
 20
74.403996607902613
 30
0.0
 11
161.42014183006839
 21
75.703996607902639
 31
0.0
  0
LINE
  5
4632
  8
1外形線
 10
176.4201418300685
 20
74.403996607902613
 30
0.0
 11
176.4201418300685
 21
75.703996607902639
 31
0.0
  0
ARC
  5
4633
  8
1外形線
 10
191.92014183006839
 20
65.203996607902695
 30
0.0
 40
1.0
 50
0.0
 51
90.0
  0
LINE
  5
4634
  8
1外形線
 10
184.4089847670736
 20
77.555112314201665
 30
0.0
 11
192.0196455490906
 21
76.794046235999744
 31
0.0
  0
ARC
  5
4635
  8
1外形線
 10
191.92014183006961
 20
75.79900904578983
 30
0.0
 40
1.0
 50
0.0
 51
84.289406862499391
  0
LINE
  5
4636
  8
1外形線
 10
192.92014183006961
 20
326.10802057455498
 30
0.0
 11
192.92014183006961
 21
287.91799569878032
 31
0.0
  0
LINE
  5
4637
  8
1外形線
 10
69.920141830068246
 20
326.10802057455498
 30
0.0
 11
69.920141830068246
 21
287.91799569878032
 31
0.0
  0
ARC
  5
4638
  8
1外形線
 10
112.3251293921811
 20
117.2039966079025
 30
0.0
 40
1.0
 50
90.0
 51
174.28940686249931
  0
LINE
  5
4639
  8
1外形線
 10
181.92262940765059
 20
206.66444594418331
 30
0.0
 11
80.917654252487068
 21
206.664445944183
 31
0.0
  0
ARC
  5
463A
  8
1外形線
 10
131.4201418300689
 20
185.66444594418741
 30
0.0
 40
21.0
 50
0.0
 51
180.0
  0
LINE
  5
463B
  8
1外形線
 10
192.92014183006859
 20
168.16444594418729
 30
0.0
 11
69.920141830069156
 21
168.16444594418741
 31
0.0
  0
LINE
  5
463C
  8
1外形線
 10
69.920141830069156
 20
204.7594583820707
 30
0.0
 11
69.920141830069156
 21
168.16444594418309
 31
0.0
  0
LINE
  5
463D
  8
1外形線
 10
110.4201418300689
 20
185.66444594418741
 30
0.0
 11
110.4201418300689
 21
168.16444594418741
 31
0.0
  0
LINE
  5
463E
  8
1外形線
 10
78.927579872067099
 20
206.56518974838269
 30
0.0
 11
70.820638111048197
 21
205.7544955722808
 31
0.0
  0
ARC
  5
463F
  8
1外形線
 10
70.920141830069156
 20
204.75945838207079
 30
0.0
 40
1.0
 50
95.710593137499757
 51
180.0
  0
ARC
  5
4640
  8
1外形線
 10
80.917654252487182
 20
186.664445944183
 30
0.0
 40
20.0
 50
90.0
 51
95.710593137499757
  0
LINE
  5
4641
  8
1外形線
 10
150.51515426795669
 20
118.2039966079026
 30
0.0
 11
112.3251293921812
 21
118.2039966079025
 31
0.0
  0
ARC
  5
4642
  8
1外形線
 10
122.920141830069
 20
117.2039966079026
 30
0.0
 40
1.0
 50
90.0
 51
180.0
  0
ARC
  5
4643
  8
1外形線
 10
139.92014183006901
 20
117.2039966079025
 30
0.0
 40
1.0
 50
0.0
 51
90.0
  0
ARC
  5
4644
  8
1外形線
 10
150.51515426795669
 20
117.2039966079025
 30
0.0
 40
1.0
 50
5.7105931375006138
 51
90.0
  0
ARC
  5
4645
  8
1外形線
 10
131.4201418300689
 20
185.66444594418741
 30
0.0
 40
19.0
 50
0.0
 51
180.0
  0
LINE
  5
4646
  8
1外形線
 10
139.4201418300693
 20
172.664445944188
 30
0.0
 11
131.4201418300689
 21
172.664445944188
 31
0.0
  0
LINE
  5
4647
  8
1外形線
 10
140.9201418300693
 20
170.664445944188
 30
0.0
 11
121.9201418300693
 21
170.664445944188
 31
0.0
  0
LINE
  5
4648
  8
1外形線
 10
112.4201418300689
 20
185.66444594418741
 30
0.0
 11
112.4201418300689
 21
168.16444594418741
 31
0.0
  0
LINE
  5
4649
  8
1外形線
 10
112.4201418300689
 20
176.164445944188
 30
0.0
 11
114.4201418300689
 21
177.31914648256719
 31
0.0
  0
ARC
  5
464A
  8
1外形線
 10
114.9201418300689
 20
176.4531210787828
 30
0.0
 40
1.0
 50
0.0
 51
120.0000000000008
  0
LINE
  5
464B
  8
1外形線
 10
131.4201418300689
 20
172.664445944188
 30
0.0
 11
123.4201418300693
 21
172.664445944188
 31
0.0
  0
LINE
  5
464C
  8
1外形線
 10
123.4201418300693
 20
174.16444594418789
 30
0.0
 11
123.4201418300693
 21
172.664445944188
 31
0.0
  0
LINE
  5
464D
  8
1外形線
 10
115.9201418300689
 20
174.164445944188
 30
0.0
 11
115.9201418300689
 21
176.4531210787828
 31
0.0
  0
LINE
  5
464E
  8
1外形線
 10
123.4201418300693
 20
174.164445944188
 30
0.0
 11
115.9201418300689
 21
174.164445944188
 31
0.0
  0
LINE
  5
464F
  8
1外形線
 10
121.9201418300693
 20
174.16444594418789
 30
0.0
 11
121.9201418300693
 21
170.664445944188
 31
0.0
  0
LINE
  5
4650
  8
1外形線
 10
112.4201418300689
 20
168.16444594418661
 30
0.0
 11
112.4201418300689
 21
176.164445944188
 31
0.0
  0
LINE
  5
4651
  8
1外形線
 10
150.4201418300689
 20
185.66444594418741
 30
0.0
 11
150.4201418300689
 21
168.16444594418741
 31
0.0
  0
LINE
  5
4652
  8
1外形線
 10
152.4201418300689
 20
185.66444594418741
 30
0.0
 11
152.4201418300689
 21
168.16444594418741
 31
0.0
  0
ARC
  5
4653
  8
1外形線
 10
147.9201418300689
 20
176.4531210787828
 30
0.0
 40
1.0
 50
59.999999999999147
 51
180.0
  0
LINE
  5
4654
  8
1外形線
 10
150.4201418300689
 20
176.164445944188
 30
0.0
 11
148.4201418300689
 21
177.31914648256719
 31
0.0
  0
LINE
  5
4655
  8
1外形線
 10
150.4201418300689
 20
176.164445944188
 30
0.0
 11
148.4201418300689
 21
177.31914648256719
 31
0.0
  0
LINE
  5
4656
  8
1外形線
 10
146.9201418300689
 20
174.164445944188
 30
0.0
 11
146.9201418300689
 21
176.4531210787828
 31
0.0
  0
LINE
  5
4657
  8
1外形線
 10
139.4201418300693
 20
174.164445944188
 30
0.0
 11
139.4201418300693
 21
172.664445944188
 31
0.0
  0
LINE
  5
4658
  8
1外形線
 10
140.9201418300693
 20
174.164445944188
 30
0.0
 11
140.9201418300693
 21
170.664445944188
 31
0.0
  0
LINE
  5
4659
  8
1外形線
 10
146.9201418300689
 20
174.164445944188
 30
0.0
 11
139.4201418300693
 21
174.164445944188
 31
0.0
  0
LINE
  5
465A
  8
1外形線
 10
150.4201418300689
 20
168.164445944188
 30
0.0
 11
150.4201418300689
 21
176.164445944188
 31
0.0
  0
LINE
  5
465B
  8
1外形線
 10
192.9201418300687
 20
204.7594583820707
 30
0.0
 11
192.9201418300687
 21
168.16444594418309
 31
0.0
  0
ARC
  5
465C
  8
1外形線
 10
181.92262940765059
 20
186.664445944183
 30
0.0
 40
20.0
 50
84.289406862500243
 51
90.0
  0
ARC
  5
465D
  8
1外形線
 10
191.9201418300687
 20
204.75945838207079
 30
0.0
 40
1.0
 50
0.0
 51
84.289406862500243
  0
LINE
  5
465E
  8
1外形線
 10
183.9127037880707
 20
206.56518974838269
 30
0.0
 11
192.0196455490896
 21
205.7544955722808
 31
0.0
  0
ARC
  5
465F
  8
1外形線
 10
112.3251293921811
 20
246.51300813666759
 30
0.0
 40
1.0
 50
185.71059313750061
 51
270.0
  0
LINE
  5
4660
  8
1外形線
 10
110.4201418300698
 20
257.00927677029398
 30
0.0
 11
110.4201418300696
 21
284.01300813666819
 31
0.0
  0
ARC
  5
4661
  8
1外形線
 10
140.4201418300689
 20
257.00927677029563
 30
0.0
 40
30.0
 50
180.0
 51
185.71059313750061
  0
LINE
  5
4662
  8
1外形線
 10
110.56902612376921
 20
254.02416519966519
 30
0.0
 11
111.330092201971
 21
246.41350441764661
 31
0.0
  0
LINE
  5
4663
  8
1外形線
 10
81.416410463694774
 20
286.01300813666802
 30
0.0
 11
108.4201418300696
 21
286.01300813666819
 31
0.0
  0
LINE
  5
4664
  8
1外形線
 10
78.431298893064195
 20
286.16189243036848
 30
0.0
 11
70.820638111047174
 21
286.92295850857039
 31
0.0
  0
ARC
  5
4665
  8
1外形線
 10
70.920141830068246
 20
287.91799569878032
 30
0.0
 40
1.0
 50
180.0
 51
264.28940686249928
  0
ARC
  5
4666
  8
1外形線
 10
81.416410463694774
 20
316.01300813666808
 30
0.0
 40
30.0
 50
264.28940686249859
 51
270.0
  0
ARC
  5
4667
  8
1外形線
 10
108.4201418300696
 20
284.01300813666819
 30
0.0
 40
2.0
 50
0.0
 51
90.0
  0
LINE
  5
4668
  8
1外形線
 10
152.42014183006799
 20
257.00927677029398
 30
0.0
 11
152.42014183006819
 21
284.01300813666819
 31
0.0
  0
LINE
  5
4669
  8
1外形線
 10
150.51515426795669
 20
245.51300813666759
 30
0.0
 11
112.3251293921812
 21
245.51300813666759
 31
0.0
  0
ARC
  5
466A
  8
1外形線
 10
122.4201418300689
 20
257.00927677029563
 30
0.0
 40
30.0
 50
354.28940686249939
 51
0.0
  0
ARC
  5
466B
  8
1外形線
 10
150.51515426795669
 20
246.51300813666759
 30
0.0
 40
1.0
 50
270.0
 51
354.28940686249939
  0
LINE
  5
466C
  8
1外形線
 10
152.27125753636849
 20
254.02416519966519
 30
0.0
 11
151.5101914581667
 21
246.41350441764661
 31
0.0
  0
LINE
  5
466D
  8
1外形線
 10
181.423873196443
 20
286.01300813666802
 30
0.0
 11
154.42014183006819
 21
286.01300813666819
 31
0.0
  0
ARC
  5
466E
  8
1外形線
 10
154.42014183006819
 20
284.01300813666819
 30
0.0
 40
2.0
 50
90.0
 51
180.0
  0
ARC
  5
466F
  8
1外形線
 10
181.423873196443
 20
316.01300813666808
 30
0.0
 40
30.0
 50
270.0
 51
275.71059313750061
  0
ARC
  5
4670
  8
1外形線
 10
191.92014183006961
 20
287.91799569878032
 30
0.0
 40
1.0
 50
275.71059313750061
 51
0.0
  0
LINE
  5
4671
  8
1外形線
 10
184.4089847670736
 20
286.16189243036848
 30
0.0
 11
192.0196455490906
 21
286.92295850857039
 31
0.0
  0
LINE
  5
4672
  8
1外形線
 10
81.416410463696366
 20
328.01300813666711
 30
0.0
 11
181.42387319644141
 21
328.01300813666739
 31
0.0
  0
LINE
  5
4673
  8
1外形線
 10
78.431298893065787
 20
327.86412384296682
 30
0.0
 11
70.820638111047174
 21
327.10305776476503
 31
0.0
  0
ARC
  5
4674
  8
1外形線
 10
70.920141830068246
 20
326.10802057455498
 30
0.0
 40
1.0
 50
95.710593137500595
 51
180.0
  0
ARC
  5
4675
  8
1外形線
 10
81.416410463696366
 20
298.01300813666711
 30
0.0
 40
30.0
 50
90.0
 51
95.710593137500595
  0
ARC
  5
4676
  8
1外形線
 10
181.42387319644141
 20
298.01300813666711
 30
0.0
 40
30.0
 50
84.289406862499391
 51
90.0
  0
ARC
  5
4677
  8
1外形線
 10
191.92014183006961
 20
326.10802057455498
 30
0.0
 40
1.0
 50
0.0
 51
84.289406862498566
  0
LINE
  5
4678
  8
1外形線
 10
184.40898476707201
 20
327.86412384296682
 30
0.0
 11
192.0196455490906
 21
327.10305776476503
 31
0.0
  0
ARC
  5
4679
  8
1外形線
 10
290.0710062586125
 20
185.6644459441932
 30
0.0
 40
21.0
 50
0.0
 51
180.0
  0
ARC
  5
467A
  8
1外形線
 10
290.0710062586125
 20
185.6644459441932
 30
0.0
 40
19.0
 50
0.0
 51
180.0
  0
LINE
  5
467B
  8
1外形線
 10
311.0710062586125
 20
168.16444594418849
 30
0.0
 11
228.5710062586127
 21
168.16444594418891
 31
0.0
  0
LINE
  5
467C
  8
1外形線
 10
305.5710062586125
 20
174.16444594418931
 30
0.0
 11
298.07100625861301
 21
174.16444594418931
 31
0.0
  0
LINE
  5
467D
  8
1外形線
 10
290.0710062586125
 20
206.66444594418891
 30
0.0
 11
239.5685186810307
 21
206.6644459441888
 31
0.0
  0
LINE
  5
467E
  8
1外形線
 10
228.5710062586127
 20
204.7594583820765
 30
0.0
 11
228.5710062586127
 21
168.16444594418891
 31
0.0
  0
LINE
  5
467F
  8
1外形線
 10
237.5784443006107
 20
206.56518974838841
 30
0.0
 11
229.4715025395918
 21
205.7544955722866
 31
0.0
  0
ARC
  5
4680
  8
1外形線
 10
229.5710062586127
 20
204.75945838207659
 30
0.0
 40
1.0
 50
95.710593137499757
 51
180.0
  0
ARC
  5
4681
  8
1外形線
 10
239.5685186810307
 20
186.6644459441888
 30
0.0
 40
20.0
 50
90.0
 51
95.710593137499757
  0
LINE
  5
4682
  8
1外形線
 10
282.07100625861301
 20
174.16444594418931
 30
0.0
 11
274.5710062586125
 21
174.16444594418931
 31
0.0
  0
LINE
  5
4683
  8
1外形線
 10
271.0710062586125
 20
185.6644459441932
 30
0.0
 11
271.0710062586125
 21
168.1644459441932
 31
0.0
  0
LINE
  5
4684
  8
1外形線
 10
269.0710062586125
 20
185.6644459441932
 30
0.0
 11
269.0710062586125
 21
168.1644459441932
 31
0.0
  0
ARC
  5
4685
  8
1外形線
 10
273.5710062586125
 20
176.45312107878411
 30
0.0
 40
1.0
 50
0.0
 51
120.0000000000008
  0
LINE
  5
4686
  8
1外形線
 10
271.0710062586125
 20
176.16444594418931
 30
0.0
 11
273.0710062586125
 21
177.31914648256861
 31
0.0
  0
LINE
  5
4687
  8
1外形線
 10
274.5710062586125
 20
174.16444594418931
 30
0.0
 11
274.5710062586125
 21
176.45312107878411
 31
0.0
  0
LINE
  5
4688
  8
1外形線
 10
290.0710062586125
 20
172.6644459441892
 30
0.0
 11
282.07100625861301
 21
172.6644459441892
 31
0.0
  0
LINE
  5
4689
  8
1外形線
 10
299.57100625861301
 20
170.66444594418931
 30
0.0
 11
280.5710062586129
 21
170.66444594418931
 31
0.0
  0
LINE
  5
468A
  8
1外形線
 10
282.07100625861301
 20
174.1644459441892
 30
0.0
 11
282.07100625861301
 21
172.6644459441892
 31
0.0
  0
LINE
  5
468B
  8
1外形線
 10
280.5710062586129
 20
174.1644459441892
 30
0.0
 11
280.5710062586129
 21
170.66444594418931
 31
0.0
  0
LINE
  5
468C
  8
1外形線
 10
298.07100625861301
 20
174.16444594418931
 30
0.0
 11
298.07100625861301
 21
172.6644459441892
 31
0.0
  0
LINE
  5
468D
  8
1外形線
 10
299.57100625861301
 20
174.16444594418931
 30
0.0
 11
299.57100625861301
 21
170.66444594418931
 31
0.0
  0
LINE
  5
468E
  8
1外形線
 10
298.07100625861301
 20
172.6644459441892
 30
0.0
 11
290.0710062586125
 21
172.6644459441892
 31
0.0
  0
LINE
  5
468F
  8
1外形線
 10
311.0710062586125
 20
185.6644459441932
 30
0.0
 11
311.0710062586125
 21
168.1644459441932
 31
0.0
  0
LINE
  5
4690
  8
1外形線
 10
309.0710062586125
 20
185.6644459441932
 30
0.0
 11
309.0710062586125
 21
168.1644459441932
 31
0.0
  0
LINE
  5
4691
  8
1外形線
 10
309.0710062586125
 20
176.16444594418931
 30
0.0
 11
307.0710062586125
 21
177.31914648256861
 31
0.0
  0
LINE
  5
4692
  8
1外形線
 10
309.0710062586125
 20
176.16444594418931
 30
0.0
 11
307.0710062586125
 21
177.31914648256861
 31
0.0
  0
ARC
  5
4693
  8
1外形線
 10
306.5710062586125
 20
176.45312107878411
 30
0.0
 40
1.0
 50
59.999999999999147
 51
180.0
  0
LINE
  5
4694
  8
1外形線
 10
305.5710062586125
 20
174.16444594418931
 30
0.0
 11
305.5710062586125
 21
176.45312107878411
 31
0.0
  0
ENDSEC
  0
EOF
