  0
SECTION
  2
HEADER
  9
$ACADVER
  1
AC1009
  9
$INSBASE
 10
0.0
 20
0.0
 30
0.0
  9
$EXTMIN
 10
52.190950957371463
 20
31.975148927087211
 30
0.0
  9
$EXTMAX
 10
290.35160455135878
 20
334.04353775622923
 30
0.0
  9
$LIMMIN
 10
0.0
 20
0.0
  9
$LIMMAX
 10
420.0
 20
297.0
  9
$ORTHOMODE
 70
     0
  9
$REGENMODE
 70
     1
  9
$FILLMODE
 70
     1
  9
$QTEXTMODE
 70
     0
  9
$MIRRTEXT
 70
     1
  9
$DRAGMODE
 70
     2
  9
$LTSCALE
 40
1.0
  9
$OSMODE
 70
    37
  9
$ATTMODE
 70
     1
  9
$TEXTSIZE
 40
2.5
  9
$TRACEWID
 40
1.0
  9
$TEXTSTYLE
  7
STANDARD
  9
$CLAYER
  8
0
  9
$CELTYPE
  6
BYLAYER
  9
$CECOLOR
 62
   256
  9
$DIMSCALE
 40
1.0
  9
$DIMASZ
 40
2.5
  9
$DIMEXO
 40
0.625
  9
$DIMDLI
 40
3.75
  9
$DIMRND
 40
0.0
  9
$DIMDLE
 40
0.0
  9
$DIMEXE
 40
1.25
  9
$DIMTP
 40
0.0
  9
$DIMTM
 40
0.0
  9
$DIMTXT
 40
2.5
  9
$DIMCEN
 40
2.5
  9
$DIMTSZ
 40
0.0
  9
$DIMTOL
 70
     0
  9
$DIMLIM
 70
     0
  9
$DIMTIH
 70
     0
  9
$DIMTOH
 70
     0
  9
$DIMSE1
 70
     0
  9
$DIMSE2
 70
     0
  9
$DIMTAD
 70
     1
  9
$DIMZIN
 70
     8
  9
$DIMBLK
  1

  9
$DIMASO
 70
     1
  9
$DIMSHO
 70
     1
  9
$DIMPOST
  1

  9
$DIMAPOST
  1

  9
$DIMALT
 70
     0
  9
$DIMALTD
 70
     3
  9
$DIMALTF
 40
0.03937007874016
  9
$DIMLFAC
 40
1.0
  9
$DIMTOFL
 70
     1
  9
$DIMTVP
 40
0.0
  9
$DIMTIX
 70
     0
  9
$DIMSOXD
 70
     0
  9
$DIMSAH
 70
     0
  9
$DIMBLK1
  1

  9
$DIMBLK2
  1

  9
$DIMSTYLE
  2
ISO-25
  9
$DIMCLRD
 70
     0
  9
$DIMCLRE
 70
     0
  9
$DIMCLRT
 70
     0
  9
$DIMTFAC
 40
1.0
  9
$DIMGAP
 40
0.625
  9
$LUNITS
 70
     2
  9
$LUPREC
 70
     4
  9
$SKETCHINC
 40
1.0
  9
$FILLETRAD
 40
10.0
  9
$AUNITS
 70
     0
  9
$AUPREC
 70
     0
  9
$MENU
  1
.
  9
$ELEVATION
 40
0.0
  9
$PELEVATION
 40
0.0
  9
$THICKNESS
 40
0.0
  9
$LIMCHECK
 70
     0
  9
$BLIPMODE
 70
     0
  9
$CHAMFERA
 40
10.0
  9
$CHAMFERB
 40
10.0
  9
$SKPOLY
 70
     0
  9
$TDCREATE
 40
2452451.5916150799
  9
$TDUPDATE
 40
2452451.5919449539
  9
$TDINDWG
 40
0.0003299884
  9
$TDUSRTIMER
 40
0.0003299884
  9
$USRTIMER
 70
     1
  9
$ANGBASE
 50
0.0
  9
$ANGDIR
 70
     0
  9
$PDMODE
 70
     0
  9
$PDSIZE
 40
0.0
  9
$PLINEWID
 40
0.0
  9
$COORDS
 70
     1
  9
$SPLFRAME
 70
     0
  9
$SPLINETYPE
 70
     6
  9
$SPLINESEGS
 70
     8
  9
$ATTDIA
 70
     0
  9
$ATTREQ
 70
     1
  9
$HANDLING
 70
-16383
  9
$HANDSEED
  5
194
  9
$SURFTAB1
 70
     6
  9
$SURFTAB2
 70
     6
  9
$SURFTYPE
 70
     6
  9
$SURFU
 70
     6
  9
$SURFV
 70
     6
  9
$UCSNAME
  2

  9
$UCSORG
 10
0.0
 20
0.0
 30
0.0
  9
$UCSXDIR
 10
1.0
 20
0.0
 30
0.0
  9
$UCSYDIR
 10
0.0
 20
1.0
 30
0.0
  9
$PUCSNAME
  2

  9
$PUCSORG
 10
0.0
 20
0.0
 30
0.0
  9
$PUCSXDIR
 10
1.0
 20
0.0
 30
0.0
  9
$PUCSYDIR
 10
0.0
 20
1.0
 30
0.0
  9
$USERI1
 70
     0
  9
$USERI2
 70
     0
  9
$USERI3
 70
     0
  9
$USERI4
 70
     0
  9
$USERI5
 70
     0
  9
$USERR1
 40
0.0
  9
$USERR2
 40
0.0
  9
$USERR3
 40
0.0
  9
$USERR4
 40
0.0
  9
$USERR5
 40
0.0
  9
$WORLDVIEW
 70
     1
  9
$SHADEDGE
 70
     3
  9
$SHADEDIF
 70
    70
  9
$TILEMODE
 70
     1
  9
$MAXACTVP
 70
    64
  9
$PLIMCHECK
 70
     0
  9
$PEXTMIN
 10
1.0000000000000000E+020
 20
1.0000000000000000E+020
 30
1.0000000000000000E+020
  9
$PEXTMAX
 10
-1.0000000000000000E+020
 20
-1.0000000000000000E+020
 30
-1.0000000000000000E+020
  9
$PLIMMIN
 10
0.0
 20
0.0
  9
$PLIMMAX
 10
420.0
 20
297.0
  9
$UNITMODE
 70
     0
  9
$VISRETAIN
 70
     1
  9
$PLINEGEN
 70
     0
  9
$PSLTSCALE
 70
     1
  0
ENDSEC
  0
SECTION
  2
TABLES
  0
TABLE
  2
VPORT
 70
     3
  0
VPORT
  2
*ACTIVE
 70
     0
 10
0.0
 20
0.0
 11
1.0
 21
1.0
 12
209.99999999999989
 22
159.7959183673469
 13
0.0
 23
0.0
 14
10.0
 24
10.0
 15
10.0
 25
10.0
 16
0.0
 26
0.0
 36
1.0
 17
0.0
 27
0.0
 37
0.0
 40
319.5918367346938
 41
1.3141762452107271
 42
50.0
 43
0.0
 44
0.0
 50
0.0
 51
0.0
 71
     0
 72
   100
 73
     1
 74
     3
 75
     0
 76
     0
 77
     0
 78
     0
  0
ENDTAB
  0
TABLE
  2
LTYPE
 70
     1
  0
LTYPE
  2
CONTINUOUS
 70
     0
  3
Solid line
 72
    65
 73
     0
 40
0.0
  0
ENDTAB
  0
TABLE
  2
LAYER
 70
     2
  0
LAYER
  2
0
 70
     0
 62
     7
  6
CONTINUOUS
  0
LAYER
  2
1外形線
 70
     0
 62
     3
  6
CONTINUOUS
  0
ENDTAB
  0
TABLE
  2
STYLE
 70
     2
  0
STYLE
  2
STANDARD
 70
     0
 40
0.0
 41
1.0
 50
0.0
 71
     0
 42
2.5
  3
txt
  4

  0
STYLE
  2
KANJI
 70
     0
 40
0.0
 41
1.0
 50
0.0
 71
     0
 42
2.0
  3
simplex
  4
bigfont
  0
ENDTAB
  0
TABLE
  2
VIEW
 70
     0
  0
ENDTAB
  0
TABLE
  2
UCS
 70
     0
  0
ENDTAB
  0
TABLE
  2
APPID
 70
     1
  0
APPID
  2
ACAD
 70
     0
  0
ENDTAB
  0
TABLE
  2
DIMSTYLE
 70
     2
  0
DIMSTYLE
  2
ISO-25
 70
     0
  3

  4

  5

  6

  7

 40
1.0
 41
2.5
 42
0.625
 43
3.75
 44
1.25
 45
0.0
 46
0.0
 47
0.0
 48
0.0
140
2.5
141
2.5
142
0.0
143
0.03937007874016
144
1.0
145
0.0
146
1.0
147
0.625
 71
     0
 72
     0
 73
     0
 74
     0
 75
     0
 76
     0
 77
     1
 78
     8
170
     0
171
     3
172
     1
173
     0
174
     0
175
     0
176
     0
177
     0
178
     0
  0
DIMSTYLE
  2
STANDARD
 70
     0
  3

  4

  5

  6
1
  7
1
 40
1.0
 41
1.0
 42
1.0
 43
6.0
 44
1.0
 45
0.0
 46
0.0
 47
0.0
 48
0.0
140
2.5
141
0.0
142
0.0
143
25.399999999999999
144
1.0
145
0.0
146
1.0
147
0.5
 71
     0
 72
     0
 73
     0
 74
     0
 75
     0
 76
     0
 77
     1
 78
     8
170
     0
171
     2
172
     1
173
     1
174
     0
175
     0
176
     0
177
     0
178
     0
  0
ENDTAB
  0
ENDSEC
  0
SECTION
  2
BLOCKS
  0
BLOCK
  8
0
  2
$MODEL_SPACE
 70
     0
 10
0.0
 20
0.0
 30
0.0
  3
$MODEL_SPACE
  1

  0
ENDBLK
  5
21
  8
0
  0
BLOCK
 67
     1
  8
0
  2
$PAPER_SPACE
 70
     0
 10
0.0
 20
0.0
 30
0.0
  3
$PAPER_SPACE
  1

  0
ENDBLK
  5
1D
 67
     1
  8
0
  0
BLOCK
  8
0
  2
1
 70
     0
 10
0.0
 20
0.0
 30
0.0
  3
1
  1

  0
SOLID
  5
2C
  8
0
  6
BYBLOCK
 62
     0
 10
-1.811110924292052
 20
0.4852857095671653
 30
0.0
 11
-1.811110924292052
 21
-0.4852857095673642
 31
0.0
 12
0.0
 22
0.0
 32
0.0
 13
0.0
 23
0.0
 33
0.0
  0
ENDBLK
  5
2E
  8
0
  0
ENDSEC
  0
SECTION
  2
ENTITIES
  0
LINE
  5
E2
  8
1外形線
 10
239.29610603442319
 20
200.80458686518901
 30
0.0
 11
222.3491169737824
 21
200.8045868651889
 31
0.0
  0
LINE
  5
E3
  8
1外形線
  6
CONTINUOUS
 10
290.35160455135878
 20
162.3045868651889
 30
0.0
 11
211.3516045513642
 21
162.3045868651889
 31
0.0
  0
LINE
  5
E4
  8
1外形線
 10
211.3516045513644
 20
198.8995993030768
 30
0.0
 11
211.3516045513644
 21
162.3045868651889
 31
0.0
  0
LINE
  5
E5
  8
1外形線
 10
174.39805773855511
 20
204.8995993030714
 30
0.0
 11
174.39805773855511
 21
162.3045868651846
 31
0.0
  0
ARC
  5
E6
  8
1外形線
 10
113.39805773855539
 20
179.8045868651889
 30
0.0
 40
21.0
 50
0.0
 51
180.0
  0
ARC
  5
E7
  8
1外形線
 10
113.39805773855539
 20
179.8045868651889
 30
0.0
 40
19.0
 50
0.0
 51
180.0
  0
LINE
  5
E8
  8
1外形線
 10
52.398057738555572
 20
204.8995993030716
 30
0.0
 11
52.398057738555622
 21
162.3045868651846
 31
0.0
  0
LINE
  5
E9
  8
1外形線
 10
63.395570160970578
 20
79.999947563484227
 30
0.0
 11
90.398057738553007
 21
79.999947563485136
 31
0.0
  0
LINE
  5
EA
  8
1外形線
 10
52.398057738552779
 20
77.999947563484525
 30
0.0
 11
90.398057738555849
 21
77.999947563484682
 31
0.0
  0
LINE
  5
EB
  8
1外形線
 10
174.39805773855511
 20
162.30458686518881
 30
0.0
 11
52.398057738555622
 21
162.3045868651889
 31
0.0
  0
LINE
  5
EC
  8
1外形線
 10
63.395570160974671
 20
31.999947563483651
 30
0.0
 11
163.40054531613299
 21
31.999947563486501
 31
0.0
  0
LINE
  5
ED
  8
1外形線
 10
52.398057738553689
 20
33.999947563489847
 30
0.0
 11
174.39805773855321
 21
33.999947563479623
 31
0.0
  0
LINE
  5
EE
  8
1外形線
 10
52.398057738553689
 20
33.904935125595721
 30
0.0
 11
52.398057738552779
 21
78.094960001371135
 31
0.0
  0
LINE
  5
EF
  8
1外形線
 10
62.398057738557888
 20
33.999947563484788
 30
0.0
 11
62.398057738556872
 21
77.99994756348616
 31
0.0
  0
ARC
  5
F0
  8
1外形線
 10
53.398057738553689
 20
33.904935125595721
 30
0.0
 40
1.0
 50
180.0000000000008
 51
264.28940686250007
  0
LINE
  5
F1
  8
1外形線
 10
61.405495780553913
 20
32.099203759283512
 30
0.0
 11
53.298554019532617
 21
32.909897935385679
 31
0.0
  0
ARC
  5
F2
  8
1外形線
 10
63.395570160974103
 20
51.99994756348331
 30
0.0
 40
20.0
 50
264.28940686250007
 51
270.00000000000159
  0
ARC
  5
F3
  8
1外形線
 10
53.398057738552779
 20
78.094960001371248
 30
0.0
 40
1.0
 50
95.710593137502244
 51
180.0000000000008
  0
ARC
  5
F4
  8
1外形線
 10
53.398057738558002
 20
44.499947563485591
 30
0.0
 40
1.0
 50
180.0
 51
270.0
  0
LINE
  5
F5
  8
1外形線
  6
CONTINUOUS
 10
62.398057738557668
 20
43.499947563485243
 30
0.0
 11
53.398057738558002
 21
43.499947563485136
 31
0.0
  0
ARC
  5
F6
  8
1外形線
 10
53.398057738558002
 20
67.499947563485478
 30
0.0
 40
1.0
 50
90.0
 51
180.0
  0
LINE
  5
F7
  8
1外形線
  6
CONTINUOUS
 10
62.398057738557668
 20
68.49994756348525
 30
0.0
 11
53.398057738558002
 21
68.499947563485065
 31
0.0
  0
LINE
  5
F8
  8
1外形線
 10
61.405495780550261
 20
79.900691367683464
 30
0.0
 11
53.298554019531593
 21
79.089997191581176
 31
0.0
  0
ARC
  5
F9
  8
1外形線
 10
63.395570160971261
 20
59.999947563483772
 30
0.0
 40
20.0
 50
90.000000000001606
 51
95.710593137502244
  0
LINE
  5
FA
  8
1外形線
 10
174.39805773855321
 20
33.904935125597319
 30
0.0
 11
174.39805773855321
 21
78.094960001372783
 31
0.0
  0
LINE
  5
FB
  8
1外形線
 10
164.39805773855281
 20
33.999947563484788
 30
0.0
 11
164.39805773855389
 21
77.99994756348616
 31
0.0
  0
LINE
  5
FC
  8
1外形線
 10
162.89805773855301
 20
35.999947563482181
 30
0.0
 11
142.89805773855309
 21
35.999947563483481
 31
0.0
  0
LINE
  5
FD
  8
1外形線
 10
63.898057738557782
 20
35.999947563482181
 30
0.0
 11
83.898057738557668
 21
35.999947563483481
 31
0.0
  0
LINE
  5
FE
  8
1外形線
 10
63.898057738557902
 20
33.999947563482522
 30
0.0
 11
63.898057738557902
 21
35.999947563482181
 31
0.0
  0
LINE
  5
FF
  8
1外形線
 10
83.898057738557668
 20
35.999947563483481
 30
0.0
 11
83.898057738557668
 21
33.999947563483659
 31
0.0
  0
LINE
  5
100
  8
1外形線
 10
142.89805773855309
 20
35.999947563483481
 30
0.0
 11
142.89805773855309
 21
33.999947563483659
 31
0.0
  0
LINE
  5
101
  8
1外形線
 10
165.3906196965531
 20
32.099203759284933
 30
0.0
 11
173.49756145757439
 21
32.909897935387271
 31
0.0
  0
ARC
  5
102
  8
1外形線
 10
163.40054531613251
 20
51.999947563484632
 30
0.0
 40
20.0
 50
270.0
 51
275.71059313750141
  0
LINE
  5
103
  8
1外形線
 10
162.89805773855289
 20
33.999947563482522
 30
0.0
 11
162.89805773855289
 21
35.999947563482181
 31
0.0
  0
ARC
  5
104
  8
1外形線
 10
173.39805773855321
 20
33.904935125597319
 30
0.0
 40
1.0
 50
275.71059313750141
 51
0.0
  0
LINE
  5
105
  8
1外形線
 10
162.89805773855301
 20
75.999947563486046
 30
0.0
 11
142.89805773855309
 21
75.999947563484739
 31
0.0
  0
LINE
  5
106
  8
1外形線
 10
163.40054531613549
 20
79.999947563485307
 30
0.0
 11
136.39805773855181
 21
79.999947563485591
 31
0.0
  0
LINE
  5
107
  8
1外形線
 10
174.39805773855321
 20
77.999947563484511
 30
0.0
 11
136.39805773855491
 21
77.999947563484682
 31
0.0
  0
LINE
  5
108
  8
1外形線
 10
132.4930701764404
 20
110.99994756348001
 30
0.0
 11
94.303045300664166
 21
110.99994756348011
 31
0.0
  0
LINE
  5
109
  8
1外形線
 10
94.398057738554485
 20
100.99994756348531
 30
0.0
 11
132.39805773855491
 21
100.99994756348489
 31
0.0
  0
ARC
  5
10A
  8
1外形線
 10
90.398057738555849
 20
81.999947563484682
 30
0.0
 40
4.0
 50
270.0
 51
0.0000000000040711
  0
LINE
  5
10B
  8
1外形線
 10
63.898057738557782
 20
75.999947563486046
 30
0.0
 11
83.898057738557668
 21
75.999947563484739
 31
0.0
  0
LINE
  5
10C
  8
1外形線
 10
63.898057738557902
 20
77.999947563485676
 30
0.0
 11
63.898057738557902
 21
75.999947563486046
 31
0.0
  0
LINE
  5
10D
  8
1外形線
 10
83.898057738557668
 20
75.999947563484739
 30
0.0
 11
83.898057738557668
 21
77.999947563484568
 31
0.0
  0
LINE
  5
10E
  8
1外形線
 10
96.398057738555835
 20
99.499947563484952
 30
0.0
 11
96.398057738555835
 21
89.499947563485136
 31
0.0
  0
LINE
  5
10F
  8
1外形線
 10
92.398057738552893
 20
99.503678929853621
 30
0.0
 11
92.398057738552794
 21
81.999947563485591
 31
0.0
  0
LINE
  5
110
  8
1外形線
 10
94.398057738555849
 20
110.99994756348011
 30
0.0
 11
94.398057738555849
 21
82.999947563485136
 31
0.0
  0
LINE
  5
111
  8
1外形線
  6
CONTINUOUS
 10
96.398057738555835
 20
89.499947563485136
 30
0.0
 11
94.398057738555849
 21
89.499947563485136
 31
0.0
  0
ARC
  5
112
  8
1外形線
 10
90.398057738552893
 20
81.999947563485634
 30
0.0
 40
2.0
 50
270.00000000000159
 51
359.9999999999992
  0
LINE
  5
113
  8
1外形線
 10
94.398057738555849
 20
81.999947563484682
 30
0.0
 11
94.398057738555849
 21
82.999947563485136
 31
0.0
  0
LINE
  5
114
  8
1外形線
 10
96.398057738555835
 20
99.499947563484952
 30
0.0
 11
94.398057738555849
 21
99.499947563484909
 31
0.0
  0
LINE
  5
115
  8
1外形線
 10
92.546942032252318
 20
102.48879050048239
 30
0.0
 11
93.308008110454125
 21
110.09945128250089
 31
0.0
  0
ARC
  5
116
  8
1外形線
 10
122.3980577385519
 20
99.503678929852015
 30
0.0
 40
30.0
 50
174.28940686249931
 51
180.0
  0
ARC
  5
117
  8
1外形線
 10
94.303045300664166
 20
109.99994756348001
 30
0.0
 40
1.0
 50
90.0
 51
174.28940686249931
  0
LINE
  5
118
  8
1外形線
 10
94.398057738553007
 20
110.99994756348001
 30
0.0
 11
94.303045300664166
 21
110.99994756348001
 31
0.0
  0
LINE
  5
119
  8
1外形線
  6
CONTINUOUS
 10
103.8980577385547
 20
100.99994756348519
 30
0.0
 11
103.8980577385546
 21
109.99994756348519
 31
0.0
  0
ARC
  5
11A
  8
1外形線
 10
104.8980577385551
 20
109.99994756348519
 30
0.0
 40
1.0
 50
90.0
 51
180.0
  0
ARC
  5
11B
  8
1外形線
 10
136.39805773855491
 20
81.999947563484682
 30
0.0
 40
4.0
 50
179.99999999999591
 51
270.0
  0
CIRCLE
  5
11C
  8
1外形線
 10
113.39805773855321
 20
55.99994756348525
 30
0.0
 40
2.1000000000000001
  0
LINE
  5
11D
  8
1外形線
 10
142.89805773855309
 20
75.999947563484739
 30
0.0
 11
142.89805773855309
 21
77.999947563484568
 31
0.0
  0
ARC
  5
11E
  8
1外形線
 10
113.3980577385551
 20
88.099947563485387
 30
0.0
 40
2.0999999999999992
 50
180.0
 51
0.0
  0
ARC
  5
11F
  8
1外形線
 10
113.3980577385551
 20
92.899947563485284
 30
0.0
 40
2.0999999999999992
 50
0.0
 51
180.0
  0
LINE
  5
120
  8
1外形線
 10
111.2980577385548
 20
92.899947563485284
 30
0.0
 11
111.2980577385548
 21
90.499947563485307
 31
0.0
  0
LINE
  5
121
  8
1外形線
 10
111.2980577385548
 20
88.099947563485387
 30
0.0
 11
111.2980577385548
 21
90.499947563485364
 31
0.0
  0
LINE
  5
122
  8
1外形線
 10
115.49805773855481
 20
92.899947563485284
 30
0.0
 11
115.49805773855481
 21
90.49994756348525
 31
0.0
  0
LINE
  5
123
  8
1外形線
 10
115.49805773855481
 20
88.099947563485387
 30
0.0
 11
115.49805773855481
 21
90.499947563485421
 31
0.0
  0
LINE
  5
124
  8
1外形線
  6
CONTINUOUS
 10
122.8980577385547
 20
100.99994756348519
 30
0.0
 11
122.8980577385546
 21
109.99994756348519
 31
0.0
  0
ARC
  5
125
  8
1外形線
 10
121.8980577385551
 20
109.99994756348519
 30
0.0
 40
1.0
 50
0.0
 51
90.0
  0
LINE
  5
126
  8
1外形線
 10
130.39805773855491
 20
99.499947563484952
 30
0.0
 11
130.39805773855491
 21
89.499947563485136
 31
0.0
  0
LINE
  5
127
  8
1外形線
 10
134.3980577385517
 20
99.503678929853621
 30
0.0
 11
134.39805773855181
 21
81.999947563485591
 31
0.0
  0
LINE
  5
128
  8
1外形線
 10
132.39805773855491
 20
110.99994756348001
 30
0.0
 11
132.39805773855491
 21
82.999947563485136
 31
0.0
  0
ARC
  5
129
  8
1外形線
 10
136.39805773855181
 20
81.999947563485591
 30
0.0
 40
2.0
 50
180.00000000000239
 51
269.9999999999992
  0
LINE
  5
12A
  8
1外形線
 10
132.39805773855491
 20
81.999947563484682
 30
0.0
 11
132.39805773855491
 21
82.999947563485136
 31
0.0
  0
LINE
  5
12B
  8
1外形線
  6
CONTINUOUS
 10
130.39805773855491
 20
89.499947563485136
 30
0.0
 11
132.39805773855491
 21
89.499947563485136
 31
0.0
  0
LINE
  5
12C
  8
1外形線
 10
134.24917344485229
 20
102.48879050048239
 30
0.0
 11
133.4881073666505
 21
110.09945128250089
 31
0.0
  0
LINE
  5
12D
  8
1外形線
 10
130.39805773855491
 20
99.499947563484952
 30
0.0
 11
132.39805773855491
 21
99.499947563484909
 31
0.0
  0
ARC
  5
12E
  8
1外形線
 10
104.39805773855259
 20
99.503678929852015
 30
0.0
 40
30.0
 50
0.0
 51
5.7105931375006138
  0
LINE
  5
12F
  8
1外形線
 10
132.39805773855161
 20
110.99994756348001
 30
0.0
 11
132.4930701764404
 21
110.99994756348001
 31
0.0
  0
ARC
  5
130
  8
1外形線
 10
132.4930701764404
 20
109.99994756348001
 30
0.0
 40
1.0
 50
5.7105931375006138
 51
90.0
  0
LINE
  5
131
  8
1外形線
 10
113.39805773855539
 20
166.80458686518949
 30
0.0
 11
105.39805773855581
 21
166.80458686518949
 31
0.0
  0
LINE
  5
132
  8
1外形線
 10
122.89805773855581
 20
164.80458686518949
 30
0.0
 11
103.89805773855581
 21
164.80458686518949
 31
0.0
  0
LINE
  5
133
  8
1外形線
 10
92.398057738555394
 20
179.8045868651889
 30
0.0
 11
92.398057738555394
 21
162.3045868651889
 31
0.0
  0
LINE
  5
134
  8
1外形線
 10
94.398057738555394
 20
179.8045868651889
 30
0.0
 11
94.398057738555394
 21
162.3045868651889
 31
0.0
  0
ARC
  5
135
  8
1外形線
 10
96.898057738555337
 20
170.30458686518969
 30
0.0
 40
1.0
 50
0.0
 51
124.4034017438167
  0
LINE
  5
136
  8
1外形線
 10
94.615549743174086
 20
169.95352571639421
 30
0.0
 11
96.333041747792947
 21
171.1296668190019
 31
0.0
  0
ARC
  5
137
  8
1外形線
 10
94.898057738555337
 20
169.54098573948809
 30
0.0
 40
0.5
 50
124.4034017438167
 51
180.0
  0
LINE
  5
138
  8
1外形線
 10
105.39805773855581
 20
168.30458686518949
 30
0.0
 11
97.898057738555394
 21
168.30458686518949
 31
0.0
  0
LINE
  5
139
  8
1外形線
 10
97.898057738555394
 20
168.30458686518949
 30
0.0
 11
97.898057738555281
 21
170.30458686518969
 31
0.0
  0
LINE
  5
13A
  8
1外形線
 10
103.89805773855581
 20
168.30458686518941
 30
0.0
 11
103.89805773855581
 21
164.80458686518949
 31
0.0
  0
LINE
  5
13B
  8
1外形線
 10
105.39805773855581
 20
168.30458686518941
 30
0.0
 11
105.39805773855581
 21
166.80458686518949
 31
0.0
  0
ARC
  5
13C
  8
1外形線
 10
129.89805773855539
 20
170.30458686518941
 30
0.0
 40
1.0
 50
55.596598256183213
 51
180.0
  0
LINE
  5
13D
  8
1外形線
 10
128.89805773855539
 20
168.30458686518949
 30
0.0
 11
121.39805773855581
 21
168.30458686518949
 31
0.0
  0
LINE
  5
13E
  8
1外形線
 10
121.39805773855581
 20
166.80458686518949
 30
0.0
 11
113.39805773855539
 21
166.80458686518949
 31
0.0
  0
LINE
  5
13F
  8
1外形線
 10
122.89805773855581
 20
168.30458686518949
 30
0.0
 11
122.89805773855581
 21
164.80458686518949
 31
0.0
  0
LINE
  5
140
  8
1外形線
 10
121.39805773855581
 20
168.30458686518949
 30
0.0
 11
121.39805773855581
 21
166.80458686518949
 31
0.0
  0
LINE
  5
141
  8
1外形線
 10
134.39805773855531
 20
179.8045868651889
 30
0.0
 11
134.39805773855531
 21
162.3045868651889
 31
0.0
  0
LINE
  5
142
  8
1外形線
 10
132.39805773855531
 20
179.8045868651889
 30
0.0
 11
132.39805773855531
 21
162.3045868651889
 31
0.0
  0
LINE
  5
143
  8
1外形線
 10
132.18056573393659
 20
169.95352571639381
 30
0.0
 11
130.4630737293177
 21
171.12966681900161
 31
0.0
  0
LINE
  5
144
  8
1外形線
 10
128.89805773855539
 20
168.30458686518949
 30
0.0
 11
128.89805773855539
 21
170.30458686518941
 31
0.0
  0
ARC
  5
145
  8
1外形線
 10
131.89805773855539
 20
169.5409857394877
 30
0.0
 40
0.5
 50
0.0
 51
55.596598256183213
  0
ARC
  5
146
  8
1外形線
 10
173.39805773855321
 20
78.094960001372783
 30
0.0
 40
1.0
 50
0.0
 51
84.289406862499391
  0
LINE
  5
147
  8
1外形線
  6
CONTINUOUS
 10
164.39805773855309
 20
68.49994756348525
 30
0.0
 11
173.39805773855269
 21
68.499947563485065
 31
0.0
  0
LINE
  5
148
  8
1外形線
  6
CONTINUOUS
 10
164.39805773855309
 20
43.499947563485243
 30
0.0
 11
173.39805773855269
 21
43.499947563485136
 31
0.0
  0
LINE
  5
149
  8
1外形線
 10
162.89805773855289
 20
77.999947563485676
 30
0.0
 11
162.89805773855289
 21
75.999947563486046
 31
0.0
  0
ARC
  5
14A
  8
1外形線
 10
173.39805773855269
 20
44.499947563485591
 30
0.0
 40
1.0
 50
270.0
 51
0.0
  0
ARC
  5
14B
  8
1外形線
 10
173.39805773855269
 20
67.499947563485478
 30
0.0
 40
1.0
 50
0.0
 51
90.0
  0
LINE
  5
14C
  8
1外形線
 10
165.3906196965558
 20
79.900691367684885
 30
0.0
 11
173.49756145757439
 21
79.089997191582768
 31
0.0
  0
ARC
  5
14D
  8
1外形線
 10
163.40054531613529
 20
59.999947563485129
 30
0.0
 40
20.0
 50
84.289406862498566
 51
89.999999999999204
  0
LINE
  5
14E
  8
1外形線
 10
63.395570160973762
 20
286.01873911983222
 30
0.0
 11
90.39805773855619
 21
286.01873911983131
 31
0.0
  0
LINE
  5
14F
  8
1外形線
 10
63.395570160977847
 20
334.01873911983279
 30
0.0
 11
163.4005453161362
 21
334.01873911983
 31
0.0
  0
LINE
  5
150
  8
1外形線
 10
63.395570160973648
 20
206.80458686518381
 30
0.0
 11
163.40054531613711
 21
206.80458686518361
 31
0.0
  0
ARC
  5
151
  8
1外形線
 10
53.398057738555622
 20
204.8995993030716
 30
0.0
 40
1.0
 50
95.710593137499757
 51
180.0
  0
LINE
  5
152
  8
1外形線
 10
61.405495780553558
 20
206.7053306693835
 30
0.0
 11
53.298554019534663
 21
205.89463649328161
 31
0.0
  0
ARC
  5
153
  8
1外形線
 10
63.395570160973648
 20
186.80458686518381
 30
0.0
 40
20.0
 50
90.0
 51
95.710593137499757
  0
LINE
  5
154
  8
1外形線
 10
52.398057738556872
 20
332.11375155772072
 30
0.0
 11
52.398057738555963
 21
287.92372668194531
 31
0.0
  0
ARC
  5
155
  8
1外形線
 10
53.398057738555963
 20
287.9237266819452
 30
0.0
 40
1.0
 50
179.99999999999909
 51
264.28940686249769
  0
LINE
  5
156
  8
1外形線
 10
61.405495780553451
 20
286.11799531563298
 30
0.0
 11
53.29855401953477
 21
286.92868949173533
 31
0.0
  0
ARC
  5
157
  8
1外形線
 10
63.395570160974437
 20
306.01873911983267
 30
0.0
 40
20.0
 50
264.28940686249769
 51
269.99999999999829
  0
ARC
  5
158
  8
1外形線
 10
53.398057738556872
 20
332.11375155772072
 30
0.0
 40
1.0
 50
95.710593137499757
 51
179.99999999999909
  0
LINE
  5
159
  8
1外形線
 10
61.405495780557089
 20
333.91948292403299
 30
0.0
 11
53.298554019535793
 21
333.10878874793082
 31
0.0
  0
ARC
  5
15A
  8
1外形線
 10
63.395570160977279
 20
314.01873911983319
 30
0.0
 40
20.0
 50
89.999999999998366
 51
95.710593137499757
  0
LINE
  5
15B
  8
1外形線
 10
163.4005453161387
 20
286.0187391198312
 30
0.0
 11
136.398057738555
 21
286.01873911983091
 31
0.0
  0
LINE
  5
15C
  8
1外形線
 10
134.39805773855491
 20
266.5150077534629
 30
0.0
 11
134.398057738555
 21
284.01873911983091
 31
0.0
  0
LINE
  5
15D
  8
1外形線
 10
92.398057738556076
 20
266.5150077534629
 30
0.0
 11
92.398057738555963
 21
284.01873911983091
 31
0.0
  0
LINE
  5
15E
  8
1外形線
 10
132.49307017644361
 20
255.0187391198364
 30
0.0
 11
94.303045300667335
 21
255.01873911983631
 31
0.0
  0
LINE
  5
15F
  8
1外形線
 10
92.546942032255515
 20
263.52989618283402
 30
0.0
 11
93.308008110457308
 21
255.9192354008155
 31
0.0
  0
ARC
  5
160
  8
1外形線
 10
94.303045300667335
 20
256.01873911983643
 30
0.0
 40
1.0
 50
185.71059313750061
 51
270.0
  0
LINE
  5
161
  8
1外形線
 10
94.39805773855619
 20
255.01873911983651
 30
0.0
 11
94.303045300667335
 21
255.01873911983651
 31
0.0
  0
ARC
  5
162
  8
1外形線
 10
122.3980577385551
 20
266.51500775346449
 30
0.0
 40
30.0
 50
180.0
 51
185.71059313750061
  0
LINE
  5
163
  8
1外形線
 10
134.24917344485539
 20
263.52989618283402
 30
0.0
 11
133.48810736665371
 21
255.9192354008155
 31
0.0
  0
LINE
  5
164
  8
1外形線
 10
132.3980577385548
 20
255.01873911983651
 30
0.0
 11
132.49307017644361
 21
255.01873911983651
 31
0.0
  0
ARC
  5
165
  8
1外形線
 10
132.49307017644361
 20
256.01873911983643
 30
0.0
 40
1.0
 50
270.0
 51
354.28940686249939
  0
ARC
  5
166
  8
1外形線
 10
104.39805773855581
 20
266.51500775346449
 30
0.0
 40
30.0
 50
354.28940686249939
 51
0.0
  0
ARC
  5
167
  8
1外形線
 10
90.398057738556076
 20
284.0187391198308
 30
0.0
 40
2.0
 50
0.0000000000008142
 51
89.999999999998366
  0
ARC
  5
168
  8
1外形線
 10
136.398057738555
 20
284.01873911983091
 30
0.0
 40
2.0
 50
90.00000000000081
 51
179.9999999999975
  0
LINE
  5
169
  8
1外形線
 10
165.3906196965572
 20
206.7053306693833
 30
0.0
 11
173.4975614575761
 21
205.89463649328141
 31
0.0
  0
ARC
  5
16A
  8
1外形線
 10
163.40054531613711
 20
186.80458686518361
 30
0.0
 40
20.0
 50
84.289406862500243
 51
90.0
  0
ARC
  5
16B
  8
1外形線
 10
173.39805773855511
 20
204.8995993030714
 30
0.0
 40
1.0
 50
0.0
 51
84.289406862500243
  0
LINE
  5
16C
  8
1外形線
 10
220.3590425933628
 20
200.7053306693887
 30
0.0
 11
212.2521008323433
 21
199.89463649328681
 31
0.0
  0
ARC
  5
16D
  8
1外形線
 10
212.35160455136429
 20
198.8995993030768
 30
0.0
 40
1.0
 50
95.710593137499757
 51
180.0
  0
ARC
  5
16E
  8
1外形線
 10
222.3491169737824
 20
180.80458686518901
 30
0.0
 40
20.0
 50
90.0
 51
95.710593137499757
  0
LINE
  5
16F
  8
1外形線
 10
174.39805773855639
 20
332.11375155771913
 30
0.0
 11
174.39805773855639
 21
287.92372668194372
 31
0.0
  0
LINE
  5
170
  8
1外形線
 10
165.39061969655901
 20
286.11799531563162
 30
0.0
 11
173.49756145757749
 21
286.92868949173368
 31
0.0
  0
ARC
  5
171
  8
1外形線
 10
163.4005453161385
 20
306.01873911983131
 30
0.0
 40
20.0
 50
270.0000000000008
 51
275.71059313750141
  0
ARC
  5
172
  8
1外形線
 10
173.39805773855639
 20
287.92372668194372
 30
0.0
 40
1.0
 50
275.71059313750061
 51
0.0
  0
LINE
  5
173
  8
1外形線
 10
165.39061969655631
 20
333.91948292403151
 30
0.0
 11
173.49756145757749
 21
333.10878874792922
 31
0.0
  0
ARC
  5
174
  8
1外形線
 10
163.40054531613569
 20
314.01873911983182
 30
0.0
 40
20.0
 50
84.289406862498566
 51
90.0
  0
ARC
  5
175
  8
1外形線
 10
173.39805773855639
 20
332.11375155771913
 30
0.0
 40
1.0
 50
0.0
 51
84.289406862498566
  0
ARC
  5
176
  8
1外形線
 10
266.35160455135878
 20
182.8045868651889
 30
0.0
 40
24.0
 50
0.0
 51
180.0
  0
ARC
  5
177
  8
1外形線
 10
266.35160455135878
 20
182.8045868651889
 30
0.0
 40
22.0
 50
0.0
 51
180.0
  0
LINE
  5
178
  8
1外形線
 10
284.85160455136469
 20
168.3045868651906
 30
0.0
 11
277.35160455136509
 21
168.3045868651904
 31
0.0
  0
LINE
  5
179
  8
1外形線
 10
278.85160455136509
 20
164.8045868651906
 30
0.0
 11
253.85160455136329
 21
164.80458686519091
 31
0.0
  0
LINE
  5
17A
  8
1外形線
 10
255.35160455136329
 20
167.3045868651906
 30
0.0
 11
277.35160455136509
 21
167.3045868651906
 31
0.0
  0
LINE
  5
17B
  8
1外形線
 10
244.3516045513588
 20
162.30458686518941
 30
0.0
 11
244.3516045513588
 21
182.8045868651889
 31
0.0
  0
LINE
  5
17C
  8
1外形線
 10
242.3516045513588
 20
162.30458686518941
 30
0.0
 11
242.3516045513588
 21
182.8045868651889
 31
0.0
  0
ARC
  5
17D
  8
1外形線
 10
246.85160455136381
 20
170.30458686518949
 30
0.0
 40
1.0
 50
0.0
 51
124.4034017438167
  0
LINE
  5
17E
  8
1外形線
 10
244.5690965559825
 20
169.95352571639401
 30
0.0
 11
246.28658856060139
 21
171.1296668190017
 31
0.0
  0
ARC
  5
17F
  8
1外形線
 10
244.85160455136381
 20
169.54098573948789
 30
0.0
 40
0.5
 50
124.4034017438167
 51
180.0
  0
LINE
  5
180
  8
1外形線
 10
255.35160455136329
 20
168.3045868651904
 30
0.0
 11
247.85160455136381
 21
168.3045868651904
 31
0.0
  0
LINE
  5
181
  8
1外形線
 10
247.85160455136381
 20
168.3045868651904
 30
0.0
 11
247.85160455136381
 21
170.30458686518949
 31
0.0
  0
LINE
  5
182
  8
1外形線
 10
255.35160455136329
 20
168.3045868651904
 30
0.0
 11
255.35160455136329
 21
167.3045868651906
 31
0.0
  0
LINE
  5
183
  8
1外形線
 10
253.85160455136329
 20
168.3045868651906
 30
0.0
 11
253.85160455136329
 21
164.8045868651906
 31
0.0
  0
LINE
  5
184
  8
1外形線
 10
277.35160455136509
 20
168.3045868651904
 30
0.0
 11
277.35160455136509
 21
167.3045868651906
 31
0.0
  0
LINE
  5
185
  8
1外形線
 10
278.85160455136509
 20
168.3045868651906
 30
0.0
 11
278.85160455136509
 21
164.8045868651906
 31
0.0
  0
LINE
  5
186
  8
1外形線
 10
290.35160455135878
 20
162.3045868651889
 30
0.0
 11
290.35160455135878
 21
182.80458686518881
 31
0.0
  0
LINE
  5
187
  8
1外形線
 10
288.35160455135878
 20
162.3045868651889
 30
0.0
 11
288.35160455135878
 21
182.80458686518881
 31
0.0
  0
ARC
  5
188
  8
1外形線
 10
285.85160455136469
 20
170.30458686518949
 30
0.0
 40
1.0
 50
55.596598256183213
 51
180.0
  0
LINE
  5
189
  8
1外形線
 10
284.85160455136457
 20
168.3045868651906
 30
0.0
 11
284.85160455136469
 21
170.30458686518949
 31
0.0
  0
LINE
  5
18A
  8
1外形線
 10
288.13411254674588
 20
169.95352571639401
 30
0.0
 11
286.41662054212708
 21
171.1296668190017
 31
0.0
  0
ARC
  5
18B
  8
1外形線
 10
287.85160455136469
 20
169.54098573948789
 30
0.0
 40
0.5
 50
0.0
 51
55.596598256183213
  0
ARC
  5
18C
  8
1外形線
 10
239.29610603442319
 20
240.80458686518901
 30
0.0
 40
40.0
 50
270.0
 51
295.00783323468329
  0
ENDSEC
  0
EOF
