  0
SECTION
  2
HEADER
  9
$ACADVER
  1
AC1009
  9
$INSBASE
 10
0.0
 20
0.0
 30
0.0
  9
$EXTMIN
 10
24.99622914499696
 20
-25.750029856048059
 30
-0.0015258207003583
  9
$EXTMAX
 10
615.43703137683963
 20
367.18776637296338
 30
0.0000000349246037
  9
$LIMMIN
 10
0.0
 20
0.0
  9
$LIMMAX
 10
420.0
 20
297.0
  9
$ORTHOMODE
 70
     0
  9
$REGENMODE
 70
     1
  9
$FILLMODE
 70
     1
  9
$QTEXTMODE
 70
     0
  9
$MIRRTEXT
 70
     1
  9
$DRAGMODE
 70
     2
  9
$LTSCALE
 40
1.0
  9
$OSMODE
 70
    37
  9
$ATTMODE
 70
     1
  9
$TEXTSIZE
 40
2.5
  9
$TRACEWID
 40
1.0
  9
$TEXTSTYLE
  7
STANDARD
  9
$CLAYER
  8
0
  9
$CELTYPE
  6
BYLAYER
  9
$CECOLOR
 62
   256
  9
$DIMSCALE
 40
1.0
  9
$DIMASZ
 40
2.5
  9
$DIMEXO
 40
0.625
  9
$DIMDLI
 40
3.75
  9
$DIMRND
 40
0.0
  9
$DIMDLE
 40
0.0
  9
$DIMEXE
 40
1.25
  9
$DIMTP
 40
0.0
  9
$DIMTM
 40
0.0
  9
$DIMTXT
 40
2.5
  9
$DIMCEN
 40
2.5
  9
$DIMTSZ
 40
0.0
  9
$DIMTOL
 70
     0
  9
$DIMLIM
 70
     0
  9
$DIMTIH
 70
     0
  9
$DIMTOH
 70
     0
  9
$DIMSE1
 70
     0
  9
$DIMSE2
 70
     0
  9
$DIMTAD
 70
     1
  9
$DIMZIN
 70
     8
  9
$DIMBLK
  1

  9
$DIMASO
 70
     1
  9
$DIMSHO
 70
     1
  9
$DIMPOST
  1

  9
$DIMAPOST
  1

  9
$DIMALT
 70
     0
  9
$DIMALTD
 70
     3
  9
$DIMALTF
 40
0.03937007874016
  9
$DIMLFAC
 40
1.0
  9
$DIMTOFL
 70
     1
  9
$DIMTVP
 40
0.0
  9
$DIMTIX
 70
     0
  9
$DIMSOXD
 70
     0
  9
$DIMSAH
 70
     0
  9
$DIMBLK1
  1

  9
$DIMBLK2
  1

  9
$DIMSTYLE
  2
ISO-25
  9
$DIMCLRD
 70
     0
  9
$DIMCLRE
 70
     0
  9
$DIMCLRT
 70
     0
  9
$DIMTFAC
 40
1.0
  9
$DIMGAP
 40
0.625
  9
$LUNITS
 70
     2
  9
$LUPREC
 70
     4
  9
$SKETCHINC
 40
1.0
  9
$FILLETRAD
 40
10.0
  9
$AUNITS
 70
     0
  9
$AUPREC
 70
     0
  9
$MENU
  1
.
  9
$ELEVATION
 40
0.0
  9
$PELEVATION
 40
0.0
  9
$THICKNESS
 40
0.0
  9
$LIMCHECK
 70
     0
  9
$BLIPMODE
 70
     0
  9
$CHAMFERA
 40
10.0
  9
$CHAMFERB
 40
10.0
  9
$SKPOLY
 70
     0
  9
$TDCREATE
 40
2452048.587873715
  9
$TDUPDATE
 40
2452048.5965791661
  9
$TDINDWG
 40
0.0087073148
  9
$TDUSRTIMER
 40
0.0087073148
  9
$USRTIMER
 70
     1
  9
$ANGBASE
 50
0.0
  9
$ANGDIR
 70
     0
  9
$PDMODE
 70
     0
  9
$PDSIZE
 40
0.0
  9
$PLINEWID
 40
0.0
  9
$COORDS
 70
     1
  9
$SPLFRAME
 70
     0
  9
$SPLINETYPE
 70
     6
  9
$SPLINESEGS
 70
     8
  9
$ATTDIA
 70
     0
  9
$ATTREQ
 70
     1
  9
$HANDLING
 70
-16383
  9
$HANDSEED
  5
47E7
  9
$SURFTAB1
 70
     6
  9
$SURFTAB2
 70
     6
  9
$SURFTYPE
 70
     6
  9
$SURFU
 70
     6
  9
$SURFV
 70
     6
  9
$UCSNAME
  2

  9
$UCSORG
 10
0.0
 20
0.0
 30
0.0
  9
$UCSXDIR
 10
1.0
 20
0.0
 30
0.0
  9
$UCSYDIR
 10
0.0
 20
1.0
 30
0.0
  9
$PUCSNAME
  2

  9
$PUCSORG
 10
0.0
 20
0.0
 30
0.0
  9
$PUCSXDIR
 10
1.0
 20
0.0
 30
0.0
  9
$PUCSYDIR
 10
0.0
 20
1.0
 30
0.0
  9
$USERI1
 70
     0
  9
$USERI2
 70
     0
  9
$USERI3
 70
     0
  9
$USERI4
 70
     0
  9
$USERI5
 70
     0
  9
$USERR1
 40
0.0
  9
$USERR2
 40
0.0
  9
$USERR3
 40
0.0
  9
$USERR4
 40
0.0
  9
$USERR5
 40
0.0
  9
$WORLDVIEW
 70
     1
  9
$SHADEDGE
 70
     3
  9
$SHADEDIF
 70
    70
  9
$TILEMODE
 70
     1
  9
$MAXACTVP
 70
    64
  9
$PLIMCHECK
 70
     0
  9
$PEXTMIN
 10
1.0000000000000000E+020
 20
1.0000000000000000E+020
 30
1.0000000000000000E+020
  9
$PEXTMAX
 10
-1.0000000000000000E+020
 20
-1.0000000000000000E+020
 30
-1.0000000000000000E+020
  9
$PLIMMIN
 10
0.0
 20
0.0
  9
$PLIMMAX
 10
420.0
 20
297.0
  9
$UNITMODE
 70
     0
  9
$VISRETAIN
 70
     1
  9
$PLINEGEN
 70
     0
  9
$PSLTSCALE
 70
     1
  0
ENDSEC
  0
SECTION
  2
TABLES
  0
TABLE
  2
VPORT
 70
    20
  0
VPORT
  2
*ACTIVE
 70
     0
 10
0.0
 20
0.0
 11
1.0
 21
1.0
 12
243.19809294536361
 22
20.724196922940902
 13
0.0
 23
0.0
 14
10.0
 24
10.0
 15
10.0
 25
10.0
 16
0.0
 26
0.0
 36
1.0
 17
0.0
 27
0.0
 37
0.0
 40
1136.324782680095
 41
0.8452830188679245
 42
50.0
 43
0.0
 44
0.0
 50
0.0
 51
0.0
 71
     0
 72
   100
 73
     1
 74
     3
 75
     0
 76
     0
 77
     0
 78
     0
  0
ENDTAB
  0
TABLE
  2
LTYPE
 70
     1
  0
LTYPE
  2
CONTINUOUS
 70
     0
  3
Solid line
 72
    65
 73
     0
 40
0.0
  0
ENDTAB
  0
TABLE
  2
LAYER
 70
     2
  0
LAYER
  2
0
 70
     0
 62
     7
  6
CONTINUOUS
  0
LAYER
  2
1外形線
 70
     0
 62
     3
  6
CONTINUOUS
  0
ENDTAB
  0
TABLE
  2
STYLE
 70
     2
  0
STYLE
  2
STANDARD
 70
     0
 40
0.0
 41
1.0
 50
0.0
 71
     0
 42
2.5
  3
txt
  4

  0
STYLE
  2
KANJI
 70
     0
 40
0.0
 41
1.0
 50
0.0
 71
     0
 42
10.0
  3
simplex
  4
bigfont
  0
ENDTAB
  0
TABLE
  2
VIEW
 70
     0
  0
ENDTAB
  0
TABLE
  2
UCS
 70
     0
  0
ENDTAB
  0
TABLE
  2
APPID
 70
     1
  0
APPID
  2
ACAD
 70
     0
  0
ENDTAB
  0
TABLE
  2
DIMSTYLE
 70
     2
  0
DIMSTYLE
  2
ISO-25
 70
     0
  3

  4

  5

  6

  7

 40
1.0
 41
2.5
 42
0.625
 43
3.75
 44
1.25
 45
0.0
 46
0.0
 47
0.0
 48
0.0
140
2.5
141
2.5
142
0.0
143
0.03937007874016
144
1.0
145
0.0
146
1.0
147
0.625
 71
     0
 72
     0
 73
     0
 74
     0
 75
     0
 76
     0
 77
     1
 78
     8
170
     0
171
     3
172
     1
173
     0
174
     0
175
     0
176
     0
177
     0
178
     0
  0
DIMSTYLE
  2
STANDARD
 70
     0
  3

  4

  5

  6
1
  7
1
 40
1.0
 41
1.0
 42
1.0
 43
6.0
 44
1.0
 45
0.0
 46
0.0
 47
0.0
 48
0.0
140
2.5
141
0.0
142
0.0
143
25.399999999999999
144
1.0
145
0.0
146
1.0
147
0.5
 71
     0
 72
     0
 73
     0
 74
     0
 75
     0
 76
     0
 77
     1
 78
     8
170
     0
171
     2
172
     1
173
     1
174
     0
175
     0
176
     0
177
     0
178
     0
  0
ENDTAB
  0
ENDSEC
  0
SECTION
  2
BLOCKS
  0
BLOCK
  8
0
  2
$MODEL_SPACE
 70
     0
 10
0.0
 20
0.0
 30
0.0
  3
$MODEL_SPACE
  1

  0
ENDBLK
  5
21
  8
0
  0
BLOCK
 67
     1
  8
0
  2
$PAPER_SPACE
 70
     0
 10
0.0
 20
0.0
 30
0.0
  3
$PAPER_SPACE
  1

  0
ENDBLK
  5
1D
 67
     1
  8
0
  0
BLOCK
  8
0
  2
1
 70
     0
 10
0.0
 20
0.0
 30
0.0
  3
1
  1

  0
SOLID
  5
2C
  8
0
  6
BYBLOCK
 62
     0
 10
-1.811110924292052
 20
0.4852857095671653
 30
0.0
 11
-1.811110924292052
 21
-0.4852857095673642
 31
0.0
 12
0.0
 22
0.0
 32
0.0
 13
0.0
 23
0.0
 33
0.0
  0
ENDBLK
  5
2E
  8
0
  0
ENDSEC
  0
SECTION
  2
ENTITIES
  0
LINE
  5
4740
  8
1外形線
 10
188.01664598755741
 20
225.72558104948129
 30
0.0
 11
195.627306769575
 21
224.96451497127961
 31
0.0
  0
LINE
  5
4741
  8
1外形線
 10
187.52036500856551
 20
18.683480989760991
 30
0.0
 11
195.6273067695868
 21
19.494175165863339
 31
0.0
  0
LINE
  5
4742
  8
1外形線
 10
187.52036500856821
 20
66.484968598160947
 30
0.0
 11
195.6273067695868
 21
65.674274422058815
 31
0.0
  0
LINE
  5
4743
  8
1外形線
 10
196.52780305056581
 20
64.584224793961084
 30
0.0
 11
148.52780305056129
 21
64.58422479396171
 31
0.0
  0
LINE
  5
4744
  8
1外形線
 10
48.527803050556138
 20
20.584224793959489
 30
0.0
 11
196.52780305056581
 21
20.584224793962669
 31
0.0
  0
LINE
  5
4745
  8
1外形線
 10
196.5278030505543
 20
181.37446534317721
 30
0.0
 11
48.527803050565581
 21
181.37446534317661
 31
0.0
  0
LINE
  5
4746
  8
1外形線
 10
187.52036500856551
 20
367.08851017716182
 30
0.0
 11
195.6273067695868
 21
366.27781600105942
 31
0.0
  0
LINE
  5
4747
  8
1外形線
 10
187.52036500856821
 20
319.28702256876181
 30
0.0
 11
195.6273067695868
 21
320.09771674486387
 31
0.0
  0
LINE
  5
4748
  8
1外形線
 10
181.527803050557
 20
30.08422479395432
 30
0.0
 11
195.5278030505568
 21
30.084224793954199
 31
0.0
  0
LINE
  5
4749
  8
1外形線
 10
181.527803050557
 20
55.08422479395432
 30
0.0
 11
195.5278030505568
 21
55.084224793954093
 31
0.0
  0
ARC
  5
474A
  8
1外形線
 10
96.527803050559442
 20
68.584224793961141
 30
0.0
 40
4.0
 50
270.00000000000318
 51
359.99999999999829
  0
ARC
  5
474B
  8
1外形線
 10
96.527803050559555
 20
68.584224793961084
 30
0.0
 40
2.0
 50
270.00000000000318
 51
359.99999999999829
  0
LINE
  5
474C
  8
1外形線
 10
59.525315472977013
 20
18.584224793959379
 30
0.0
 11
122.52780305056091
 21
18.584224793961141
 31
0.0
  0
LINE
  5
474D
  8
1外形線
 10
57.535241092556362
 20
18.68348098975963
 30
0.0
 11
49.428299331535072
 21
19.494175165861801
 31
0.0
  0
LINE
  5
474E
  8
1外形線
 10
57.535241092552717
 20
66.484968598159583
 30
0.0
 11
49.428299331534113
 21
65.674274422057294
 31
0.0
  0
LINE
  5
474F
  8
1外形線
 10
48.527803050555242
 20
64.584224793959493
 30
0.0
 11
96.527803050559555
 21
64.584224793961141
 31
0.0
  0
LINE
  5
4750
  8
1外形線
 10
63.527803050554887
 20
30.084224793959319
 30
0.0
 11
49.527803050555008
 21
30.084224793960342
 31
0.0
  0
LINE
  5
4751
  8
1外形線
 10
63.527803050557061
 20
55.084224793959322
 30
0.0
 11
49.527803050557047
 21
55.084224793960232
 31
0.0
  0
LINE
  5
4752
  8
1外形線
 10
48.527803050556138
 20
20.489212356071789
 30
0.0
 11
48.527803050555242
 21
64.679237231847253
 31
0.0
  0
ARC
  5
4753
  8
1外形線
 10
49.527803050556152
 20
20.489212356071839
 30
0.0
 40
1.0
 50
180.00000000000159
 51
264.28940686249928
  0
ARC
  5
4754
  8
1外形線
 10
49.527803050555008
 20
31.0842247939608
 30
0.0
 40
1.0
 50
179.99999999999511
 51
269.9999999999967
  0
ARC
  5
4755
  8
1外形線
 10
49.527803050557047
 20
54.084224793960693
 30
0.0
 40
1.0
 50
89.999999999996746
 51
179.99999999999511
  0
ARC
  5
4756
  8
1外形線
 10
49.527803050555228
 20
64.67923723184731
 30
0.0
 40
1.0
 50
95.710593137500581
 51
180.00000000000159
  0
LINE
  5
4757
  8
1外形線
 10
63.527803050557281
 20
20.58422479395983
 30
0.0
 11
63.52780305055785
 21
64.584224793960232
 31
0.0
  0
LINE
  5
4758
  8
1外形線
 10
65.027803050554212
 20
21.884224793958651
 30
0.0
 11
85.027803050554226
 21
21.884224793956939
 31
0.0
  0
ARC
  5
4759
  8
1外形線
 10
59.525315472976501
 20
38.584224793959379
 30
0.0
 40
20.0
 50
264.28940686249928
 51
270.0
  0
LINE
  5
475A
  8
1外形線
 10
65.027803050554212
 20
21.884224793958651
 30
0.0
 11
65.027803050554084
 21
20.584224793958182
 31
0.0
  0
LINE
  5
475B
  8
1外形線
 10
85.027803050554226
 20
21.884224793956889
 30
0.0
 11
85.027803050554084
 21
20.58422479395653
 31
0.0
  0
LINE
  5
475C
  8
1外形線
 10
59.525315472973027
 20
66.584224793959891
 30
0.0
 11
96.527803050559669
 21
66.584224793961084
 31
0.0
  0
LINE
  5
475D
  8
1外形線
 10
65.027803050557623
 20
63.284224793959993
 30
0.0
 11
85.027803050557637
 21
63.28422479395698
 31
0.0
  0
ARC
  5
475E
  8
1外形線
 10
59.525315472973723
 20
46.584224793959891
 30
0.0
 40
20.0
 50
90.000000000003254
 51
95.710593137503864
  0
LINE
  5
475F
  8
1外形線
 10
65.027803050557736
 20
64.584224793960402
 30
0.0
 11
65.027803050557623
 21
63.284224793959993
 31
0.0
  0
LINE
  5
4760
  8
1外形線
 10
85.027803050557637
 20
63.28422479395698
 30
0.0
 11
85.027803050557736
 21
64.584224793958413
 31
0.0
  0
ARC
  5
4761
  8
1外形線
 10
148.5278030505614
 20
68.58422479396171
 30
0.0
 40
4.0
 50
180.00000000000321
 51
270.0
  0
ARC
  5
4762
  8
1外形線
 10
148.52780305056129
 20
68.584224793961653
 30
0.0
 40
2.0
 50
180.00000000000159
 51
270.0
  0
LINE
  5
4763
  8
1外形線
 10
185.53029062814491
 20
18.584224793960679
 30
0.0
 11
122.52780305056091
 21
18.584224793961141
 31
0.0
  0
CIRCLE
  5
4764
  8
1外形線
 10
122.5278030505564
 20
42.58422479395432
 30
0.0
 40
2.1000000000000001
  0
LINE
  5
4765
  8
1外形線
 10
181.5278030505568
 20
20.584224793962331
 30
0.0
 11
181.5278030505568
 21
64.584224793955215
 31
0.0
  0
LINE
  5
4766
  8
1外形線
 10
180.027803050557
 20
21.88422479395382
 30
0.0
 11
160.027803050557
 21
21.884224793953759
 31
0.0
  0
LINE
  5
4767
  8
1外形線
 10
160.027803050557
 20
21.884224793953699
 30
0.0
 11
160.027803050557
 21
20.58422479395335
 31
0.0
  0
ARC
  5
4768
  8
1外形線
 10
185.530290628145
 20
38.584224793960679
 30
0.0
 40
20.0
 50
270.0
 51
275.71059313750061
  0
LINE
  5
4769
  8
1外形線
 10
180.027803050557
 20
21.88422479395382
 30
0.0
 11
180.027803050557
 21
20.58422479395335
 31
0.0
  0
LINE
  5
476A
  8
1外形線
 10
185.5302906281479
 20
66.584224793961184
 30
0.0
 11
148.52780305056129
 21
66.584224793961653
 31
0.0
  0
LINE
  5
476B
  8
1外形線
 10
180.027803050557
 20
63.284224793955161
 30
0.0
 11
160.027803050557
 21
63.284224793953797
 31
0.0
  0
LINE
  5
476C
  8
1外形線
 10
160.027803050557
 20
63.284224793953797
 30
0.0
 11
160.027803050557
 21
64.584224793955215
 31
0.0
  0
ARC
  5
476D
  8
1外形線
 10
185.53029062814761
 20
46.584224793961191
 30
0.0
 40
20.0
 50
84.289406862499419
 51
90.0
  0
LINE
  5
476E
  8
1外形線
 10
180.027803050557
 20
64.58422479395557
 30
0.0
 11
180.027803050557
 21
63.284224793955161
 31
0.0
  0
LINE
  5
476F
  8
1外形線
 10
144.62281548844709
 20
116.5842247939558
 30
0.0
 11
100.4327906126727
 21
116.5842247939563
 31
0.0
  0
LINE
  5
4770
  8
1外形線
 10
143.22780305055659
 20
80.084224793954775
 30
0.0
 11
144.52780305055811
 21
80.084224793954661
 31
0.0
  0
LINE
  5
4771
  8
1外形線
 10
144.5278030505597
 20
100.0842247939547
 30
0.0
 11
143.22780305055929
 21
100.0842247939547
 31
0.0
  0
LINE
  5
4772
  8
1外形線
 10
100.52780305055821
 20
101.5842247939575
 30
0.0
 11
144.5278030505595
 21
101.5842247939546
 31
0.0
  0
LINE
  5
4773
  8
1外形線
 10
98.527803050560365
 20
105.5867123715383
 30
0.0
 11
98.527803050559555
 21
68.584224793961084
 31
0.0
  0
LINE
  5
4774
  8
1外形線
 10
100.52780305056049
 20
116.5842247939563
 30
0.0
 11
100.5278030505594
 21
68.584224793961084
 31
0.0
  0
LINE
  5
4775
  8
1外形線
 10
143.22780305055929
 20
100.0842247939547
 30
0.0
 11
143.22780305055659
 21
80.084224793954775
 31
0.0
  0
ARC
  5
4776
  8
1外形線
 10
122.5278030505585
 20
93.484224793956116
 30
0.0
 40
2.0999999999999992
 50
0.0
 51
180.0
  0
LINE
  5
4777
  8
1外形線
 10
101.827803050558
 20
100.0842247939575
 30
0.0
 11
101.8278030505566
 21
80.084224793957446
 31
0.0
  0
LINE
  5
4778
  8
1外形線
 10
101.8278030505565
 20
80.084224793957446
 30
0.0
 11
100.5278030505562
 21
80.084224793957503
 31
0.0
  0
LINE
  5
4779
  8
1外形線
 10
120.4278030505584
 20
93.484224793956116
 30
0.0
 11
120.4278030505584
 21
91.084224793956125
 31
0.0
  0
LINE
  5
477A
  8
1外形線
 10
120.4278030505584
 20
88.684224793956176
 30
0.0
 11
120.4278030505584
 21
91.084224793956125
 31
0.0
  0
LINE
  5
477B
  8
1外形線
 10
124.6278030505584
 20
93.484224793956116
 30
0.0
 11
124.6278030505584
 21
91.084224793956025
 31
0.0
  0
LINE
  5
477C
  8
1外形線
 10
124.6278030505584
 20
88.684224793956176
 30
0.0
 11
124.6278030505584
 21
91.084224793956267
 31
0.0
  0
ARC
  5
477D
  8
1外形線
 10
122.5278030505585
 20
88.684224793956176
 30
0.0
 40
2.0999999999999992
 50
180.0
 51
0.0
  0
ARC
  5
477E
  8
1外形線
 10
118.52780305056029
 20
105.5867123715379
 30
0.0
 40
20.0
 50
174.28940686249771
 51
179.99999999999829
  0
LINE
  5
477F
  8
1外形線
 10
110.0278030505586
 20
101.58422479395681
 30
0.0
 11
110.0278030505594
 21
115.58422479395681
 31
0.0
  0
LINE
  5
4780
  8
1外形線
 10
101.827803050558
 20
100.0842247939575
 30
0.0
 11
100.52780305055749
 21
100.0842247939575
 31
0.0
  0
ARC
  5
4781
  8
1外形線
 10
100.4327906126727
 20
115.5842247939563
 30
0.0
 40
1.0
 50
90.0
 51
174.28940686249931
  0
LINE
  5
4782
  8
1外形線
 10
98.627059246360545
 20
107.57678675195859
 30
0.0
 11
99.43775342246272
 21
115.6837285129773
 31
0.0
  0
ARC
  5
4783
  8
1外形線
 10
111.0278030505599
 20
115.58422479395681
 30
0.0
 40
1.0
 50
89.999999999996746
 51
179.9999999999967
  0
LINE
  5
4784
  8
1外形線
 10
135.02780305055859
 20
101.5842247939552
 30
0.0
 11
135.0278030505593
 21
115.5842247939552
 31
0.0
  0
ARC
  5
4785
  8
1外形線
 10
134.0278030505597
 20
115.5842247939553
 30
0.0
 40
1.0
 50
359.9999999999967
 51
89.999999999996746
  0
LINE
  5
4786
  8
1外形線
 10
146.5278030505597
 20
105.58671237153879
 30
0.0
 11
146.52780305056129
 21
68.584224793961596
 31
0.0
  0
LINE
  5
4787
  8
1外形線
 10
144.5278030505593
 20
116.58422479395669
 30
0.0
 11
144.5278030505614
 21
68.584224793961525
 31
0.0
  0
ARC
  5
4788
  8
1外形線
 10
126.5278030505597
 20
105.586712371538
 30
0.0
 40
20.0
 50
0.0000000000016284
 51
5.7105931375022339
  0
ARC
  5
4789
  8
1外形線
 10
144.62281548844709
 20
115.58422479395669
 30
0.0
 40
1.0
 50
5.7105931375022339
 51
90.000000000003254
  0
LINE
  5
478A
  8
1外形線
 10
146.42854685475939
 20
107.57678675195911
 30
0.0
 11
145.6178526786571
 21
115.68372851297779
 31
0.0
  0
LINE
  5
478B
  8
1外形線
 10
48.527803050556138
 20
365.28277881085103
 30
0.0
 11
48.527803050555242
 21
321.09275393507551
 31
0.0
  0
LINE
  5
478C
  8
1外形線
 10
185.03153441692729
 20
225.87446534317741
 30
0.0
 11
60.024071684192222
 21
225.87446534317709
 31
0.0
  0
LINE
  5
478D
  8
1外形線
 10
57.038960113562439
 20
225.72558104948129
 30
0.0
 11
49.428299331544842
 21
224.96451497127961
 31
0.0
  0
LINE
  5
478E
  8
1外形線
 10
48.527803050565581
 20
181.3744653431776
 30
0.0
 11
48.527803050565581
 21
223.9694777810694
 31
0.0
  0
ARC
  5
478F
  8
1外形線
 10
49.527803050565922
 20
223.96947778106949
 30
0.0
 40
1.0
 50
95.710593137500581
 51
180.0
  0
ARC
  5
4790
  8
1外形線
 10
60.02407168419257
 20
195.8744653431817
 30
0.0
 40
30.0
 50
90.0
 51
95.710593137500581
  0
LINE
  5
4791
  8
1外形線
 10
144.52780305056041
 20
189.37446534317681
 30
0.0
 11
142.52780305056041
 21
190.52916588155611
 31
0.0
  0
ARC
  5
4792
  8
1外形線
 10
122.52780305056
 20
201.87446534317669
 30
0.0
 40
22.0
 50
0.0
 51
180.0
  0
ARC
  5
4793
  8
1外形線
 10
122.52780305056
 20
201.87446534317669
 30
0.0
 40
24.0
 50
0.0
 51
180.0
  0
LINE
  5
4794
  8
1外形線
 10
98.527803050559896
 20
181.37446534317721
 30
0.0
 11
98.527803050559896
 21
201.87446534317681
 31
0.0
  0
LINE
  5
4795
  8
1外形線
 10
100.5278030505599
 20
181.37446534317721
 30
0.0
 11
100.5278030505599
 21
201.87446534317681
 31
0.0
  0
LINE
  5
4796
  8
1外形線
 10
111.5278030505589
 20
186.37446534317681
 30
0.0
 11
133.52780305056089
 21
186.37446534317681
 31
0.0
  0
LINE
  5
4797
  8
1外形線
 10
135.02780305056089
 20
183.87446534317681
 30
0.0
 11
110.0278030505591
 21
183.87446534317701
 31
0.0
  0
LINE
  5
4798
  8
1外形線
 10
110.0278030505591
 20
187.37446534317681
 30
0.0
 11
110.0278030505591
 21
183.87446534317681
 31
0.0
  0
LINE
  5
4799
  8
1外形線
 10
111.527803050559
 20
187.37446534317661
 30
0.0
 11
104.0278030505594
 21
187.37446534317661
 31
0.0
  0
LINE
  5
479A
  8
1外形線
 10
104.0278030505594
 20
187.37446534317661
 30
0.0
 11
104.0278030505595
 21
189.66314047777249
 31
0.0
  0
LINE
  5
479B
  8
1外形線
 10
100.5278030505595
 20
189.37446534317681
 30
0.0
 11
102.5278030505595
 21
190.52916588155611
 31
0.0
  0
ARC
  5
479C
  8
1外形線
 10
103.0278030505595
 20
189.66314047777249
 30
0.0
 40
1.0
 50
0.0
 51
119.9999999999995
  0
LINE
  5
479D
  8
1外形線
 10
111.527803050559
 20
187.37446534317661
 30
0.0
 11
111.527803050559
 21
186.37446534317681
 31
0.0
  0
LINE
  5
479E
  8
1外形線
 10
135.02780305056089
 20
187.37446534317681
 30
0.0
 11
135.02780305056089
 21
183.87446534317681
 31
0.0
  0
LINE
  5
479F
  8
1外形線
 10
141.02780305056041
 20
187.37446534317681
 30
0.0
 11
133.52780305056089
 21
187.37446534317661
 31
0.0
  0
LINE
  5
47A0
  8
1外形線
 10
133.52780305056089
 20
187.37446534317661
 30
0.0
 11
133.52780305056089
 21
186.37446534317681
 31
0.0
  0
LINE
  5
47A1
  8
1外形線
 10
141.02780305056041
 20
187.37446534317681
 30
0.0
 11
141.02780305056041
 21
189.66314047777249
 31
0.0
  0
ARC
  5
47A2
  8
1外形線
 10
142.02780305056041
 20
189.66314047777249
 30
0.0
 40
1.0
 50
60.000000000000419
 51
180.0
  0
LINE
  5
47A3
  8
1外形線
 10
146.5278030505599
 20
181.37446534317701
 30
0.0
 11
146.5278030505599
 21
201.87446534317681
 31
0.0
  0
LINE
  5
47A4
  8
1外形線
 10
144.52780305055981
 20
181.37446534317721
 30
0.0
 11
144.52780305055981
 21
201.87446534317681
 31
0.0
  0
ARC
  5
47A5
  8
1外形線
 10
185.03153441692729
 20
195.8744653431817
 30
0.0
 40
30.0
 50
84.289406862499419
 51
90.0
  0
ARC
  5
47A6
  8
1外形線
 10
96.527803050559555
 20
317.18776637296168
 30
0.0
 40
2.0
 50
0.0000000000016284
 51
89.999999999996746
  0
LINE
  5
47A7
  8
1外形線
 10
57.535241092552717
 20
319.28702256876312
 30
0.0
 11
49.428299331534113
 21
320.09771674486541
 31
0.0
  0
ARC
  5
47A8
  8
1外形線
 10
49.527803050555228
 20
321.09275393507551
 30
0.0
 40
1.0
 50
179.99999999999829
 51
264.28940686249928
  0
LINE
  5
47A9
  8
1外形線
 10
59.525315472973027
 20
319.18776637296281
 30
0.0
 11
96.527803050559669
 21
319.18776637296168
 31
0.0
  0
ARC
  5
47AA
  8
1外形線
 10
59.525315472973723
 20
339.18776637296281
 30
0.0
 40
20.0
 50
264.28940686249609
 51
269.9999999999967
  0
ARC
  5
47AB
  8
1外形線
 10
126.5278030505597
 20
280.1852787953847
 30
0.0
 40
20.0
 50
354.28940686249769
 51
359.99999999999829
  0
ARC
  5
47AC
  8
1外形線
 10
118.52780305056029
 20
280.18527879538482
 30
0.0
 40
20.0
 50
180.00000000000159
 51
185.7105931375022
  0
LINE
  5
47AD
  8
1外形線
 10
144.62281548844709
 20
269.18776637296691
 30
0.0
 11
100.4327906126727
 21
269.18776637296651
 31
0.0
  0
ARC
  5
47AE
  8
1外形線
 10
100.4327906126727
 20
270.18776637296651
 30
0.0
 40
1.0
 50
185.71059313750061
 51
270.0
  0
LINE
  5
47AF
  8
1外形線
 10
98.627059246360545
 20
278.19520441496411
 30
0.0
 11
99.43775342246272
 21
270.08826265394538
 31
0.0
  0
ARC
  5
47B0
  8
1外形線
 10
144.62281548844709
 20
270.187766372966
 30
0.0
 40
1.0
 50
269.9999999999967
 51
354.28940686249769
  0
LINE
  5
47B1
  8
1外形線
 10
146.42854685475939
 20
278.1952044149636
 30
0.0
 11
145.6178526786571
 21
270.08826265394492
 31
0.0
  0
LINE
  5
47B2
  8
1外形線
 10
98.527803050560365
 20
280.18527879538442
 30
0.0
 11
98.527803050559555
 21
317.18776637296168
 31
0.0
  0
LINE
  5
47B3
  8
1外形線
 10
146.5278030505597
 20
280.18527879538391
 30
0.0
 11
146.52780305056129
 21
317.18776637296122
 31
0.0
  0
LINE
  5
47B4
  8
1外形線
 10
185.5302906281479
 20
319.18776637296162
 30
0.0
 11
148.52780305056129
 21
319.18776637296111
 31
0.0
  0
ARC
  5
47B5
  8
1外形線
 10
148.52780305056129
 20
317.18776637296111
 30
0.0
 40
2.0
 50
90.0
 51
179.99999999999829
  0
ARC
  5
47B6
  8
1外形線
 10
185.53029062814761
 20
339.18776637296162
 30
0.0
 40
20.0
 50
270.0
 51
275.71059313750061
  0
LINE
  5
47B7
  8
1外形線
 10
59.525315472977013
 20
367.18776637296338
 30
0.0
 11
185.53029062814559
 21
367.18776637295991
 31
0.0
  0
LINE
  5
47B8
  8
1外形線
 10
57.535241092556362
 20
367.08851017716319
 30
0.0
 11
49.428299331535072
 21
366.2778160010609
 31
0.0
  0
ARC
  5
47B9
  8
1外形線
 10
49.527803050556152
 20
365.28277881085091
 30
0.0
 40
1.0
 50
95.710593137500581
 51
179.99999999999829
  0
ARC
  5
47BA
  8
1外形線
 10
59.525315472976501
 20
347.18776637296338
 30
0.0
 40
20.0
 50
90.0
 51
95.710593137500581
  0
ARC
  5
47BB
  8
1外形線
 10
185.530290628145
 20
347.18776637296219
 30
0.0
 40
20.0
 50
84.289406862499419
 51
90.0
  0
LINE
  5
47BC
  8
1外形線
 10
196.52780305056581
 20
20.489212356073381
 30
0.0
 11
196.52780305056581
 21
64.679237231848845
 31
0.0
  0
ARC
  5
47BD
  8
1外形線
 10
195.52780305056581
 20
20.489212356073381
 30
0.0
 40
1.0
 50
275.71059313750061
 51
0.0
  0
ARC
  5
47BE
  8
1外形線
 10
195.5278030505568
 20
31.084224793954661
 30
0.0
 40
1.0
 50
270.0
 51
0.0
  0
ARC
  5
47BF
  8
1外形線
 10
195.5278030505568
 20
54.08422479395454
 30
0.0
 40
1.0
 50
0.0
 51
90.0
  0
ARC
  5
47C0
  8
1外形線
 10
195.52780305056581
 20
64.679237231848845
 30
0.0
 40
1.0
 50
0.0
 51
84.289406862499419
  0
LINE
  5
47C1
  8
1外形線
 10
196.52780305056581
 20
365.28277881084938
 30
0.0
 11
196.52780305056581
 21
321.09275393507392
 31
0.0
  0
LINE
  5
47C2
  8
1外形線
 10
322.29504131051817
 20
225.4927526976106
 30
0.0
 11
259.79130994415061
 21
225.49275269761051
 31
0.0
  0
LINE
  5
47C3
  8
1外形線
 10
346.29504131051829
 20
180.99275269761111
 30
0.0
 11
248.2950413105238
 21
180.9927526976077
 31
0.0
  0
LINE
  5
47C4
  8
1外形線
 10
196.5278030505543
 20
181.3744653431776
 30
0.0
 11
196.5278030505543
 21
223.9694777810694
 31
0.0
  0
ARC
  5
47C5
  8
1外形線
 10
195.5278030505539
 20
223.96947778106949
 30
0.0
 40
1.0
 50
0.0
 51
84.289406862499419
  0
LINE
  5
47C6
  8
1外形線
 10
248.29504131052391
 20
180.99275269761091
 30
0.0
 11
248.29504131052391
 21
223.58776513550271
 31
0.0
  0
LINE
  5
47C7
  8
1外形線
 10
256.80619837352077
 20
225.34386840391471
 30
0.0
 11
249.19553759150321
 21
224.58280232571289
 31
0.0
  0
ARC
  5
47C8
  8
1外形線
 10
249.29504131052431
 20
223.58776513550279
 30
0.0
 40
1.0
 50
95.710593137500581
 51
180.0
  0
ARC
  5
47C9
  8
1外形線
 10
259.7913099441509
 20
195.492752697615
 30
0.0
 40
30.0
 50
90.0
 51
95.710593137500581
  0
ARC
  5
47CA
  8
1外形線
 10
322.2950413105184
 20
201.49275269761009
 30
0.0
 40
24.0
 50
0.0
 51
180.0
  0
ARC
  5
47CB
  8
1外形線
 10
322.2950413105184
 20
201.49275269761009
 30
0.0
 40
22.0
 50
0.0
 51
180.0
  0
LINE
  5
47CC
  8
1外形線
 10
311.29504131051732
 20
185.99275269761009
 30
0.0
 11
333.29504131051931
 21
185.9927526976102
 31
0.0
  0
LINE
  5
47CD
  8
1外形線
 10
334.79504131051931
 20
183.49275269761009
 30
0.0
 11
309.79504131051738
 21
183.4927526976104
 31
0.0
  0
LINE
  5
47CE
  8
1外形線
 10
300.29504131051817
 20
180.9927526976106
 30
0.0
 11
300.29504131051817
 21
201.49275269761009
 31
0.0
  0
LINE
  5
47CF
  8
1外形線
 10
298.29504131051817
 20
180.9927526976106
 30
0.0
 11
298.29504131051817
 21
201.49275269761009
 31
0.0
  0
LINE
  5
47D0
  8
1外形線
 10
311.29504131051749
 20
186.99275269760989
 30
0.0
 11
303.79504131051777
 21
186.99275269760989
 31
0.0
  0
LINE
  5
47D1
  8
1外形線
 10
303.79504131051777
 20
186.99275269760989
 30
0.0
 11
303.79504131051789
 21
189.28142783220579
 31
0.0
  0
LINE
  5
47D2
  8
1外形線
 10
300.29504131051789
 20
188.99275269761009
 30
0.0
 11
302.29504131051789
 21
190.14745323598939
 31
0.0
  0
ARC
  5
47D3
  8
1外形線
 10
302.79504131051789
 20
189.28142783220579
 30
0.0
 40
1.0
 50
0.0
 51
119.9999999999995
  0
LINE
  5
47D4
  8
1外形線
 10
311.29504131051749
 20
186.99275269760989
 30
0.0
 11
311.29504131051749
 21
185.99275269761009
 31
0.0
  0
LINE
  5
47D5
  8
1外形線
 10
309.79504131051738
 20
186.99275269761009
 30
0.0
 11
309.79504131051738
 21
183.49275269761009
 31
0.0
  0
LINE
  5
47D6
  8
1外形線
 10
344.29504131051829
 20
180.9927526976106
 30
0.0
 11
344.29504131051829
 21
201.49275269761009
 31
0.0
  0
LINE
  5
47D7
  8
1外形線
 10
346.29504131051829
 20
180.99275269761031
 30
0.0
 11
346.29504131051829
 21
201.49275269761009
 31
0.0
  0
LINE
  5
47D8
  8
1外形線
 10
334.79504131051931
 20
186.99275269761009
 30
0.0
 11
334.79504131051931
 21
183.49275269761009
 31
0.0
  0
LINE
  5
47D9
  8
1外形線
 10
333.29504131051931
 20
186.99275269760989
 30
0.0
 11
333.29504131051931
 21
185.99275269761009
 31
0.0
  0
LINE
  5
47DA
  8
1外形線
 10
344.2950413105188
 20
188.99275269761009
 30
0.0
 11
342.2950413105188
 21
190.14745323598939
 31
0.0
  0
LINE
  5
47DB
  8
1外形線
 10
340.7950413105188
 20
186.99275269761009
 30
0.0
 11
340.7950413105188
 21
189.28142783220579
 31
0.0
  0
LINE
  5
47DC
  8
1外形線
 10
340.7950413105188
 20
186.99275269761009
 30
0.0
 11
333.29504131051931
 21
186.99275269760989
 31
0.0
  0
ARC
  5
47DD
  8
1外形線
 10
341.7950413105188
 20
189.28142783220579
 30
0.0
 40
1.0
 50
60.000000000000419
 51
180.0
  0
ARC
  5
47DE
  8
1外形線
 10
195.52780305056581
 20
321.09275393507392
 30
0.0
 40
1.0
 50
275.71059313750061
 51
0.0
  0
ARC
  5
47DF
  8
1外形線
 10
195.52780305056581
 20
365.28277881084938
 30
0.0
 40
1.0
 50
0.0
 51
84.289406862499419
  0
ENDSEC
  0
EOF
