  0
SECTION
  2
HEADER
  9
$ACADVER
  1
AC1009
  9
$INSBASE
 10
0.0
 20
0.0
 30
0.0
  9
$EXTMIN
 10
24.99622914499696
 20
-25.750029856048059
 30
-0.0015258207003583
  9
$EXTMAX
 10
615.43703137683963
 20
408.08463664145091
 30
0.0000000349246037
  9
$LIMMIN
 10
0.0
 20
0.0
  9
$LIMMAX
 10
420.0
 20
297.0
  9
$ORTHOMODE
 70
     0
  9
$REGENMODE
 70
     1
  9
$FILLMODE
 70
     1
  9
$QTEXTMODE
 70
     0
  9
$MIRRTEXT
 70
     1
  9
$DRAGMODE
 70
     2
  9
$LTSCALE
 40
1.0
  9
$OSMODE
 70
    37
  9
$ATTMODE
 70
     1
  9
$TEXTSIZE
 40
2.5
  9
$TRACEWID
 40
1.0
  9
$TEXTSTYLE
  7
STANDARD
  9
$CLAYER
  8
0
  9
$CELTYPE
  6
BYLAYER
  9
$CECOLOR
 62
   256
  9
$DIMSCALE
 40
1.0
  9
$DIMASZ
 40
2.5
  9
$DIMEXO
 40
0.625
  9
$DIMDLI
 40
3.75
  9
$DIMRND
 40
0.0
  9
$DIMDLE
 40
0.0
  9
$DIMEXE
 40
1.25
  9
$DIMTP
 40
0.0
  9
$DIMTM
 40
0.0
  9
$DIMTXT
 40
2.5
  9
$DIMCEN
 40
2.5
  9
$DIMTSZ
 40
0.0
  9
$DIMTOL
 70
     0
  9
$DIMLIM
 70
     0
  9
$DIMTIH
 70
     0
  9
$DIMTOH
 70
     0
  9
$DIMSE1
 70
     0
  9
$DIMSE2
 70
     0
  9
$DIMTAD
 70
     1
  9
$DIMZIN
 70
     8
  9
$DIMBLK
  1

  9
$DIMASO
 70
     1
  9
$DIMSHO
 70
     1
  9
$DIMPOST
  1

  9
$DIMAPOST
  1

  9
$DIMALT
 70
     0
  9
$DIMALTD
 70
     3
  9
$DIMALTF
 40
0.03937007874016
  9
$DIMLFAC
 40
1.0
  9
$DIMTOFL
 70
     1
  9
$DIMTVP
 40
0.0
  9
$DIMTIX
 70
     0
  9
$DIMSOXD
 70
     0
  9
$DIMSAH
 70
     0
  9
$DIMBLK1
  1

  9
$DIMBLK2
  1

  9
$DIMSTYLE
  2
ISO-25
  9
$DIMCLRD
 70
     0
  9
$DIMCLRE
 70
     0
  9
$DIMCLRT
 70
     0
  9
$DIMTFAC
 40
1.0
  9
$DIMGAP
 40
0.625
  9
$LUNITS
 70
     2
  9
$LUPREC
 70
     4
  9
$SKETCHINC
 40
1.0
  9
$FILLETRAD
 40
10.0
  9
$AUNITS
 70
     0
  9
$AUPREC
 70
     0
  9
$MENU
  1
.
  9
$ELEVATION
 40
0.0
  9
$PELEVATION
 40
0.0
  9
$THICKNESS
 40
0.0
  9
$LIMCHECK
 70
     0
  9
$BLIPMODE
 70
     0
  9
$CHAMFERA
 40
10.0
  9
$CHAMFERB
 40
10.0
  9
$SKPOLY
 70
     0
  9
$TDCREATE
 40
2452048.587873715
  9
$TDUPDATE
 40
2452048.5969100799
  9
$TDINDWG
 40
0.0090382292
  9
$TDUSRTIMER
 40
0.0090382292
  9
$USRTIMER
 70
     1
  9
$ANGBASE
 50
0.0
  9
$ANGDIR
 70
     0
  9
$PDMODE
 70
     0
  9
$PDSIZE
 40
0.0
  9
$PLINEWID
 40
0.0
  9
$COORDS
 70
     1
  9
$SPLFRAME
 70
     0
  9
$SPLINETYPE
 70
     6
  9
$SPLINESEGS
 70
     8
  9
$ATTDIA
 70
     0
  9
$ATTREQ
 70
     1
  9
$HANDLING
 70
-16383
  9
$HANDSEED
  5
4954
  9
$SURFTAB1
 70
     6
  9
$SURFTAB2
 70
     6
  9
$SURFTYPE
 70
     6
  9
$SURFU
 70
     6
  9
$SURFV
 70
     6
  9
$UCSNAME
  2

  9
$UCSORG
 10
0.0
 20
0.0
 30
0.0
  9
$UCSXDIR
 10
1.0
 20
0.0
 30
0.0
  9
$UCSYDIR
 10
0.0
 20
1.0
 30
0.0
  9
$PUCSNAME
  2

  9
$PUCSORG
 10
0.0
 20
0.0
 30
0.0
  9
$PUCSXDIR
 10
1.0
 20
0.0
 30
0.0
  9
$PUCSYDIR
 10
0.0
 20
1.0
 30
0.0
  9
$USERI1
 70
     0
  9
$USERI2
 70
     0
  9
$USERI3
 70
     0
  9
$USERI4
 70
     0
  9
$USERI5
 70
     0
  9
$USERR1
 40
0.0
  9
$USERR2
 40
0.0
  9
$USERR3
 40
0.0
  9
$USERR4
 40
0.0
  9
$USERR5
 40
0.0
  9
$WORLDVIEW
 70
     1
  9
$SHADEDGE
 70
     3
  9
$SHADEDIF
 70
    70
  9
$TILEMODE
 70
     1
  9
$MAXACTVP
 70
    64
  9
$PLIMCHECK
 70
     0
  9
$PEXTMIN
 10
1.0000000000000000E+020
 20
1.0000000000000000E+020
 30
1.0000000000000000E+020
  9
$PEXTMAX
 10
-1.0000000000000000E+020
 20
-1.0000000000000000E+020
 30
-1.0000000000000000E+020
  9
$PLIMMIN
 10
0.0
 20
0.0
  9
$PLIMMAX
 10
420.0
 20
297.0
  9
$UNITMODE
 70
     0
  9
$VISRETAIN
 70
     1
  9
$PLINEGEN
 70
     0
  9
$PSLTSCALE
 70
     1
  0
ENDSEC
  0
SECTION
  2
TABLES
  0
TABLE
  2
VPORT
 70
    21
  0
VPORT
  2
*ACTIVE
 70
     0
 10
0.0
 20
0.0
 11
1.0
 21
1.0
 12
243.19809294536361
 22
20.724196922940902
 13
0.0
 23
0.0
 14
10.0
 24
10.0
 15
10.0
 25
10.0
 16
0.0
 26
0.0
 36
1.0
 17
0.0
 27
0.0
 37
0.0
 40
1136.324782680095
 41
0.8452830188679245
 42
50.0
 43
0.0
 44
0.0
 50
0.0
 51
0.0
 71
     0
 72
   100
 73
     1
 74
     3
 75
     0
 76
     0
 77
     0
 78
     0
  0
ENDTAB
  0
TABLE
  2
LTYPE
 70
     1
  0
LTYPE
  2
CONTINUOUS
 70
     0
  3
Solid line
 72
    65
 73
     0
 40
0.0
  0
ENDTAB
  0
TABLE
  2
LAYER
 70
     2
  0
LAYER
  2
0
 70
     0
 62
     7
  6
CONTINUOUS
  0
LAYER
  2
1外形線
 70
     0
 62
     3
  6
CONTINUOUS
  0
ENDTAB
  0
TABLE
  2
STYLE
 70
     2
  0
STYLE
  2
STANDARD
 70
     0
 40
0.0
 41
1.0
 50
0.0
 71
     0
 42
2.5
  3
txt
  4

  0
STYLE
  2
KANJI
 70
     0
 40
0.0
 41
1.0
 50
0.0
 71
     0
 42
10.0
  3
simplex
  4
bigfont
  0
ENDTAB
  0
TABLE
  2
VIEW
 70
     0
  0
ENDTAB
  0
TABLE
  2
UCS
 70
     0
  0
ENDTAB
  0
TABLE
  2
APPID
 70
     1
  0
APPID
  2
ACAD
 70
     0
  0
ENDTAB
  0
TABLE
  2
DIMSTYLE
 70
     2
  0
DIMSTYLE
  2
ISO-25
 70
     0
  3

  4

  5

  6

  7

 40
1.0
 41
2.5
 42
0.625
 43
3.75
 44
1.25
 45
0.0
 46
0.0
 47
0.0
 48
0.0
140
2.5
141
2.5
142
0.0
143
0.03937007874016
144
1.0
145
0.0
146
1.0
147
0.625
 71
     0
 72
     0
 73
     0
 74
     0
 75
     0
 76
     0
 77
     1
 78
     8
170
     0
171
     3
172
     1
173
     0
174
     0
175
     0
176
     0
177
     0
178
     0
  0
DIMSTYLE
  2
STANDARD
 70
     0
  3

  4

  5

  6
1
  7
1
 40
1.0
 41
1.0
 42
1.0
 43
6.0
 44
1.0
 45
0.0
 46
0.0
 47
0.0
 48
0.0
140
2.5
141
0.0
142
0.0
143
25.399999999999999
144
1.0
145
0.0
146
1.0
147
0.5
 71
     0
 72
     0
 73
     0
 74
     0
 75
     0
 76
     0
 77
     1
 78
     8
170
     0
171
     2
172
     1
173
     1
174
     0
175
     0
176
     0
177
     0
178
     0
  0
ENDTAB
  0
ENDSEC
  0
SECTION
  2
BLOCKS
  0
BLOCK
  8
0
  2
$MODEL_SPACE
 70
     0
 10
0.0
 20
0.0
 30
0.0
  3
$MODEL_SPACE
  1

  0
ENDBLK
  5
21
  8
0
  0
BLOCK
 67
     1
  8
0
  2
$PAPER_SPACE
 70
     0
 10
0.0
 20
0.0
 30
0.0
  3
$PAPER_SPACE
  1

  0
ENDBLK
  5
1D
 67
     1
  8
0
  0
BLOCK
  8
0
  2
1
 70
     0
 10
0.0
 20
0.0
 30
0.0
  3
1
  1

  0
SOLID
  5
2C
  8
0
  6
BYBLOCK
 62
     0
 10
-1.811110924292052
 20
0.4852857095671653
 30
0.0
 11
-1.811110924292052
 21
-0.4852857095673642
 31
0.0
 12
0.0
 22
0.0
 32
0.0
 13
0.0
 23
0.0
 33
0.0
  0
ENDBLK
  5
2E
  8
0
  0
ENDSEC
  0
SECTION
  2
ENTITIES
  0
LINE
  5
489C
  8
1外形線
 10
186.0885704621069
 20
33.584355849104611
 30
0.0
 11
145.6885704621053
 21
33.58435584910444
 31
0.0
  0
LINE
  5
489D
  8
1外形線
 10
186.0885704621069
 20
97.984355849104716
 30
0.0
 11
165.68857046210681
 21
97.984355849104873
 31
0.0
  0
LINE
  5
489E
  8
1外形線
 10
187.40100835002161
 20
102.2846284824262
 30
0.0
 11
162.88884309542939
 21
102.2846284824262
 31
0.0
  0
LINE
  5
489F
  8
1外形線
 10
61.376132574193093
 20
29.284083215780349
 30
0.0
 11
187.40100835001959
 21
29.284083215780459
 31
0.0
  0
LINE
  5
48A0
  8
1外形線
 10
202.3885704621101
 20
100.2843558491046
 30
0.0
 11
162.8885704621074
 21
100.2843558491044
 31
0.0
  0
LINE
  5
48A1
  8
1外形線
 10
46.388570462102159
 20
31.284355849104479
 30
0.0
 11
202.3885704621099
 21
31.28435584910482
 31
0.0
  0
LINE
  5
48A2
  8
1外形線
 10
61.388570462103303
 20
31.384355849104619
 30
0.0
 11
61.388570462103303
 21
100.1843558491047
 31
0.0
  0
LINE
  5
48A3
  8
1外形線
 10
46.388570462102393
 20
31.189070777892869
 30
0.0
 11
46.388570462102621
 21
100.3796409203141
 31
0.0
  0
LINE
  5
48A4
  8
1外形線
 10
62.68857046210325
 20
33.584355849104611
 30
0.0
 11
103.0885704621049
 21
33.58435584910444
 31
0.0
  0
ARC
  5
48A5
  8
1外形線
 10
61.376132574193093
 20
129.2840832157803
 30
0.0
 40
100.0
 50
264.28940686249609
 51
270.0
  0
LINE
  5
48A6
  8
1外形線
 10
51.425760672090632
 20
29.780364194781779
 30
0.0
 11
47.2890667430812
 21
30.194033587682839
 31
0.0
  0
ARC
  5
48A7
  8
1外形線
 10
47.388570462102393
 20
31.189070777892869
 30
0.0
 40
1.0
 50
180.0
 51
264.28940686249609
  0
LINE
  5
48A8
  8
1外形線
 10
62.68857046210325
 20
31.384355849104619
 30
0.0
 11
62.68857046210325
 21
33.584355849104611
 31
0.0
  0
LINE
  5
48A9
  8
1外形線
 10
103.0885704621049
 20
33.58435584910444
 30
0.0
 11
103.0885704621049
 21
31.384355849104391
 31
0.0
  0
LINE
  5
48AA
  8
1外形線
 10
145.6885704621053
 20
33.58435584910444
 30
0.0
 11
145.6885704621053
 21
31.384355849104391
 31
0.0
  0
LINE
  5
48AB
  8
1外形線
 10
62.68857046210325
 20
97.984355849104716
 30
0.0
 11
83.088570462103334
 21
97.984355849104873
 31
0.0
  0
LINE
  5
48AC
  8
1外形線
 10
61.376132574190819
 20
102.2846284824262
 30
0.0
 11
85.888297828783038
 21
102.2846284824262
 31
0.0
  0
LINE
  5
48AD
  8
1外形線
 10
46.388570462102393
 20
100.2843558491046
 30
0.0
 11
85.888570462105108
 21
100.2843558491044
 31
0.0
  0
ARC
  5
48AE
  8
1外形線
 10
80.788570462106577
 20
45.784355849107207
 30
0.0
 40
2.0999999999999992
 50
270.0
 51
90.0
  0
ARC
  5
48AF
  8
1外形線
 10
80.788570462106577
 20
85.784355849102226
 30
0.0
 40
2.0999999999999992
 50
270.0
 51
90.0
  0
LINE
  5
48B0
  8
1外形線
 10
61.388570462103303
 20
44.784355849105161
 30
0.0
 11
47.388570462103303
 21
44.784355849105047
 31
0.0
  0
ARC
  5
48B1
  8
1外形線
 10
47.388570462103303
 20
45.784355849105502
 30
0.0
 40
1.0
 50
180.0
 51
270.0
  0
LINE
  5
48B2
  8
1外形線
 10
75.98857046210685
 20
43.684355849107078
 30
0.0
 11
80.788570462106577
 21
43.684355849107078
 31
0.0
  0
LINE
  5
48B3
  8
1外形線
 10
75.98857046210685
 20
47.884355849107003
 30
0.0
 11
80.788570462106577
 21
47.884355849107003
 31
0.0
  0
ARC
  5
48B4
  8
1外形線
 10
75.98857046210685
 20
45.784355849107207
 30
0.0
 40
2.0999999999999992
 50
90.0
 51
270.0
  0
LINE
  5
48B5
  8
1外形線
 10
61.388570462103303
 20
86.784355849104358
 30
0.0
 11
47.388570462103303
 21
86.784355849104486
 31
0.0
  0
ARC
  5
48B6
  8
1外形線
 10
47.388570462103303
 20
85.784355849104031
 30
0.0
 40
1.0
 50
90.0
 51
180.0
  0
LINE
  5
48B7
  8
1外形線
 10
75.98857046210685
 20
83.684355849102417
 30
0.0
 11
80.788570462106577
 21
83.684355849102417
 31
0.0
  0
LINE
  5
48B8
  8
1外形線
 10
75.98857046210685
 20
87.884355849102349
 30
0.0
 11
80.788570462106577
 21
87.884355849102349
 31
0.0
  0
ARC
  5
48B9
  8
1外形線
 10
75.98857046210685
 20
85.784355849102226
 30
0.0
 40
2.0999999999999992
 50
90.0
 51
270.0
  0
ARC
  5
48BA
  8
1外形線
 10
61.376132574190819
 20
2.284628482426228
 30
0.0
 40
100.0
 50
90.0
 51
95.710593137497327
  0
LINE
  5
48BB
  8
1外形線
 10
51.425760672090632
 20
101.7883475034251
 30
0.0
 11
47.2890667430812
 21
101.3746781105242
 31
0.0
  0
ARC
  5
48BC
  8
1外形線
 10
47.388570462102393
 20
100.3796409203141
 30
0.0
 40
1.0
 50
95.710593137503864
 51
180.0
  0
LINE
  5
48BD
  8
1外形線
 10
62.68857046210325
 20
97.984355849104716
 30
0.0
 11
62.68857046210325
 21
100.1843558491047
 31
0.0
  0
CIRCLE
  5
48BE
  8
1外形線
 10
124.38857046210509
 20
65.784355849104713
 30
0.0
 40
2.1000000000000001
  0
LINE
  5
48BF
  8
1外形線
 10
172.78857046210561
 20
43.684355849107078
 30
0.0
 11
167.98857046210591
 21
43.684355849107078
 31
0.0
  0
LINE
  5
48C0
  8
1外形線
 10
172.78857046210561
 20
47.884355849107003
 30
0.0
 11
167.98857046210591
 21
47.884355849107003
 31
0.0
  0
ARC
  5
48C1
  8
1外形線
 10
172.78857046210561
 20
45.784355849107207
 30
0.0
 40
2.0999999999999992
 50
270.0
 51
90.0
  0
ARC
  5
48C2
  8
1外形線
 10
167.98857046210591
 20
45.784355849107207
 30
0.0
 40
2.0999999999999992
 50
90.0
 51
270.0
  0
ARC
  5
48C3
  8
1外形線
 10
172.78857046210561
 20
85.784355849102226
 30
0.0
 40
2.0999999999999992
 50
270.0
 51
90.0
  0
LINE
  5
48C4
  8
1外形線
 10
172.78857046210561
 20
87.884355849102349
 30
0.0
 11
167.98857046210591
 21
87.884355849102349
 31
0.0
  0
LINE
  5
48C5
  8
1外形線
 10
172.78857046210561
 20
83.684355849102417
 30
0.0
 11
167.98857046210591
 21
83.684355849102417
 31
0.0
  0
ARC
  5
48C6
  8
1外形線
 10
167.98857046210591
 20
85.784355849102226
 30
0.0
 40
2.0999999999999992
 50
90.0
 51
270.0
  0
LINE
  5
48C7
  8
1外形線
 10
158.98385553331701
 20
143.784355849105
 30
0.0
 11
89.793285390895448
 21
143.7843558491073
 31
0.0
  0
LINE
  5
48C8
  8
1外形線
 10
89.988570462108669
 20
128.7843558491069
 30
0.0
 11
158.78857046210379
 21
128.78435584910571
 31
0.0
  0
LINE
  5
48C9
  8
1外形線
 10
92.188570462108714
 20
127.4843558491069
 30
0.0
 11
92.188570462108032
 21
107.084355849107
 31
0.0
  0
LINE
  5
48CA
  8
1外形線
 10
89.888570462106244
 20
143.78435584910699
 30
0.0
 11
89.888570462105122
 21
104.2843558491043
 31
0.0
  0
LINE
  5
48CB
  8
1外形線
 10
87.888297828783038
 20
128.79679373701521
 30
0.0
 11
87.888297828783038
 21
104.2846284824262
 31
0.0
  0
ARC
  5
48CC
  8
1外形線
 10
104.38857046211081
 20
109.3843558491057
 30
0.0
 40
2.0999999999999992
 50
180.0
 51
0.0
  0
ARC
  5
48CD
  8
1外形線
 10
104.38857046211081
 20
114.1843558491057
 30
0.0
 40
2.0999999999999992
 50
0.0
 51
180.0
  0
LINE
  5
48CE
  8
1外形線
 10
83.088570462103334
 20
97.984355849104873
 30
0.0
 11
83.088570462103334
 21
100.1843558491049
 31
0.0
  0
LINE
  5
48CF
  8
1外形線
 10
92.188570462108032
 20
107.084355849107
 30
0.0
 11
89.988570462107987
 21
107.0843558491071
 31
0.0
  0
ARC
  5
48D0
  8
1外形線
 10
85.888570462105108
 20
104.2843558491044
 30
0.0
 40
4.0
 50
270.0
 51
359.99999999999829
  0
ARC
  5
48D1
  8
1外形線
 10
85.888297828783038
 20
104.2846284824262
 30
0.0
 40
2.0
 50
270.0
 51
0.0
  0
LINE
  5
48D2
  8
1外形線
 10
102.2885704621106
 20
114.1843558491057
 30
0.0
 11
102.2885704621106
 21
109.3843558491057
 31
0.0
  0
LINE
  5
48D3
  8
1外形線
 10
106.4885704621104
 20
114.1843558491057
 30
0.0
 11
106.4885704621104
 21
109.3843558491057
 31
0.0
  0
ARC
  5
48D4
  8
1外形線
 10
187.88829782878301
 20
128.79679373701521
 30
0.0
 40
100.0
 50
174.2894068624995
 51
180.0
  0
LINE
  5
48D5
  8
1外形線
 10
103.3885704621092
 20
128.78435584910679
 30
0.0
 11
103.3885704621094
 21
142.7843558491067
 31
0.0
  0
LINE
  5
48D6
  8
1外形線
 10
89.988570462108669
 20
127.4843558491069
 30
0.0
 11
92.188570462108942
 21
127.4843558491069
 31
0.0
  0
LINE
  5
48D7
  8
1外形線
 10
88.384578807784351
 20
138.74716563911781
 30
0.0
 11
88.798248200685407
 21
142.88385956812709
 31
0.0
  0
ARC
  5
48D8
  8
1外形線
 10
89.793285390895448
 20
142.78435584910599
 30
0.0
 40
1.0
 50
90.0
 51
174.2894068624995
  0
ARC
  5
48D9
  8
1外形線
 10
104.3885704621098
 20
142.7843558491067
 30
0.0
 40
1.0
 50
90.0
 51
179.99999999999829
  0
LINE
  5
48DA
  8
1外形線
 10
156.5885704621038
 20
127.4843558491058
 30
0.0
 11
156.58857046210471
 21
107.0843558491071
 31
0.0
  0
LINE
  5
48DB
  8
1外形線
 10
160.88884309542939
 20
128.79679373701521
 30
0.0
 11
160.88884309542939
 21
104.2846284824262
 31
0.0
  0
LINE
  5
48DC
  8
1外形線
 10
158.8885704621062
 20
143.78435584910699
 30
0.0
 11
158.88857046210731
 21
104.2843558491043
 31
0.0
  0
ARC
  5
48DD
  8
1外形線
 10
144.38857046210191
 20
109.3843558491057
 30
0.0
 40
2.0999999999999992
 50
180.0
 51
0.0
  0
ARC
  5
48DE
  8
1外形線
 10
144.38857046210191
 20
114.1843558491057
 30
0.0
 40
2.0999999999999992
 50
0.0
 51
180.0
  0
LINE
  5
48DF
  8
1外形線
 10
146.48857046210179
 20
114.1843558491057
 30
0.0
 11
146.48857046210179
 21
109.3843558491057
 31
0.0
  0
LINE
  5
48E0
  8
1外形線
 10
142.2885704621018
 20
114.1843558491057
 30
0.0
 11
142.2885704621018
 21
109.3843558491057
 31
0.0
  0
LINE
  5
48E1
  8
1外形線
 10
156.58857046210471
 20
107.0843558491071
 30
0.0
 11
158.7885704621045
 21
107.0843558491071
 31
0.0
  0
ARC
  5
48E2
  8
1外形線
 10
162.8885704621074
 20
104.2843558491044
 30
0.0
 40
4.0
 50
180.00000000000159
 51
270.0
  0
ARC
  5
48E3
  8
1外形線
 10
162.88884309542939
 20
104.2846284824262
 30
0.0
 40
2.0
 50
180.0
 51
270.0
  0
LINE
  5
48E4
  8
1外形線
 10
165.68857046210681
 20
97.984355849104873
 30
0.0
 11
165.68857046210681
 21
100.1843558491049
 31
0.0
  0
LINE
  5
48E5
  8
1外形線
 10
145.38857046210319
 20
128.78435584910679
 30
0.0
 11
145.38857046210299
 21
142.7843558491067
 31
0.0
  0
ARC
  5
48E6
  8
1外形線
 10
144.38857046210259
 20
142.7843558491067
 30
0.0
 40
1.0
 50
0.0000000000016284
 51
90.0
  0
ARC
  5
48E7
  8
1外形線
 10
60.888843095429472
 20
128.79679373701521
 30
0.0
 40
100.0
 50
0.0
 51
5.7105931375002079
  0
LINE
  5
48E8
  8
1外形線
 10
156.5885704621038
 20
127.4843558491058
 30
0.0
 11
158.78857046210379
 21
127.4843558491057
 31
0.0
  0
LINE
  5
48E9
  8
1外形線
 10
160.39256211642811
 20
138.74716563911781
 30
0.0
 11
159.97889272352711
 21
142.88385956812709
 31
0.0
  0
ARC
  5
48EA
  8
1外形線
 10
158.98385553331701
 20
142.78435584910599
 30
0.0
 40
1.0
 50
5.7105931375002079
 51
90.0
  0
LINE
  5
48EB
  8
1外形線
 10
202.3885704621101
 20
31.189070777892869
 30
0.0
 11
202.3885704621099
 21
100.3796409203141
 31
0.0
  0
LINE
  5
48EC
  8
1外形線
 10
187.38857046210691
 20
31.384355849104619
 30
0.0
 11
187.38857046210691
 21
100.1843558491047
 31
0.0
  0
LINE
  5
48ED
  8
1外形線
 10
197.3513802521218
 20
29.780364194781779
 30
0.0
 11
201.48807418113131
 21
30.194033587682839
 31
0.0
  0
ARC
  5
48EE
  8
1外形線
 10
187.4010083500194
 20
129.2840832157803
 30
0.0
 40
100.0
 50
270.0
 51
275.71059313750379
  0
LINE
  5
48EF
  8
1外形線
 10
186.0885704621069
 20
31.384355849104619
 30
0.0
 11
186.0885704621069
 21
33.584355849104611
 31
0.0
  0
ARC
  5
48F0
  8
1外形線
 10
201.3885704621101
 20
31.189070777892869
 30
0.0
 40
1.0
 50
275.71059313750379
 51
0.0
  0
LINE
  5
48F1
  8
1外形線
 10
187.38857046210691
 20
44.784355849105161
 30
0.0
 11
201.38857046210691
 21
44.784355849105047
 31
0.0
  0
ARC
  5
48F2
  8
1外形線
 10
201.38857046210691
 20
45.784355849105502
 30
0.0
 40
1.0
 50
270.0
 51
0.0
  0
LINE
  5
48F3
  8
1外形線
 10
187.38857046210691
 20
86.784355849104358
 30
0.0
 11
201.38857046210691
 21
86.784355849104486
 31
0.0
  0
ARC
  5
48F4
  8
1外形線
 10
201.38857046210691
 20
85.784355849104031
 30
0.0
 40
1.0
 50
0.0
 51
90.0
  0
LINE
  5
48F5
  8
1外形線
 10
197.3513802521218
 20
101.7883475034251
 30
0.0
 11
201.48807418113131
 21
101.3746781105242
 31
0.0
  0
ARC
  5
48F6
  8
1外形線
 10
187.40100835002161
 20
2.284628482426228
 30
0.0
 40
100.0
 50
84.289406862502673
 51
90.0
  0
LINE
  5
48F7
  8
1外形線
 10
186.0885704621069
 20
97.984355849104716
 30
0.0
 11
186.0885704621069
 21
100.1843558491047
 31
0.0
  0
ARC
  5
48F8
  8
1外形線
 10
201.3885704621101
 20
100.3796409203141
 30
0.0
 40
1.0
 50
0.0
 51
84.289406862496136
  0
LINE
  5
48F9
  8
1外形線
 10
187.4010083500178
 20
261.1644045823985
 30
0.0
 11
61.376132574194003
 21
261.16440458239759
 31
0.0
  0
LINE
  5
48FA
  8
1外形線
 10
202.3885704621089
 20
195.1644045823993
 30
0.0
 11
46.38857046210353
 21
195.16440458239811
 31
0.0
  0
LINE
  5
48FB
  8
1外形線
 10
187.4010083500194
 20
408.08463664145091
 30
0.0
 11
61.376132574192859
 21
408.08463664145069
 31
0.0
  0
LINE
  5
48FC
  8
1外形線
 10
187.40100835002161
 20
335.0840913748051
 30
0.0
 11
162.88884309542939
 21
335.0840913748051
 31
0.0
  0
LINE
  5
48FD
  8
1外形線
 10
46.388570462102159
 20
406.1796490793385
 30
0.0
 11
46.388570462102393
 21
336.98907893691711
 31
0.0
  0
LINE
  5
48FE
  8
1外形線
 10
46.388570462105569
 20
259.25941702028592
 30
0.0
 11
46.38857046210353
 21
195.16440458239811
 31
0.0
  0
ARC
  5
48FF
  8
1外形線
 10
124.3885704621062
 20
225.16440458239811
 30
0.0
 40
34.0
 50
0.9459919373400703
 51
179.0540080626599
  0
ARC
  5
4900
  8
1外形線
 10
124.3885704621062
 20
225.16440458239811
 30
0.0
 40
36.0
 50
0.9459919373400703
 51
179.0540080626599
  0
LINE
  5
4901
  8
1外形線
 10
143.88857046210671
 20
201.16440458239811
 30
0.0
 11
143.88857046210671
 21
199.6644045823985
 31
0.0
  0
LINE
  5
4902
  8
1外形線
 10
145.38857046210671
 20
201.1644045823983
 30
0.0
 11
145.38857046210671
 21
197.6644045823983
 31
0.0
  0
LINE
  5
4903
  8
1外形線
 10
158.8885704621062
 20
195.16440458239811
 30
0.0
 11
158.3839363273276
 21
225.72574199406961
 31
0.0
  0
LINE
  5
4904
  8
1外形線
 10
160.888843095429
 20
195.16440458239811
 30
0.0
 11
160.38366373116429
 21
225.75876184181459
 31
0.0
  0
LINE
  5
4905
  8
1外形線
 10
104.8885704621064
 20
201.16440458239811
 30
0.0
 11
104.8885704621067
 21
199.66440458239811
 31
0.0
  0
LINE
  5
4906
  8
1外形線
 10
103.3885704621064
 20
201.1644045823983
 30
0.0
 11
103.3885704621064
 21
197.6644045823983
 31
0.0
  0
LINE
  5
4907
  8
1外形線
 10
89.888570462106244
 20
195.16440458239811
 30
0.0
 11
90.393204596884857
 21
225.72574199406961
 31
0.0
  0
LINE
  5
4908
  8
1外形線
 10
87.888297828783493
 20
195.16440458239811
 30
0.0
 11
88.393477193048156
 21
225.75876184181459
 31
0.0
  0
LINE
  5
4909
  8
1外形線
 10
145.38857046210671
 20
197.6644045823983
 30
0.0
 11
103.3885704621064
 21
197.6644045823983
 31
0.0
  0
LINE
  5
490A
  8
1外形線
 10
143.88857046210671
 20
199.6644045823985
 30
0.0
 11
104.8885704621067
 21
199.66440458239811
 31
0.0
  0
LINE
  5
490B
  8
1外形線
 10
104.8885704621067
 20
201.16440458239811
 30
0.0
 11
93.688570462106213
 21
201.1644045823983
 31
0.0
  0
ARC
  5
490C
  8
1外形線
 10
92.688570462106213
 20
203.66440458239941
 30
0.0
 40
1.0
 50
0.0
 51
124.4034017438393
  0
LINE
  5
490D
  8
1外形線
 10
90.018747574909284
 20
203.04810961435291
 30
0.0
 11
92.123554471343255
 21
204.48948453621151
 31
0.0
  0
LINE
  5
490E
  8
1外形線
 10
93.688570462106213
 20
201.16440458239811
 30
0.0
 11
93.688570462106213
 21
203.66440458239941
 31
0.0
  0
LINE
  5
490F
  8
1外形線
 10
155.0885704621063
 20
201.1644045823983
 30
0.0
 11
143.88857046210671
 21
201.16440458239811
 31
0.0
  0
ARC
  5
4910
  8
1外形線
 10
156.0885704621063
 20
203.66440458239941
 30
0.0
 40
1.0
 50
55.596598256160618
 51
180.0
  0
LINE
  5
4911
  8
1外形線
 10
158.75839334930319
 20
203.04810961435291
 30
0.0
 11
156.65358645286921
 21
204.48948453621151
 31
0.0
  0
LINE
  5
4912
  8
1外形線
 10
155.0885704621063
 20
201.16440458239811
 30
0.0
 11
155.0885704621063
 21
203.66440458239941
 31
0.0
  0
LINE
  5
4913
  8
1外形線
 10
61.376132574190819
 20
335.0840913748051
 30
0.0
 11
85.888297828783038
 21
335.0840913748051
 31
0.0
  0
ARC
  5
4914
  8
1外形線
 10
61.376132574194003
 20
161.16440458239759
 30
0.0
 40
100.0
 50
90.0
 51
95.710593137497327
  0
LINE
  5
4915
  8
1外形線
 10
51.425760672092679
 20
260.66812360339628
 30
0.0
 11
47.289066743084611
 21
260.25445421049591
 31
0.0
  0
ARC
  5
4916
  8
1外形線
 10
47.388570462105797
 20
259.25941702028592
 30
0.0
 40
1.0
 50
95.710593137503864
 51
180.0
  0
ARC
  5
4917
  8
1外形線
 10
61.376132574190819
 20
435.0840913748051
 30
0.0
 40
100.0
 50
264.28940686250257
 51
270.0
  0
LINE
  5
4918
  8
1外形線
 10
51.425760672090632
 20
335.5803723538063
 30
0.0
 11
47.2890667430812
 21
335.99404174670713
 31
0.0
  0
ARC
  5
4919
  8
1外形線
 10
47.388570462102393
 20
336.98907893691711
 30
0.0
 40
1.0
 50
180.0
 51
264.28940686249609
  0
ARC
  5
491A
  8
1外形線
 10
187.88829782878301
 20
308.57192612021601
 30
0.0
 40
100.0
 50
180.0
 51
185.71059313750021
  0
ARC
  5
491B
  8
1外形線
 10
60.888843095429472
 20
308.57192612021601
 30
0.0
 40
100.0
 50
354.28940686249962
 51
0.0
  0
LINE
  5
491C
  8
1外形線
 10
89.793285390895448
 20
293.58436400812599
 30
0.0
 11
158.98385553331701
 21
293.58436400812423
 31
0.0
  0
ARC
  5
491D
  8
1外形線
 10
89.793285390895448
 20
294.58436400812519
 30
0.0
 40
1.0
 50
185.71059313750021
 51
270.0
  0
LINE
  5
491E
  8
1外形線
 10
88.384578807784351
 20
298.62155421811337
 30
0.0
 11
88.798248200685407
 21
294.48486028910412
 31
0.0
  0
ARC
  5
491F
  8
1外形線
 10
158.98385553331701
 20
294.58436400812519
 30
0.0
 40
1.0
 50
270.0
 51
354.28940686249962
  0
LINE
  5
4920
  8
1外形線
 10
160.39256211642811
 20
298.62155421811337
 30
0.0
 11
159.97889272352711
 21
294.48486028910412
 31
0.0
  0
LINE
  5
4921
  8
1外形線
 10
87.888297828783038
 20
308.57192612021601
 30
0.0
 11
87.888297828783038
 21
333.0840913748051
 31
0.0
  0
ARC
  5
4922
  8
1外形線
 10
85.888297828783038
 20
333.0840913748051
 30
0.0
 40
2.0
 50
0.0
 51
90.0
  0
LINE
  5
4923
  8
1外形線
 10
160.88884309542939
 20
308.57192612021601
 30
0.0
 11
160.88884309542939
 21
333.0840913748051
 31
0.0
  0
ARC
  5
4924
  8
1外形線
 10
162.88884309542939
 20
333.0840913748051
 30
0.0
 40
2.0
 50
90.0
 51
180.0
  0
ARC
  5
4925
  8
1外形線
 10
61.376132574193093
 20
308.08463664145091
 30
0.0
 40
100.0
 50
90.0
 51
95.710593137503864
  0
LINE
  5
4926
  8
1外形線
 10
51.425760672090632
 20
407.5883556624496
 30
0.0
 11
47.2890667430812
 21
407.17468626954849
 31
0.0
  0
ARC
  5
4927
  8
1外形線
 10
47.388570462102393
 20
406.1796490793385
 30
0.0
 40
1.0
 50
95.710593137503864
 51
180.0
  0
LINE
  5
4928
  8
1外形線
 10
202.38857046211029
 20
406.1796490793385
 30
0.0
 11
202.3885704621101
 21
336.98907893691711
 31
0.0
  0
LINE
  5
4929
  8
1外形線
 10
373.3308309104828
 20
195.16440458239899
 30
0.0
 11
258.83055827715731
 21
195.16440458239811
 31
0.0
  0
ARC
  5
492A
  8
1外形線
 10
336.83055827715981
 20
225.16440458239791
 30
0.0
 40
36.0
 50
0.9459919373400703
 51
179.0540080626599
  0
ARC
  5
492B
  8
1外形線
 10
336.83055827715981
 20
225.16440458239791
 30
0.0
 40
34.0
 50
0.9459919373400703
 51
179.0540080626599
  0
LINE
  5
492C
  8
1外形線
 10
367.53055827716008
 20
201.1644045823983
 30
0.0
 11
356.33055827716049
 21
201.16440458239811
 31
0.0
  0
LINE
  5
492D
  8
1外形線
 10
202.38857046210691
 20
259.25941702028592
 30
0.0
 11
202.3885704621089
 21
195.16440458239811
 31
0.0
  0
LINE
  5
492E
  8
1外形線
 10
258.83055827715941
 20
259.25941702028592
 30
0.0
 11
258.83055827715731
 21
195.16440458239811
 31
0.0
  0
LINE
  5
492F
  8
1外形線
 10
300.3302856438371
 20
195.16440458239811
 30
0.0
 11
300.83546500810201
 21
225.75876184181459
 31
0.0
  0
LINE
  5
4930
  8
1外形線
 10
302.33055827715998
 20
195.16440458239811
 30
0.0
 11
302.83519241193869
 21
225.72574199406961
 31
0.0
  0
LINE
  5
4931
  8
1外形線
 10
357.83055827716049
 20
201.1644045823983
 30
0.0
 11
357.83055827716049
 21
197.6644045823983
 31
0.0
  0
LINE
  5
4932
  8
1外形線
 10
356.33055827716049
 20
201.16440458239811
 30
0.0
 11
356.33055827716049
 21
199.6644045823985
 31
0.0
  0
LINE
  5
4933
  8
1外形線
 10
315.83055827716032
 20
201.1644045823983
 30
0.0
 11
315.83055827716032
 21
197.6644045823983
 31
0.0
  0
LINE
  5
4934
  8
1外形線
 10
317.33055827716032
 20
201.16440458239811
 30
0.0
 11
317.33055827716032
 21
199.66440458239811
 31
0.0
  0
LINE
  5
4935
  8
1外形線
 10
357.83055827716049
 20
197.6644045823983
 30
0.0
 11
315.83055827716032
 21
197.6644045823983
 31
0.0
  0
LINE
  5
4936
  8
1外形線
 10
356.33055827716049
 20
199.6644045823985
 30
0.0
 11
317.33055827716032
 21
199.66440458239811
 31
0.0
  0
ARC
  5
4937
  8
1外形線
 10
305.13055827715982
 20
203.66440458239941
 30
0.0
 40
1.0
 50
0.0
 51
124.4034017438393
  0
LINE
  5
4938
  8
1外形線
 10
317.33055827716032
 20
201.16440458239811
 30
0.0
 11
306.13055827715999
 21
201.1644045823983
 31
0.0
  0
LINE
  5
4939
  8
1外形線
 10
306.13055827715999
 20
201.16440458239811
 30
0.0
 11
306.13055827715999
 21
203.66440458239941
 31
0.0
  0
LINE
  5
493A
  8
1外形線
 10
302.46073538996308
 20
203.04810961435291
 30
0.0
 11
304.56554228639698
 21
204.48948453621151
 31
0.0
  0
ARC
  5
493B
  8
1外形線
 10
273.81812038924761
 20
161.16440458239751
 30
0.0
 40
100.0
 50
90.0
 51
95.710593137497327
  0
LINE
  5
493C
  8
1外形線
 10
197.35138025211981
 20
260.66812360339628
 30
0.0
 11
201.48807418112781
 21
260.25445421049591
 31
0.0
  0
ARC
  5
493D
  8
1外形線
 10
187.40100835001849
 20
161.16440458239759
 30
0.0
 40
100.0
 50
84.289406862502673
 51
90.0
  0
ARC
  5
493E
  8
1外形線
 10
201.3885704621066
 20
259.25941702028592
 30
0.0
 40
1.0
 50
0.0
 51
84.289406862496136
  0
ARC
  5
493F
  8
1外形線
 10
259.8305582771593
 20
259.25941702028581
 30
0.0
 40
1.0
 50
95.710593137503864
 51
180.0
  0
LINE
  5
4940
  8
1外形線
 10
263.86774848714617
 20
260.66812360339628
 30
0.0
 11
259.7310545581384
 21
260.25445421049591
 31
0.0
  0
LINE
  5
4941
  8
1外形線
 10
197.3513802521218
 20
335.5803723538063
 30
0.0
 11
201.48807418113131
 21
335.99404174670713
 31
0.0
  0
ARC
  5
4942
  8
1外形線
 10
187.40100835002161
 20
435.0840913748051
 30
0.0
 40
100.0
 50
270.0
 51
275.71059313749731
  0
ARC
  5
4943
  8
1外形線
 10
201.3885704621101
 20
336.98907893691711
 30
0.0
 40
1.0
 50
275.71059313750379
 51
0.0
  0
LINE
  5
4944
  8
1外形線
 10
336.83055827715958
 20
261.16440458239811
 30
0.0
 11
273.81812038924778
 21
261.16440458239759
 31
0.0
  0
LINE
  5
4945
  8
1外形線
 10
373.3308309104828
 20
195.16440458239811
 30
0.0
 11
372.8256515462179
 21
225.75876184181459
 31
0.0
  0
LINE
  5
4946
  8
1外形線
 10
371.33055827715998
 20
195.16440458239811
 30
0.0
 11
370.8259241423815
 21
225.72574199406961
 31
0.0
  0
LINE
  5
4947
  8
1外形線
 10
371.200381164357
 20
203.04810961435291
 30
0.0
 11
369.09557426792281
 21
204.48948453621151
 31
0.0
  0
ARC
  5
4948
  8
1外形線
 10
368.53055827715991
 20
203.6644045823993
 30
0.0
 40
1.0
 50
55.596598256160618
 51
180.0
  0
LINE
  5
4949
  8
1外形線
 10
367.53055827716008
 20
201.16440458239811
 30
0.0
 11
367.53055827716008
 21
203.66440458239941
 31
0.0
  0
LINE
  5
494A
  8
1外形線
 10
197.3513802521218
 20
407.5883556624496
 30
0.0
 11
201.48807418113131
 21
407.17468626954849
 31
0.0
  0
ARC
  5
494B
  8
1外形線
 10
187.4010083500194
 20
308.08463664145091
 30
0.0
 40
100.0
 50
84.289406862496136
 51
90.0
  0
ARC
  5
494C
  8
1外形線
 10
201.3885704621101
 20
406.1796490793385
 30
0.0
 40
1.0
 50
0.0
 51
84.289406862496136
  0
ENDSEC
  0
EOF
